  0
SECTION
  2
HEADER
  9
$ACADVER
  1
AC1009
  9
$DWGCODEPAGE
  3
dos932
  9
$EXTMIN
 10
0.0
 20
0.0
 30
0.0
  9
$EXTMAX
 10
297.0
 20
210.0
 30
0.0
  9
$LIMMIN
 10
0.0
 20
0.0
  9
$LIMMAX
 10
297.0
 20
210.0
  9
$LTSCALE
 40
1.0
  9
$PDMODE
 70
     0
  0
ENDSEC
  0
SECTION
  2
TABLES
  0
TABLE
  2
VPORT
 70
     1
  0
VPORT
  2
*ACTIVE
 70
     0
 10
0.0
 20
0.0
 11
1.0
 21
1.0
 12
148.5
 22
105.0
 13
0.0
 23
0.0
 14
10.0
 24
10.0
 15
10.0
 25
10.0
 16
0.0
 26
0.0
 36
1.0
 17
0.0
 27
0.0
 37
0.0
 40
297.0
 41
1.414285714
 42
50.0
 43
0.0
 44
0.0
 50
0.0
 51
0.0
 71
     0
 72
  1000
 73
     1
 74
     3
 75
     0
 76
     0
 77
     0
 78
     0
  0
ENDTAB
  0
TABLE
  2
LTYPE
 70
     2
  0
LTYPE
  2
CONTINUOUS
 70
    64
  3
Solid line
 72
    65
 73
     0
 40
0.0
  0
LTYPE
  2
LTYPE1
 70
    64
  3
CENTER
 72
    65
 73
     4
 40
15.0
 49
10.5
 49
-1.5
 49
1.5
 49
-1.5
  0
ENDTAB
  0
TABLE
  2
LAYER
 70
   128
  0
LAYER
  2
0
 70
     0
 62
     7
  6
CONTINUOUS
  0
LAYER
  2
2
 70
     0
 62
     7
  6
CONTINUOUS
  0
LAYER
  2
3
 70
     0
 62
     7
  6
CONTINUOUS
  0
LAYER
  2
4
 70
     0
 62
     7
  6
CONTINUOUS
  0
LAYER
  2
5
 70
     0
 62
     7
  6
CONTINUOUS
  0
LAYER
  2
6
 70
     0
 62
     7
  6
CONTINUOUS
  0
LAYER
  2
7
 70
     0
 62
     7
  6
CONTINUOUS
  0
LAYER
  2
8
 70
     0
 62
     7
  6
CONTINUOUS
  0
LAYER
  2
9
 70
     0
 62
     7
  6
CONTINUOUS
  0
LAYER
  2
10
 70
     0
 62
     7
  6
CONTINUOUS
  0
LAYER
  2
11
 70
     0
 62
     7
  6
CONTINUOUS
  0
LAYER
  2
12
 70
     0
 62
     7
  6
CONTINUOUS
  0
LAYER
  2
13
 70
     0
 62
     7
  6
CONTINUOUS
  0
LAYER
  2
14
 70
     0
 62
     7
  6
CONTINUOUS
  0
LAYER
  2
15
 70
     0
 62
     7
  6
CONTINUOUS
  0
LAYER
  2
16
 70
     0
 62
     7
  6
CONTINUOUS
  0
LAYER
  2
17
 70
     0
 62
     7
  6
CONTINUOUS
  0
LAYER
  2
18
 70
     0
 62
     7
  6
CONTINUOUS
  0
LAYER
  2
19
 70
     0
 62
     7
  6
CONTINUOUS
  0
LAYER
  2
20
 70
     0
 62
     7
  6
CONTINUOUS
  0
LAYER
  2
21
 70
     0
 62
     7
  6
CONTINUOUS
  0
LAYER
  2
22
 70
     0
 62
     7
  6
CONTINUOUS
  0
LAYER
  2
23
 70
     0
 62
     7
  6
CONTINUOUS
  0
LAYER
  2
24
 70
     0
 62
     7
  6
CONTINUOUS
  0
LAYER
  2
25
 70
     0
 62
     7
  6
CONTINUOUS
  0
LAYER
  2
26
 70
     0
 62
     7
  6
CONTINUOUS
  0
LAYER
  2
27
 70
     0
 62
     7
  6
CONTINUOUS
  0
LAYER
  2
28
 70
     0
 62
     7
  6
CONTINUOUS
  0
LAYER
  2
29
 70
     0
 62
     7
  6
CONTINUOUS
  0
LAYER
  2
30
 70
     0
 62
     7
  6
CONTINUOUS
  0
LAYER
  2
31
 70
     0
 62
     7
  6
CONTINUOUS
  0
LAYER
  2
32
 70
     0
 62
     7
  6
CONTINUOUS
  0
LAYER
  2
33
 70
     0
 62
     7
  6
CONTINUOUS
  0
LAYER
  2
34
 70
     0
 62
     7
  6
CONTINUOUS
  0
LAYER
  2
35
 70
     0
 62
     7
  6
CONTINUOUS
  0
LAYER
  2
36
 70
     0
 62
     7
  6
CONTINUOUS
  0
LAYER
  2
37
 70
     0
 62
     7
  6
CONTINUOUS
  0
LAYER
  2
38
 70
     0
 62
     7
  6
CONTINUOUS
  0
LAYER
  2
39
 70
     0
 62
     7
  6
CONTINUOUS
  0
LAYER
  2
40
 70
     0
 62
     7
  6
CONTINUOUS
  0
LAYER
  2
41
 70
     0
 62
     7
  6
CONTINUOUS
  0
LAYER
  2
42
 70
     0
 62
     7
  6
CONTINUOUS
  0
LAYER
  2
43
 70
     0
 62
     7
  6
CONTINUOUS
  0
LAYER
  2
44
 70
     0
 62
     7
  6
CONTINUOUS
  0
LAYER
  2
45
 70
     0
 62
     7
  6
CONTINUOUS
  0
LAYER
  2
46
 70
     0
 62
     7
  6
CONTINUOUS
  0
LAYER
  2
47
 70
     0
 62
     7
  6
CONTINUOUS
  0
LAYER
  2
48
 70
     0
 62
     7
  6
CONTINUOUS
  0
LAYER
  2
49
 70
     0
 62
     7
  6
CONTINUOUS
  0
LAYER
  2
50
 70
     0
 62
     7
  6
CONTINUOUS
  0
LAYER
  2
51
 70
     0
 62
     7
  6
CONTINUOUS
  0
LAYER
  2
52
 70
     0
 62
     7
  6
CONTINUOUS
  0
LAYER
  2
53
 70
     0
 62
     7
  6
CONTINUOUS
  0
LAYER
  2
54
 70
     0
 62
     7
  6
CONTINUOUS
  0
LAYER
  2
55
 70
     0
 62
     7
  6
CONTINUOUS
  0
LAYER
  2
56
 70
     0
 62
     7
  6
CONTINUOUS
  0
LAYER
  2
57
 70
     0
 62
     7
  6
CONTINUOUS
  0
LAYER
  2
58
 70
     0
 62
     7
  6
CONTINUOUS
  0
LAYER
  2
59
 70
     0
 62
     7
  6
CONTINUOUS
  0
LAYER
  2
60
 70
     0
 62
     7
  6
CONTINUOUS
  0
LAYER
  2
61
 70
     0
 62
     7
  6
CONTINUOUS
  0
LAYER
  2
62
 70
     0
 62
     7
  6
CONTINUOUS
  0
LAYER
  2
63
 70
     0
 62
     7
  6
CONTINUOUS
  0
LAYER
  2
64
 70
     0
 62
     7
  6
CONTINUOUS
  0
LAYER
  2
65
 70
     0
 62
     7
  6
CONTINUOUS
  0
LAYER
  2
66
 70
     0
 62
     7
  6
CONTINUOUS
  0
LAYER
  2
67
 70
     0
 62
     7
  6
CONTINUOUS
  0
LAYER
  2
68
 70
     0
 62
     7
  6
CONTINUOUS
  0
LAYER
  2
69
 70
     0
 62
     7
  6
CONTINUOUS
  0
LAYER
  2
70
 70
     0
 62
     7
  6
CONTINUOUS
  0
LAYER
  2
71
 70
     0
 62
     7
  6
CONTINUOUS
  0
LAYER
  2
72
 70
     0
 62
     7
  6
CONTINUOUS
  0
LAYER
  2
73
 70
     0
 62
     7
  6
CONTINUOUS
  0
LAYER
  2
74
 70
     0
 62
     7
  6
CONTINUOUS
  0
LAYER
  2
75
 70
     0
 62
     7
  6
CONTINUOUS
  0
LAYER
  2
76
 70
     0
 62
     7
  6
CONTINUOUS
  0
LAYER
  2
77
 70
     0
 62
     7
  6
CONTINUOUS
  0
LAYER
  2
78
 70
     0
 62
     7
  6
CONTINUOUS
  0
LAYER
  2
79
 70
     0
 62
     7
  6
CONTINUOUS
  0
LAYER
  2
80
 70
     0
 62
     7
  6
CONTINUOUS
  0
LAYER
  2
81
 70
     0
 62
     7
  6
CONTINUOUS
  0
LAYER
  2
82
 70
     0
 62
     7
  6
CONTINUOUS
  0
LAYER
  2
83
 70
     0
 62
     7
  6
CONTINUOUS
  0
LAYER
  2
84
 70
     0
 62
     7
  6
CONTINUOUS
  0
LAYER
  2
85
 70
     0
 62
     7
  6
CONTINUOUS
  0
LAYER
  2
86
 70
     0
 62
     7
  6
CONTINUOUS
  0
LAYER
  2
87
 70
     0
 62
     7
  6
CONTINUOUS
  0
LAYER
  2
88
 70
     0
 62
     7
  6
CONTINUOUS
  0
LAYER
  2
89
 70
     0
 62
     7
  6
CONTINUOUS
  0
LAYER
  2
90
 70
     0
 62
     7
  6
CONTINUOUS
  0
LAYER
  2
91
 70
     0
 62
     7
  6
CONTINUOUS
  0
LAYER
  2
92
 70
     0
 62
     7
  6
CONTINUOUS
  0
LAYER
  2
93
 70
     0
 62
     7
  6
CONTINUOUS
  0
LAYER
  2
94
 70
     0
 62
     7
  6
CONTINUOUS
  0
LAYER
  2
95
 70
     0
 62
     7
  6
CONTINUOUS
  0
LAYER
  2
96
 70
     0
 62
     7
  6
CONTINUOUS
  0
LAYER
  2
97
 70
     0
 62
     7
  6
CONTINUOUS
  0
LAYER
  2
98
 70
     0
 62
     7
  6
CONTINUOUS
  0
LAYER
  2
99
 70
     0
 62
     7
  6
CONTINUOUS
  0
LAYER
  2
100
 70
     0
 62
     7
  6
CONTINUOUS
  0
LAYER
  2
101
 70
     0
 62
     7
  6
CONTINUOUS
  0
LAYER
  2
102
 70
     0
 62
     7
  6
CONTINUOUS
  0
LAYER
  2
103
 70
     0
 62
     7
  6
CONTINUOUS
  0
LAYER
  2
104
 70
     0
 62
     7
  6
CONTINUOUS
  0
LAYER
  2
105
 70
     0
 62
     7
  6
CONTINUOUS
  0
LAYER
  2
106
 70
     0
 62
     7
  6
CONTINUOUS
  0
LAYER
  2
107
 70
     0
 62
     7
  6
CONTINUOUS
  0
LAYER
  2
108
 70
     0
 62
     7
  6
CONTINUOUS
  0
LAYER
  2
109
 70
     0
 62
     7
  6
CONTINUOUS
  0
LAYER
  2
110
 70
     0
 62
     7
  6
CONTINUOUS
  0
LAYER
  2
111
 70
     0
 62
     7
  6
CONTINUOUS
  0
LAYER
  2
112
 70
     0
 62
     7
  6
CONTINUOUS
  0
LAYER
  2
113
 70
     0
 62
     7
  6
CONTINUOUS
  0
LAYER
  2
114
 70
     0
 62
     7
  6
CONTINUOUS
  0
LAYER
  2
115
 70
     0
 62
     7
  6
CONTINUOUS
  0
LAYER
  2
116
 70
     0
 62
     7
  6
CONTINUOUS
  0
LAYER
  2
117
 70
     0
 62
     7
  6
CONTINUOUS
  0
LAYER
  2
118
 70
     0
 62
     7
  6
CONTINUOUS
  0
LAYER
  2
119
 70
     0
 62
     7
  6
CONTINUOUS
  0
LAYER
  2
120
 70
     0
 62
     7
  6
CONTINUOUS
  0
LAYER
  2
121
 70
     0
 62
     7
  6
CONTINUOUS
  0
LAYER
  2
122
 70
     0
 62
     7
  6
CONTINUOUS
  0
LAYER
  2
123
 70
     0
 62
     7
  6
CONTINUOUS
  0
LAYER
  2
124
 70
     0
 62
     7
  6
CONTINUOUS
  0
LAYER
  2
125
 70
     0
 62
     7
  6
CONTINUOUS
  0
LAYER
  2
126
 70
     0
 62
     7
  6
CONTINUOUS
  0
LAYER
  2
127
 70
     0
 62
     7
  6
CONTINUOUS
  0
LAYER
  2
128
 70
     0
 62
     7
  6
CONTINUOUS
  0
ENDTAB
  0
TABLE
  2
STYLE
 70
     7
  0
STYLE
  2
STANDARD
 70
     0
 40
0.0
 41
1.0
 50
0.0
 71
     0
 42
0.2
  3
txt.shx
  4
extfont.shx
  0
STYLE
  2
KANJI0
 70
     0
 40
3.0
 41
1.0
 50
0.0
 71
     0
 42
3.0
  3
txt.shx
  4
extfont.shx
  0
STYLE
  2
KANJI1
 70
     0
 40
3.0
 41
0.6
 50
0.0
 71
     0
 42
3.0
  3
txt.shx
  4
extfont.shx
  0
STYLE
  2
KANJI2
 70
     0
 40
3.0
 41
0.5
 50
0.0
 71
     0
 42
3.0
  3
txt.shx
  4
extfont.shx
  0
STYLE
  2
KANJI3
 70
     0
 40
5.0
 41
1.0
 50
0.0
 71
     0
 42
5.0
  3
txt.shx
  4
extfont.shx
  0
STYLE
  2
KANJI4
 70
     0
 40
5.0
 41
0.76
 50
0.0
 71
     0
 42
5.0
  3
txt.shx
  4
extfont.shx
  0
STYLE
  2
KANJI5
 70
     0
 40
5.0
 41
0.733333333
 50
0.0
 71
     0
 42
5.0
  3
txt.shx
  4
extfont.shx
  0
ENDTAB
  0
TABLE
  2
VIEW
 70
     0
  0
ENDTAB
  0
ENDSEC
  0
SECTION
  2
BLOCKS
  0
ENDSEC
  0
SECTION
  2
ENTITIES
  0
POINT
  8
0
  6
CONTINUOUS
 62
     1
 10
288.0
 20
16.0
 30
0.0
  0
LINE
  8
0
  6
CONTINUOUS
 62
     3
 10
25.1552676
 20
153.893797154
 30
0.0
 11
25.1552676
 21
155.054437154
 31
0.0
  0
LINE
  8
0
  6
CONTINUOUS
 62
     3
 10
25.8806676
 20
155.054437154
 30
0.0
 11
25.8806676
 21
153.893797154
 31
0.0
  0
LINE
  8
0
  6
CONTINUOUS
 62
     3
 10
26.9687676
 20
155.054437154
 30
0.0
 11
26.9687676
 21
153.893797154
 31
0.0
  0
LINE
  8
0
  6
CONTINUOUS
 62
     3
 10
26.9687676
 20
155.054437154
 30
0.0
 11
25.8806676
 21
155.054437154
 31
0.0
  0
LINE
  8
0
  6
CONTINUOUS
 62
     3
 10
27.6941676
 20
153.893797154
 30
0.0
 11
27.6941676
 21
155.054437154
 31
0.0
  0
LINE
  8
0
  6
CONTINUOUS
 62
     3
 10
28.6009176
 20
155.054437154
 30
0.0
 11
28.6009176
 21
155.344597154
 31
0.0
  0
LINE
  8
0
  6
CONTINUOUS
 62
     3
 10
24.2485176
 20
155.525947154
 30
0.0
 11
28.6009176
 21
155.525947154
 31
0.0
  0
LINE
  8
0
  6
CONTINUOUS
 62
     3
 10
28.6009176
 20
155.525947154
 30
0.0
 11
28.6009176
 21
155.344597154
 31
0.0
  0
LINE
  8
0
  6
CONTINUOUS
 62
     3
 10
25.1552676
 20
153.893797154
 30
0.0
 11
25.8806676
 21
153.893797154
 31
0.0
  0
LINE
  8
0
  6
CONTINUOUS
 62
     3
 10
26.9687676
 20
153.893797154
 30
0.0
 11
27.6941676
 21
153.893797154
 31
0.0
  0
LINE
  8
0
  6
CONTINUOUS
 62
     3
 10
24.2122476
 20
155.054437154
 30
0.0
 11
25.1552676
 21
155.054437154
 31
0.0
  0
LINE
  8
0
  6
CONTINUOUS
 62
     3
 10
24.2485176
 20
155.054437154
 30
0.0
 11
24.2485176
 21
155.525947154
 31
0.0
  0
LINE
  8
0
  6
CONTINUOUS
 62
     3
 10
24.2485176
 20
155.344597154
 30
0.0
 11
23.1604176
 21
155.344597154
 31
0.0
  0
LINE
  8
0
  6
CONTINUOUS
 62
     3
 10
24.2122476
 20
155.054437154
 30
0.0
 11
23.1604176
 21
155.054437154
 31
0.0
  0
LINE
  8
0
  6
CONTINUOUS
 62
     3
 10
23.1604176
 20
139.821037154
 30
0.0
 11
23.1604176
 21
154.691737154
 31
0.0
  0
LINE
  8
0
  6
CONTINUOUS
 62
     3
 10
23.1604176
 20
154.691737154
 30
0.0
 11
23.1604176
 21
155.344597154
 31
0.0
  0
LINE
  8
0
  6
CONTINUOUS
 62
     3
 10
24.2122476
 20
155.054437154
 30
0.0
 11
23.1604176
 21
154.002607154
 31
0.0
  0
LINE
  8
0
  6
CONTINUOUS
 62
     3
 10
43.0182426
 20
155.054437154
 30
0.0
 11
43.0182426
 21
153.893797154
 31
0.0
  0
LINE
  8
0
  6
CONTINUOUS
 62
     3
 10
43.7436426
 20
153.893797154
 30
0.0
 11
43.7436426
 21
155.054437154
 31
0.0
  0
LINE
  8
0
  6
CONTINUOUS
 62
     3
 10
34.4947926
 20
153.893797154
 30
0.0
 11
34.4947926
 21
155.054437154
 31
0.0
  0
LINE
  8
0
  6
CONTINUOUS
 62
     3
 10
44.6503926
 20
155.054437154
 30
0.0
 11
44.6503926
 21
155.344597154
 31
0.0
  0
LINE
  8
0
  6
CONTINUOUS
 62
     3
 10
33.7693926
 20
155.344597154
 30
0.0
 11
33.7693926
 21
153.893797154
 31
0.0
  0
LINE
  8
0
  6
CONTINUOUS
 62
     3
 10
44.6503926
 20
155.344597154
 30
0.0
 11
44.6503926
 21
155.525947154
 31
0.0
  0
LINE
  8
0
  6
CONTINUOUS
 62
     3
 10
33.7693926
 20
153.893797154
 30
0.0
 11
34.4947926
 21
153.893797154
 31
0.0
  0
LINE
  8
0
  6
CONTINUOUS
 62
     3
 10
43.0182426
 20
153.893797154
 30
0.0
 11
43.7436426
 21
153.893797154
 31
0.0
  0
LINE
  8
0
  6
CONTINUOUS
 62
     3
 10
27.6941676
 20
155.054437154
 30
0.0
 11
33.7693926
 21
155.054437154
 31
0.0
  0
LINE
  8
0
  6
CONTINUOUS
 62
     3
 10
33.7693926
 20
155.344597154
 30
0.0
 11
28.6009176
 21
155.344597154
 31
0.0
  0
LINE
  8
0
  6
CONTINUOUS
 62
     3
 10
39.2098926
 20
155.634757154
 30
0.0
 11
40.1166426
 21
155.634757154
 31
0.0
  0
LINE
  8
0
  6
CONTINUOUS
 62
     3
 10
39.2098926
 20
155.634757154
 30
0.0
 11
38.3031426
 21
155.634757154
 31
0.0
  0
LINE
  8
0
  6
CONTINUOUS
 62
     3
 10
40.1166426
 20
155.634757154
 30
0.0
 11
40.1166426
 21
155.054437154
 31
0.0
  0
LINE
  8
0
  6
CONTINUOUS
 62
     3
 10
38.3031426
 20
155.634757154
 30
0.0
 11
38.3031426
 21
155.054437154
 31
0.0
  0
LINE
  8
0
  6
CONTINUOUS
 62
     3
 10
40.1166426
 20
155.417137154
 30
0.0
 11
39.2098926
 21
155.417137154
 31
0.0
  0
LINE
  8
0
  6
CONTINUOUS
 62
     3
 10
38.3031426
 20
155.417137154
 30
0.0
 11
39.2098926
 21
155.417137154
 31
0.0
  0
LINE
  8
0
  6
CONTINUOUS
 62
     3
 10
39.2098926
 20
155.054437154
 30
0.0
 11
38.2306026
 21
155.054437154
 31
0.0
  0
LINE
  8
0
  6
CONTINUOUS
 62
     3
 10
40.2979926
 20
155.054437154
 30
0.0
 11
40.2979926
 21
155.453407154
 31
0.0
  0
LINE
  8
0
  6
CONTINUOUS
 62
     3
 10
39.2098926
 20
155.054437154
 30
0.0
 11
41.2047426
 21
155.054437154
 31
0.0
  0
LINE
  8
0
  6
CONTINUOUS
 62
     3
 10
41.2047426
 20
153.893797154
 30
0.0
 11
41.2047426
 21
155.054437154
 31
0.0
  0
LINE
  8
0
  6
CONTINUOUS
 62
     3
 10
41.9301426
 20
155.054437154
 30
0.0
 11
41.9301426
 21
153.893797154
 31
0.0
  0
LINE
  8
0
  6
CONTINUOUS
 62
     3
 10
43.0182426
 20
155.054437154
 30
0.0
 11
41.9301426
 21
155.054437154
 31
0.0
  0
LINE
  8
0
  6
CONTINUOUS
 62
     3
 10
34.4947926
 20
155.054437154
 30
0.0
 11
38.3031426
 21
155.054437154
 31
0.0
  0
LINE
  8
0
  6
CONTINUOUS
 62
     3
 10
40.2979926
 20
155.453407154
 30
0.0
 11
40.2979926
 21
155.525947154
 31
0.0
  0
LINE
  8
0
  6
CONTINUOUS
 62
     3
 10
40.2979926
 20
155.525947154
 30
0.0
 11
44.6503926
 21
155.525947154
 31
0.0
  0
LINE
  8
0
  6
CONTINUOUS
 62
     3
 10
41.2047426
 20
153.893797154
 30
0.0
 11
41.9301426
 21
153.893797154
 31
0.0
  0
LINE
  8
0
  6
CONTINUOUS
 62
     3
 10
50.7256176
 20
153.893797154
 30
0.0
 11
50.7256176
 21
155.054437154
 31
0.0
  0
LINE
  8
0
  6
CONTINUOUS
 62
     3
 10
51.4510176
 20
155.054437154
 30
0.0
 11
51.4510176
 21
153.893797154
 31
0.0
  0
LINE
  8
0
  6
CONTINUOUS
 62
     3
 10
52.5391176
 20
155.054437154
 30
0.0
 11
52.5391176
 21
153.893797154
 31
0.0
  0
LINE
  8
0
  6
CONTINUOUS
 62
     3
 10
52.5391176
 20
155.054437154
 30
0.0
 11
51.4510176
 21
155.054437154
 31
0.0
  0
LINE
  8
0
  6
CONTINUOUS
 62
     3
 10
49.8188676
 20
155.054437154
 30
0.0
 11
49.8188676
 21
155.344597154
 31
0.0
  0
LINE
  8
0
  6
CONTINUOUS
 62
     3
 10
49.8188676
 20
155.525947154
 30
0.0
 11
49.8188676
 21
155.344597154
 31
0.0
  0
LINE
  8
0
  6
CONTINUOUS
 62
     3
 10
50.7256176
 20
153.893797154
 30
0.0
 11
51.4510176
 21
153.893797154
 31
0.0
  0
LINE
  8
0
  6
CONTINUOUS
 62
     3
 10
52.5391176
 20
153.893797154
 30
0.0
 11
53.2645176
 21
153.893797154
 31
0.0
  0
LINE
  8
0
  6
CONTINUOUS
 62
     3
 10
43.7436426
 20
155.054437154
 30
0.0
 11
50.7256176
 21
155.054437154
 31
0.0
  0
LINE
  8
0
  6
CONTINUOUS
 62
     3
 10
49.8188676
 20
155.344597154
 30
0.0
 11
44.6503926
 21
155.344597154
 31
0.0
  0
LINE
  8
0
  6
CONTINUOUS
 62
     3
 10
67.5004926
 20
153.893797154
 30
0.0
 11
66.7750926
 21
153.893797154
 31
0.0
  0
LINE
  8
0
  6
CONTINUOUS
 62
     3
 10
59.0677176
 20
153.893797154
 30
0.0
 11
59.7931176
 21
153.893797154
 31
0.0
  0
LINE
  8
0
  6
CONTINUOUS
 62
     3
 10
57.9796176
 20
153.893797154
 30
0.0
 11
57.2542176
 21
153.893797154
 31
0.0
  0
LINE
  8
0
  6
CONTINUOUS
 62
     3
 10
56.1661176
 20
155.417137154
 30
0.0
 11
55.2593676
 21
155.417137154
 31
0.0
  0
LINE
  8
0
  6
CONTINUOUS
 62
     3
 10
66.7750926
 20
153.893797154
 30
0.0
 11
66.7750926
 21
155.054437154
 31
0.0
  0
LINE
  8
0
  6
CONTINUOUS
 62
     3
 10
68.5885926
 20
155.054437154
 30
0.0
 11
68.5885926
 21
153.893797154
 31
0.0
  0
LINE
  8
0
  6
CONTINUOUS
 62
     3
 10
57.9796176
 20
155.054437154
 30
0.0
 11
57.9796176
 21
153.893797154
 31
0.0
  0
LINE
  8
0
  6
CONTINUOUS
 62
     3
 10
59.0677176
 20
155.054437154
 30
0.0
 11
57.9796176
 21
155.054437154
 31
0.0
  0
LINE
  8
0
  6
CONTINUOUS
 62
     3
 10
59.0677176
 20
155.054437154
 30
0.0
 11
59.0677176
 21
153.893797154
 31
0.0
  0
LINE
  8
0
  6
CONTINUOUS
 62
     3
 10
66.7750926
 20
155.054437154
 30
0.0
 11
59.7931176
 21
155.054437154
 31
0.0
  0
LINE
  8
0
  6
CONTINUOUS
 62
     3
 10
59.7931176
 20
153.893797154
 30
0.0
 11
59.7931176
 21
155.054437154
 31
0.0
  0
LINE
  8
0
  6
CONTINUOUS
 62
     3
 10
60.6998676
 20
155.054437154
 30
0.0
 11
60.6998676
 21
155.344597154
 31
0.0
  0
LINE
  8
0
  6
CONTINUOUS
 62
     3
 10
65.8683426
 20
155.344597154
 30
0.0
 11
60.6998676
 21
155.344597154
 31
0.0
  0
LINE
  8
0
  6
CONTINUOUS
 62
     3
 10
56.3474676
 20
155.054437154
 30
0.0
 11
56.3474676
 21
155.525947154
 31
0.0
  0
LINE
  8
0
  6
CONTINUOUS
 62
     3
 10
56.3474676
 20
155.525947154
 30
0.0
 11
60.6998676
 21
155.525947154
 31
0.0
  0
LINE
  8
0
  6
CONTINUOUS
 62
     3
 10
60.6998676
 20
155.344597154
 30
0.0
 11
60.6998676
 21
155.525947154
 31
0.0
  0
LINE
  8
0
  6
CONTINUOUS
 62
     3
 10
65.8683426
 20
155.054437154
 30
0.0
 11
65.8683426
 21
155.525947154
 31
0.0
  0
LINE
  8
0
  6
CONTINUOUS
 62
     3
 10
54.3526176
 20
155.417137154
 30
0.0
 11
55.2593676
 21
155.417137154
 31
0.0
  0
LINE
  8
0
  6
CONTINUOUS
 62
     3
 10
49.8188676
 20
155.525947154
 30
0.0
 11
54.1712676
 21
155.525947154
 31
0.0
  0
LINE
  8
0
  6
CONTINUOUS
 62
     3
 10
54.1712676
 20
155.054437154
 30
0.0
 11
54.1712676
 21
155.525947154
 31
0.0
  0
LINE
  8
0
  6
CONTINUOUS
 62
     3
 10
71.3088426
 20
155.634757154
 30
0.0
 11
70.4020926
 21
155.634757154
 31
0.0
  0
LINE
  8
0
  6
CONTINUOUS
 62
     3
 10
70.4020926
 20
155.634757154
 30
0.0
 11
70.4020926
 21
155.054437154
 31
0.0
  0
LINE
  8
0
  6
CONTINUOUS
 62
     3
 10
70.4020926
 20
155.417137154
 30
0.0
 11
71.3088426
 21
155.417137154
 31
0.0
  0
LINE
  8
0
  6
CONTINUOUS
 62
     3
 10
72.2155926
 20
155.417137154
 30
0.0
 11
71.3088426
 21
155.417137154
 31
0.0
  0
LINE
  8
0
  6
CONTINUOUS
 62
     3
 10
71.3088426
 20
155.054437154
 30
0.0
 11
72.2881326
 21
155.054437154
 31
0.0
  0
LINE
  8
0
  6
CONTINUOUS
 62
     3
 10
83.5499676
 20
153.893797154
 30
0.0
 11
82.8245676
 21
153.893797154
 31
0.0
  0
LINE
  8
0
  6
CONTINUOUS
 62
     3
 10
83.5499676
 20
155.054437154
 30
0.0
 11
83.5499676
 21
153.893797154
 31
0.0
  0
LINE
  8
0
  6
CONTINUOUS
 62
     3
 10
82.8245676
 20
153.893797154
 30
0.0
 11
82.8245676
 21
155.054437154
 31
0.0
  0
LINE
  8
0
  6
CONTINUOUS
 62
     3
 10
82.8245676
 20
155.054437154
 30
0.0
 11
72.2155926
 21
155.054437154
 31
0.0
  0
LINE
  8
0
  6
CONTINUOUS
 62
     3
 10
76.0239426
 20
153.893797154
 30
0.0
 11
76.7493426
 21
153.893797154
 31
0.0
  0
LINE
  8
0
  6
CONTINUOUS
 62
     3
 10
76.0239426
 20
155.054437154
 30
0.0
 11
76.0239426
 21
153.893797154
 31
0.0
  0
LINE
  8
0
  6
CONTINUOUS
 62
     3
 10
76.7493426
 20
153.893797154
 30
0.0
 11
76.7493426
 21
155.054437154
 31
0.0
  0
LINE
  8
0
  6
CONTINUOUS
 62
     3
 10
76.7493426
 20
155.344597154
 30
0.0
 11
76.7493426
 21
155.054437154
 31
0.0
  0
LINE
  8
0
  6
CONTINUOUS
 62
     3
 10
82.1898426
 20
155.344597154
 30
0.0
 11
82.1898426
 21
155.054437154
 31
0.0
  0
LINE
  8
0
  6
CONTINUOUS
 62
     3
 10
82.1898426
 20
155.344597154
 30
0.0
 11
76.7493426
 21
155.344597154
 31
0.0
  0
LINE
  8
0
  6
CONTINUOUS
 62
     3
 10
82.1898426
 20
155.344597154
 30
0.0
 11
82.1898426
 21
155.054437154
 31
0.0
  0
LINE
  8
0
  6
CONTINUOUS
 62
     3
 10
70.2207426
 20
155.054437154
 30
0.0
 11
70.2207426
 21
155.525947154
 31
0.0
  0
LINE
  8
0
  6
CONTINUOUS
 62
     3
 10
82.1898426
 20
155.344597154
 30
0.0
 11
82.1898426
 21
155.525947154
 31
0.0
  0
LINE
  8
0
  6
CONTINUOUS
 62
     3
 10
68.5885926
 20
153.893797154
 30
0.0
 11
69.3139926
 21
153.893797154
 31
0.0
  0
LINE
  8
0
  6
CONTINUOUS
 62
     3
 10
71.3088426
 20
155.054437154
 30
0.0
 11
69.3139926
 21
155.054437154
 31
0.0
  0
LINE
  8
0
  6
CONTINUOUS
 62
     3
 10
69.3139926
 20
153.893797154
 30
0.0
 11
69.3139926
 21
155.054437154
 31
0.0
  0
LINE
  8
0
  6
CONTINUOUS
 62
     3
 10
65.8683426
 20
155.525947154
 30
0.0
 11
70.2207426
 21
155.525947154
 31
0.0
  0
LINE
  8
0
  6
CONTINUOUS
 62
     3
 10
85.3634676
 20
153.893797154
 30
0.0
 11
85.3634676
 21
155.054437154
 31
0.0
  0
LINE
  8
0
  6
CONTINUOUS
 62
     3
 10
86.2520826
 20
155.054437154
 30
0.0
 11
86.2520826
 21
155.525947154
 31
0.0
  0
LINE
  8
0
  6
CONTINUOUS
 62
     3
 10
86.3064876
 20
155.054437154
 30
0.0
 11
85.3634676
 21
155.054437154
 31
0.0
  0
LINE
  8
0
  6
CONTINUOUS
 62
     3
 10
86.3064876
 20
155.054437154
 30
0.0
 11
87.3583176
 21
154.002607154
 31
0.0
  0
LINE
  8
0
  6
CONTINUOUS
 62
     3
 10
86.3064876
 20
155.054437154
 30
0.0
 11
87.3583176
 21
155.054437154
 31
0.0
  0
LINE
  8
0
  6
CONTINUOUS
 62
     3
 10
86.2520826
 20
155.344597154
 30
0.0
 11
87.3583176
 21
155.344597154
 31
0.0
  0
LINE
  8
0
  6
CONTINUOUS
 62
     3
 10
84.6380676
 20
153.893797154
 30
0.0
 11
85.3634676
 21
153.893797154
 31
0.0
  0
LINE
  8
0
  6
CONTINUOUS
 62
     3
 10
84.6380676
 20
155.054437154
 30
0.0
 11
84.6380676
 21
153.893797154
 31
0.0
  0
LINE
  8
0
  6
CONTINUOUS
 62
     3
 10
84.6380676
 20
155.054437154
 30
0.0
 11
83.5499676
 21
155.054437154
 31
0.0
  0
LINE
  8
0
  6
CONTINUOUS
 62
     3
 10
82.1898426
 20
155.525947154
 30
0.0
 11
86.2520826
 21
155.525947154
 31
0.0
  0
LINE
  8
0
  6
CONTINUOUS
 62
     3
 10
87.3583176
 20
139.821037154
 30
0.0
 11
87.3583176
 21
154.691737154
 31
0.0
  0
LINE
  8
0
  6
CONTINUOUS
 62
     3
 10
87.3583176
 20
154.691737154
 30
0.0
 11
87.3583176
 21
155.344597154
 31
0.0
  0
LINE
  8
0
  6
CONTINUOUS
 62
     3
 10
87.3583176
 20
139.821037154
 30
0.0
 11
87.3583176
 21
124.950337154
 31
0.0
  0
LINE
  8
0
  6
CONTINUOUS
 62
     3
 10
83.5499676
 20
125.748277154
 30
0.0
 11
82.8245676
 21
125.748277154
 31
0.0
  0
LINE
  8
0
  6
CONTINUOUS
 62
     3
 10
84.6380676
 20
125.748277154
 30
0.0
 11
85.3634676
 21
125.748277154
 31
0.0
  0
LINE
  8
0
  6
CONTINUOUS
 62
     3
 10
85.3634676
 20
125.748277154
 30
0.0
 11
85.3634676
 21
124.587637154
 31
0.0
  0
LINE
  8
0
  6
CONTINUOUS
 62
     3
 10
84.6380676
 20
124.587637154
 30
0.0
 11
84.6380676
 21
125.748277154
 31
0.0
  0
LINE
  8
0
  6
CONTINUOUS
 62
     3
 10
83.5499676
 20
124.587637154
 30
0.0
 11
83.5499676
 21
125.748277154
 31
0.0
  0
LINE
  8
0
  6
CONTINUOUS
 62
     3
 10
84.6380676
 20
124.587637154
 30
0.0
 11
83.5499676
 21
124.587637154
 31
0.0
  0
LINE
  8
0
  6
CONTINUOUS
 62
     3
 10
82.8245676
 20
125.748277154
 30
0.0
 11
82.8245676
 21
124.587637154
 31
0.0
  0
LINE
  8
0
  6
CONTINUOUS
 62
     3
 10
82.1898426
 20
124.297477154
 30
0.0
 11
82.1898426
 21
124.587637154
 31
0.0
  0
LINE
  8
0
  6
CONTINUOUS
 62
     3
 10
82.1898426
 20
124.297477154
 30
0.0
 11
82.1898426
 21
124.587637154
 31
0.0
  0
LINE
  8
0
  6
CONTINUOUS
 62
     3
 10
82.1898426
 20
124.297477154
 30
0.0
 11
82.1898426
 21
124.116127154
 31
0.0
  0
LINE
  8
0
  6
CONTINUOUS
 62
     3
 10
82.1898426
 20
124.116127154
 30
0.0
 11
86.2520826
 21
124.116127154
 31
0.0
  0
LINE
  8
0
  6
CONTINUOUS
 62
     3
 10
86.2520826
 20
124.297477154
 30
0.0
 11
87.3583176
 21
124.297477154
 31
0.0
  0
LINE
  8
0
  6
CONTINUOUS
 62
     3
 10
86.3064876
 20
124.587637154
 30
0.0
 11
87.3583176
 21
125.639467154
 31
0.0
  0
LINE
  8
0
  6
CONTINUOUS
 62
     3
 10
86.2520826
 20
124.587637154
 30
0.0
 11
86.2520826
 21
124.116127154
 31
0.0
  0
LINE
  8
0
  6
CONTINUOUS
 62
     3
 10
86.3064876
 20
124.587637154
 30
0.0
 11
85.3634676
 21
124.587637154
 31
0.0
  0
LINE
  8
0
  6
CONTINUOUS
 62
     3
 10
87.3583176
 20
124.950337154
 30
0.0
 11
87.3583176
 21
124.587637154
 31
0.0
  0
LINE
  8
0
  6
CONTINUOUS
 62
     3
 10
87.3583176
 20
124.587637154
 30
0.0
 11
87.3583176
 21
124.297477154
 31
0.0
  0
LINE
  8
0
  6
CONTINUOUS
 62
     3
 10
86.3064876
 20
124.587637154
 30
0.0
 11
87.3583176
 21
124.587637154
 31
0.0
  0
LINE
  8
0
  6
CONTINUOUS
 62
     3
 10
76.0239426
 20
125.748277154
 30
0.0
 11
76.7493426
 21
125.748277154
 31
0.0
  0
LINE
  8
0
  6
CONTINUOUS
 62
     3
 10
76.0239426
 20
124.587637154
 30
0.0
 11
76.0239426
 21
125.748277154
 31
0.0
  0
LINE
  8
0
  6
CONTINUOUS
 62
     3
 10
76.7493426
 20
125.748277154
 30
0.0
 11
76.7493426
 21
124.587637154
 31
0.0
  0
LINE
  8
0
  6
CONTINUOUS
 62
     3
 10
76.7493426
 20
124.297477154
 30
0.0
 11
76.7493426
 21
124.587637154
 31
0.0
  0
LINE
  8
0
  6
CONTINUOUS
 62
     3
 10
82.1898426
 20
124.297477154
 30
0.0
 11
76.7493426
 21
124.297477154
 31
0.0
  0
LINE
  8
0
  6
CONTINUOUS
 62
     3
 10
67.5004926
 20
125.748277154
 30
0.0
 11
66.7750926
 21
125.748277154
 31
0.0
  0
LINE
  8
0
  6
CONTINUOUS
 62
     3
 10
68.5885926
 20
125.748277154
 30
0.0
 11
69.3139926
 21
125.748277154
 31
0.0
  0
LINE
  8
0
  6
CONTINUOUS
 62
     3
 10
70.4020926
 20
124.224937154
 30
0.0
 11
71.3088426
 21
124.224937154
 31
0.0
  0
LINE
  8
0
  6
CONTINUOUS
 62
     3
 10
72.2155926
 20
124.224937154
 30
0.0
 11
71.3088426
 21
124.224937154
 31
0.0
  0
LINE
  8
0
  6
CONTINUOUS
 62
     3
 10
71.3088426
 20
124.587637154
 30
0.0
 11
72.2881326
 21
124.587637154
 31
0.0
  0
LINE
  8
0
  6
CONTINUOUS
 62
     3
 10
71.3088426
 20
124.587637154
 30
0.0
 11
69.3139926
 21
124.587637154
 31
0.0
  0
LINE
  8
0
  6
CONTINUOUS
 62
     3
 10
69.3139926
 20
125.748277154
 30
0.0
 11
69.3139926
 21
124.587637154
 31
0.0
  0
LINE
  8
0
  6
CONTINUOUS
 62
     3
 10
66.7750926
 20
125.748277154
 30
0.0
 11
66.7750926
 21
124.587637154
 31
0.0
  0
LINE
  8
0
  6
CONTINUOUS
 62
     3
 10
68.5885926
 20
124.587637154
 30
0.0
 11
68.5885926
 21
125.748277154
 31
0.0
  0
LINE
  8
0
  6
CONTINUOUS
 62
     3
 10
70.2207426
 20
124.587637154
 30
0.0
 11
70.2207426
 21
124.116127154
 31
0.0
  0
LINE
  8
0
  6
CONTINUOUS
 62
     3
 10
65.8683426
 20
124.116127154
 30
0.0
 11
70.2207426
 21
124.116127154
 31
0.0
  0
LINE
  8
0
  6
CONTINUOUS
 62
     3
 10
65.8683426
 20
124.587637154
 30
0.0
 11
65.8683426
 21
124.116127154
 31
0.0
  0
LINE
  8
0
  6
CONTINUOUS
 62
     3
 10
54.3526176
 20
124.224937154
 30
0.0
 11
55.2593676
 21
124.224937154
 31
0.0
  0
LINE
  8
0
  6
CONTINUOUS
 62
     3
 10
52.5391176
 20
125.748277154
 30
0.0
 11
53.2645176
 21
125.748277154
 31
0.0
  0
LINE
  8
0
  6
CONTINUOUS
 62
     3
 10
54.3526176
 20
124.224937154
 30
0.0
 11
55.2593676
 21
124.224937154
 31
0.0
  0
LINE
  8
0
  6
CONTINUOUS
 62
     3
 10
52.5391176
 20
124.587637154
 30
0.0
 11
52.5391176
 21
125.748277154
 31
0.0
  0
LINE
  8
0
  6
CONTINUOUS
 62
     3
 10
54.1712676
 20
124.587637154
 30
0.0
 11
54.1712676
 21
124.116127154
 31
0.0
  0
LINE
  8
0
  6
CONTINUOUS
 62
     3
 10
56.1661176
 20
124.224937154
 30
0.0
 11
55.2593676
 21
124.224937154
 31
0.0
  0
LINE
  8
0
  6
CONTINUOUS
 62
     3
 10
57.2542176
 20
124.587637154
 30
0.0
 11
55.2593676
 21
124.587637154
 31
0.0
  0
LINE
  8
0
  6
CONTINUOUS
 62
     3
 10
59.0677176
 20
124.587637154
 30
0.0
 11
57.9796176
 21
124.587637154
 31
0.0
  0
LINE
  8
0
  6
CONTINUOUS
 62
     3
 10
60.6998676
 20
124.587637154
 30
0.0
 11
60.6998676
 21
124.297477154
 31
0.0
  0
LINE
  8
0
  6
CONTINUOUS
 62
     3
 10
56.3474676
 20
124.587637154
 30
0.0
 11
56.3474676
 21
124.116127154
 31
0.0
  0
LINE
  8
0
  6
CONTINUOUS
 62
     3
 10
56.3474676
 20
124.116127154
 30
0.0
 11
60.6998676
 21
124.116127154
 31
0.0
  0
LINE
  8
0
  6
CONTINUOUS
 62
     3
 10
60.6998676
 20
124.297477154
 30
0.0
 11
60.6998676
 21
124.116127154
 31
0.0
  0
LINE
  8
0
  6
CONTINUOUS
 62
     3
 10
66.7750926
 20
124.587637154
 30
0.0
 11
59.7931176
 21
124.587637154
 31
0.0
  0
LINE
  8
0
  6
CONTINUOUS
 62
     3
 10
65.8683426
 20
124.297477154
 30
0.0
 11
60.6998676
 21
124.297477154
 31
0.0
  0
LINE
  8
0
  6
CONTINUOUS
 62
     3
 10
59.0677176
 20
125.748277154
 30
0.0
 11
59.7931176
 21
125.748277154
 31
0.0
  0
LINE
  8
0
  6
CONTINUOUS
 62
     3
 10
57.9796176
 20
125.748277154
 30
0.0
 11
57.2542176
 21
125.748277154
 31
0.0
  0
LINE
  8
0
  6
CONTINUOUS
 62
     3
 10
57.2542176
 20
125.748277154
 30
0.0
 11
57.2542176
 21
124.587637154
 31
0.0
  0
LINE
  8
0
  6
CONTINUOUS
 62
     3
 10
57.9796176
 20
124.587637154
 30
0.0
 11
57.9796176
 21
125.748277154
 31
0.0
  0
LINE
  8
0
  6
CONTINUOUS
 62
     3
 10
59.0677176
 20
124.587637154
 30
0.0
 11
59.0677176
 21
125.748277154
 31
0.0
  0
LINE
  8
0
  6
CONTINUOUS
 62
     3
 10
59.7931176
 20
125.748277154
 30
0.0
 11
59.7931176
 21
124.587637154
 31
0.0
  0
LINE
  8
0
  6
CONTINUOUS
 62
     3
 10
43.0182426
 20
125.748277154
 30
0.0
 11
43.7436426
 21
125.748277154
 31
0.0
  0
LINE
  8
0
  6
CONTINUOUS
 62
     3
 10
51.4510176
 20
125.748277154
 30
0.0
 11
50.7256176
 21
125.748277154
 31
0.0
  0
LINE
  8
0
  6
CONTINUOUS
 62
     3
 10
41.9301426
 20
124.587637154
 30
0.0
 11
41.9301426
 21
125.748277154
 31
0.0
  0
LINE
  8
0
  6
CONTINUOUS
 62
     3
 10
43.0182426
 20
124.587637154
 30
0.0
 11
43.0182426
 21
125.748277154
 31
0.0
  0
LINE
  8
0
  6
CONTINUOUS
 62
     3
 10
43.0182426
 20
124.587637154
 30
0.0
 11
41.9301426
 21
124.587637154
 31
0.0
  0
LINE
  8
0
  6
CONTINUOUS
 62
     3
 10
43.7436426
 20
125.748277154
 30
0.0
 11
43.7436426
 21
124.587637154
 31
0.0
  0
LINE
  8
0
  6
CONTINUOUS
 62
     3
 10
50.7256176
 20
125.748277154
 30
0.0
 11
50.7256176
 21
124.587637154
 31
0.0
  0
LINE
  8
0
  6
CONTINUOUS
 62
     3
 10
43.7436426
 20
124.587637154
 30
0.0
 11
50.7256176
 21
124.587637154
 31
0.0
  0
LINE
  8
0
  6
CONTINUOUS
 62
     3
 10
51.4510176
 20
124.587637154
 30
0.0
 11
51.4510176
 21
125.748277154
 31
0.0
  0
LINE
  8
0
  6
CONTINUOUS
 62
     3
 10
44.6503926
 20
124.587637154
 30
0.0
 11
44.6503926
 21
124.297477154
 31
0.0
  0
LINE
  8
0
  6
CONTINUOUS
 62
     3
 10
44.6503926
 20
124.297477154
 30
0.0
 11
44.6503926
 21
124.116127154
 31
0.0
  0
LINE
  8
0
  6
CONTINUOUS
 62
     3
 10
49.8188676
 20
124.116127154
 30
0.0
 11
49.8188676
 21
124.297477154
 31
0.0
  0
LINE
  8
0
  6
CONTINUOUS
 62
     3
 10
52.5391176
 20
124.587637154
 30
0.0
 11
51.4510176
 21
124.587637154
 31
0.0
  0
LINE
  8
0
  6
CONTINUOUS
 62
     3
 10
49.8188676
 20
124.116127154
 30
0.0
 11
54.1712676
 21
124.116127154
 31
0.0
  0
LINE
  8
0
  6
CONTINUOUS
 62
     3
 10
40.1166426
 20
124.224937154
 30
0.0
 11
39.2098926
 21
124.224937154
 31
0.0
  0
LINE
  8
0
  6
CONTINUOUS
 62
     3
 10
38.3031426
 20
124.224937154
 30
0.0
 11
39.2098926
 21
124.224937154
 31
0.0
  0
LINE
  8
0
  6
CONTINUOUS
 62
     3
 10
39.2098926
 20
124.587637154
 30
0.0
 11
38.2306026
 21
124.587637154
 31
0.0
  0
LINE
  8
0
  6
CONTINUOUS
 62
     3
 10
40.2979926
 20
124.587637154
 30
0.0
 11
40.2979926
 21
124.188667154
 31
0.0
  0
LINE
  8
0
  6
CONTINUOUS
 62
     3
 10
33.7693926
 20
125.748277154
 30
0.0
 11
34.4947926
 21
125.748277154
 31
0.0
  0
LINE
  8
0
  6
CONTINUOUS
 62
     3
 10
34.4947926
 20
125.748277154
 30
0.0
 11
34.4947926
 21
124.587637154
 31
0.0
  0
LINE
  8
0
  6
CONTINUOUS
 62
     3
 10
34.4947926
 20
124.587637154
 30
0.0
 11
38.3031426
 21
124.587637154
 31
0.0
  0
LINE
  8
0
  6
CONTINUOUS
 62
     3
 10
33.7693926
 20
124.297477154
 30
0.0
 11
33.7693926
 21
125.748277154
 31
0.0
  0
LINE
  8
0
  6
CONTINUOUS
 62
     3
 10
40.2979926
 20
124.188667154
 30
0.0
 11
40.2979926
 21
124.116127154
 31
0.0
  0
LINE
  8
0
  6
CONTINUOUS
 62
     3
 10
41.9301426
 20
125.748277154
 30
0.0
 11
41.2047426
 21
125.748277154
 31
0.0
  0
LINE
  8
0
  6
CONTINUOUS
 62
     3
 10
39.2098926
 20
124.587637154
 30
0.0
 11
41.2047426
 21
124.587637154
 31
0.0
  0
LINE
  8
0
  6
CONTINUOUS
 62
     3
 10
41.2047426
 20
125.748277154
 30
0.0
 11
41.2047426
 21
124.587637154
 31
0.0
  0
LINE
  8
0
  6
CONTINUOUS
 62
     3
 10
40.2979926
 20
124.116127154
 30
0.0
 11
44.6503926
 21
124.116127154
 31
0.0
  0
LINE
  8
0
  6
CONTINUOUS
 62
     3
 10
23.1604176
 20
139.821037154
 30
0.0
 11
23.1604176
 21
124.950337154
 31
0.0
  0
LINE
  8
0
  6
CONTINUOUS
 62
     3
 10
26.9687676
 20
124.587637154
 30
0.0
 11
25.8806676
 21
124.587637154
 31
0.0
  0
LINE
  8
0
  6
CONTINUOUS
 62
     3
 10
28.6009176
 20
124.587637154
 30
0.0
 11
28.6009176
 21
124.297477154
 31
0.0
  0
LINE
  8
0
  6
CONTINUOUS
 62
     3
 10
24.2485176
 20
124.116127154
 30
0.0
 11
28.6009176
 21
124.116127154
 31
0.0
  0
LINE
  8
0
  6
CONTINUOUS
 62
     3
 10
24.2485176
 20
124.116127154
 30
0.0
 11
24.2485176
 21
124.587637154
 31
0.0
  0
LINE
  8
0
  6
CONTINUOUS
 62
     3
 10
28.6009176
 20
124.116127154
 30
0.0
 11
28.6009176
 21
124.297477154
 31
0.0
  0
LINE
  8
0
  6
CONTINUOUS
 62
     3
 10
24.2485176
 20
124.587637154
 30
0.0
 11
24.2485176
 21
124.116127154
 31
0.0
  0
LINE
  8
0
  6
CONTINUOUS
 62
     3
 10
24.2122476
 20
124.587637154
 30
0.0
 11
25.1552676
 21
124.587637154
 31
0.0
  0
LINE
  8
0
  6
CONTINUOUS
 62
     3
 10
23.1604176
 20
124.297477154
 30
0.0
 11
24.2485176
 21
124.297477154
 31
0.0
  0
LINE
  8
0
  6
CONTINUOUS
 62
     3
 10
27.6941676
 20
124.587637154
 30
0.0
 11
33.7693926
 21
124.587637154
 31
0.0
  0
LINE
  8
0
  6
CONTINUOUS
 62
     3
 10
33.7693926
 20
124.297477154
 30
0.0
 11
28.6009176
 21
124.297477154
 31
0.0
  0
LINE
  8
0
  6
CONTINUOUS
 62
     3
 10
26.9687676
 20
125.748277154
 30
0.0
 11
27.6941676
 21
125.748277154
 31
0.0
  0
LINE
  8
0
  6
CONTINUOUS
 62
     3
 10
25.8806676
 20
125.748277154
 30
0.0
 11
25.1552676
 21
125.748277154
 31
0.0
  0
LINE
  8
0
  6
CONTINUOUS
 62
     3
 10
25.1552676
 20
125.748277154
 30
0.0
 11
25.1552676
 21
124.587637154
 31
0.0
  0
LINE
  8
0
  6
CONTINUOUS
 62
     3
 10
25.8806676
 20
124.587637154
 30
0.0
 11
25.8806676
 21
125.748277154
 31
0.0
  0
LINE
  8
0
  6
CONTINUOUS
 62
     3
 10
26.9687676
 20
124.587637154
 30
0.0
 11
26.9687676
 21
125.748277154
 31
0.0
  0
LINE
  8
0
  6
CONTINUOUS
 62
     3
 10
27.6941676
 20
125.748277154
 30
0.0
 11
27.6941676
 21
124.587637154
 31
0.0
  0
LINE
  8
0
  6
CONTINUOUS
 62
     3
 10
24.2122476
 20
124.587637154
 30
0.0
 11
23.1604176
 21
125.639467154
 31
0.0
  0
LINE
  8
0
  6
CONTINUOUS
 62
     3
 10
23.1604176
 20
124.587637154
 30
0.0
 11
23.1604176
 21
124.297477154
 31
0.0
  0
LINE
  8
0
  6
CONTINUOUS
 62
     3
 10
24.2485176
 20
124.587637154
 30
0.0
 11
23.1604176
 21
124.587637154
 31
0.0
  0
LINE
  8
0
  6
CONTINUOUS
 62
     3
 10
23.1604176
 20
124.950337154
 30
0.0
 11
23.1604176
 21
124.587637154
 31
0.0
  0
LINE
  8
0
  6
CONTINUOUS
 62
     3
 10
28.5283776
 20
147.800437154
 30
0.0
 11
28.5283776
 21
147.075037154
 31
0.0
  0
LINE
  8
0
  6
CONTINUOUS
 62
     3
 10
33.8963376
 20
124.877797154
 30
0.0
 11
25.6267776
 21
124.877797154
 31
0.0
  0
LINE
  8
0
  6
CONTINUOUS
 62
     3
 10
76.4773176
 20
155.054437154
 30
0.0
 11
81.5551176
 21
155.054437154
 31
0.0
  0
LINE
  8
0
  6
CONTINUOUS
 62
     3
 10
81.5551176
 20
155.272057154
 30
0.0
 11
81.5551176
 21
155.054437154
 31
0.0
  0
LINE
  8
0
  6
CONTINUOUS
 62
     3
 10
81.5551176
 20
155.272057154
 30
0.0
 11
84.8919576
 21
155.272057154
 31
0.0
  0
LINE
  8
0
  6
CONTINUOUS
 62
     3
 10
82.8608376
 20
153.240937154
 30
0.0
 11
81.4100376
 21
153.240937154
 31
0.0
  0
ARC
  8
0
  6
CONTINUOUS
 62
     3
 10
82.8608376
 20
152.878237154
 30
0.0
 40
0.3627
 50
359.999866156
 51
90.0
  0
LINE
  8
0
  6
CONTINUOUS
 62
     3
 10
83.2235376
 20
140.183737154
 30
0.0
 11
83.2235376
 21
152.878236306
 31
0.0
  0
LINE
  8
0
  6
CONTINUOUS
 62
     3
 10
83.9489376
 20
153.966337154
 30
0.0
 11
81.5551176
 21
153.966337154
 31
0.0
  0
LINE
  8
0
  6
CONTINUOUS
 62
     3
 10
83.9489376
 20
153.966337154
 30
0.0
 11
83.9489376
 21
140.183737154
 31
0.0
  0
LINE
  8
0
  6
CONTINUOUS
 62
     3
 10
80.6846376
 20
153.240937154
 30
0.0
 11
79.3063776
 21
153.240937154
 31
0.0
  0
ARC
  8
0
  6
CONTINUOUS
 62
     3
 10
79.3063776
 20
152.878237154
 30
0.0
 40
0.3627
 50
90.0
 51
180.000218566
  0
LINE
  8
0
  6
CONTINUOUS
 62
     3
 10
78.2182776
 20
153.966337154
 30
0.0
 11
80.6846376
 21
153.966337154
 31
0.0
  0
LINE
  8
0
  6
CONTINUOUS
 62
     3
 10
78.2182776
 20
153.966337154
 30
0.0
 11
78.2182776
 21
140.365087154
 31
0.0
  0
LINE
  8
0
  6
CONTINUOUS
 62
     3
 10
81.4100376
 20
153.240937154
 30
0.0
 11
81.4100376
 21
153.966337154
 31
0.0
  0
LINE
  8
0
  6
CONTINUOUS
 62
     3
 10
81.4100376
 20
153.966337154
 30
0.0
 11
81.5551176
 21
153.966337154
 31
0.0
  0
LINE
  8
0
  6
CONTINUOUS
 62
     3
 10
80.6846376
 20
153.966337154
 30
0.0
 11
80.6846376
 21
153.240937154
 31
0.0
  0
LINE
  8
0
  6
CONTINUOUS
 62
     3
 10
78.9436776
 20
140.183737154
 30
0.0
 11
78.9436776
 21
152.87823577
 31
0.0
  0
LINE
  8
0
  6
CONTINUOUS
 62
     3
 10
79.9592376
 20
137.100787154
 30
0.0
 11
77.5654176
 21
137.100787154
 31
0.0
  0
LINE
  8
0
  6
CONTINUOUS
 62
     3
 10
78.2182776
 20
139.458337154
 30
0.0
 11
78.2182776
 21
137.826187154
 31
0.0
  0
LINE
  8
0
  6
CONTINUOUS
 62
     3
 10
79.9592376
 20
137.826187154
 30
0.0
 11
79.3063776
 21
137.826187154
 31
0.0
  0
LINE
  8
0
  6
CONTINUOUS
 62
     3
 10
78.9436776
 20
138.188887154
 30
0.0
 11
78.9436776
 21
139.458337154
 31
0.0
  0
ARC
  8
0
  6
CONTINUOUS
 62
     3
 10
79.3063776
 20
138.188887154
 30
0.0
 40
0.3627
 50
180.0
 51
270.0
  0
LINE
  8
0
  6
CONTINUOUS
 62
     3
 10
76.4773176
 20
137.826187154
 30
0.0
 11
78.2182776
 21
137.826187154
 31
0.0
  0
ARC
  8
0
  6
CONTINUOUS
 62
     3
 10
77.5654176
 20
127.670587154
 30
0.0
 40
0.3627
 50
180.0
 51
270.0
  0
LINE
  8
0
  6
CONTINUOUS
 62
     3
 10
77.2027176
 20
127.670587154
 30
0.0
 11
77.2027176
 21
136.738087154
 31
0.0
  0
ARC
  8
0
  6
CONTINUOUS
 62
     3
 10
77.5654176
 20
136.738087154
 30
0.0
 40
0.3627
 50
90.0
 51
180.0
  0
LINE
  8
0
  6
CONTINUOUS
 62
     3
 10
78.5809776
 20
127.307887154
 30
0.0
 11
77.5654176
 21
127.307887154
 31
0.0
  0
ARC
  8
0
  6
CONTINUOUS
 62
     3
 10
78.5809776
 20
126.945187154
 30
0.0
 40
0.3627
 50
0.0
 51
90.0
  0
ARC
  8
0
  6
CONTINUOUS
 62
     3
 10
79.3063776
 20
126.763837154
 30
0.0
 40
0.3627
 50
180.000267688
 51
270.0
  0
LINE
  8
0
  6
CONTINUOUS
 62
     3
 10
78.9436776
 20
126.763835459
 30
0.0
 11
78.9436776
 21
126.945187154
 31
0.0
  0
LINE
  8
0
  6
CONTINUOUS
 62
     3
 10
78.2182776
 20
125.675737154
 30
0.0
 11
79.9592376
 21
125.675737154
 31
0.0
  0
LINE
  8
0
  6
CONTINUOUS
 62
     3
 10
78.2182776
 20
126.582487154
 30
0.0
 11
78.2182776
 21
125.675737154
 31
0.0
  0
LINE
  8
0
  6
CONTINUOUS
 62
     3
 10
78.2182776
 20
126.582487154
 30
0.0
 11
76.4773176
 21
126.582487154
 31
0.0
  0
LINE
  8
0
  6
CONTINUOUS
 62
     3
 10
79.9592376
 20
126.401137154
 30
0.0
 11
79.9592376
 21
125.675737154
 31
0.0
  0
LINE
  8
0
  6
CONTINUOUS
 62
     3
 10
79.9592376
 20
126.401137154
 30
0.0
 11
79.3063776
 21
126.401137154
 31
0.0
  0
LINE
  8
0
  6
CONTINUOUS
 62
     3
 10
80.6846376
 20
126.401137154
 30
0.0
 11
80.6846376
 21
125.675737154
 31
0.0
  0
LINE
  8
0
  6
CONTINUOUS
 62
     3
 10
82.8608376
 20
126.401137154
 30
0.0
 11
80.6846376
 21
126.401137154
 31
0.0
  0
ARC
  8
0
  6
CONTINUOUS
 62
     3
 10
82.8608376
 20
126.763837154
 30
0.0
 40
0.3627
 50
270.0
 51
359.999781434
  0
LINE
  8
0
  6
CONTINUOUS
 62
     3
 10
80.6846376
 20
125.675737154
 30
0.0
 11
83.9489376
 21
125.675737154
 31
0.0
  0
LINE
  8
0
  6
CONTINUOUS
 62
     3
 10
83.9489376
 20
137.826187154
 30
0.0
 11
83.9489376
 21
125.675737154
 31
0.0
  0
LINE
  8
0
  6
CONTINUOUS
 62
     3
 10
82.8608376
 20
137.100787154
 30
0.0
 11
80.6846376
 21
137.100787154
 31
0.0
  0
ARC
  8
0
  6
CONTINUOUS
 62
     3
 10
82.8608376
 20
136.738087154
 30
0.0
 40
0.3627
 50
0.0
 51
90.0
  0
LINE
  8
0
  6
CONTINUOUS
 62
     3
 10
83.9489376
 20
139.458337154
 30
0.0
 11
83.9489376
 21
137.826187154
 31
0.0
  0
LINE
  8
0
  6
CONTINUOUS
 62
     3
 10
82.8608376
 20
137.826187154
 30
0.0
 11
80.6846376
 21
137.826187154
 31
0.0
  0
LINE
  8
0
  6
CONTINUOUS
 62
     3
 10
83.2235376
 20
138.188887154
 30
0.0
 11
83.2235376
 21
139.458337154
 31
0.0
  0
ARC
  8
0
  6
CONTINUOUS
 62
     3
 10
82.8608376
 20
138.188887154
 30
0.0
 40
0.3627
 50
270.0
 51
0.0
  0
LINE
  8
0
  6
CONTINUOUS
 62
     3
 10
83.2235376
 20
126.76383577
 30
0.0
 11
83.2235376
 21
136.738087154
 31
0.0
  0
LINE
  8
0
  6
CONTINUOUS
 62
     3
 10
80.6846376
 20
137.100787154
 30
0.0
 11
80.6846376
 21
137.826187154
 31
0.0
  0
LINE
  8
0
  6
CONTINUOUS
 62
     3
 10
79.9592376
 20
137.826187154
 30
0.0
 11
79.9592376
 21
137.100787154
 31
0.0
  0
LINE
  8
0
  6
CONTINUOUS
 62
     3
 10
78.9436776
 20
140.183737154
 30
0.0
 11
78.2182776
 21
140.183737154
 31
0.0
  0
LINE
  8
0
  6
CONTINUOUS
 62
     3
 10
78.9436776
 20
139.458337154
 30
0.0
 11
78.2182776
 21
139.458337154
 31
0.0
  0
LINE
  8
0
  6
CONTINUOUS
 62
     3
 10
78.2182776
 20
140.365087154
 30
0.0
 11
78.2182776
 21
140.183737154
 31
0.0
  0
LINE
  8
0
  6
CONTINUOUS
 62
     3
 10
83.2235376
 20
139.458337154
 30
0.0
 11
83.9489376
 21
139.458337154
 31
0.0
  0
LINE
  8
0
  6
CONTINUOUS
 62
     3
 10
83.9489376
 20
140.183737154
 30
0.0
 11
83.2235376
 21
140.183737154
 31
0.0
  0
LINE
  8
0
  6
CONTINUOUS
 62
     3
 10
82.8245676
 20
124.587637154
 30
0.0
 11
72.2155926
 21
124.587637154
 31
0.0
  0
LINE
  8
0
  6
CONTINUOUS
 62
     3
 10
76.4773176
 20
124.587637154
 30
0.0
 11
81.5551176
 21
124.587637154
 31
0.0
  0
LINE
  8
0
  6
CONTINUOUS
 62
     3
 10
81.5551176
 20
124.370017154
 30
0.0
 11
81.5551176
 21
124.587637154
 31
0.0
  0
LINE
  8
0
  6
CONTINUOUS
 62
     3
 10
81.5551176
 20
124.370017154
 30
0.0
 11
84.8919576
 21
124.370017154
 31
0.0
  0
TEXT
  8
0
  6
CONTINUOUS
 62
     1
 10
15.5
 20
162.0
 30
0.0
 40
3.0
  1
端子台番号
 50
0.0
 41
1.0
 51
0.0
  7
KANJI0
  0
TEXT
  8
0
  6
CONTINUOUS
 62
     1
 10
15.0
 20
166.0
 30
0.0
 40
3.0
  1
ＴＤＲ－４９ＴＢ背面図
 50
0.0
 41
1.0
 51
0.0
  7
KANJI0
  0
CIRCLE
  8
0
  6
CONTINUOUS
 62
     5
 10
50.85
 20
70.54
 30
0.0
 40
3.244996148
  0
LINE
  8
0
  6
CONTINUOUS
 62
     5
 10
37.75
 20
68.44
 30
0.0
 11
37.75
 21
72.54
 31
0.0
  0
LINE
  8
0
  6
CONTINUOUS
 62
     5
 10
39.65
 20
71.94
 30
0.0
 11
37.75
 21
71.94
 31
0.0
  0
LINE
  8
0
  6
CONTINUOUS
 62
     5
 10
39.65
 20
69.14
 30
0.0
 11
37.95
 21
69.14
 31
0.0
  0
ARC
  8
0
  6
CONTINUOUS
 62
     5
 10
50.85
 20
70.54
 30
0.0
 40
5.622277119
 50
251.442291828
 51
127.166889169
  0
LINE
  8
0
  6
CONTINUOUS
 62
     5
 10
49.060656082
 20
65.425267336
 30
0.0
 11
39.65
 21
69.14
 31
0.0
  0
LINE
  8
0
  6
CONTINUOUS
 62
     5
 10
47.453364783
 20
75.020275572
 30
0.0
 11
39.65
 21
71.94
 31
0.0
  0
LINE
  8
0
  6
CONTINUOUS
 62
     5
 10
33.553364783
 20
68.44
 30
0.0
 11
37.75
 21
68.44
 31
0.0
  0
LINE
  8
0
  6
CONTINUOUS
 62
     5
 10
37.75
 20
72.54
 30
0.0
 11
33.553364783
 21
72.54
 31
0.0
  0
LINE
  8
0
  6
LTYPE1
 62
     5
 10
45.453364783
 20
70.54
 30
0.0
 11
55.453364783
 21
70.54
 31
0.0
  0
LINE
  8
0
  6
LTYPE1
 62
     5
 10
50.85
 20
74.54
 30
0.0
 11
50.85
 21
56.74
 31
0.0
  0
LINE
  8
0
  6
CONTINUOUS
 62
     2
 10
51.85
 20
76.162277119
 30
0.0
 11
66.95
 21
76.162277119
 31
0.0
  0
LINE
  8
0
  6
CONTINUOUS
 62
     2
 10
64.95
 20
76.162277119
 30
0.0
 11
64.302952387
 21
73.747462553
 31
0.0
  0
LINE
  8
0
  6
CONTINUOUS
 62
     2
 10
64.95
 20
76.162277119
 30
0.0
 11
65.597047613
 21
73.747462553
 31
0.0
  0
LINE
  8
0
  6
CONTINUOUS
 62
     2
 10
64.95
 20
90.962277119
 30
0.0
 11
64.95
 21
64.917722881
 31
0.0
  0
LINE
  8
0
  6
CONTINUOUS
 62
     2
 10
64.95
 20
64.917722881
 30
0.0
 11
65.597047613
 21
67.332537447
 31
0.0
  0
LINE
  8
0
  6
CONTINUOUS
 62
     2
 10
64.95
 20
64.917722881
 30
0.0
 11
64.302952387
 21
67.332537447
 31
0.0
  0
LINE
  8
0
  6
CONTINUOUS
 62
     2
 10
51.85
 20
64.917722881
 30
0.0
 11
66.95
 21
64.917722881
 31
0.0
  0
TEXT
  8
0
  6
CONTINUOUS
 62
     1
 10
63.95
 20
78.662277119
 30
0.3
 40
3.0
  1
５．８以下
 50
90.0
 41
0.6
 51
0.0
  7
KANJI1
  0
TEXT
  8
0
  6
CONTINUOUS
 62
     1
 10
42.0
 20
52.24
 30
0.0
 40
3.0
  1
適合圧着端子
 50
0.0
 41
1.0
 51
0.0
  7
KANJI0
  0
LINE
  8
0
  6
CONTINUOUS
 62
     1
 10
68.580464328
 20
123.572077154
 30
0.0
 11
50.122071514
 21
123.572077154
 31
0.0
  0
LINE
  8
0
  6
CONTINUOUS
 62
     1
 10
30.938270872
 20
123.572077154
 30
0.0
 11
50.122071514
 21
123.572077154
 31
0.0
  0
LINE
  8
0
  6
CONTINUOUS
 62
     1
 10
81.8583176
 20
154.691737154
 30
0.0
 11
82.9464176
 21
154.691737154
 31
0.0
  0
ARC
  8
0
  6
CONTINUOUS
 62
     1
 10
15.6655676
 20
123.136837154
 30
0.0
 40
0.7254
 50
180.0
 51
270.0
  0
LINE
  8
0
  6
CONTINUOUS
 62
     1
 10
14.9401676
 20
156.505237154
 30
0.0
 11
14.9401676
 21
123.136837154
 31
0.0
  0
ARC
  8
0
  6
CONTINUOUS
 62
     1
 10
15.6655676
 20
156.505237154
 30
0.0
 40
0.7254
 50
90.0
 51
180.0
  0
LINE
  8
0
  6
CONTINUOUS
 62
     1
 10
83.8531676
 20
157.230637154
 30
0.0
 11
15.6655676
 21
157.230637154
 31
0.0
  0
ARC
  8
0
  6
CONTINUOUS
 62
     1
 10
83.8531676
 20
156.505237154
 30
0.0
 40
0.7254
 50
0.0
 51
90.0
  0
LINE
  8
0
  6
CONTINUOUS
 62
     1
 10
84.5785676
 20
123.136837154
 30
0.0
 11
84.5785676
 21
156.505237154
 31
0.0
  0
LINE
  8
0
  6
CONTINUOUS
 62
     1
 10
15.6655676
 20
122.411437154
 30
0.0
 11
83.8531676
 21
122.411437154
 31
0.0
  0
ARC
  8
0
  6
CONTINUOUS
 62
     1
 10
83.8531676
 20
123.136837154
 30
0.0
 40
0.7254
 50
270.0
 51
0.0
  0
LINE
  8
0
  6
CONTINUOUS
 62
     1
 10
68.580464328
 20
156.069997154
 30
0.0
 11
50.122071514
 21
156.069997154
 31
0.0
  0
LINE
  8
0
  6
CONTINUOUS
 62
     1
 10
30.938270872
 20
156.069997154
 30
0.0
 11
50.122071514
 21
156.069997154
 31
0.0
  0
ARC
  8
0
  6
CONTINUOUS
 62
     1
 10
82.8013376
 20
155.924917154
 30
0.0
 40
0.14508
 50
0.0
 51
90.0
  0
ARC
  8
0
  6
CONTINUOUS
 62
     1
 10
82.768072493
 20
155.852377154
 30
0.0
 40
0.21762
 50
90.0
 51
170.537427171
  0
ARC
  8
0
  6
CONTINUOUS
 62
     1
 10
81.578355875
 20
155.852377154
 30
0.0
 40
0.21762
 50
11.309932474
 51
90.0
  0
LINE
  8
0
  6
CONTINUOUS
 62
     1
 10
82.4386376
 20
155.199517154
 30
0.0
 11
81.9308576
 21
155.199517154
 31
0.0
  0
LINE
  8
0
  6
CONTINUOUS
 62
     1
 10
81.9308576
 20
155.199517154
 30
0.0
 11
81.791749841
 21
155.895055947
 31
0.0
  0
LINE
  8
0
  6
CONTINUOUS
 62
     1
 10
82.742023841
 20
156.069997154
 30
0.0
 11
82.8013376
 21
156.069997154
 31
0.0
  0
LINE
  8
0
  6
CONTINUOUS
 62
     1
 10
82.4386376
 20
155.199517154
 30
0.0
 11
82.557727312
 21
155.914036154
 31
0.0
  0
LINE
  8
0
  6
CONTINUOUS
 62
     1
 10
82.768072493
 20
156.069997154
 30
0.0
 11
68.580464328
 21
156.069997154
 31
0.0
  0
LINE
  8
0
  6
CONTINUOUS
 62
     1
 10
82.9464176
 20
139.821037154
 30
0.0
 11
82.9464176
 21
155.924917154
 31
0.0
  0
ARC
  8
0
  6
CONTINUOUS
 62
     1
 10
81.578355875
 20
123.789697154
 30
0.0
 40
0.21762
 50
270.0
 51
348.690067526
  0
LINE
  8
0
  6
CONTINUOUS
 62
     1
 10
82.4386376
 20
124.442557154
 30
0.0
 11
81.9308576
 21
124.442557154
 31
0.0
  0
LINE
  8
0
  6
CONTINUOUS
 62
     1
 10
81.9308576
 20
124.442557154
 30
0.0
 11
81.791749841
 21
123.74701836
 31
0.0
  0
LINE
  8
0
  6
CONTINUOUS
 62
     1
 10
82.742023841
 20
123.572077154
 30
0.0
 11
82.8013376
 21
123.572077154
 31
0.0
  0
LINE
  8
0
  6
CONTINUOUS
 62
     1
 10
82.4386376
 20
124.442557154
 30
0.0
 11
82.557727312
 21
123.728038154
 31
0.0
  0
LINE
  8
0
  6
CONTINUOUS
 62
     1
 10
82.9464176
 20
139.821037154
 30
0.0
 11
82.9464176
 21
123.717157154
 31
0.0
  0
ARC
  8
0
  6
CONTINUOUS
 62
     1
 10
82.8013376
 20
123.717157154
 30
0.0
 40
0.14508
 50
270.0
 51
0.0
  0
LINE
  8
0
  6
CONTINUOUS
 62
     1
 10
82.768072493
 20
123.572077154
 30
0.0
 11
68.580464328
 21
123.572077154
 31
0.0
  0
ARC
  8
0
  6
CONTINUOUS
 62
     1
 10
82.768072493
 20
123.789697154
 30
0.0
 40
0.21762
 50
189.462572829
 51
270.0
  0
LINE
  8
0
  6
CONTINUOUS
 62
     1
 10
81.8583176
 20
124.950337154
 30
0.0
 11
82.9464176
 21
124.950337154
 31
0.0
  0
ARC
  8
0
  6
CONTINUOUS
 62
     1
 10
16.7173976
 20
155.924917154
 30
0.0
 40
0.14508
 50
90.0
 51
180.0
  0
ARC
  8
0
  6
CONTINUOUS
 62
     1
 10
16.750662707
 20
155.852377154
 30
0.0
 40
0.21762
 50
9.462572829
 51
90.0
  0
ARC
  8
0
  6
CONTINUOUS
 62
     1
 10
17.940379325
 20
155.852377154
 30
0.0
 40
0.21762
 50
90.0
 51
168.690067526
  0
LINE
  8
0
  6
CONTINUOUS
 62
     1
 10
17.0800976
 20
155.199517154
 30
0.0
 11
17.5878776
 21
155.199517154
 31
0.0
  0
LINE
  8
0
  6
CONTINUOUS
 62
     1
 10
17.5878776
 20
155.199517154
 30
0.0
 11
17.726985359
 21
155.895055947
 31
0.0
  0
LINE
  8
0
  6
CONTINUOUS
 62
     1
 10
16.776711359
 20
156.069997154
 30
0.0
 11
16.7173976
 21
156.069997154
 31
0.0
  0
LINE
  8
0
  6
CONTINUOUS
 62
     1
 10
17.0800976
 20
155.199517154
 30
0.0
 11
16.961007888
 21
155.914036154
 31
0.0
  0
LINE
  8
0
  6
CONTINUOUS
 62
     1
 10
16.750662707
 20
156.069997154
 30
0.0
 11
30.938270872
 21
156.069997154
 31
0.0
  0
LINE
  8
0
  6
CONTINUOUS
 62
     1
 10
16.5723176
 20
139.821037154
 30
0.0
 11
16.5723176
 21
155.924917154
 31
0.0
  0
LINE
  8
0
  6
CONTINUOUS
 62
     1
 10
16.5723176
 20
124.950337154
 30
0.0
 11
17.6604176
 21
124.950337154
 31
0.0
  0
LINE
  8
0
  6
CONTINUOUS
 62
     1
 10
17.6604176
 20
124.950337154
 30
0.0
 11
16.5723176
 21
124.950337154
 31
0.0
  0
ARC
  8
0
  6
CONTINUOUS
 62
     1
 10
16.7173976
 20
123.717157154
 30
0.0
 40
0.14508
 50
180.0
 51
270.0
  0
ARC
  8
0
  6
CONTINUOUS
 62
     1
 10
16.750662707
 20
123.789697154
 30
0.0
 40
0.21762
 50
270.0
 51
350.537427171
  0
ARC
  8
0
  6
CONTINUOUS
 62
     1
 10
17.940379325
 20
123.789697154
 30
0.0
 40
0.21762
 50
191.309932474
 51
270.0
  0
LINE
  8
0
  6
CONTINUOUS
 62
     1
 10
17.0800976
 20
124.442557154
 30
0.0
 11
17.5878776
 21
124.442557154
 31
0.0
  0
LINE
  8
0
  6
CONTINUOUS
 62
     1
 10
17.5878776
 20
124.442557154
 30
0.0
 11
17.726985359
 21
123.74701836
 31
0.0
  0
LINE
  8
0
  6
CONTINUOUS
 62
     1
 10
16.776711359
 20
123.572077154
 30
0.0
 11
16.7173976
 21
123.572077154
 31
0.0
  0
LINE
  8
0
  6
CONTINUOUS
 62
     1
 10
17.0800976
 20
124.442557154
 30
0.0
 11
16.961007888
 21
123.728038154
 31
0.0
  0
LINE
  8
0
  6
CONTINUOUS
 62
     1
 10
16.5723176
 20
139.821037154
 30
0.0
 11
16.5723176
 21
123.717157154
 31
0.0
  0
LINE
  8
0
  6
CONTINUOUS
 62
     1
 10
16.7173976
 20
123.572077154
 30
0.0
 11
30.938270872
 21
123.572077154
 31
0.0
  0
LINE
  8
0
  6
CONTINUOUS
 62
     1
 10
16.5723176
 20
154.691737154
 30
0.0
 11
17.6604176
 21
154.691737154
 31
0.0
  0
LINE
  8
0
  6
CONTINUOUS
 62
     1
 10
17.6604176
 20
154.691737154
 30
0.0
 11
16.5723176
 21
154.691737154
 31
0.0
  0
LINE
  8
0
  6
CONTINUOUS
 62
     1
 10
25.6035476
 20
155.489677154
 30
0.0
 11
28.5414176
 21
155.489677154
 31
0.0
  0
LINE
  8
0
  6
CONTINUOUS
 62
     1
 10
20.1267776
 20
155.489677154
 30
0.0
 11
28.5414176
 21
155.489677154
 31
0.0
  0
LINE
  8
0
  6
CONTINUOUS
 62
     1
 10
20.1267776
 20
125.240497154
 30
0.0
 11
20.1267776
 21
125.313037154
 31
0.0
  0
LINE
  8
0
  6
CONTINUOUS
 62
     1
 10
25.6035476
 20
124.152397154
 30
0.0
 11
28.5414176
 21
124.152397154
 31
0.0
  0
LINE
  8
0
  6
CONTINUOUS
 62
     1
 10
20.1267776
 20
124.152397154
 30
0.0
 11
28.5414176
 21
124.152397154
 31
0.0
  0
POINT
  8
0
  6
CONTINUOUS
 62
     1
 10
22.5568676
 20
124.152397154
 30
0.0
  0
LINE
  8
0
  6
CONTINUOUS
 62
     1
 10
31.8057176
 20
153.059587154
 30
0.0
 11
31.8057176
 21
141.815887154
 31
0.0
  0
ARC
  8
0
  6
CONTINUOUS
 62
     1
 10
30.7176176
 20
151.971487154
 30
0.0
 40
0.3627
 50
0.0
 51
90.0
  0
ARC
  8
0
  6
CONTINUOUS
 62
     1
 10
30.7176176
 20
142.903987154
 30
0.0
 40
0.3627
 50
270.0
 51
0.0
  0
LINE
  8
0
  6
CONTINUOUS
 62
     1
 10
32.9844926
 20
154.401577154
 30
0.0
 11
32.9844926
 21
152.805697154
 31
0.0
  0
LINE
  8
0
  6
CONTINUOUS
 62
     1
 10
29.5751126
 20
155.054437154
 30
0.0
 11
32.7668726
 21
155.054437154
 31
0.0
  0
LINE
  8
0
  6
CONTINUOUS
 62
     1
 10
32.9844926
 20
125.240497154
 30
0.0
 11
32.9844926
 21
152.805697154
 31
0.0
  0
LINE
  8
0
  6
CONTINUOUS
 62
     1
 10
29.5751126
 20
124.587637154
 30
0.0
 11
32.7668726
 21
124.587637154
 31
0.0
  0
LINE
  8
0
  6
CONTINUOUS
 62
     1
 10
32.7668726
 20
124.587637154
 30
0.0
 11
29.5751126
 21
124.587637154
 31
0.0
  0
LINE
  8
0
  6
CONTINUOUS
 62
     1
 10
18.5308976
 20
155.054437154
 30
0.0
 11
19.4013776
 21
155.054437154
 31
0.0
  0
LINE
  8
0
  6
CONTINUOUS
 62
     1
 10
18.5308976
 20
124.587637154
 30
0.0
 11
19.4013776
 21
124.587637154
 31
0.0
  0
LINE
  8
0
  6
CONTINUOUS
 62
     1
 10
30.7176176
 20
148.163137154
 30
0.0
 11
29.3393576
 21
148.163137154
 31
0.0
  0
LINE
  8
0
  6
CONTINUOUS
 62
     1
 10
30.7357526
 20
146.712337154
 30
0.0
 11
29.3574926
 21
146.712337154
 31
0.0
  0
LINE
  8
0
  6
CONTINUOUS
 62
     1
 10
31.0803176
 20
151.971487154
 30
0.0
 11
31.0803176
 21
148.525838132
 31
0.0
  0
ARC
  8
0
  6
CONTINUOUS
 62
     1
 10
30.7176176
 20
148.525837154
 30
0.0
 40
0.3627
 50
270.0
 51
0.00015455
  0
ARC
  8
0
  6
CONTINUOUS
 62
     1
 10
30.7357526
 20
146.349637154
 30
0.0
 40
0.3627
 50
18.194872339
 51
90.0
  0
LINE
  8
0
  6
CONTINUOUS
 62
     1
 10
31.0803176
 20
146.462890192
 30
0.0
 11
31.0803176
 21
142.903987154
 31
0.0
  0
LINE
  8
0
  6
CONTINUOUS
 62
     1
 10
30.7176176
 20
148.163137154
 30
0.0
 11
29.2124126
 21
148.163137154
 31
0.0
  0
LINE
  8
0
  6
CONTINUOUS
 62
     1
 10
30.7357526
 20
146.712337154
 30
0.0
 11
29.2124126
 21
146.712337154
 31
0.0
  0
LINE
  8
0
  6
CONTINUOUS
 62
     1
 10
29.2124126
 20
154.401577154
 30
0.0
 11
32.9844926
 21
154.401577154
 31
0.0
  0
LINE
  8
0
  6
CONTINUOUS
 62
     1
 10
29.2124126
 20
153.059587154
 30
0.0
 11
29.2124126
 21
154.401577154
 31
0.0
  0
LINE
  8
0
  6
CONTINUOUS
 62
     1
 10
29.2124126
 20
125.240497154
 30
0.0
 11
32.9844926
 21
125.240497154
 31
0.0
  0
LINE
  8
0
  6
CONTINUOUS
 62
     1
 10
33.4922726
 20
155.997457154
 30
0.0
 11
23.4636176
 21
155.997457154
 31
0.0
  0
LINE
  8
0
  6
CONTINUOUS
 62
     1
 10
23.4636176
 20
155.997457154
 30
0.0
 11
17.8780376
 21
155.997457154
 31
0.0
  0
LINE
  8
0
  6
CONTINUOUS
 62
     1
 10
17.8780376
 20
155.997457154
 30
0.0
 11
17.6604176
 21
155.199517154
 31
0.0
  0
ARC
  8
0
  6
CONTINUOUS
 62
     1
 10
33.4922726
 20
155.779837154
 30
0.0
 40
0.21762
 50
0.0
 51
90.0
  0
LINE
  8
0
  6
CONTINUOUS
 62
     1
 10
33.7098926
 20
123.971047154
 30
0.0
 11
33.7098926
 21
155.779837154
 31
0.0
  0
LINE
  8
0
  6
CONTINUOUS
 62
     1
 10
19.4013776
 20
155.054437154
 30
0.0
 11
19.4013776
 21
155.997457154
 31
0.0
  0
LINE
  8
0
  6
CONTINUOUS
 62
     1
 10
18.5308976
 20
155.997457154
 30
0.0
 11
18.5308976
 21
155.054437154
 31
0.0
  0
LINE
  8
0
  6
CONTINUOUS
 62
     1
 10
29.5751126
 20
155.054437154
 30
0.0
 11
29.5751126
 21
155.997457154
 31
0.0
  0
LINE
  8
0
  6
CONTINUOUS
 62
     1
 10
32.7668726
 20
155.054437154
 30
0.0
 11
32.7668726
 21
155.997457154
 31
0.0
  0
LINE
  8
0
  6
CONTINUOUS
 62
     1
 10
23.4636176
 20
123.644617154
 30
0.0
 11
17.8780376
 21
123.644617154
 31
0.0
  0
LINE
  8
0
  6
CONTINUOUS
 62
     1
 10
33.4922726
 20
123.644617154
 30
0.0
 11
23.4636176
 21
123.644617154
 31
0.0
  0
ARC
  8
0
  6
CONTINUOUS
 62
     1
 10
33.4922726
 20
123.862237154
 30
0.0
 40
0.21762
 50
270.0
 51
0.0
  0
LINE
  8
0
  6
CONTINUOUS
 62
     1
 10
33.7098926
 20
123.862237154
 30
0.0
 11
33.7098926
 21
155.671027154
 31
0.0
  0
LINE
  8
0
  6
CONTINUOUS
 62
     1
 10
32.7668726
 20
124.587637154
 30
0.0
 11
32.7668726
 21
123.644617154
 31
0.0
  0
LINE
  8
0
  6
CONTINUOUS
 62
     1
 10
29.5751126
 20
124.587637154
 30
0.0
 11
29.5751126
 21
123.644617154
 31
0.0
  0
LINE
  8
0
  6
CONTINUOUS
 62
     1
 10
19.4013776
 20
124.587637154
 30
0.0
 11
19.4013776
 21
123.644617154
 31
0.0
  0
LINE
  8
0
  6
CONTINUOUS
 62
     1
 10
18.5308976
 20
123.644617154
 30
0.0
 11
18.5308976
 21
124.587637154
 31
0.0
  0
LINE
  8
0
  6
CONTINUOUS
 62
     1
 10
17.8780376
 20
123.644617154
 30
0.0
 11
17.6604176
 21
124.442557154
 31
0.0
  0
LINE
  8
0
  6
CONTINUOUS
 62
     1
 10
17.6604176
 20
124.442557154
 30
0.0
 11
17.6604176
 21
155.199517154
 31
0.0
  0
LINE
  8
0
  6
CONTINUOUS
 62
     1
 10
29.4663026
 20
153.059587154
 30
0.0
 11
29.4663026
 21
152.116567154
 31
0.0
  0
LINE
  8
0
  6
CONTINUOUS
 62
     1
 10
28.5414176
 20
152.116567154
 30
0.0
 11
29.4663026
 21
152.116567154
 31
0.0
  0
LINE
  8
0
  6
CONTINUOUS
 62
     1
 10
73.9151876
 20
124.152397154
 30
0.0
 11
70.9773176
 21
124.152397154
 31
0.0
  0
LINE
  8
0
  6
CONTINUOUS
 62
     1
 10
79.3919576
 20
124.152397154
 30
0.0
 11
70.9773176
 21
124.152397154
 31
0.0
  0
LINE
  8
0
  6
CONTINUOUS
 62
     1
 10
79.3919576
 20
154.401577154
 30
0.0
 11
79.3919576
 21
154.329037154
 31
0.0
  0
LINE
  8
0
  6
CONTINUOUS
 62
     1
 10
73.9151876
 20
155.489677154
 30
0.0
 11
70.9773176
 21
155.489677154
 31
0.0
  0
LINE
  8
0
  6
CONTINUOUS
 62
     1
 10
79.3919576
 20
155.489677154
 30
0.0
 11
70.9773176
 21
155.489677154
 31
0.0
  0
POINT
  8
0
  6
CONTINUOUS
 62
     1
 10
76.9618676
 20
155.489677154
 30
0.0
  0
LINE
  8
0
  6
CONTINUOUS
 62
     1
 10
79.3919576
 20
155.489677154
 30
0.0
 11
79.3919576
 21
124.152397154
 31
0.0
  0
LINE
  8
0
  6
CONTINUOUS
 62
     1
 10
70.9773176
 20
139.821037154
 30
0.0
 11
70.9773176
 21
124.152397154
 31
0.0
  0
LINE
  8
0
  6
CONTINUOUS
 62
     1
 10
67.7130176
 20
126.582487154
 30
0.0
 11
67.7130176
 21
137.826187154
 31
0.0
  0
LINE
  8
0
  6
CONTINUOUS
 62
     1
 10
70.9773176
 20
155.489677154
 30
0.0
 11
70.9773176
 21
139.821037154
 31
0.0
  0
ARC
  8
0
  6
CONTINUOUS
 62
     1
 10
68.8011176
 20
127.670587154
 30
0.0
 40
0.3627
 50
180.0
 51
270.0
  0
ARC
  8
0
  6
CONTINUOUS
 62
     1
 10
68.8011176
 20
136.738087154
 30
0.0
 40
0.3627
 50
90.0
 51
180.0
  0
LINE
  8
0
  6
CONTINUOUS
 62
     1
 10
66.5342426
 20
125.240497154
 30
0.0
 11
66.5342426
 21
126.836377154
 31
0.0
  0
LINE
  8
0
  6
CONTINUOUS
 62
     1
 10
69.9436226
 20
124.587637154
 30
0.0
 11
66.7518626
 21
124.587637154
 31
0.0
  0
LINE
  8
0
  6
CONTINUOUS
 62
     1
 10
66.5342426
 20
154.401577154
 30
0.0
 11
66.5342426
 21
126.836377154
 31
0.0
  0
LINE
  8
0
  6
CONTINUOUS
 62
     1
 10
69.9436226
 20
155.054437154
 30
0.0
 11
66.7518626
 21
155.054437154
 31
0.0
  0
LINE
  8
0
  6
CONTINUOUS
 62
     1
 10
66.7518626
 20
155.054437154
 30
0.0
 11
69.9436226
 21
155.054437154
 31
0.0
  0
LINE
  8
0
  6
CONTINUOUS
 62
     1
 10
80.9878376
 20
124.587637154
 30
0.0
 11
80.1173576
 21
124.587637154
 31
0.0
  0
LINE
  8
0
  6
CONTINUOUS
 62
     1
 10
80.9878376
 20
155.054437154
 30
0.0
 11
80.1173576
 21
155.054437154
 31
0.0
  0
ARC
  8
0
  6
CONTINUOUS
 62
     1
 10
77.3608376
 20
126.546217154
 30
0.0
 40
0.3627
 50
359.99984545
 51
0.0
  0
LINE
  8
0
  6
CONTINUOUS
 62
     1
 10
68.8011176
 20
131.478937154
 30
0.0
 11
70.1793776
 21
131.478937154
 31
0.0
  0
LINE
  8
0
  6
CONTINUOUS
 62
     1
 10
68.7829826
 20
132.929737154
 30
0.0
 11
70.1612426
 21
132.929737154
 31
0.0
  0
LINE
  8
0
  6
CONTINUOUS
 62
     1
 10
68.4384176
 20
127.670587154
 30
0.0
 11
68.4384176
 21
131.116236175
 31
0.0
  0
ARC
  8
0
  6
CONTINUOUS
 62
     1
 10
68.8011176
 20
131.116237154
 30
0.0
 40
0.3627
 50
90.0
 51
180.00015455
  0
ARC
  8
0
  6
CONTINUOUS
 62
     1
 10
68.7829826
 20
133.292437154
 30
0.0
 40
0.3627
 50
198.194872339
 51
270.0
  0
LINE
  8
0
  6
CONTINUOUS
 62
     1
 10
68.4384176
 20
133.179184115
 30
0.0
 11
68.4384176
 21
136.738087154
 31
0.0
  0
LINE
  8
0
  6
CONTINUOUS
 62
     1
 10
68.8011176
 20
131.478937154
 30
0.0
 11
70.3063226
 21
131.478937154
 31
0.0
  0
LINE
  8
0
  6
CONTINUOUS
 62
     1
 10
68.7829826
 20
132.929737154
 30
0.0
 11
70.3063226
 21
132.929737154
 31
0.0
  0
LINE
  8
0
  6
CONTINUOUS
 62
     1
 10
70.3063226
 20
125.240497154
 30
0.0
 11
66.5342426
 21
125.240497154
 31
0.0
  0
LINE
  8
0
  6
CONTINUOUS
 62
     1
 10
70.3063226
 20
126.582487154
 30
0.0
 11
70.3063226
 21
125.240497154
 31
0.0
  0
LINE
  8
0
  6
CONTINUOUS
 62
     1
 10
70.3063226
 20
154.401577154
 30
0.0
 11
66.5342426
 21
154.401577154
 31
0.0
  0
LINE
  8
0
  6
CONTINUOUS
 62
     1
 10
70.3063226
 20
154.401577154
 30
0.0
 11
70.3063226
 21
137.826187154
 31
0.0
  0
LINE
  8
0
  6
CONTINUOUS
 62
     1
 10
66.0264626
 20
123.644617154
 30
0.0
 11
76.0551176
 21
123.644617154
 31
0.0
  0
LINE
  8
0
  6
CONTINUOUS
 62
     1
 10
76.0551176
 20
123.644617154
 30
0.0
 11
81.6406976
 21
123.644617154
 31
0.0
  0
LINE
  8
0
  6
CONTINUOUS
 62
     1
 10
81.6406976
 20
123.644617154
 30
0.0
 11
81.8583176
 21
124.442557154
 31
0.0
  0
ARC
  8
0
  6
CONTINUOUS
 62
     1
 10
66.0264626
 20
123.862237154
 30
0.0
 40
0.21762
 50
180.0
 51
270.0
  0
LINE
  8
0
  6
CONTINUOUS
 62
     1
 10
65.8088426
 20
155.671027154
 30
0.0
 11
65.8088426
 21
123.862237154
 31
0.0
  0
LINE
  8
0
  6
CONTINUOUS
 62
     1
 10
80.1173576
 20
124.587637154
 30
0.0
 11
80.1173576
 21
123.644617154
 31
0.0
  0
LINE
  8
0
  6
CONTINUOUS
 62
     1
 10
80.9878376
 20
123.644617154
 30
0.0
 11
80.9878376
 21
124.587637154
 31
0.0
  0
LINE
  8
0
  6
CONTINUOUS
 62
     1
 10
69.9436226
 20
124.587637154
 30
0.0
 11
69.9436226
 21
123.644617154
 31
0.0
  0
LINE
  8
0
  6
CONTINUOUS
 62
     1
 10
66.7518626
 20
124.587637154
 30
0.0
 11
66.7518626
 21
123.644617154
 31
0.0
  0
LINE
  8
0
  6
CONTINUOUS
 62
     1
 10
76.0551176
 20
155.997457154
 30
0.0
 11
81.6406976
 21
155.997457154
 31
0.0
  0
LINE
  8
0
  6
CONTINUOUS
 62
     1
 10
66.0264626
 20
155.997457154
 30
0.0
 11
76.0551176
 21
155.997457154
 31
0.0
  0
ARC
  8
0
  6
CONTINUOUS
 62
     1
 10
66.0264626
 20
155.779837154
 30
0.0
 40
0.21762
 50
90.0
 51
180.0
  0
LINE
  8
0
  6
CONTINUOUS
 62
     1
 10
65.8088426
 20
155.779837154
 30
0.0
 11
65.8088426
 21
123.971047154
 31
0.0
  0
LINE
  8
0
  6
CONTINUOUS
 62
     1
 10
66.7518626
 20
155.054437154
 30
0.0
 11
66.7518626
 21
155.997457154
 31
0.0
  0
LINE
  8
0
  6
CONTINUOUS
 62
     1
 10
69.9436226
 20
155.054437154
 30
0.0
 11
69.9436226
 21
155.997457154
 31
0.0
  0
LINE
  8
0
  6
CONTINUOUS
 62
     1
 10
80.1173576
 20
155.054437154
 30
0.0
 11
80.1173576
 21
155.997457154
 31
0.0
  0
LINE
  8
0
  6
CONTINUOUS
 62
     1
 10
80.9878376
 20
155.997457154
 30
0.0
 11
80.9878376
 21
155.054437154
 31
0.0
  0
LINE
  8
0
  6
CONTINUOUS
 62
     1
 10
81.6406976
 20
155.997457154
 30
0.0
 11
81.8583176
 21
155.199517154
 31
0.0
  0
LINE
  8
0
  6
CONTINUOUS
 62
     1
 10
81.8583176
 20
155.199517154
 30
0.0
 11
81.8583176
 21
124.442557154
 31
0.0
  0
LINE
  8
0
  6
CONTINUOUS
 62
     1
 10
70.0524326
 20
126.582487154
 30
0.0
 11
70.0524326
 21
127.525507154
 31
0.0
  0
LINE
  8
0
  6
CONTINUOUS
 62
     1
 10
70.9773176
 20
127.525507154
 30
0.0
 11
70.0524326
 21
127.525507154
 31
0.0
  0
LINE
  8
0
  6
CONTINUOUS
 62
     1
 10
70.0524326
 20
136.883167154
 30
0.0
 11
70.0524326
 21
137.826187154
 31
0.0
  0
LINE
  8
0
  6
CONTINUOUS
 62
     1
 10
68.8011176
 20
137.100787154
 30
0.0
 11
70.0524326
 21
137.100787154
 31
0.0
  0
LINE
  8
0
  6
CONTINUOUS
 62
     1
 10
70.3063226
 20
136.883167154
 30
0.0
 11
70.3063226
 21
127.525507154
 31
0.0
  0
LINE
  8
0
  6
CONTINUOUS
 62
     1
 10
70.0524326
 20
136.883167154
 30
0.0
 11
70.9773176
 21
136.883167154
 31
0.0
  0
POINT
  8
0
  6
CONTINUOUS
 62
     1
 10
60.9123926
 20
155.489677154
 30
0.0
  0
LINE
  8
0
  6
CONTINUOUS
 62
     1
 10
49.9769876
 20
123.644617154
 30
0.0
 11
60.0056426
 21
123.644617154
 31
0.0
  0
LINE
  8
0
  6
CONTINUOUS
 62
     1
 10
60.0056426
 20
123.644617154
 30
0.0
 11
65.5912226
 21
123.644617154
 31
0.0
  0
LINE
  8
0
  6
CONTINUOUS
 62
     1
 10
65.5912226
 20
123.644617154
 30
0.0
 11
65.8088426
 21
124.442557154
 31
0.0
  0
ARC
  8
0
  6
CONTINUOUS
 62
     1
 10
49.9769876
 20
123.862237154
 30
0.0
 40
0.21762
 50
180.0
 51
270.0
  0
LINE
  8
0
  6
CONTINUOUS
 62
     1
 10
49.7593676
 20
155.671027154
 30
0.0
 11
49.7593676
 21
123.862237154
 31
0.0
  0
LINE
  8
0
  6
CONTINUOUS
 62
     1
 10
60.0056426
 20
155.997457154
 30
0.0
 11
65.5912226
 21
155.997457154
 31
0.0
  0
LINE
  8
0
  6
CONTINUOUS
 62
     1
 10
49.9769876
 20
155.997457154
 30
0.0
 11
60.0056426
 21
155.997457154
 31
0.0
  0
ARC
  8
0
  6
CONTINUOUS
 62
     1
 10
49.9769876
 20
155.779837154
 30
0.0
 40
0.21762
 50
90.0
 51
180.0
  0
LINE
  8
0
  6
CONTINUOUS
 62
     1
 10
49.7593676
 20
155.779837154
 30
0.0
 11
49.7593676
 21
123.971047154
 31
0.0
  0
LINE
  8
0
  6
CONTINUOUS
 62
     1
 10
65.5912226
 20
155.997457154
 30
0.0
 11
65.8088426
 21
155.199517154
 31
0.0
  0
LINE
  8
0
  6
CONTINUOUS
 62
     1
 10
65.8088426
 20
155.199517154
 30
0.0
 11
65.8088426
 21
124.442557154
 31
0.0
  0
LINE
  8
0
  6
CONTINUOUS
 62
     1
 10
33.9275126
 20
123.644617154
 30
0.0
 11
43.9561676
 21
123.644617154
 31
0.0
  0
LINE
  8
0
  6
CONTINUOUS
 62
     1
 10
43.9561676
 20
123.644617154
 30
0.0
 11
49.5417476
 21
123.644617154
 31
0.0
  0
LINE
  8
0
  6
CONTINUOUS
 62
     1
 10
49.5417476
 20
123.644617154
 30
0.0
 11
49.7593676
 21
124.442557154
 31
0.0
  0
ARC
  8
0
  6
CONTINUOUS
 62
     1
 10
33.9275126
 20
123.862237154
 30
0.0
 40
0.21762
 50
180.0
 51
270.0
  0
LINE
  8
0
  6
CONTINUOUS
 62
     1
 10
33.7098926
 20
155.671027154
 30
0.0
 11
33.7098926
 21
123.862237154
 31
0.0
  0
LINE
  8
0
  6
CONTINUOUS
 62
     1
 10
43.9561676
 20
155.997457154
 30
0.0
 11
49.5417476
 21
155.997457154
 31
0.0
  0
LINE
  8
0
  6
CONTINUOUS
 62
     1
 10
33.9275126
 20
155.997457154
 30
0.0
 11
43.9561676
 21
155.997457154
 31
0.0
  0
ARC
  8
0
  6
CONTINUOUS
 62
     1
 10
33.9275126
 20
155.779837154
 30
0.0
 40
0.21762
 50
90.0
 51
180.0
  0
LINE
  8
0
  6
CONTINUOUS
 62
     1
 10
33.7098926
 20
155.779837154
 30
0.0
 11
33.7098926
 21
123.971047154
 31
0.0
  0
LINE
  8
0
  6
CONTINUOUS
 62
     1
 10
49.5417476
 20
155.997457154
 30
0.0
 11
49.7593676
 21
155.199517154
 31
0.0
  0
LINE
  8
0
  6
CONTINUOUS
 62
     1
 10
49.7593676
 20
155.199517154
 30
0.0
 11
49.7593676
 21
124.442557154
 31
0.0
  0
LINE
  8
0
  6
CONTINUOUS
 62
     1
 10
68.8011176
 20
127.307887154
 30
0.0
 11
70.0524326
 21
127.307887154
 31
0.0
  0
LINE
  8
0
  6
CONTINUOUS
 62
     1
 10
30.7176176
 20
152.334187154
 30
0.0
 11
29.4663026
 21
152.334187154
 31
0.0
  0
LINE
  8
0
  6
CONTINUOUS
 62
     1
 10
28.3963376
 20
154.764277154
 30
0.0
 11
20.1267776
 21
154.764277154
 31
0.0
  0
LINE
  8
0
  6
CONTINUOUS
 62
     1
 10
28.3963376
 20
150.266797154
 30
0.0
 11
20.1267776
 21
150.266797154
 31
0.0
  0
LINE
  8
0
  6
CONTINUOUS
 62
     1
 10
24.4791776
 20
151.064737154
 30
0.0
 11
24.8418776
 21
151.064737154
 31
0.0
  0
LINE
  8
0
  6
CONTINUOUS
 62
     1
 10
24.8418776
 20
152.152837154
 30
0.0
 11
25.9299776
 21
152.152837154
 31
0.0
  0
LINE
  8
0
  6
CONTINUOUS
 62
     1
 10
24.8418776
 20
151.064737154
 30
0.0
 11
24.8418776
 21
152.152837154
 31
0.0
  0
LINE
  8
0
  6
CONTINUOUS
 62
     1
 10
24.8418776
 20
153.966337154
 30
0.0
 11
24.1164776
 21
153.966337154
 31
0.0
  0
LINE
  8
0
  6
CONTINUOUS
 62
     1
 10
25.9299776
 20
152.878237154
 30
0.0
 11
24.8418776
 21
152.878237154
 31
0.0
  0
LINE
  8
0
  6
CONTINUOUS
 62
     1
 10
24.1164776
 20
152.878237154
 30
0.0
 11
23.0283776
 21
152.878237154
 31
0.0
  0
LINE
  8
0
  6
CONTINUOUS
 62
     1
 10
25.9299776
 20
152.152837154
 30
0.0
 11
25.9299776
 21
152.878237154
 31
0.0
  0
LINE
  8
0
  6
CONTINUOUS
 62
     1
 10
24.8418776
 20
152.878237154
 30
0.0
 11
24.8418776
 21
153.966337154
 31
0.0
  0
LINE
  8
0
  6
CONTINUOUS
 62
     1
 10
24.1164776
 20
153.966337154
 30
0.0
 11
24.1164776
 21
152.878237154
 31
0.0
  0
LINE
  8
0
  6
CONTINUOUS
 62
     1
 10
24.1164776
 20
151.064737154
 30
0.0
 11
24.4791776
 21
151.064737154
 31
0.0
  0
LINE
  8
0
  6
CONTINUOUS
 62
     1
 10
23.0283776
 20
152.152837154
 30
0.0
 11
24.1164776
 21
152.152837154
 31
0.0
  0
LINE
  8
0
  6
CONTINUOUS
 62
     1
 10
24.1164776
 20
152.152837154
 30
0.0
 11
24.1164776
 21
151.064737154
 31
0.0
  0
CIRCLE
  8
0
  6
CONTINUOUS
 62
     1
 10
24.4791776
 20
152.515537154
 30
0.0
 40
2.03112
  0
LINE
  8
0
  6
CONTINUOUS
 62
     1
 10
23.0283776
 20
152.878237154
 30
0.0
 11
23.0283776
 21
152.152837154
 31
0.0
  0
LINE
  8
0
  6
CONTINUOUS
 62
     1
 10
25.9299776
 20
147.800437154
 30
0.0
 11
24.8418776
 21
147.800437154
 31
0.0
  0
LINE
  8
0
  6
CONTINUOUS
 62
     1
 10
24.1164776
 20
147.800437154
 30
0.0
 11
23.0283776
 21
147.800437154
 31
0.0
  0
LINE
  8
0
  6
CONTINUOUS
 62
     1
 10
24.8418776
 20
148.888537154
 30
0.0
 11
24.1164776
 21
148.888537154
 31
0.0
  0
LINE
  8
0
  6
CONTINUOUS
 62
     1
 10
24.8418776
 20
147.800437154
 30
0.0
 11
24.8418776
 21
148.888537154
 31
0.0
  0
LINE
  8
0
  6
CONTINUOUS
 62
     1
 10
24.1164776
 20
148.888537154
 30
0.0
 11
24.1164776
 21
147.800437154
 31
0.0
  0
LINE
  8
0
  6
CONTINUOUS
 62
     1
 10
24.8418776
 20
147.075037154
 30
0.0
 11
25.9299776
 21
147.075037154
 31
0.0
  0
LINE
  8
0
  6
CONTINUOUS
 62
     1
 10
23.0283776
 20
147.075037154
 30
0.0
 11
24.1164776
 21
147.075037154
 31
0.0
  0
LINE
  8
0
  6
CONTINUOUS
 62
     1
 10
25.9299776
 20
147.075037154
 30
0.0
 11
25.9299776
 21
147.800437154
 31
0.0
  0
LINE
  8
0
  6
CONTINUOUS
 62
     1
 10
28.3963376
 20
149.686477154
 30
0.0
 11
20.1267776
 21
149.686477154
 31
0.0
  0
LINE
  8
0
  6
CONTINUOUS
 62
     1
 10
28.5414176
 20
139.821037154
 30
0.0
 11
28.5414176
 21
155.489677154
 31
0.0
  0
LINE
  8
0
  6
CONTINUOUS
 62
     1
 10
29.4663026
 20
142.758907154
 30
0.0
 11
29.4663026
 21
141.815887154
 31
0.0
  0
LINE
  8
0
  6
CONTINUOUS
 62
     1
 10
30.7176176
 20
142.541287154
 30
0.0
 11
29.4663026
 21
142.541287154
 31
0.0
  0
LINE
  8
0
  6
CONTINUOUS
 62
     1
 10
29.2124126
 20
142.758907154
 30
0.0
 11
29.2124126
 21
152.116567154
 31
0.0
  0
LINE
  8
0
  6
CONTINUOUS
 62
     1
 10
29.4663026
 20
142.758907154
 30
0.0
 11
28.5414176
 21
142.758907154
 31
0.0
  0
LINE
  8
0
  6
CONTINUOUS
 62
     1
 10
24.4791776
 20
140.909137154
 30
0.0
 11
24.8418776
 21
140.909137154
 31
0.0
  0
LINE
  8
0
  6
CONTINUOUS
 62
     1
 10
24.1164776
 20
140.909137154
 30
0.0
 11
24.4791776
 21
140.909137154
 31
0.0
  0
LINE
  8
0
  6
CONTINUOUS
 62
     1
 10
25.9299776
 20
142.722637154
 30
0.0
 11
24.8418776
 21
142.722637154
 31
0.0
  0
LINE
  8
0
  6
CONTINUOUS
 62
     1
 10
24.1164776
 20
142.722637154
 30
0.0
 11
23.0283776
 21
142.722637154
 31
0.0
  0
LINE
  8
0
  6
CONTINUOUS
 62
     1
 10
24.8418776
 20
143.810737154
 30
0.0
 11
24.1164776
 21
143.810737154
 31
0.0
  0
LINE
  8
0
  6
CONTINUOUS
 62
     1
 10
24.8418776
 20
142.722637154
 30
0.0
 11
24.8418776
 21
143.810737154
 31
0.0
  0
LINE
  8
0
  6
CONTINUOUS
 62
     1
 10
24.1164776
 20
143.810737154
 30
0.0
 11
24.1164776
 21
142.722637154
 31
0.0
  0
LINE
  8
0
  6
CONTINUOUS
 62
     1
 10
24.8418776
 20
141.997237154
 30
0.0
 11
25.9299776
 21
141.997237154
 31
0.0
  0
LINE
  8
0
  6
CONTINUOUS
 62
     1
 10
23.0283776
 20
141.997237154
 30
0.0
 11
24.1164776
 21
141.997237154
 31
0.0
  0
LINE
  8
0
  6
CONTINUOUS
 62
     1
 10
24.8418776
 20
140.909137154
 30
0.0
 11
24.8418776
 21
141.997237154
 31
0.0
  0
LINE
  8
0
  6
CONTINUOUS
 62
     1
 10
24.1164776
 20
141.997237154
 30
0.0
 11
24.1164776
 21
140.909137154
 31
0.0
  0
LINE
  8
0
  6
CONTINUOUS
 62
     1
 10
25.9299776
 20
141.997237154
 30
0.0
 11
25.9299776
 21
142.722637154
 31
0.0
  0
LINE
  8
0
  6
CONTINUOUS
 62
     1
 10
23.0283776
 20
142.722637154
 30
0.0
 11
23.0283776
 21
141.997237154
 31
0.0
  0
CIRCLE
  8
0
  6
CONTINUOUS
 62
     1
 10
24.4791776
 20
142.359937154
 30
0.0
 40
2.03112
  0
LINE
  8
0
  6
CONTINUOUS
 62
     1
 10
28.3963376
 20
140.111197154
 30
0.0
 11
20.1267776
 21
140.111197154
 31
0.0
  0
LINE
  8
0
  6
CONTINUOUS
 62
     1
 10
28.3963376
 20
144.608677154
 30
0.0
 11
20.1267776
 21
144.608677154
 31
0.0
  0
LINE
  8
0
  6
CONTINUOUS
 62
     1
 10
24.4791776
 20
145.986937154
 30
0.0
 11
24.8418776
 21
145.986937154
 31
0.0
  0
LINE
  8
0
  6
CONTINUOUS
 62
     1
 10
24.1164776
 20
145.986937154
 30
0.0
 11
24.4791776
 21
145.986937154
 31
0.0
  0
LINE
  8
0
  6
CONTINUOUS
 62
     1
 10
28.3963376
 20
145.188997154
 30
0.0
 11
20.1267776
 21
145.188997154
 31
0.0
  0
LINE
  8
0
  6
CONTINUOUS
 62
     1
 10
24.4791776
 20
138.732937154
 30
0.0
 11
24.8418776
 21
138.732937154
 31
0.0
  0
LINE
  8
0
  6
CONTINUOUS
 62
     1
 10
24.1164776
 20
138.732937154
 30
0.0
 11
24.4791776
 21
138.732937154
 31
0.0
  0
LINE
  8
0
  6
CONTINUOUS
 62
     1
 10
25.9299776
 20
136.919437154
 30
0.0
 11
24.8418776
 21
136.919437154
 31
0.0
  0
LINE
  8
0
  6
CONTINUOUS
 62
     1
 10
24.1164776
 20
136.919437154
 30
0.0
 11
23.0283776
 21
136.919437154
 31
0.0
  0
LINE
  8
0
  6
CONTINUOUS
 62
     1
 10
24.8418776
 20
135.831337154
 30
0.0
 11
24.1164776
 21
135.831337154
 31
0.0
  0
LINE
  8
0
  6
CONTINUOUS
 62
     1
 10
24.8418776
 20
136.919437154
 30
0.0
 11
24.8418776
 21
135.831337154
 31
0.0
  0
LINE
  8
0
  6
CONTINUOUS
 62
     1
 10
24.1164776
 20
135.831337154
 30
0.0
 11
24.1164776
 21
136.919437154
 31
0.0
  0
LINE
  8
0
  6
CONTINUOUS
 62
     1
 10
24.8418776
 20
137.644837154
 30
0.0
 11
25.9299776
 21
137.644837154
 31
0.0
  0
LINE
  8
0
  6
CONTINUOUS
 62
     1
 10
23.0283776
 20
137.644837154
 30
0.0
 11
24.1164776
 21
137.644837154
 31
0.0
  0
LINE
  8
0
  6
CONTINUOUS
 62
     1
 10
24.8418776
 20
138.732937154
 30
0.0
 11
24.8418776
 21
137.644837154
 31
0.0
  0
LINE
  8
0
  6
CONTINUOUS
 62
     1
 10
24.1164776
 20
137.644837154
 30
0.0
 11
24.1164776
 21
138.732937154
 31
0.0
  0
LINE
  8
0
  6
CONTINUOUS
 62
     1
 10
25.9299776
 20
137.644837154
 30
0.0
 11
25.9299776
 21
136.919437154
 31
0.0
  0
LINE
  8
0
  6
CONTINUOUS
 62
     1
 10
23.0283776
 20
136.919437154
 30
0.0
 11
23.0283776
 21
137.644837154
 31
0.0
  0
CIRCLE
  8
0
  6
CONTINUOUS
 62
     1
 10
24.4791776
 20
137.282137154
 30
0.0
 40
2.03112
  0
LINE
  8
0
  6
CONTINUOUS
 62
     1
 10
28.3963376
 20
139.530877154
 30
0.0
 11
20.1267776
 21
139.530877154
 31
0.0
  0
LINE
  8
0
  6
CONTINUOUS
 62
     1
 10
24.8418776
 20
145.986937154
 30
0.0
 11
24.8418776
 21
147.075037154
 31
0.0
  0
LINE
  8
0
  6
CONTINUOUS
 62
     1
 10
24.1164776
 20
147.075037154
 30
0.0
 11
24.1164776
 21
145.986937154
 31
0.0
  0
CIRCLE
  8
0
  6
CONTINUOUS
 62
     1
 10
24.4791776
 20
147.437737154
 30
0.0
 40
2.03112
  0
LINE
  8
0
  6
CONTINUOUS
 62
     1
 10
24.4791776
 20
133.655137154
 30
0.0
 11
24.8418776
 21
133.655137154
 31
0.0
  0
LINE
  8
0
  6
CONTINUOUS
 62
     1
 10
24.1164776
 20
133.655137154
 30
0.0
 11
24.4791776
 21
133.655137154
 31
0.0
  0
LINE
  8
0
  6
CONTINUOUS
 62
     1
 10
25.9299776
 20
131.841637154
 30
0.0
 11
24.8418776
 21
131.841637154
 31
0.0
  0
LINE
  8
0
  6
CONTINUOUS
 62
     1
 10
24.1164776
 20
131.841637154
 30
0.0
 11
23.0283776
 21
131.841637154
 31
0.0
  0
LINE
  8
0
  6
CONTINUOUS
 62
     1
 10
24.8418776
 20
130.753537154
 30
0.0
 11
24.1164776
 21
130.753537154
 31
0.0
  0
LINE
  8
0
  6
CONTINUOUS
 62
     1
 10
24.8418776
 20
131.841637154
 30
0.0
 11
24.8418776
 21
130.753537154
 31
0.0
  0
LINE
  8
0
  6
CONTINUOUS
 62
     1
 10
24.1164776
 20
130.753537154
 30
0.0
 11
24.1164776
 21
131.841637154
 31
0.0
  0
LINE
  8
0
  6
CONTINUOUS
 62
     1
 10
24.8418776
 20
132.567037154
 30
0.0
 11
25.9299776
 21
132.567037154
 31
0.0
  0
LINE
  8
0
  6
CONTINUOUS
 62
     1
 10
23.0283776
 20
132.567037154
 30
0.0
 11
24.1164776
 21
132.567037154
 31
0.0
  0
LINE
  8
0
  6
CONTINUOUS
 62
     1
 10
24.8418776
 20
133.655137154
 30
0.0
 11
24.8418776
 21
132.567037154
 31
0.0
  0
LINE
  8
0
  6
CONTINUOUS
 62
     1
 10
24.1164776
 20
132.567037154
 30
0.0
 11
24.1164776
 21
133.655137154
 31
0.0
  0
LINE
  8
0
  6
CONTINUOUS
 62
     1
 10
25.9299776
 20
132.567037154
 30
0.0
 11
25.9299776
 21
131.841637154
 31
0.0
  0
LINE
  8
0
  6
CONTINUOUS
 62
     1
 10
23.0283776
 20
131.841637154
 30
0.0
 11
23.0283776
 21
132.567037154
 31
0.0
  0
LINE
  8
0
  6
CONTINUOUS
 62
     1
 10
28.3963376
 20
129.955597154
 30
0.0
 11
20.1267776
 21
129.955597154
 31
0.0
  0
LINE
  8
0
  6
CONTINUOUS
 62
     1
 10
28.3963376
 20
129.375277154
 30
0.0
 11
20.1267776
 21
129.375277154
 31
0.0
  0
LINE
  8
0
  6
CONTINUOUS
 62
     1
 10
28.5414176
 20
124.152397154
 30
0.0
 11
28.5414176
 21
139.821037154
 31
0.0
  0
LINE
  8
0
  6
CONTINUOUS
 62
     1
 10
28.3963376
 20
135.033397154
 30
0.0
 11
20.1267776
 21
135.033397154
 31
0.0
  0
CIRCLE
  8
0
  6
CONTINUOUS
 62
     1
 10
24.4791776
 20
132.204337154
 30
0.0
 40
2.03112
  0
LINE
  8
0
  6
CONTINUOUS
 62
     1
 10
28.3963376
 20
134.453077154
 30
0.0
 11
20.1267776
 21
134.453077154
 31
0.0
  0
LINE
  8
0
  6
CONTINUOUS
 62
     1
 10
28.3963376
 20
124.152397154
 30
0.0
 11
28.3963376
 21
155.489677154
 31
0.0
  0
LINE
  8
0
  6
CONTINUOUS
 62
     1
 10
24.4791776
 20
128.577337154
 30
0.0
 11
24.8418776
 21
128.577337154
 31
0.0
  0
LINE
  8
0
  6
CONTINUOUS
 62
     1
 10
24.1164776
 20
128.577337154
 30
0.0
 11
24.4791776
 21
128.577337154
 31
0.0
  0
LINE
  8
0
  6
CONTINUOUS
 62
     1
 10
25.9299776
 20
126.763837154
 30
0.0
 11
24.8418776
 21
126.763837154
 31
0.0
  0
LINE
  8
0
  6
CONTINUOUS
 62
     1
 10
24.1164776
 20
126.763837154
 30
0.0
 11
23.0283776
 21
126.763837154
 31
0.0
  0
LINE
  8
0
  6
CONTINUOUS
 62
     1
 10
24.8418776
 20
127.489237154
 30
0.0
 11
25.9299776
 21
127.489237154
 31
0.0
  0
LINE
  8
0
  6
CONTINUOUS
 62
     1
 10
23.0283776
 20
127.489237154
 30
0.0
 11
24.1164776
 21
127.489237154
 31
0.0
  0
LINE
  8
0
  6
CONTINUOUS
 62
     1
 10
24.8418776
 20
128.577337154
 30
0.0
 11
24.8418776
 21
127.489237154
 31
0.0
  0
LINE
  8
0
  6
CONTINUOUS
 62
     1
 10
24.1164776
 20
127.489237154
 30
0.0
 11
24.1164776
 21
128.577337154
 31
0.0
  0
LINE
  8
0
  6
CONTINUOUS
 62
     1
 10
25.9299776
 20
127.489237154
 30
0.0
 11
25.9299776
 21
126.763837154
 31
0.0
  0
LINE
  8
0
  6
CONTINUOUS
 62
     1
 10
23.0283776
 20
126.763837154
 30
0.0
 11
23.0283776
 21
127.489237154
 31
0.0
  0
CIRCLE
  8
0
  6
CONTINUOUS
 62
     1
 10
24.4791776
 20
127.126537154
 30
0.0
 40
2.03112
  0
LINE
  8
0
  6
CONTINUOUS
 62
     1
 10
20.1267776
 20
124.152397154
 30
0.0
 11
20.1267776
 21
155.489677154
 31
0.0
  0
LINE
  8
0
  6
CONTINUOUS
 62
     1
 10
20.1267776
 20
154.764277154
 30
0.0
 11
20.1267776
 21
124.877797154
 31
0.0
  0
LINE
  8
0
  6
CONTINUOUS
 62
     1
 10
24.8418776
 20
125.675737154
 30
0.0
 11
24.1164776
 21
125.675737154
 31
0.0
  0
LINE
  8
0
  6
CONTINUOUS
 62
     1
 10
24.8418776
 20
126.763837154
 30
0.0
 11
24.8418776
 21
125.675737154
 31
0.0
  0
LINE
  8
0
  6
CONTINUOUS
 62
     1
 10
24.1164776
 20
125.675737154
 30
0.0
 11
24.1164776
 21
126.763837154
 31
0.0
  0
LINE
  8
0
  6
CONTINUOUS
 62
     1
 10
67.7130176
 20
137.826187154
 30
0.0
 11
70.9773176
 21
137.826187154
 31
0.0
  0
LINE
  8
0
  6
CONTINUOUS
 62
     1
 10
70.9773176
 20
126.582487154
 30
0.0
 11
67.7130176
 21
126.582487154
 31
0.0
  0
LINE
  8
0
  6
CONTINUOUS
 62
     1
 10
31.8057176
 20
153.059587154
 30
0.0
 11
29.2124126
 21
153.059587154
 31
0.0
  0
LINE
  8
0
  6
CONTINUOUS
 62
     1
 10
29.2124126
 20
141.815887154
 30
0.0
 11
31.8057176
 21
141.815887154
 31
0.0
  0
LINE
  8
0
  6
CONTINUOUS
 62
     1
 10
29.2124126
 20
125.240497154
 30
0.0
 11
29.2124126
 21
141.815887154
 31
0.0
  0
LINE
  8
0
  6
CONTINUOUS
 62
     1
 10
75.0395576
 20
145.986937154
 30
0.0
 11
74.6768576
 21
145.986937154
 31
0.0
  0
LINE
  8
0
  6
CONTINUOUS
 62
     1
 10
75.4022576
 20
145.986937154
 30
0.0
 11
75.0395576
 21
145.986937154
 31
0.0
  0
LINE
  8
0
  6
CONTINUOUS
 62
     1
 10
73.5887576
 20
147.800437154
 30
0.0
 11
74.6768576
 21
147.800437154
 31
0.0
  0
LINE
  8
0
  6
CONTINUOUS
 62
     1
 10
75.4022576
 20
147.800437154
 30
0.0
 11
76.4903576
 21
147.800437154
 31
0.0
  0
LINE
  8
0
  6
CONTINUOUS
 62
     1
 10
74.6768576
 20
148.888537154
 30
0.0
 11
75.4022576
 21
148.888537154
 31
0.0
  0
LINE
  8
0
  6
CONTINUOUS
 62
     1
 10
74.6768576
 20
147.800437154
 30
0.0
 11
74.6768576
 21
148.888537154
 31
0.0
  0
LINE
  8
0
  6
CONTINUOUS
 62
     1
 10
75.4022576
 20
148.888537154
 30
0.0
 11
75.4022576
 21
147.800437154
 31
0.0
  0
LINE
  8
0
  6
CONTINUOUS
 62
     1
 10
74.6768576
 20
147.075037154
 30
0.0
 11
73.5887576
 21
147.075037154
 31
0.0
  0
LINE
  8
0
  6
CONTINUOUS
 62
     1
 10
76.4903576
 20
147.075037154
 30
0.0
 11
75.4022576
 21
147.075037154
 31
0.0
  0
LINE
  8
0
  6
CONTINUOUS
 62
     1
 10
74.6768576
 20
145.986937154
 30
0.0
 11
74.6768576
 21
147.075037154
 31
0.0
  0
LINE
  8
0
  6
CONTINUOUS
 62
     1
 10
75.4022576
 20
147.075037154
 30
0.0
 11
75.4022576
 21
145.986937154
 31
0.0
  0
LINE
  8
0
  6
CONTINUOUS
 62
     1
 10
73.5887576
 20
147.075037154
 30
0.0
 11
73.5887576
 21
147.800437154
 31
0.0
  0
LINE
  8
0
  6
CONTINUOUS
 62
     1
 10
76.4903576
 20
147.800437154
 30
0.0
 11
76.4903576
 21
147.075037154
 31
0.0
  0
LINE
  8
0
  6
CONTINUOUS
 62
     1
 10
71.1223976
 20
149.686477154
 30
0.0
 11
79.3919576
 21
149.686477154
 31
0.0
  0
LINE
  8
0
  6
CONTINUOUS
 62
     1
 10
75.0395576
 20
151.064737154
 30
0.0
 11
74.6768576
 21
151.064737154
 31
0.0
  0
LINE
  8
0
  6
CONTINUOUS
 62
     1
 10
75.4022576
 20
151.064737154
 30
0.0
 11
75.0395576
 21
151.064737154
 31
0.0
  0
LINE
  8
0
  6
CONTINUOUS
 62
     1
 10
73.5887576
 20
152.878237154
 30
0.0
 11
74.6768576
 21
152.878237154
 31
0.0
  0
LINE
  8
0
  6
CONTINUOUS
 62
     1
 10
75.4022576
 20
152.878237154
 30
0.0
 11
76.4903576
 21
152.878237154
 31
0.0
  0
LINE
  8
0
  6
CONTINUOUS
 62
     1
 10
74.6768576
 20
153.966337154
 30
0.0
 11
75.4022576
 21
153.966337154
 31
0.0
  0
LINE
  8
0
  6
CONTINUOUS
 62
     1
 10
74.6768576
 20
152.878237154
 30
0.0
 11
74.6768576
 21
153.966337154
 31
0.0
  0
LINE
  8
0
  6
CONTINUOUS
 62
     1
 10
75.4022576
 20
153.966337154
 30
0.0
 11
75.4022576
 21
152.878237154
 31
0.0
  0
LINE
  8
0
  6
CONTINUOUS
 62
     1
 10
74.6768576
 20
152.152837154
 30
0.0
 11
73.5887576
 21
152.152837154
 31
0.0
  0
LINE
  8
0
  6
CONTINUOUS
 62
     1
 10
76.4903576
 20
152.152837154
 30
0.0
 11
75.4022576
 21
152.152837154
 31
0.0
  0
LINE
  8
0
  6
CONTINUOUS
 62
     1
 10
74.6768576
 20
151.064737154
 30
0.0
 11
74.6768576
 21
152.152837154
 31
0.0
  0
LINE
  8
0
  6
CONTINUOUS
 62
     1
 10
75.4022576
 20
152.152837154
 30
0.0
 11
75.4022576
 21
151.064737154
 31
0.0
  0
LINE
  8
0
  6
CONTINUOUS
 62
     1
 10
73.5887576
 20
152.152837154
 30
0.0
 11
73.5887576
 21
152.878237154
 31
0.0
  0
LINE
  8
0
  6
CONTINUOUS
 62
     1
 10
76.4903576
 20
152.878237154
 30
0.0
 11
76.4903576
 21
152.152837154
 31
0.0
  0
CIRCLE
  8
0
  6
CONTINUOUS
 62
     1
 10
75.0395576
 20
152.515537154
 30
0.0
 40
2.03112
  0
LINE
  8
0
  6
CONTINUOUS
 62
     1
 10
71.1223976
 20
150.266797154
 30
0.0
 11
79.3919576
 21
150.266797154
 31
0.0
  0
LINE
  8
0
  6
CONTINUOUS
 62
     1
 10
71.1223976
 20
154.764277154
 30
0.0
 11
79.3919576
 21
154.764277154
 31
0.0
  0
LINE
  8
0
  6
CONTINUOUS
 62
     1
 10
73.5887576
 20
136.919437154
 30
0.0
 11
74.6768576
 21
136.919437154
 31
0.0
  0
LINE
  8
0
  6
CONTINUOUS
 62
     1
 10
75.4022576
 20
136.919437154
 30
0.0
 11
76.4903576
 21
136.919437154
 31
0.0
  0
LINE
  8
0
  6
CONTINUOUS
 62
     1
 10
74.6768576
 20
135.831337154
 30
0.0
 11
75.4022576
 21
135.831337154
 31
0.0
  0
LINE
  8
0
  6
CONTINUOUS
 62
     1
 10
74.6768576
 20
136.919437154
 30
0.0
 11
74.6768576
 21
135.831337154
 31
0.0
  0
LINE
  8
0
  6
CONTINUOUS
 62
     1
 10
75.4022576
 20
135.831337154
 30
0.0
 11
75.4022576
 21
136.919437154
 31
0.0
  0
LINE
  8
0
  6
CONTINUOUS
 62
     1
 10
74.6768576
 20
137.644837154
 30
0.0
 11
73.5887576
 21
137.644837154
 31
0.0
  0
LINE
  8
0
  6
CONTINUOUS
 62
     1
 10
76.4903576
 20
137.644837154
 30
0.0
 11
75.4022576
 21
137.644837154
 31
0.0
  0
LINE
  8
0
  6
CONTINUOUS
 62
     1
 10
73.5887576
 20
137.644837154
 30
0.0
 11
73.5887576
 21
136.919437154
 31
0.0
  0
LINE
  8
0
  6
CONTINUOUS
 62
     1
 10
76.4903576
 20
136.919437154
 30
0.0
 11
76.4903576
 21
137.644837154
 31
0.0
  0
LINE
  8
0
  6
CONTINUOUS
 62
     1
 10
71.1223976
 20
135.033397154
 30
0.0
 11
79.3919576
 21
135.033397154
 31
0.0
  0
LINE
  8
0
  6
CONTINUOUS
 62
     1
 10
75.0395576
 20
133.655137154
 30
0.0
 11
74.6768576
 21
133.655137154
 31
0.0
  0
LINE
  8
0
  6
CONTINUOUS
 62
     1
 10
75.4022576
 20
133.655137154
 30
0.0
 11
75.0395576
 21
133.655137154
 31
0.0
  0
LINE
  8
0
  6
CONTINUOUS
 62
     1
 10
73.5887576
 20
131.841637154
 30
0.0
 11
74.6768576
 21
131.841637154
 31
0.0
  0
LINE
  8
0
  6
CONTINUOUS
 62
     1
 10
75.4022576
 20
131.841637154
 30
0.0
 11
76.4903576
 21
131.841637154
 31
0.0
  0
LINE
  8
0
  6
CONTINUOUS
 62
     1
 10
74.6768576
 20
130.753537154
 30
0.0
 11
75.4022576
 21
130.753537154
 31
0.0
  0
LINE
  8
0
  6
CONTINUOUS
 62
     1
 10
74.6768576
 20
131.841637154
 30
0.0
 11
74.6768576
 21
130.753537154
 31
0.0
  0
LINE
  8
0
  6
CONTINUOUS
 62
     1
 10
75.4022576
 20
130.753537154
 30
0.0
 11
75.4022576
 21
131.841637154
 31
0.0
  0
LINE
  8
0
  6
CONTINUOUS
 62
     1
 10
74.6768576
 20
132.567037154
 30
0.0
 11
73.5887576
 21
132.567037154
 31
0.0
  0
LINE
  8
0
  6
CONTINUOUS
 62
     1
 10
76.4903576
 20
132.567037154
 30
0.0
 11
75.4022576
 21
132.567037154
 31
0.0
  0
LINE
  8
0
  6
CONTINUOUS
 62
     1
 10
74.6768576
 20
133.655137154
 30
0.0
 11
74.6768576
 21
132.567037154
 31
0.0
  0
LINE
  8
0
  6
CONTINUOUS
 62
     1
 10
75.4022576
 20
132.567037154
 30
0.0
 11
75.4022576
 21
133.655137154
 31
0.0
  0
LINE
  8
0
  6
CONTINUOUS
 62
     1
 10
73.5887576
 20
132.567037154
 30
0.0
 11
73.5887576
 21
131.841637154
 31
0.0
  0
LINE
  8
0
  6
CONTINUOUS
 62
     1
 10
76.4903576
 20
131.841637154
 30
0.0
 11
76.4903576
 21
132.567037154
 31
0.0
  0
CIRCLE
  8
0
  6
CONTINUOUS
 62
     1
 10
75.0395576
 20
132.204337154
 30
0.0
 40
2.03112
  0
LINE
  8
0
  6
CONTINUOUS
 62
     1
 10
71.1223976
 20
134.453077154
 30
0.0
 11
79.3919576
 21
134.453077154
 31
0.0
  0
LINE
  8
0
  6
CONTINUOUS
 62
     1
 10
71.1223976
 20
129.955597154
 30
0.0
 11
79.3919576
 21
129.955597154
 31
0.0
  0
LINE
  8
0
  6
CONTINUOUS
 62
     1
 10
75.0395576
 20
128.577337154
 30
0.0
 11
74.6768576
 21
128.577337154
 31
0.0
  0
LINE
  8
0
  6
CONTINUOUS
 62
     1
 10
75.4022576
 20
128.577337154
 30
0.0
 11
75.0395576
 21
128.577337154
 31
0.0
  0
LINE
  8
0
  6
CONTINUOUS
 62
     1
 10
73.5887576
 20
126.763837154
 30
0.0
 11
74.6768576
 21
126.763837154
 31
0.0
  0
LINE
  8
0
  6
CONTINUOUS
 62
     1
 10
75.4022576
 20
126.763837154
 30
0.0
 11
76.4903576
 21
126.763837154
 31
0.0
  0
LINE
  8
0
  6
CONTINUOUS
 62
     1
 10
74.6768576
 20
125.675737154
 30
0.0
 11
75.4022576
 21
125.675737154
 31
0.0
  0
LINE
  8
0
  6
CONTINUOUS
 62
     1
 10
74.6768576
 20
126.763837154
 30
0.0
 11
74.6768576
 21
125.675737154
 31
0.0
  0
LINE
  8
0
  6
CONTINUOUS
 62
     1
 10
75.4022576
 20
125.675737154
 30
0.0
 11
75.4022576
 21
126.763837154
 31
0.0
  0
LINE
  8
0
  6
CONTINUOUS
 62
     1
 10
74.6768576
 20
127.489237154
 30
0.0
 11
73.5887576
 21
127.489237154
 31
0.0
  0
LINE
  8
0
  6
CONTINUOUS
 62
     1
 10
76.4903576
 20
127.489237154
 30
0.0
 11
75.4022576
 21
127.489237154
 31
0.0
  0
LINE
  8
0
  6
CONTINUOUS
 62
     1
 10
74.6768576
 20
128.577337154
 30
0.0
 11
74.6768576
 21
127.489237154
 31
0.0
  0
LINE
  8
0
  6
CONTINUOUS
 62
     1
 10
75.4022576
 20
127.489237154
 30
0.0
 11
75.4022576
 21
128.577337154
 31
0.0
  0
LINE
  8
0
  6
CONTINUOUS
 62
     1
 10
73.5887576
 20
127.489237154
 30
0.0
 11
73.5887576
 21
126.763837154
 31
0.0
  0
LINE
  8
0
  6
CONTINUOUS
 62
     1
 10
76.4903576
 20
126.763837154
 30
0.0
 11
76.4903576
 21
127.489237154
 31
0.0
  0
CIRCLE
  8
0
  6
CONTINUOUS
 62
     1
 10
75.0395576
 20
127.126537154
 30
0.0
 40
2.03112
  0
LINE
  8
0
  6
CONTINUOUS
 62
     1
 10
71.1223976
 20
129.375277154
 30
0.0
 11
79.3919576
 21
129.375277154
 31
0.0
  0
LINE
  8
0
  6
CONTINUOUS
 62
     1
 10
71.1223976
 20
124.877797154
 30
0.0
 11
79.3919576
 21
124.877797154
 31
0.0
  0
LINE
  8
0
  6
CONTINUOUS
 62
     1
 10
75.0395576
 20
138.732937154
 30
0.0
 11
74.6768576
 21
138.732937154
 31
0.0
  0
LINE
  8
0
  6
CONTINUOUS
 62
     1
 10
75.4022576
 20
138.732937154
 30
0.0
 11
75.0395576
 21
138.732937154
 31
0.0
  0
LINE
  8
0
  6
CONTINUOUS
 62
     1
 10
71.1223976
 20
139.530877154
 30
0.0
 11
79.3919576
 21
139.530877154
 31
0.0
  0
LINE
  8
0
  6
CONTINUOUS
 62
     1
 10
74.6768576
 20
138.732937154
 30
0.0
 11
74.6768576
 21
137.644837154
 31
0.0
  0
LINE
  8
0
  6
CONTINUOUS
 62
     1
 10
75.4022576
 20
137.644837154
 30
0.0
 11
75.4022576
 21
138.732937154
 31
0.0
  0
CIRCLE
  8
0
  6
CONTINUOUS
 62
     1
 10
75.0395576
 20
137.282137154
 30
0.0
 40
2.03112
  0
LINE
  8
0
  6
CONTINUOUS
 62
     1
 10
75.0395576
 20
140.909137154
 30
0.0
 11
74.6768576
 21
140.909137154
 31
0.0
  0
LINE
  8
0
  6
CONTINUOUS
 62
     1
 10
75.4022576
 20
140.909137154
 30
0.0
 11
75.0395576
 21
140.909137154
 31
0.0
  0
LINE
  8
0
  6
CONTINUOUS
 62
     1
 10
73.5887576
 20
142.722637154
 30
0.0
 11
74.6768576
 21
142.722637154
 31
0.0
  0
LINE
  8
0
  6
CONTINUOUS
 62
     1
 10
75.4022576
 20
142.722637154
 30
0.0
 11
76.4903576
 21
142.722637154
 31
0.0
  0
LINE
  8
0
  6
CONTINUOUS
 62
     1
 10
74.6768576
 20
141.997237154
 30
0.0
 11
73.5887576
 21
141.997237154
 31
0.0
  0
LINE
  8
0
  6
CONTINUOUS
 62
     1
 10
76.4903576
 20
141.997237154
 30
0.0
 11
75.4022576
 21
141.997237154
 31
0.0
  0
LINE
  8
0
  6
CONTINUOUS
 62
     1
 10
74.6768576
 20
140.909137154
 30
0.0
 11
74.6768576
 21
141.997237154
 31
0.0
  0
LINE
  8
0
  6
CONTINUOUS
 62
     1
 10
75.4022576
 20
141.997237154
 30
0.0
 11
75.4022576
 21
140.909137154
 31
0.0
  0
LINE
  8
0
  6
CONTINUOUS
 62
     1
 10
73.5887576
 20
141.997237154
 30
0.0
 11
73.5887576
 21
142.722637154
 31
0.0
  0
LINE
  8
0
  6
CONTINUOUS
 62
     1
 10
76.4903576
 20
142.722637154
 30
0.0
 11
76.4903576
 21
141.997237154
 31
0.0
  0
LINE
  8
0
  6
CONTINUOUS
 62
     1
 10
74.6768576
 20
143.810737154
 30
0.0
 11
75.4022576
 21
143.810737154
 31
0.0
  0
LINE
  8
0
  6
CONTINUOUS
 62
     1
 10
74.6768576
 20
142.722637154
 30
0.0
 11
74.6768576
 21
143.810737154
 31
0.0
  0
LINE
  8
0
  6
CONTINUOUS
 62
     1
 10
75.4022576
 20
143.810737154
 30
0.0
 11
75.4022576
 21
142.722637154
 31
0.0
  0
LINE
  8
0
  6
CONTINUOUS
 62
     1
 10
71.1223976
 20
144.608677154
 30
0.0
 11
79.3919576
 21
144.608677154
 31
0.0
  0
CIRCLE
  8
0
  6
CONTINUOUS
 62
     1
 10
75.0395576
 20
147.437737154
 30
0.0
 40
2.03112
  0
LINE
  8
0
  6
CONTINUOUS
 62
     1
 10
71.1223976
 20
145.188997154
 30
0.0
 11
79.3919576
 21
145.188997154
 31
0.0
  0
LINE
  8
0
  6
CONTINUOUS
 62
     1
 10
71.1223976
 20
140.111197154
 30
0.0
 11
79.3919576
 21
140.111197154
 31
0.0
  0
CIRCLE
  8
0
  6
CONTINUOUS
 62
     1
 10
75.0395576
 20
142.359937154
 30
0.0
 40
2.03112
  0
LINE
  8
0
  6
CONTINUOUS
 62
     1
 10
79.3919576
 20
124.877797154
 30
0.0
 11
79.3919576
 21
154.764277154
 31
0.0
  0
LINE
  8
0
  6
CONTINUOUS
 62
     1
 10
71.1223976
 20
155.489677154
 30
0.0
 11
71.1223976
 21
124.152397154
 31
0.0
  0
TEXT
  8
0
  6
CONTINUOUS
 62
     1
 10
23.0
 20
158.0
 30
0.0
 40
3.0
  1
１
 50
0.0
 41
1.0
 51
0.0
  7
KANJI0
  0
TEXT
  8
0
  6
CONTINUOUS
 62
     1
 10
41.0
 20
158.0
 30
0.0
 40
3.0
  1
２
 50
0.0
 41
1.0
 51
0.0
  7
KANJI0
  0
TEXT
  8
0
  6
CONTINUOUS
 62
     1
 10
57.0
 20
158.0
 30
0.0
 40
3.0
  1
３
 50
0.0
 41
1.0
 51
0.0
  7
KANJI0
  0
TEXT
  8
0
  6
CONTINUOUS
 62
     1
 10
73.0
 20
158.0
 30
0.0
 40
3.0
  1
４
 50
0.0
 41
1.0
 51
0.0
  7
KANJI0
  0
LINE
  8
0
  6
CONTINUOUS
 62
     1
 10
75.5
 20
121.0
 30
0.0
 11
73.5
 21
117.0
 31
0.0
  0
LINE
  8
0
  6
CONTINUOUS
 62
     1
 10
75.5
 20
121.0
 30
0.0
 11
77.5
 21
117.0
 31
0.0
  0
LINE
  8
0
  6
CONTINUOUS
 62
     1
 10
42.5
 20
121.0
 30
0.0
 11
40.5
 21
117.0
 31
0.0
  0
LINE
  8
0
  6
CONTINUOUS
 62
     1
 10
42.5
 20
121.0
 30
0.0
 11
44.5
 21
117.0
 31
0.0
  0
LINE
  8
0
  6
CONTINUOUS
 62
     1
 10
24.5
 20
111.0
 30
0.0
 11
24.5
 21
121.0
 31
0.0
  0
LINE
  8
0
  6
CONTINUOUS
 62
     1
 10
24.5
 20
121.0
 30
0.0
 11
22.5
 21
117.0
 31
0.0
  0
LINE
  8
0
  6
CONTINUOUS
 62
     1
 10
24.5
 20
121.0
 30
0.0
 11
26.5
 21
117.0
 31
0.0
  0
LINE
  8
0
  6
CONTINUOUS
 62
     1
 10
41.6635476
 20
155.489677154
 30
0.0
 11
44.6014176
 21
155.489677154
 31
0.0
  0
LINE
  8
0
  6
CONTINUOUS
 62
     1
 10
36.1867776
 20
155.489677154
 30
0.0
 11
44.6014176
 21
155.489677154
 31
0.0
  0
LINE
  8
0
  6
CONTINUOUS
 62
     1
 10
36.1867776
 20
125.240497154
 30
0.0
 11
36.1867776
 21
125.313037154
 31
0.0
  0
LINE
  8
0
  6
CONTINUOUS
 62
     1
 10
41.6635476
 20
124.152397154
 30
0.0
 11
44.6014176
 21
124.152397154
 31
0.0
  0
LINE
  8
0
  6
CONTINUOUS
 62
     1
 10
36.1867776
 20
124.152397154
 30
0.0
 11
44.6014176
 21
124.152397154
 31
0.0
  0
POINT
  8
0
  6
CONTINUOUS
 62
     1
 10
38.6168676
 20
124.152397154
 30
0.0
  0
LINE
  8
0
  6
CONTINUOUS
 62
     1
 10
47.8657176
 20
153.059587154
 30
0.0
 11
47.8657176
 21
141.815887154
 31
0.0
  0
ARC
  8
0
  6
CONTINUOUS
 62
     1
 10
46.7776176
 20
151.971487154
 30
0.0
 40
0.3627
 50
0.0
 51
90.0
  0
ARC
  8
0
  6
CONTINUOUS
 62
     1
 10
46.7776176
 20
142.903987154
 30
0.0
 40
0.3627
 50
270.0
 51
0.0
  0
LINE
  8
0
  6
CONTINUOUS
 62
     1
 10
49.0444926
 20
154.401577154
 30
0.0
 11
49.0444926
 21
152.805697154
 31
0.0
  0
LINE
  8
0
  6
CONTINUOUS
 62
     1
 10
45.6351126
 20
155.054437154
 30
0.0
 11
48.8268726
 21
155.054437154
 31
0.0
  0
LINE
  8
0
  6
CONTINUOUS
 62
     1
 10
49.0444926
 20
125.240497154
 30
0.0
 11
49.0444926
 21
152.805697154
 31
0.0
  0
LINE
  8
0
  6
CONTINUOUS
 62
     1
 10
45.6351126
 20
124.587637154
 30
0.0
 11
48.8268726
 21
124.587637154
 31
0.0
  0
LINE
  8
0
  6
CONTINUOUS
 62
     1
 10
48.8268726
 20
124.587637154
 30
0.0
 11
45.6351126
 21
124.587637154
 31
0.0
  0
LINE
  8
0
  6
CONTINUOUS
 62
     1
 10
34.5908976
 20
155.054437154
 30
0.0
 11
35.4613776
 21
155.054437154
 31
0.0
  0
LINE
  8
0
  6
CONTINUOUS
 62
     1
 10
34.5908976
 20
124.587637154
 30
0.0
 11
35.4613776
 21
124.587637154
 31
0.0
  0
LINE
  8
0
  6
CONTINUOUS
 62
     1
 10
46.7776176
 20
148.163137154
 30
0.0
 11
45.3993576
 21
148.163137154
 31
0.0
  0
LINE
  8
0
  6
CONTINUOUS
 62
     1
 10
46.7957526
 20
146.712337154
 30
0.0
 11
45.4174926
 21
146.712337154
 31
0.0
  0
LINE
  8
0
  6
CONTINUOUS
 62
     1
 10
47.1403176
 20
151.971487154
 30
0.0
 11
47.1403176
 21
148.525838132
 31
0.0
  0
ARC
  8
0
  6
CONTINUOUS
 62
     1
 10
46.7776176
 20
148.525837154
 30
0.0
 40
0.3627
 50
270.0
 51
0.00015455
  0
ARC
  8
0
  6
CONTINUOUS
 62
     1
 10
46.7957526
 20
146.349637154
 30
0.0
 40
0.3627
 50
18.194872339
 51
90.0
  0
LINE
  8
0
  6
CONTINUOUS
 62
     1
 10
47.1403176
 20
146.462890192
 30
0.0
 11
47.1403176
 21
142.903987154
 31
0.0
  0
LINE
  8
0
  6
CONTINUOUS
 62
     1
 10
46.7776176
 20
148.163137154
 30
0.0
 11
45.2724126
 21
148.163137154
 31
0.0
  0
LINE
  8
0
  6
CONTINUOUS
 62
     1
 10
46.7957526
 20
146.712337154
 30
0.0
 11
45.2724126
 21
146.712337154
 31
0.0
  0
LINE
  8
0
  6
CONTINUOUS
 62
     1
 10
45.2724126
 20
154.401577154
 30
0.0
 11
49.0444926
 21
154.401577154
 31
0.0
  0
LINE
  8
0
  6
CONTINUOUS
 62
     1
 10
45.2724126
 20
153.059587154
 30
0.0
 11
45.2724126
 21
154.401577154
 31
0.0
  0
LINE
  8
0
  6
CONTINUOUS
 62
     1
 10
45.2724126
 20
125.240497154
 30
0.0
 11
49.0444926
 21
125.240497154
 31
0.0
  0
LINE
  8
0
  6
CONTINUOUS
 62
     1
 10
35.4613776
 20
155.054437154
 30
0.0
 11
35.4613776
 21
155.997457154
 31
0.0
  0
LINE
  8
0
  6
CONTINUOUS
 62
     1
 10
34.5908976
 20
155.997457154
 30
0.0
 11
34.5908976
 21
155.054437154
 31
0.0
  0
LINE
  8
0
  6
CONTINUOUS
 62
     1
 10
45.6351126
 20
155.054437154
 30
0.0
 11
45.6351126
 21
155.997457154
 31
0.0
  0
LINE
  8
0
  6
CONTINUOUS
 62
     1
 10
48.8268726
 20
155.054437154
 30
0.0
 11
48.8268726
 21
155.997457154
 31
0.0
  0
LINE
  8
0
  6
CONTINUOUS
 62
     1
 10
48.8268726
 20
124.587637154
 30
0.0
 11
48.8268726
 21
123.644617154
 31
0.0
  0
LINE
  8
0
  6
CONTINUOUS
 62
     1
 10
45.6351126
 20
124.587637154
 30
0.0
 11
45.6351126
 21
123.644617154
 31
0.0
  0
LINE
  8
0
  6
CONTINUOUS
 62
     1
 10
35.4613776
 20
124.587637154
 30
0.0
 11
35.4613776
 21
123.644617154
 31
0.0
  0
LINE
  8
0
  6
CONTINUOUS
 62
     1
 10
34.5908976
 20
123.644617154
 30
0.0
 11
34.5908976
 21
124.587637154
 31
0.0
  0
LINE
  8
0
  6
CONTINUOUS
 62
     1
 10
45.5263026
 20
153.059587154
 30
0.0
 11
45.5263026
 21
152.116567154
 31
0.0
  0
LINE
  8
0
  6
CONTINUOUS
 62
     1
 10
44.6014176
 20
152.116567154
 30
0.0
 11
45.5263026
 21
152.116567154
 31
0.0
  0
LINE
  8
0
  6
CONTINUOUS
 62
     1
 10
46.7776176
 20
152.334187154
 30
0.0
 11
45.5263026
 21
152.334187154
 31
0.0
  0
LINE
  8
0
  6
CONTINUOUS
 62
     1
 10
44.4563376
 20
154.764277154
 30
0.0
 11
36.1867776
 21
154.764277154
 31
0.0
  0
LINE
  8
0
  6
CONTINUOUS
 62
     1
 10
44.4563376
 20
150.266797154
 30
0.0
 11
36.1867776
 21
150.266797154
 31
0.0
  0
LINE
  8
0
  6
CONTINUOUS
 62
     1
 10
40.5391776
 20
151.064737154
 30
0.0
 11
40.9018776
 21
151.064737154
 31
0.0
  0
LINE
  8
0
  6
CONTINUOUS
 62
     1
 10
40.9018776
 20
152.152837154
 30
0.0
 11
41.9899776
 21
152.152837154
 31
0.0
  0
LINE
  8
0
  6
CONTINUOUS
 62
     1
 10
40.9018776
 20
151.064737154
 30
0.0
 11
40.9018776
 21
152.152837154
 31
0.0
  0
LINE
  8
0
  6
CONTINUOUS
 62
     1
 10
40.9018776
 20
153.966337154
 30
0.0
 11
40.1764776
 21
153.966337154
 31
0.0
  0
LINE
  8
0
  6
CONTINUOUS
 62
     1
 10
41.9899776
 20
152.878237154
 30
0.0
 11
40.9018776
 21
152.878237154
 31
0.0
  0
LINE
  8
0
  6
CONTINUOUS
 62
     1
 10
40.1764776
 20
152.878237154
 30
0.0
 11
39.0883776
 21
152.878237154
 31
0.0
  0
LINE
  8
0
  6
CONTINUOUS
 62
     1
 10
41.9899776
 20
152.152837154
 30
0.0
 11
41.9899776
 21
152.878237154
 31
0.0
  0
LINE
  8
0
  6
CONTINUOUS
 62
     1
 10
40.9018776
 20
152.878237154
 30
0.0
 11
40.9018776
 21
153.966337154
 31
0.0
  0
LINE
  8
0
  6
CONTINUOUS
 62
     1
 10
40.1764776
 20
153.966337154
 30
0.0
 11
40.1764776
 21
152.878237154
 31
0.0
  0
LINE
  8
0
  6
CONTINUOUS
 62
     1
 10
40.1764776
 20
151.064737154
 30
0.0
 11
40.5391776
 21
151.064737154
 31
0.0
  0
LINE
  8
0
  6
CONTINUOUS
 62
     1
 10
39.0883776
 20
152.152837154
 30
0.0
 11
40.1764776
 21
152.152837154
 31
0.0
  0
LINE
  8
0
  6
CONTINUOUS
 62
     1
 10
40.1764776
 20
152.152837154
 30
0.0
 11
40.1764776
 21
151.064737154
 31
0.0
  0
CIRCLE
  8
0
  6
CONTINUOUS
 62
     1
 10
40.5391776
 20
152.515537154
 30
0.0
 40
2.03112
  0
LINE
  8
0
  6
CONTINUOUS
 62
     1
 10
39.0883776
 20
152.878237154
 30
0.0
 11
39.0883776
 21
152.152837154
 31
0.0
  0
LINE
  8
0
  6
CONTINUOUS
 62
     1
 10
41.9899776
 20
147.800437154
 30
0.0
 11
40.9018776
 21
147.800437154
 31
0.0
  0
LINE
  8
0
  6
CONTINUOUS
 62
     1
 10
40.1764776
 20
147.800437154
 30
0.0
 11
39.0883776
 21
147.800437154
 31
0.0
  0
LINE
  8
0
  6
CONTINUOUS
 62
     1
 10
40.9018776
 20
148.888537154
 30
0.0
 11
40.1764776
 21
148.888537154
 31
0.0
  0
LINE
  8
0
  6
CONTINUOUS
 62
     1
 10
40.9018776
 20
147.800437154
 30
0.0
 11
40.9018776
 21
148.888537154
 31
0.0
  0
LINE
  8
0
  6
CONTINUOUS
 62
     1
 10
40.1764776
 20
148.888537154
 30
0.0
 11
40.1764776
 21
147.800437154
 31
0.0
  0
LINE
  8
0
  6
CONTINUOUS
 62
     1
 10
40.9018776
 20
147.075037154
 30
0.0
 11
41.9899776
 21
147.075037154
 31
0.0
  0
LINE
  8
0
  6
CONTINUOUS
 62
     1
 10
39.0883776
 20
147.075037154
 30
0.0
 11
40.1764776
 21
147.075037154
 31
0.0
  0
LINE
  8
0
  6
CONTINUOUS
 62
     1
 10
41.9899776
 20
147.075037154
 30
0.0
 11
41.9899776
 21
147.800437154
 31
0.0
  0
LINE
  8
0
  6
CONTINUOUS
 62
     1
 10
44.4563376
 20
149.686477154
 30
0.0
 11
36.1867776
 21
149.686477154
 31
0.0
  0
LINE
  8
0
  6
CONTINUOUS
 62
     1
 10
44.6014176
 20
139.821037154
 30
0.0
 11
44.6014176
 21
155.489677154
 31
0.0
  0
LINE
  8
0
  6
CONTINUOUS
 62
     1
 10
45.5263026
 20
142.758907154
 30
0.0
 11
45.5263026
 21
141.815887154
 31
0.0
  0
LINE
  8
0
  6
CONTINUOUS
 62
     1
 10
46.7776176
 20
142.541287154
 30
0.0
 11
45.5263026
 21
142.541287154
 31
0.0
  0
LINE
  8
0
  6
CONTINUOUS
 62
     1
 10
45.2724126
 20
142.758907154
 30
0.0
 11
45.2724126
 21
152.116567154
 31
0.0
  0
LINE
  8
0
  6
CONTINUOUS
 62
     1
 10
45.5263026
 20
142.758907154
 30
0.0
 11
44.6014176
 21
142.758907154
 31
0.0
  0
LINE
  8
0
  6
CONTINUOUS
 62
     1
 10
40.5391776
 20
140.909137154
 30
0.0
 11
40.9018776
 21
140.909137154
 31
0.0
  0
LINE
  8
0
  6
CONTINUOUS
 62
     1
 10
40.1764776
 20
140.909137154
 30
0.0
 11
40.5391776
 21
140.909137154
 31
0.0
  0
LINE
  8
0
  6
CONTINUOUS
 62
     1
 10
41.9899776
 20
142.722637154
 30
0.0
 11
40.9018776
 21
142.722637154
 31
0.0
  0
LINE
  8
0
  6
CONTINUOUS
 62
     1
 10
40.1764776
 20
142.722637154
 30
0.0
 11
39.0883776
 21
142.722637154
 31
0.0
  0
LINE
  8
0
  6
CONTINUOUS
 62
     1
 10
40.9018776
 20
143.810737154
 30
0.0
 11
40.1764776
 21
143.810737154
 31
0.0
  0
LINE
  8
0
  6
CONTINUOUS
 62
     1
 10
40.9018776
 20
142.722637154
 30
0.0
 11
40.9018776
 21
143.810737154
 31
0.0
  0
LINE
  8
0
  6
CONTINUOUS
 62
     1
 10
40.1764776
 20
143.810737154
 30
0.0
 11
40.1764776
 21
142.722637154
 31
0.0
  0
LINE
  8
0
  6
CONTINUOUS
 62
     1
 10
40.9018776
 20
141.997237154
 30
0.0
 11
41.9899776
 21
141.997237154
 31
0.0
  0
LINE
  8
0
  6
CONTINUOUS
 62
     1
 10
39.0883776
 20
141.997237154
 30
0.0
 11
40.1764776
 21
141.997237154
 31
0.0
  0
LINE
  8
0
  6
CONTINUOUS
 62
     1
 10
40.9018776
 20
140.909137154
 30
0.0
 11
40.9018776
 21
141.997237154
 31
0.0
  0
LINE
  8
0
  6
CONTINUOUS
 62
     1
 10
40.1764776
 20
141.997237154
 30
0.0
 11
40.1764776
 21
140.909137154
 31
0.0
  0
LINE
  8
0
  6
CONTINUOUS
 62
     1
 10
41.9899776
 20
141.997237154
 30
0.0
 11
41.9899776
 21
142.722637154
 31
0.0
  0
LINE
  8
0
  6
CONTINUOUS
 62
     1
 10
39.0883776
 20
142.722637154
 30
0.0
 11
39.0883776
 21
141.997237154
 31
0.0
  0
CIRCLE
  8
0
  6
CONTINUOUS
 62
     1
 10
40.5391776
 20
142.359937154
 30
0.0
 40
2.03112
  0
LINE
  8
0
  6
CONTINUOUS
 62
     1
 10
44.4563376
 20
140.111197154
 30
0.0
 11
36.1867776
 21
140.111197154
 31
0.0
  0
LINE
  8
0
  6
CONTINUOUS
 62
     1
 10
44.4563376
 20
144.608677154
 30
0.0
 11
36.1867776
 21
144.608677154
 31
0.0
  0
LINE
  8
0
  6
CONTINUOUS
 62
     1
 10
40.5391776
 20
145.986937154
 30
0.0
 11
40.9018776
 21
145.986937154
 31
0.0
  0
LINE
  8
0
  6
CONTINUOUS
 62
     1
 10
40.1764776
 20
145.986937154
 30
0.0
 11
40.5391776
 21
145.986937154
 31
0.0
  0
LINE
  8
0
  6
CONTINUOUS
 62
     1
 10
44.4563376
 20
145.188997154
 30
0.0
 11
36.1867776
 21
145.188997154
 31
0.0
  0
LINE
  8
0
  6
CONTINUOUS
 62
     1
 10
40.5391776
 20
138.732937154
 30
0.0
 11
40.9018776
 21
138.732937154
 31
0.0
  0
LINE
  8
0
  6
CONTINUOUS
 62
     1
 10
40.1764776
 20
138.732937154
 30
0.0
 11
40.5391776
 21
138.732937154
 31
0.0
  0
LINE
  8
0
  6
CONTINUOUS
 62
     1
 10
41.9899776
 20
136.919437154
 30
0.0
 11
40.9018776
 21
136.919437154
 31
0.0
  0
LINE
  8
0
  6
CONTINUOUS
 62
     1
 10
40.1764776
 20
136.919437154
 30
0.0
 11
39.0883776
 21
136.919437154
 31
0.0
  0
LINE
  8
0
  6
CONTINUOUS
 62
     1
 10
40.9018776
 20
135.831337154
 30
0.0
 11
40.1764776
 21
135.831337154
 31
0.0
  0
LINE
  8
0
  6
CONTINUOUS
 62
     1
 10
40.9018776
 20
136.919437154
 30
0.0
 11
40.9018776
 21
135.831337154
 31
0.0
  0
LINE
  8
0
  6
CONTINUOUS
 62
     1
 10
40.1764776
 20
135.831337154
 30
0.0
 11
40.1764776
 21
136.919437154
 31
0.0
  0
LINE
  8
0
  6
CONTINUOUS
 62
     1
 10
40.9018776
 20
137.644837154
 30
0.0
 11
41.9899776
 21
137.644837154
 31
0.0
  0
LINE
  8
0
  6
CONTINUOUS
 62
     1
 10
39.0883776
 20
137.644837154
 30
0.0
 11
40.1764776
 21
137.644837154
 31
0.0
  0
LINE
  8
0
  6
CONTINUOUS
 62
     1
 10
40.9018776
 20
138.732937154
 30
0.0
 11
40.9018776
 21
137.644837154
 31
0.0
  0
LINE
  8
0
  6
CONTINUOUS
 62
     1
 10
40.1764776
 20
137.644837154
 30
0.0
 11
40.1764776
 21
138.732937154
 31
0.0
  0
LINE
  8
0
  6
CONTINUOUS
 62
     1
 10
41.9899776
 20
137.644837154
 30
0.0
 11
41.9899776
 21
136.919437154
 31
0.0
  0
LINE
  8
0
  6
CONTINUOUS
 62
     1
 10
39.0883776
 20
136.919437154
 30
0.0
 11
39.0883776
 21
137.644837154
 31
0.0
  0
CIRCLE
  8
0
  6
CONTINUOUS
 62
     1
 10
40.5391776
 20
137.282137154
 30
0.0
 40
2.03112
  0
LINE
  8
0
  6
CONTINUOUS
 62
     1
 10
44.4563376
 20
139.530877154
 30
0.0
 11
36.1867776
 21
139.530877154
 31
0.0
  0
LINE
  8
0
  6
CONTINUOUS
 62
     1
 10
40.9018776
 20
145.986937154
 30
0.0
 11
40.9018776
 21
147.075037154
 31
0.0
  0
LINE
  8
0
  6
CONTINUOUS
 62
     1
 10
40.1764776
 20
147.075037154
 30
0.0
 11
40.1764776
 21
145.986937154
 31
0.0
  0
CIRCLE
  8
0
  6
CONTINUOUS
 62
     1
 10
40.5391776
 20
147.437737154
 30
0.0
 40
2.03112
  0
LINE
  8
0
  6
CONTINUOUS
 62
     1
 10
40.5391776
 20
133.655137154
 30
0.0
 11
40.9018776
 21
133.655137154
 31
0.0
  0
LINE
  8
0
  6
CONTINUOUS
 62
     1
 10
40.1764776
 20
133.655137154
 30
0.0
 11
40.5391776
 21
133.655137154
 31
0.0
  0
LINE
  8
0
  6
CONTINUOUS
 62
     1
 10
41.9899776
 20
131.841637154
 30
0.0
 11
40.9018776
 21
131.841637154
 31
0.0
  0
LINE
  8
0
  6
CONTINUOUS
 62
     1
 10
40.1764776
 20
131.841637154
 30
0.0
 11
39.0883776
 21
131.841637154
 31
0.0
  0
LINE
  8
0
  6
CONTINUOUS
 62
     1
 10
40.9018776
 20
130.753537154
 30
0.0
 11
40.1764776
 21
130.753537154
 31
0.0
  0
LINE
  8
0
  6
CONTINUOUS
 62
     1
 10
40.9018776
 20
131.841637154
 30
0.0
 11
40.9018776
 21
130.753537154
 31
0.0
  0
LINE
  8
0
  6
CONTINUOUS
 62
     1
 10
40.1764776
 20
130.753537154
 30
0.0
 11
40.1764776
 21
131.841637154
 31
0.0
  0
LINE
  8
0
  6
CONTINUOUS
 62
     1
 10
40.9018776
 20
132.567037154
 30
0.0
 11
41.9899776
 21
132.567037154
 31
0.0
  0
LINE
  8
0
  6
CONTINUOUS
 62
     1
 10
39.0883776
 20
132.567037154
 30
0.0
 11
40.1764776
 21
132.567037154
 31
0.0
  0
LINE
  8
0
  6
CONTINUOUS
 62
     1
 10
40.9018776
 20
133.655137154
 30
0.0
 11
40.9018776
 21
132.567037154
 31
0.0
  0
LINE
  8
0
  6
CONTINUOUS
 62
     1
 10
40.1764776
 20
132.567037154
 30
0.0
 11
40.1764776
 21
133.655137154
 31
0.0
  0
LINE
  8
0
  6
CONTINUOUS
 62
     1
 10
41.9899776
 20
132.567037154
 30
0.0
 11
41.9899776
 21
131.841637154
 31
0.0
  0
LINE
  8
0
  6
CONTINUOUS
 62
     1
 10
39.0883776
 20
131.841637154
 30
0.0
 11
39.0883776
 21
132.567037154
 31
0.0
  0
LINE
  8
0
  6
CONTINUOUS
 62
     1
 10
44.4563376
 20
129.955597154
 30
0.0
 11
36.1867776
 21
129.955597154
 31
0.0
  0
LINE
  8
0
  6
CONTINUOUS
 62
     1
 10
44.4563376
 20
129.375277154
 30
0.0
 11
36.1867776
 21
129.375277154
 31
0.0
  0
LINE
  8
0
  6
CONTINUOUS
 62
     1
 10
44.6014176
 20
124.152397154
 30
0.0
 11
44.6014176
 21
139.821037154
 31
0.0
  0
LINE
  8
0
  6
CONTINUOUS
 62
     1
 10
44.4563376
 20
135.033397154
 30
0.0
 11
36.1867776
 21
135.033397154
 31
0.0
  0
CIRCLE
  8
0
  6
CONTINUOUS
 62
     1
 10
40.5391776
 20
132.204337154
 30
0.0
 40
2.03112
  0
LINE
  8
0
  6
CONTINUOUS
 62
     1
 10
44.4563376
 20
134.453077154
 30
0.0
 11
36.1867776
 21
134.453077154
 31
0.0
  0
LINE
  8
0
  6
CONTINUOUS
 62
     1
 10
44.4563376
 20
124.152397154
 30
0.0
 11
44.4563376
 21
155.489677154
 31
0.0
  0
LINE
  8
0
  6
CONTINUOUS
 62
     1
 10
40.5391776
 20
128.577337154
 30
0.0
 11
40.9018776
 21
128.577337154
 31
0.0
  0
LINE
  8
0
  6
CONTINUOUS
 62
     1
 10
40.1764776
 20
128.577337154
 30
0.0
 11
40.5391776
 21
128.577337154
 31
0.0
  0
LINE
  8
0
  6
CONTINUOUS
 62
     1
 10
41.9899776
 20
126.763837154
 30
0.0
 11
40.9018776
 21
126.763837154
 31
0.0
  0
LINE
  8
0
  6
CONTINUOUS
 62
     1
 10
40.1764776
 20
126.763837154
 30
0.0
 11
39.0883776
 21
126.763837154
 31
0.0
  0
LINE
  8
0
  6
CONTINUOUS
 62
     1
 10
40.9018776
 20
127.489237154
 30
0.0
 11
41.9899776
 21
127.489237154
 31
0.0
  0
LINE
  8
0
  6
CONTINUOUS
 62
     1
 10
39.0883776
 20
127.489237154
 30
0.0
 11
40.1764776
 21
127.489237154
 31
0.0
  0
LINE
  8
0
  6
CONTINUOUS
 62
     1
 10
40.9018776
 20
128.577337154
 30
0.0
 11
40.9018776
 21
127.489237154
 31
0.0
  0
LINE
  8
0
  6
CONTINUOUS
 62
     1
 10
40.1764776
 20
127.489237154
 30
0.0
 11
40.1764776
 21
128.577337154
 31
0.0
  0
LINE
  8
0
  6
CONTINUOUS
 62
     1
 10
41.9899776
 20
127.489237154
 30
0.0
 11
41.9899776
 21
126.763837154
 31
0.0
  0
LINE
  8
0
  6
CONTINUOUS
 62
     1
 10
39.0883776
 20
126.763837154
 30
0.0
 11
39.0883776
 21
127.489237154
 31
0.0
  0
CIRCLE
  8
0
  6
CONTINUOUS
 62
     1
 10
40.5391776
 20
127.126537154
 30
0.0
 40
2.03112
  0
LINE
  8
0
  6
CONTINUOUS
 62
     1
 10
36.1867776
 20
124.152397154
 30
0.0
 11
36.1867776
 21
155.489677154
 31
0.0
  0
LINE
  8
0
  6
CONTINUOUS
 62
     1
 10
36.1867776
 20
154.764277154
 30
0.0
 11
36.1867776
 21
124.877797154
 31
0.0
  0
LINE
  8
0
  6
CONTINUOUS
 62
     1
 10
40.9018776
 20
125.675737154
 30
0.0
 11
40.1764776
 21
125.675737154
 31
0.0
  0
LINE
  8
0
  6
CONTINUOUS
 62
     1
 10
40.9018776
 20
126.763837154
 30
0.0
 11
40.9018776
 21
125.675737154
 31
0.0
  0
LINE
  8
0
  6
CONTINUOUS
 62
     1
 10
40.1764776
 20
125.675737154
 30
0.0
 11
40.1764776
 21
126.763837154
 31
0.0
  0
LINE
  8
0
  6
CONTINUOUS
 62
     1
 10
47.8657176
 20
153.059587154
 30
0.0
 11
45.2724126
 21
153.059587154
 31
0.0
  0
LINE
  8
0
  6
CONTINUOUS
 62
     1
 10
45.2724126
 20
141.815887154
 30
0.0
 11
47.8657176
 21
141.815887154
 31
0.0
  0
LINE
  8
0
  6
CONTINUOUS
 62
     1
 10
45.2724126
 20
125.240497154
 30
0.0
 11
45.2724126
 21
141.815887154
 31
0.0
  0
LINE
  8
0
  6
CONTINUOUS
 62
     1
 10
57.7342874
 20
155.527602846
 30
0.0
 11
60.6721574
 21
155.527602846
 31
0.0
  0
LINE
  8
0
  6
CONTINUOUS
 62
     1
 10
52.2575174
 20
155.527602846
 30
0.0
 11
60.6721574
 21
155.527602846
 31
0.0
  0
LINE
  8
0
  6
CONTINUOUS
 62
     1
 10
52.2575174
 20
125.278422846
 30
0.0
 11
52.2575174
 21
125.350962846
 31
0.0
  0
LINE
  8
0
  6
CONTINUOUS
 62
     1
 10
52.2575174
 20
124.190322846
 30
0.0
 11
52.2575174
 21
155.527602846
 31
0.0
  0
LINE
  8
0
  6
CONTINUOUS
 62
     1
 10
60.6721574
 20
139.858962846
 30
0.0
 11
60.6721574
 21
155.527602846
 31
0.0
  0
LINE
  8
0
  6
CONTINUOUS
 62
     1
 10
63.9364574
 20
153.097512846
 30
0.0
 11
63.9364574
 21
141.853812846
 31
0.0
  0
LINE
  8
0
  6
CONTINUOUS
 62
     1
 10
60.6721574
 20
124.190322846
 30
0.0
 11
60.6721574
 21
139.858962846
 31
0.0
  0
ARC
  8
0
  6
CONTINUOUS
 62
     1
 10
62.8483574
 20
152.009412846
 30
0.0
 40
0.3627
 50
0.0
 51
90.0
  0
ARC
  8
0
  6
CONTINUOUS
 62
     1
 10
62.8483574
 20
142.941912846
 30
0.0
 40
0.3627
 50
270.0
 51
0.0
  0
LINE
  8
0
  6
CONTINUOUS
 62
     1
 10
65.1152324
 20
154.439502846
 30
0.0
 11
65.1152324
 21
152.843622846
 31
0.0
  0
LINE
  8
0
  6
CONTINUOUS
 62
     1
 10
61.7058524
 20
155.092362846
 30
0.0
 11
64.8976124
 21
155.092362846
 31
0.0
  0
LINE
  8
0
  6
CONTINUOUS
 62
     1
 10
65.1152324
 20
125.278422846
 30
0.0
 11
65.1152324
 21
152.843622846
 31
0.0
  0
LINE
  8
0
  6
CONTINUOUS
 62
     1
 10
61.7058524
 20
124.625562846
 30
0.0
 11
64.8976124
 21
124.625562846
 31
0.0
  0
LINE
  8
0
  6
CONTINUOUS
 62
     1
 10
64.8976124
 20
124.625562846
 30
0.0
 11
61.7058524
 21
124.625562846
 31
0.0
  0
LINE
  8
0
  6
CONTINUOUS
 62
     1
 10
50.6616374
 20
155.092362846
 30
0.0
 11
51.5321174
 21
155.092362846
 31
0.0
  0
LINE
  8
0
  6
CONTINUOUS
 62
     1
 10
50.6616374
 20
124.625562846
 30
0.0
 11
51.5321174
 21
124.625562846
 31
0.0
  0
LINE
  8
0
  6
CONTINUOUS
 62
     1
 10
62.8483574
 20
148.201062846
 30
0.0
 11
61.4700974
 21
148.201062846
 31
0.0
  0
LINE
  8
0
  6
CONTINUOUS
 62
     1
 10
62.8664924
 20
146.750262846
 30
0.0
 11
61.4882324
 21
146.750262846
 31
0.0
  0
LINE
  8
0
  6
CONTINUOUS
 62
     1
 10
63.2110574
 20
152.009412846
 30
0.0
 11
63.2110574
 21
148.563763825
 31
0.0
  0
ARC
  8
0
  6
CONTINUOUS
 62
     1
 10
62.8483574
 20
148.563762846
 30
0.0
 40
0.3627
 50
270.0
 51
0.00015455
  0
ARC
  8
0
  6
CONTINUOUS
 62
     1
 10
62.8664924
 20
146.387562846
 30
0.0
 40
0.3627
 50
18.194872339
 51
90.0
  0
LINE
  8
0
  6
CONTINUOUS
 62
     1
 10
63.2110574
 20
146.500815885
 30
0.0
 11
63.2110574
 21
142.941912846
 31
0.0
  0
LINE
  8
0
  6
CONTINUOUS
 62
     1
 10
62.8483574
 20
148.201062846
 30
0.0
 11
61.3431524
 21
148.201062846
 31
0.0
  0
LINE
  8
0
  6
CONTINUOUS
 62
     1
 10
62.8664924
 20
146.750262846
 30
0.0
 11
61.3431524
 21
146.750262846
 31
0.0
  0
LINE
  8
0
  6
CONTINUOUS
 62
     1
 10
61.3431524
 20
154.439502846
 30
0.0
 11
65.1152324
 21
154.439502846
 31
0.0
  0
LINE
  8
0
  6
CONTINUOUS
 62
     1
 10
61.3431524
 20
153.097512846
 30
0.0
 11
61.3431524
 21
154.439502846
 31
0.0
  0
LINE
  8
0
  6
CONTINUOUS
 62
     1
 10
61.3431524
 20
125.278422846
 30
0.0
 11
65.1152324
 21
125.278422846
 31
0.0
  0
LINE
  8
0
  6
CONTINUOUS
 62
     1
 10
61.3431524
 20
125.278422846
 30
0.0
 11
61.3431524
 21
141.853812846
 31
0.0
  0
LINE
  8
0
  6
CONTINUOUS
 62
     1
 10
51.5321174
 20
155.092362846
 30
0.0
 11
51.5321174
 21
156.035382846
 31
0.0
  0
LINE
  8
0
  6
CONTINUOUS
 62
     1
 10
50.6616374
 20
156.035382846
 30
0.0
 11
50.6616374
 21
155.092362846
 31
0.0
  0
LINE
  8
0
  6
CONTINUOUS
 62
     1
 10
61.7058524
 20
155.092362846
 30
0.0
 11
61.7058524
 21
156.035382846
 31
0.0
  0
LINE
  8
0
  6
CONTINUOUS
 62
     1
 10
64.8976124
 20
155.092362846
 30
0.0
 11
64.8976124
 21
156.035382846
 31
0.0
  0
LINE
  8
0
  6
CONTINUOUS
 62
     1
 10
64.8976124
 20
124.625562846
 30
0.0
 11
64.8976124
 21
123.682542846
 31
0.0
  0
LINE
  8
0
  6
CONTINUOUS
 62
     1
 10
61.7058524
 20
124.625562846
 30
0.0
 11
61.7058524
 21
123.682542846
 31
0.0
  0
LINE
  8
0
  6
CONTINUOUS
 62
     1
 10
51.5321174
 20
124.625562846
 30
0.0
 11
51.5321174
 21
123.682542846
 31
0.0
  0
LINE
  8
0
  6
CONTINUOUS
 62
     1
 10
50.6616374
 20
123.682542846
 30
0.0
 11
50.6616374
 21
124.625562846
 31
0.0
  0
LINE
  8
0
  6
CONTINUOUS
 62
     1
 10
61.5970424
 20
153.097512846
 30
0.0
 11
61.5970424
 21
152.154492846
 31
0.0
  0
LINE
  8
0
  6
CONTINUOUS
 62
     1
 10
60.6721574
 20
152.154492846
 30
0.0
 11
61.5970424
 21
152.154492846
 31
0.0
  0
LINE
  8
0
  6
CONTINUOUS
 62
     1
 10
61.5970424
 20
142.796832846
 30
0.0
 11
61.5970424
 21
141.853812846
 31
0.0
  0
LINE
  8
0
  6
CONTINUOUS
 62
     1
 10
62.8483574
 20
142.579212846
 30
0.0
 11
61.5970424
 21
142.579212846
 31
0.0
  0
LINE
  8
0
  6
CONTINUOUS
 62
     1
 10
61.3431524
 20
142.796832846
 30
0.0
 11
61.3431524
 21
152.154492846
 31
0.0
  0
LINE
  8
0
  6
CONTINUOUS
 62
     1
 10
61.5970424
 20
142.796832846
 30
0.0
 11
60.6721574
 21
142.796832846
 31
0.0
  0
LINE
  8
0
  6
CONTINUOUS
 62
     1
 10
62.8483574
 20
152.372112846
 30
0.0
 11
61.5970424
 21
152.372112846
 31
0.0
  0
LINE
  8
0
  6
CONTINUOUS
 62
     1
 10
60.66
 20
124.19
 30
0.0
 11
52.27
 21
124.19
 31
0.0
  0
LINE
  8
0
  6
CONTINUOUS
 62
     1
 10
63.93
 20
141.85
 30
0.0
 11
61.34
 21
141.85
 31
0.0
  0
LINE
  8
0
  6
CONTINUOUS
 62
     1
 10
63.93
 20
153.1
 30
0.0
 11
61.34
 21
153.1
 31
0.0
  0
LINE
  8
0
  6
CONTINUOUS
 62
     1
 10
59.5
 20
155.5
 30
0.0
 11
59.5
 21
124.2
 31
0.0
  0
LINE
  8
0
  6
CONTINUOUS
 62
     1
 10
54.5
 20
124.2
 30
0.0
 11
54.5
 21
155.5
 31
0.0
  0
CIRCLE
  8
0
  6
CONTINUOUS
 62
     1
 10
57.0
 20
153.0
 30
0.0
 40
1.0
  0
LINE
  8
0
  6
CONTINUOUS
 62
     1
 10
56.2
 20
153.2
 30
0.0
 11
57.8
 21
153.2
 31
0.0
  0
LINE
  8
0
  6
CONTINUOUS
 62
     1
 10
57.8
 20
153.2
 30
0.0
 11
57.8
 21
152.8
 31
0.0
  0
LINE
  8
0
  6
CONTINUOUS
 62
     1
 10
57.8
 20
152.8
 30
0.0
 11
56.2
 21
152.8
 31
0.0
  0
LINE
  8
0
  6
CONTINUOUS
 62
     1
 10
56.2
 20
152.8
 30
0.0
 11
56.2
 21
153.2
 31
0.0
  0
CIRCLE
  8
0
  6
CONTINUOUS
 62
     1
 10
57.0
 20
150.0
 30
0.0
 40
1.0
  0
LINE
  8
0
  6
CONTINUOUS
 62
     1
 10
56.2
 20
150.2
 30
0.0
 11
57.8
 21
150.2
 31
0.0
  0
LINE
  8
0
  6
CONTINUOUS
 62
     1
 10
57.8
 20
150.2
 30
0.0
 11
57.8
 21
149.8
 31
0.0
  0
LINE
  8
0
  6
CONTINUOUS
 62
     1
 10
57.8
 20
149.8
 30
0.0
 11
56.2
 21
149.8
 31
0.0
  0
LINE
  8
0
  6
CONTINUOUS
 62
     1
 10
56.2
 20
149.8
 30
0.0
 11
56.2
 21
150.2
 31
0.0
  0
CIRCLE
  8
0
  6
CONTINUOUS
 62
     1
 10
57.0
 20
147.0
 30
0.0
 40
1.0
  0
LINE
  8
0
  6
CONTINUOUS
 62
     1
 10
56.2
 20
147.2
 30
0.0
 11
57.8
 21
147.2
 31
0.0
  0
LINE
  8
0
  6
CONTINUOUS
 62
     1
 10
57.8
 20
147.2
 30
0.0
 11
57.8
 21
146.8
 31
0.0
  0
LINE
  8
0
  6
CONTINUOUS
 62
     1
 10
57.8
 20
146.8
 30
0.0
 11
56.2
 21
146.8
 31
0.0
  0
LINE
  8
0
  6
CONTINUOUS
 62
     1
 10
56.2
 20
146.8
 30
0.0
 11
56.2
 21
147.2
 31
0.0
  0
CIRCLE
  8
0
  6
CONTINUOUS
 62
     1
 10
57.0
 20
144.0
 30
0.0
 40
1.0
  0
LINE
  8
0
  6
CONTINUOUS
 62
     1
 10
56.2
 20
144.2
 30
0.0
 11
57.8
 21
144.2
 31
0.0
  0
LINE
  8
0
  6
CONTINUOUS
 62
     1
 10
57.8
 20
144.2
 30
0.0
 11
57.8
 21
143.8
 31
0.0
  0
LINE
  8
0
  6
CONTINUOUS
 62
     1
 10
57.8
 20
143.8
 30
0.0
 11
56.2
 21
143.8
 31
0.0
  0
LINE
  8
0
  6
CONTINUOUS
 62
     1
 10
56.2
 20
143.8
 30
0.0
 11
56.2
 21
144.2
 31
0.0
  0
CIRCLE
  8
0
  6
CONTINUOUS
 62
     1
 10
57.0
 20
141.0
 30
0.0
 40
1.0
  0
LINE
  8
0
  6
CONTINUOUS
 62
     1
 10
56.2
 20
141.2
 30
0.0
 11
57.8
 21
141.2
 31
0.0
  0
LINE
  8
0
  6
CONTINUOUS
 62
     1
 10
57.8
 20
141.2
 30
0.0
 11
57.8
 21
140.8
 31
0.0
  0
LINE
  8
0
  6
CONTINUOUS
 62
     1
 10
57.8
 20
140.8
 30
0.0
 11
56.2
 21
140.8
 31
0.0
  0
LINE
  8
0
  6
CONTINUOUS
 62
     1
 10
56.2
 20
140.8
 30
0.0
 11
56.2
 21
141.2
 31
0.0
  0
CIRCLE
  8
0
  6
CONTINUOUS
 62
     1
 10
57.0
 20
138.0
 30
0.0
 40
1.0
  0
LINE
  8
0
  6
CONTINUOUS
 62
     1
 10
56.2
 20
138.2
 30
0.0
 11
57.8
 21
138.2
 31
0.0
  0
LINE
  8
0
  6
CONTINUOUS
 62
     1
 10
57.8
 20
138.2
 30
0.0
 11
57.8
 21
137.8
 31
0.0
  0
LINE
  8
0
  6
CONTINUOUS
 62
     1
 10
57.8
 20
137.8
 30
0.0
 11
56.2
 21
137.8
 31
0.0
  0
LINE
  8
0
  6
CONTINUOUS
 62
     1
 10
56.2
 20
137.8
 30
0.0
 11
56.2
 21
138.2
 31
0.0
  0
CIRCLE
  8
0
  6
CONTINUOUS
 62
     1
 10
57.0
 20
135.0
 30
0.0
 40
1.0
  0
LINE
  8
0
  6
CONTINUOUS
 62
     1
 10
56.2
 20
135.2
 30
0.0
 11
57.8
 21
135.2
 31
0.0
  0
LINE
  8
0
  6
CONTINUOUS
 62
     1
 10
57.8
 20
135.2
 30
0.0
 11
57.8
 21
134.8
 31
0.0
  0
LINE
  8
0
  6
CONTINUOUS
 62
     1
 10
57.8
 20
134.8
 30
0.0
 11
56.2
 21
134.8
 31
0.0
  0
LINE
  8
0
  6
CONTINUOUS
 62
     1
 10
56.2
 20
134.8
 30
0.0
 11
56.2
 21
135.2
 31
0.0
  0
CIRCLE
  8
0
  6
CONTINUOUS
 62
     1
 10
57.0
 20
132.0
 30
0.0
 40
1.0
  0
LINE
  8
0
  6
CONTINUOUS
 62
     1
 10
56.2
 20
132.2
 30
0.0
 11
57.8
 21
132.2
 31
0.0
  0
LINE
  8
0
  6
CONTINUOUS
 62
     1
 10
57.8
 20
132.2
 30
0.0
 11
57.8
 21
131.8
 31
0.0
  0
LINE
  8
0
  6
CONTINUOUS
 62
     1
 10
57.8
 20
131.8
 30
0.0
 11
56.2
 21
131.8
 31
0.0
  0
LINE
  8
0
  6
CONTINUOUS
 62
     1
 10
56.2
 20
131.8
 30
0.0
 11
56.2
 21
132.2
 31
0.0
  0
CIRCLE
  8
0
  6
CONTINUOUS
 62
     1
 10
57.0
 20
129.0
 30
0.0
 40
1.0
  0
LINE
  8
0
  6
CONTINUOUS
 62
     1
 10
56.2
 20
129.2
 30
0.0
 11
57.8
 21
129.2
 31
0.0
  0
LINE
  8
0
  6
CONTINUOUS
 62
     1
 10
57.8
 20
129.2
 30
0.0
 11
57.8
 21
128.8
 31
0.0
  0
LINE
  8
0
  6
CONTINUOUS
 62
     1
 10
57.8
 20
128.8
 30
0.0
 11
56.2
 21
128.8
 31
0.0
  0
LINE
  8
0
  6
CONTINUOUS
 62
     1
 10
56.2
 20
128.8
 30
0.0
 11
56.2
 21
129.2
 31
0.0
  0
CIRCLE
  8
0
  6
CONTINUOUS
 62
     1
 10
57.0
 20
126.0
 30
0.0
 40
1.0
  0
LINE
  8
0
  6
CONTINUOUS
 62
     1
 10
56.2
 20
126.2
 30
0.0
 11
57.8
 21
126.2
 31
0.0
  0
LINE
  8
0
  6
CONTINUOUS
 62
     1
 10
57.8
 20
126.2
 30
0.0
 11
57.8
 21
125.8
 31
0.0
  0
LINE
  8
0
  6
CONTINUOUS
 62
     1
 10
57.8
 20
125.8
 30
0.0
 11
56.2
 21
125.8
 31
0.0
  0
LINE
  8
0
  6
CONTINUOUS
 62
     1
 10
56.2
 20
125.8
 30
0.0
 11
56.2
 21
126.2
 31
0.0
  0
LINE
  8
0
  6
CONTINUOUS
 62
     1
 10
53.5
 20
155.5
 30
0.0
 11
53.5
 21
124.2
 31
0.0
  0
TEXT
  8
0
  6
CONTINUOUS
 62
     1
 10
67.5
 20
102.0
 30
0.0
 40
3.0
  1
電源ユニット
 50
0.0
 41
1.0
 51
0.0
  7
KANJI0
  0
LINE
  8
0
  6
CONTINUOUS
 62
     1
 10
42.5
 20
106.0
 30
0.0
 11
42.5
 21
120.5
 31
0.0
  0
LINE
  8
0
  6
CONTINUOUS
 62
     1
 10
75.5
 20
106.0
 30
0.0
 11
75.5
 21
120.5
 31
0.0
  0
LINE
  8
0
  6
CONTINUOUS
 62
     1
 10
57.0
 20
111.0
 30
0.0
 11
57.0
 21
121.0
 31
0.0
  0
LINE
  8
0
  6
CONTINUOUS
 62
     1
 10
57.0
 20
121.0
 30
0.0
 11
55.0
 21
117.0
 31
0.0
  0
LINE
  8
0
  6
CONTINUOUS
 62
     1
 10
57.0
 20
121.0
 30
0.0
 11
59.0
 21
117.0
 31
0.0
  0
TEXT
  8
0
  6
CONTINUOUS
 62
     1
 10
32.5
 20
102.0
 30
0.0
 40
3.0
  1
比較出力ユニット
 50
0.0
 41
1.0
 51
0.0
  7
KANJI0
  0
TEXT
  8
0
  6
CONTINUOUS
 62
     1
 10
17.5
 20
107.0
 30
0.0
 40
3.0
  1
入力ユニット
 50
0.0
 41
1.0
 51
0.0
  7
KANJI0
  0
LINE
  8
0
  6
CONTINUOUS
 62
     1
 10
100.0
 20
158.0
 30
0.0
 11
100.0
 21
151.0
 31
0.0
  0
LINE
  8
0
  6
CONTINUOUS
 62
     1
 10
100.0
 20
150.0
 30
0.0
 11
210.0
 21
150.0
 31
0.0
  0
TEXT
  8
0
  6
CONTINUOUS
 62
     1
 10
114.5
 20
150.5
 30
0.0
 40
3.0
  1
ユニット
 50
0.0
 41
1.0
 51
0.0
  7
KANJI0
  0
TEXT
  8
0
  6
CONTINUOUS
 62
     1
 10
117.5
 20
153.5
 30
0.0
 40
3.0
  1
入力
 50
0.0
 41
1.0
 51
0.0
  7
KANJI0
  0
TEXT
  8
0
  6
CONTINUOUS
 62
     1
 10
119.0
 20
156.5
 30
0.0
 40
3.0
  1
１．
 50
0.0
 41
1.0
 51
0.0
  7
KANJI0
  0
TEXT
  8
0
  6
CONTINUOUS
 62
     1
 10
148.5
 20
150.5
 30
0.0
 40
3.0
  1
ユニット
 50
0.0
 41
1.0
 51
0.0
  7
KANJI0
  0
TEXT
  8
0
  6
CONTINUOUS
 62
     1
 10
148.5
 20
153.5
 30
0.0
 40
3.0
  1
比較出力
 50
0.0
 41
1.0
 51
0.0
  7
KANJI0
  0
TEXT
  8
0
  6
CONTINUOUS
 62
     1
 10
153.0
 20
156.5
 30
0.0
 40
3.0
  1
２．
 50
0.0
 41
1.0
 51
0.0
  7
KANJI0
  0
TEXT
  8
0
  6
CONTINUOUS
 62
     1
 10
169.0
 20
150.5
 30
0.0
 40
3.0
  1
ユニット
 50
0.0
 41
1.0
 51
0.0
  7
KANJI0
  0
TEXT
  8
0
  6
CONTINUOUS
 62
     1
 10
173.5
 20
156.5
 30
0.0
 40
3.0
  1
３．
 50
0.0
 41
1.0
 51
0.0
  7
KANJI0
  0
TEXT
  8
0
  6
CONTINUOUS
 62
     1
 10
191.0
 20
150.5
 30
0.0
 40
3.0
  1
ユニット
 50
0.0
 41
1.0
 51
0.0
  7
KANJI0
  0
TEXT
  8
0
  6
CONTINUOUS
 62
     1
 10
194.0
 20
153.5
 30
0.0
 40
3.0
  1
電源
 50
0.0
 41
1.0
 51
0.0
  7
KANJI0
  0
TEXT
  8
0
  6
CONTINUOUS
 62
     1
 10
195.5
 20
156.5
 30
0.0
 40
3.0
  1
４．
 50
0.0
 41
1.0
 51
0.0
  7
KANJI0
  0
TEXT
  8
0
  6
CONTINUOUS
 62
     1
 10
124.0
 20
112.5
 30
0.0
 40
3.0
  1
フ゜ロセス信号測定
 50
0.0
 41
1.0
 51
0.0
  7
KANJI0
  0
LINE
  8
0
  6
CONTINUOUS
 62
     1
 10
124.0
 20
116.5
 30
0.0
 11
129.0
 21
116.5
 31
0.0
  0
LINE
  8
0
  6
CONTINUOUS
 62
     1
 10
129.0
 20
116.5
 30
0.0
 11
129.0
 21
117.5
 31
0.0
  0
LINE
  8
0
  6
CONTINUOUS
 62
     1
 10
129.0
 20
117.5
 30
0.0
 11
124.0
 21
117.5
 31
0.0
  0
LINE
  8
0
  6
CONTINUOUS
 62
     1
 10
124.0
 20
117.5
 30
0.0
 11
124.0
 21
121.5
 31
0.0
  0
LINE
  8
0
  6
CONTINUOUS
 62
     1
 10
124.0
 20
121.5
 30
0.0
 11
129.0
 21
121.5
 31
0.0
  0
LINE
  8
0
  6
CONTINUOUS
 62
     1
 10
129.0
 20
121.5
 30
0.0
 11
129.0
 21
122.5
 31
0.0
  0
LINE
  8
0
  6
CONTINUOUS
 62
     1
 10
129.0
 20
122.5
 30
0.0
 11
124.0
 21
122.5
 31
0.0
  0
LINE
  8
0
  6
CONTINUOUS
 62
     1
 10
124.0
 20
122.5
 30
0.0
 11
124.0
 21
126.5
 31
0.0
  0
LINE
  8
0
  6
CONTINUOUS
 62
     1
 10
124.0
 20
126.5
 30
0.0
 11
129.0
 21
126.5
 31
0.0
  0
LINE
  8
0
  6
CONTINUOUS
 62
     1
 10
129.0
 20
126.5
 30
0.0
 11
129.0
 21
127.5
 31
0.0
  0
LINE
  8
0
  6
CONTINUOUS
 62
     1
 10
129.0
 20
127.5
 30
0.0
 11
124.0
 21
127.5
 31
0.0
  0
LINE
  8
0
  6
CONTINUOUS
 62
     1
 10
124.0
 20
127.5
 30
0.0
 11
124.0
 21
131.5
 31
0.0
  0
LINE
  8
0
  6
CONTINUOUS
 62
     1
 10
124.0
 20
131.5
 30
0.0
 11
129.0
 21
131.5
 31
0.0
  0
LINE
  8
0
  6
CONTINUOUS
 62
     1
 10
129.0
 20
131.5
 30
0.0
 11
129.0
 21
132.5
 31
0.0
  0
LINE
  8
0
  6
CONTINUOUS
 62
     1
 10
129.0
 20
132.5
 30
0.0
 11
124.0
 21
132.5
 31
0.0
  0
LINE
  8
0
  6
CONTINUOUS
 62
     1
 10
124.0
 20
132.5
 30
0.0
 11
124.0
 21
136.5
 31
0.0
  0
LINE
  8
0
  6
CONTINUOUS
 62
     1
 10
124.0
 20
136.5
 30
0.0
 11
129.0
 21
136.5
 31
0.0
  0
LINE
  8
0
  6
CONTINUOUS
 62
     1
 10
129.0
 20
136.5
 30
0.0
 11
129.0
 21
137.5
 31
0.0
  0
LINE
  8
0
  6
CONTINUOUS
 62
     1
 10
129.0
 20
137.5
 30
0.0
 11
124.0
 21
137.5
 31
0.0
  0
LINE
  8
0
  6
CONTINUOUS
 62
     1
 10
124.0
 20
137.5
 30
0.0
 11
124.0
 21
141.5
 31
0.0
  0
LINE
  8
0
  6
CONTINUOUS
 62
     1
 10
124.0
 20
141.5
 30
0.0
 11
129.0
 21
141.5
 31
0.0
  0
LINE
  8
0
  6
CONTINUOUS
 62
     1
 10
129.0
 20
141.5
 30
0.0
 11
129.0
 21
142.5
 31
0.0
  0
LINE
  8
0
  6
CONTINUOUS
 62
     1
 10
129.0
 20
142.5
 30
0.0
 11
124.0
 21
142.5
 31
0.0
  0
LINE
  8
0
  6
CONTINUOUS
 62
     1
 10
124.0
 20
142.5
 30
0.0
 11
124.0
 21
146.5
 31
0.0
  0
LINE
  8
0
  6
CONTINUOUS
 62
     1
 10
124.0
 20
146.5
 30
0.0
 11
129.0
 21
146.5
 31
0.0
  0
LINE
  8
0
  6
CONTINUOUS
 62
     1
 10
129.0
 20
146.5
 30
0.0
 11
129.0
 21
147.5
 31
0.0
  0
LINE
  8
0
  6
CONTINUOUS
 62
     1
 10
129.0
 20
147.5
 30
0.0
 11
124.0
 21
147.5
 31
0.0
  0
LINE
  8
0
  6
CONTINUOUS
 62
     1
 10
124.0
 20
147.5
 30
0.0
 11
124.0
 21
116.5
 31
0.0
  0
LINE
  8
0
  6
CONTINUOUS
 62
     1
 10
124.0
 20
116.5
 30
0.0
 11
129.0
 21
116.5
 31
0.0
  0
LINE
  8
0
  6
CONTINUOUS
 62
     1
 10
129.0
 20
116.5
 30
0.0
 11
129.0
 21
147.5
 31
0.0
  0
CIRCLE
  8
0
  6
CONTINUOUS
 62
     1
 10
126.5
 20
144.5
 30
0.0
 40
2.0
  0
LINE
  8
0
  6
CONTINUOUS
 62
     1
 10
125.0
 20
144.0
 30
0.0
 11
126.0
 21
144.0
 31
0.0
  0
LINE
  8
0
  6
CONTINUOUS
 62
     1
 10
126.0
 20
144.0
 30
0.0
 11
126.0
 21
143.0
 31
0.0
  0
LINE
  8
0
  6
CONTINUOUS
 62
     1
 10
126.0
 20
143.0
 30
0.0
 11
127.0
 21
143.0
 31
0.0
  0
LINE
  8
0
  6
CONTINUOUS
 62
     1
 10
127.0
 20
143.0
 30
0.0
 11
127.0
 21
144.0
 31
0.0
  0
LINE
  8
0
  6
CONTINUOUS
 62
     1
 10
127.0
 20
144.0
 30
0.0
 11
128.0
 21
144.0
 31
0.0
  0
LINE
  8
0
  6
CONTINUOUS
 62
     1
 10
128.0
 20
144.0
 30
0.0
 11
128.0
 21
145.0
 31
0.0
  0
LINE
  8
0
  6
CONTINUOUS
 62
     1
 10
128.0
 20
145.0
 30
0.0
 11
127.0
 21
145.0
 31
0.0
  0
LINE
  8
0
  6
CONTINUOUS
 62
     1
 10
127.0
 20
145.0
 30
0.0
 11
127.0
 21
146.0
 31
0.0
  0
LINE
  8
0
  6
CONTINUOUS
 62
     1
 10
127.0
 20
146.0
 30
0.0
 11
126.0
 21
146.0
 31
0.0
  0
LINE
  8
0
  6
CONTINUOUS
 62
     1
 10
126.0
 20
146.0
 30
0.0
 11
126.0
 21
145.0
 31
0.0
  0
LINE
  8
0
  6
CONTINUOUS
 62
     1
 10
126.0
 20
145.0
 30
0.0
 11
125.0
 21
145.0
 31
0.0
  0
LINE
  8
0
  6
CONTINUOUS
 62
     1
 10
125.0
 20
145.0
 30
0.0
 11
125.0
 21
144.0
 31
0.0
  0
CIRCLE
  8
0
  6
CONTINUOUS
 62
     1
 10
126.5
 20
139.5
 30
0.0
 40
2.0
  0
LINE
  8
0
  6
CONTINUOUS
 62
     1
 10
125.0
 20
139.0
 30
0.0
 11
126.0
 21
139.0
 31
0.0
  0
LINE
  8
0
  6
CONTINUOUS
 62
     1
 10
126.0
 20
139.0
 30
0.0
 11
126.0
 21
138.0
 31
0.0
  0
LINE
  8
0
  6
CONTINUOUS
 62
     1
 10
126.0
 20
138.0
 30
0.0
 11
127.0
 21
138.0
 31
0.0
  0
LINE
  8
0
  6
CONTINUOUS
 62
     1
 10
127.0
 20
138.0
 30
0.0
 11
127.0
 21
139.0
 31
0.0
  0
LINE
  8
0
  6
CONTINUOUS
 62
     1
 10
127.0
 20
139.0
 30
0.0
 11
128.0
 21
139.0
 31
0.0
  0
LINE
  8
0
  6
CONTINUOUS
 62
     1
 10
128.0
 20
139.0
 30
0.0
 11
128.0
 21
140.0
 31
0.0
  0
LINE
  8
0
  6
CONTINUOUS
 62
     1
 10
128.0
 20
140.0
 30
0.0
 11
127.0
 21
140.0
 31
0.0
  0
LINE
  8
0
  6
CONTINUOUS
 62
     1
 10
127.0
 20
140.0
 30
0.0
 11
127.0
 21
141.0
 31
0.0
  0
LINE
  8
0
  6
CONTINUOUS
 62
     1
 10
127.0
 20
141.0
 30
0.0
 11
126.0
 21
141.0
 31
0.0
  0
LINE
  8
0
  6
CONTINUOUS
 62
     1
 10
126.0
 20
141.0
 30
0.0
 11
126.0
 21
140.0
 31
0.0
  0
LINE
  8
0
  6
CONTINUOUS
 62
     1
 10
126.0
 20
140.0
 30
0.0
 11
125.0
 21
140.0
 31
0.0
  0
LINE
  8
0
  6
CONTINUOUS
 62
     1
 10
125.0
 20
140.0
 30
0.0
 11
125.0
 21
139.0
 31
0.0
  0
CIRCLE
  8
0
  6
CONTINUOUS
 62
     1
 10
126.5
 20
134.5
 30
0.0
 40
2.0
  0
LINE
  8
0
  6
CONTINUOUS
 62
     1
 10
125.0
 20
134.0
 30
0.0
 11
126.0
 21
134.0
 31
0.0
  0
LINE
  8
0
  6
CONTINUOUS
 62
     1
 10
126.0
 20
134.0
 30
0.0
 11
126.0
 21
133.0
 31
0.0
  0
LINE
  8
0
  6
CONTINUOUS
 62
     1
 10
126.0
 20
133.0
 30
0.0
 11
127.0
 21
133.0
 31
0.0
  0
LINE
  8
0
  6
CONTINUOUS
 62
     1
 10
127.0
 20
133.0
 30
0.0
 11
127.0
 21
134.0
 31
0.0
  0
LINE
  8
0
  6
CONTINUOUS
 62
     1
 10
127.0
 20
134.0
 30
0.0
 11
128.0
 21
134.0
 31
0.0
  0
LINE
  8
0
  6
CONTINUOUS
 62
     1
 10
128.0
 20
134.0
 30
0.0
 11
128.0
 21
135.0
 31
0.0
  0
LINE
  8
0
  6
CONTINUOUS
 62
     1
 10
128.0
 20
135.0
 30
0.0
 11
127.0
 21
135.0
 31
0.0
  0
LINE
  8
0
  6
CONTINUOUS
 62
     1
 10
127.0
 20
135.0
 30
0.0
 11
127.0
 21
136.0
 31
0.0
  0
LINE
  8
0
  6
CONTINUOUS
 62
     1
 10
127.0
 20
136.0
 30
0.0
 11
126.0
 21
136.0
 31
0.0
  0
LINE
  8
0
  6
CONTINUOUS
 62
     1
 10
126.0
 20
136.0
 30
0.0
 11
126.0
 21
135.0
 31
0.0
  0
LINE
  8
0
  6
CONTINUOUS
 62
     1
 10
126.0
 20
135.0
 30
0.0
 11
125.0
 21
135.0
 31
0.0
  0
LINE
  8
0
  6
CONTINUOUS
 62
     1
 10
125.0
 20
135.0
 30
0.0
 11
125.0
 21
134.0
 31
0.0
  0
CIRCLE
  8
0
  6
CONTINUOUS
 62
     1
 10
126.5
 20
129.5
 30
0.0
 40
2.0
  0
LINE
  8
0
  6
CONTINUOUS
 62
     1
 10
125.0
 20
129.0
 30
0.0
 11
126.0
 21
129.0
 31
0.0
  0
LINE
  8
0
  6
CONTINUOUS
 62
     1
 10
126.0
 20
129.0
 30
0.0
 11
126.0
 21
128.0
 31
0.0
  0
LINE
  8
0
  6
CONTINUOUS
 62
     1
 10
126.0
 20
128.0
 30
0.0
 11
127.0
 21
128.0
 31
0.0
  0
LINE
  8
0
  6
CONTINUOUS
 62
     1
 10
127.0
 20
128.0
 30
0.0
 11
127.0
 21
129.0
 31
0.0
  0
LINE
  8
0
  6
CONTINUOUS
 62
     1
 10
127.0
 20
129.0
 30
0.0
 11
128.0
 21
129.0
 31
0.0
  0
LINE
  8
0
  6
CONTINUOUS
 62
     1
 10
128.0
 20
129.0
 30
0.0
 11
128.0
 21
130.0
 31
0.0
  0
LINE
  8
0
  6
CONTINUOUS
 62
     1
 10
128.0
 20
130.0
 30
0.0
 11
127.0
 21
130.0
 31
0.0
  0
LINE
  8
0
  6
CONTINUOUS
 62
     1
 10
127.0
 20
130.0
 30
0.0
 11
127.0
 21
131.0
 31
0.0
  0
LINE
  8
0
  6
CONTINUOUS
 62
     1
 10
127.0
 20
131.0
 30
0.0
 11
126.0
 21
131.0
 31
0.0
  0
LINE
  8
0
  6
CONTINUOUS
 62
     1
 10
126.0
 20
131.0
 30
0.0
 11
126.0
 21
130.0
 31
0.0
  0
LINE
  8
0
  6
CONTINUOUS
 62
     1
 10
126.0
 20
130.0
 30
0.0
 11
125.0
 21
130.0
 31
0.0
  0
LINE
  8
0
  6
CONTINUOUS
 62
     1
 10
125.0
 20
130.0
 30
0.0
 11
125.0
 21
129.0
 31
0.0
  0
CIRCLE
  8
0
  6
CONTINUOUS
 62
     1
 10
126.5
 20
124.5
 30
0.0
 40
2.0
  0
LINE
  8
0
  6
CONTINUOUS
 62
     1
 10
125.0
 20
124.0
 30
0.0
 11
126.0
 21
124.0
 31
0.0
  0
LINE
  8
0
  6
CONTINUOUS
 62
     1
 10
126.0
 20
124.0
 30
0.0
 11
126.0
 21
123.0
 31
0.0
  0
LINE
  8
0
  6
CONTINUOUS
 62
     1
 10
126.0
 20
123.0
 30
0.0
 11
127.0
 21
123.0
 31
0.0
  0
LINE
  8
0
  6
CONTINUOUS
 62
     1
 10
127.0
 20
123.0
 30
0.0
 11
127.0
 21
124.0
 31
0.0
  0
LINE
  8
0
  6
CONTINUOUS
 62
     1
 10
127.0
 20
124.0
 30
0.0
 11
128.0
 21
124.0
 31
0.0
  0
LINE
  8
0
  6
CONTINUOUS
 62
     1
 10
128.0
 20
124.0
 30
0.0
 11
128.0
 21
125.0
 31
0.0
  0
LINE
  8
0
  6
CONTINUOUS
 62
     1
 10
128.0
 20
125.0
 30
0.0
 11
127.0
 21
125.0
 31
0.0
  0
LINE
  8
0
  6
CONTINUOUS
 62
     1
 10
127.0
 20
125.0
 30
0.0
 11
127.0
 21
126.0
 31
0.0
  0
LINE
  8
0
  6
CONTINUOUS
 62
     1
 10
126.0
 20
126.0
 30
0.0
 11
126.0
 21
125.0
 31
0.0
  0
LINE
  8
0
  6
CONTINUOUS
 62
     1
 10
126.0
 20
125.0
 30
0.0
 11
125.0
 21
125.0
 31
0.0
  0
LINE
  8
0
  6
CONTINUOUS
 62
     1
 10
125.0
 20
125.0
 30
0.0
 11
125.0
 21
124.0
 31
0.0
  0
CIRCLE
  8
0
  6
CONTINUOUS
 62
     1
 10
126.5
 20
119.5
 30
0.0
 40
2.0
  0
LINE
  8
0
  6
CONTINUOUS
 62
     1
 10
125.0
 20
119.0
 30
0.0
 11
126.0
 21
119.0
 31
0.0
  0
LINE
  8
0
  6
CONTINUOUS
 62
     1
 10
126.0
 20
119.0
 30
0.0
 11
126.0
 21
118.0
 31
0.0
  0
LINE
  8
0
  6
CONTINUOUS
 62
     1
 10
126.0
 20
118.0
 30
0.0
 11
127.0
 21
118.0
 31
0.0
  0
LINE
  8
0
  6
CONTINUOUS
 62
     1
 10
127.0
 20
118.0
 30
0.0
 11
127.0
 21
119.0
 31
0.0
  0
LINE
  8
0
  6
CONTINUOUS
 62
     1
 10
127.0
 20
119.0
 30
0.0
 11
128.0
 21
119.0
 31
0.0
  0
LINE
  8
0
  6
CONTINUOUS
 62
     1
 10
128.0
 20
119.0
 30
0.0
 11
128.0
 21
120.0
 31
0.0
  0
LINE
  8
0
  6
CONTINUOUS
 62
     1
 10
128.0
 20
120.0
 30
0.0
 11
127.0
 21
120.0
 31
0.0
  0
LINE
  8
0
  6
CONTINUOUS
 62
     1
 10
127.0
 20
120.0
 30
0.0
 11
127.0
 21
121.0
 31
0.0
  0
LINE
  8
0
  6
CONTINUOUS
 62
     1
 10
126.0
 20
121.0
 30
0.0
 11
126.0
 21
120.0
 31
0.0
  0
LINE
  8
0
  6
CONTINUOUS
 62
     1
 10
126.0
 20
120.0
 30
0.0
 11
125.0
 21
120.0
 31
0.0
  0
LINE
  8
0
  6
CONTINUOUS
 62
     1
 10
125.0
 20
120.0
 30
0.0
 11
125.0
 21
119.0
 31
0.0
  0
LINE
  8
0
  6
CONTINUOUS
 62
     1
 10
126.0
 20
121.0
 30
0.0
 11
127.0
 21
121.0
 31
0.0
  0
LINE
  8
0
  6
CONTINUOUS
 62
     1
 10
126.0
 20
126.0
 30
0.0
 11
127.0
 21
126.0
 31
0.0
  0
TEXT
  8
0
  6
CONTINUOUS
 62
     1
 10
130.0
 20
117.5
 30
0.0
 40
3.0
  1
－ＥＸＣ
 50
0.0
 41
0.5
 51
0.0
  7
KANJI2
  0
TEXT
  8
0
  6
CONTINUOUS
 62
     1
 10
130.0
 20
142.5
 30
0.0
 40
3.0
  1
Ａ　ＩＮ　ＨＩ
 50
0.0
 41
0.5
 51
0.0
  7
KANJI2
  0
TEXT
  8
0
  6
CONTINUOUS
 62
     1
 10
130.0
 20
137.5
 30
0.0
 40
3.0
  1
Ａ　ＩＮ　ＬＯ
 50
0.0
 41
0.5
 51
0.0
  7
KANJI2
  0
TEXT
  8
0
  6
CONTINUOUS
 62
     1
 10
130.0
 20
132.5
 30
0.0
 40
3.0
  1
Ｖ　ＩＮ　ＨＩ
 50
0.0
 41
0.5
 51
0.0
  7
KANJI2
  0
TEXT
  8
0
  6
CONTINUOUS
 62
     1
 10
130.0
 20
127.5
 30
0.0
 40
3.0
  1
Ｖ　ＩＮ　ＬＯ
 50
0.0
 41
0.5
 51
0.0
  7
KANJI2
  0
TEXT
  8
0
  6
CONTINUOUS
 62
     1
 10
130.0
 20
122.5
 30
0.0
 40
3.0
  1
＋ＥＸＣ
 50
0.0
 41
0.5
 51
0.0
  7
KANJI2
  0
TEXT
  8
0
  6
CONTINUOUS
 62
     1
 10
102.5
 20
112.5
 30
0.0
 40
3.0
  1
直流電圧測定
 50
0.0
 41
1.0
 51
0.0
  7
KANJI0
  0
LINE
  8
0
  6
CONTINUOUS
 62
     1
 10
102.5
 20
116.5
 30
0.0
 11
107.5
 21
116.5
 31
0.0
  0
LINE
  8
0
  6
CONTINUOUS
 62
     1
 10
107.5
 20
116.5
 30
0.0
 11
107.5
 21
117.5
 31
0.0
  0
LINE
  8
0
  6
CONTINUOUS
 62
     1
 10
107.5
 20
117.5
 30
0.0
 11
102.5
 21
117.5
 31
0.0
  0
LINE
  8
0
  6
CONTINUOUS
 62
     1
 10
102.5
 20
117.5
 30
0.0
 11
102.5
 21
121.5
 31
0.0
  0
LINE
  8
0
  6
CONTINUOUS
 62
     1
 10
102.5
 20
121.5
 30
0.0
 11
107.5
 21
121.5
 31
0.0
  0
LINE
  8
0
  6
CONTINUOUS
 62
     1
 10
107.5
 20
121.5
 30
0.0
 11
107.5
 21
122.5
 31
0.0
  0
LINE
  8
0
  6
CONTINUOUS
 62
     1
 10
107.5
 20
122.5
 30
0.0
 11
102.5
 21
122.5
 31
0.0
  0
LINE
  8
0
  6
CONTINUOUS
 62
     1
 10
102.5
 20
122.5
 30
0.0
 11
102.5
 21
126.5
 31
0.0
  0
LINE
  8
0
  6
CONTINUOUS
 62
     1
 10
102.5
 20
126.5
 30
0.0
 11
107.5
 21
126.5
 31
0.0
  0
LINE
  8
0
  6
CONTINUOUS
 62
     1
 10
107.5
 20
126.5
 30
0.0
 11
107.5
 21
127.5
 31
0.0
  0
LINE
  8
0
  6
CONTINUOUS
 62
     1
 10
107.5
 20
127.5
 30
0.0
 11
102.5
 21
127.5
 31
0.0
  0
LINE
  8
0
  6
CONTINUOUS
 62
     1
 10
102.5
 20
127.5
 30
0.0
 11
102.5
 21
131.5
 31
0.0
  0
LINE
  8
0
  6
CONTINUOUS
 62
     1
 10
102.5
 20
131.5
 30
0.0
 11
107.5
 21
131.5
 31
0.0
  0
LINE
  8
0
  6
CONTINUOUS
 62
     1
 10
107.5
 20
131.5
 30
0.0
 11
107.5
 21
132.5
 31
0.0
  0
LINE
  8
0
  6
CONTINUOUS
 62
     1
 10
107.5
 20
132.5
 30
0.0
 11
102.5
 21
132.5
 31
0.0
  0
LINE
  8
0
  6
CONTINUOUS
 62
     1
 10
102.5
 20
132.5
 30
0.0
 11
102.5
 21
136.5
 31
0.0
  0
LINE
  8
0
  6
CONTINUOUS
 62
     1
 10
102.5
 20
136.5
 30
0.0
 11
107.5
 21
136.5
 31
0.0
  0
LINE
  8
0
  6
CONTINUOUS
 62
     1
 10
107.5
 20
136.5
 30
0.0
 11
107.5
 21
137.5
 31
0.0
  0
LINE
  8
0
  6
CONTINUOUS
 62
     1
 10
107.5
 20
137.5
 30
0.0
 11
102.5
 21
137.5
 31
0.0
  0
LINE
  8
0
  6
CONTINUOUS
 62
     1
 10
102.5
 20
137.5
 30
0.0
 11
102.5
 21
141.5
 31
0.0
  0
LINE
  8
0
  6
CONTINUOUS
 62
     1
 10
102.5
 20
141.5
 30
0.0
 11
107.5
 21
141.5
 31
0.0
  0
LINE
  8
0
  6
CONTINUOUS
 62
     1
 10
107.5
 20
141.5
 30
0.0
 11
107.5
 21
142.5
 31
0.0
  0
LINE
  8
0
  6
CONTINUOUS
 62
     1
 10
107.5
 20
142.5
 30
0.0
 11
102.5
 21
142.5
 31
0.0
  0
LINE
  8
0
  6
CONTINUOUS
 62
     1
 10
102.5
 20
142.5
 30
0.0
 11
102.5
 21
146.5
 31
0.0
  0
LINE
  8
0
  6
CONTINUOUS
 62
     1
 10
102.5
 20
146.5
 30
0.0
 11
107.5
 21
146.5
 31
0.0
  0
LINE
  8
0
  6
CONTINUOUS
 62
     1
 10
107.5
 20
146.5
 30
0.0
 11
107.5
 21
147.5
 31
0.0
  0
LINE
  8
0
  6
CONTINUOUS
 62
     1
 10
107.5
 20
147.5
 30
0.0
 11
102.5
 21
147.5
 31
0.0
  0
LINE
  8
0
  6
CONTINUOUS
 62
     1
 10
102.5
 20
147.5
 30
0.0
 11
102.5
 21
116.5
 31
0.0
  0
LINE
  8
0
  6
CONTINUOUS
 62
     1
 10
102.5
 20
116.5
 30
0.0
 11
107.5
 21
116.5
 31
0.0
  0
LINE
  8
0
  6
CONTINUOUS
 62
     1
 10
107.5
 20
116.5
 30
0.0
 11
107.5
 21
147.5
 31
0.0
  0
CIRCLE
  8
0
  6
CONTINUOUS
 62
     1
 10
105.0
 20
144.5
 30
0.0
 40
2.0
  0
LINE
  8
0
  6
CONTINUOUS
 62
     1
 10
103.5
 20
144.0
 30
0.0
 11
104.5
 21
144.0
 31
0.0
  0
LINE
  8
0
  6
CONTINUOUS
 62
     1
 10
104.5
 20
144.0
 30
0.0
 11
104.5
 21
143.0
 31
0.0
  0
LINE
  8
0
  6
CONTINUOUS
 62
     1
 10
104.5
 20
143.0
 30
0.0
 11
105.5
 21
143.0
 31
0.0
  0
LINE
  8
0
  6
CONTINUOUS
 62
     1
 10
105.5
 20
143.0
 30
0.0
 11
105.5
 21
144.0
 31
0.0
  0
LINE
  8
0
  6
CONTINUOUS
 62
     1
 10
105.5
 20
144.0
 30
0.0
 11
106.5
 21
144.0
 31
0.0
  0
LINE
  8
0
  6
CONTINUOUS
 62
     1
 10
106.5
 20
144.0
 30
0.0
 11
106.5
 21
145.0
 31
0.0
  0
LINE
  8
0
  6
CONTINUOUS
 62
     1
 10
106.5
 20
145.0
 30
0.0
 11
105.5
 21
145.0
 31
0.0
  0
LINE
  8
0
  6
CONTINUOUS
 62
     1
 10
105.5
 20
145.0
 30
0.0
 11
105.5
 21
146.0
 31
0.0
  0
LINE
  8
0
  6
CONTINUOUS
 62
     1
 10
105.5
 20
146.0
 30
0.0
 11
104.5
 21
146.0
 31
0.0
  0
LINE
  8
0
  6
CONTINUOUS
 62
     1
 10
104.5
 20
146.0
 30
0.0
 11
104.5
 21
145.0
 31
0.0
  0
LINE
  8
0
  6
CONTINUOUS
 62
     1
 10
104.5
 20
145.0
 30
0.0
 11
103.5
 21
145.0
 31
0.0
  0
LINE
  8
0
  6
CONTINUOUS
 62
     1
 10
103.5
 20
145.0
 30
0.0
 11
103.5
 21
144.0
 31
0.0
  0
CIRCLE
  8
0
  6
CONTINUOUS
 62
     1
 10
105.0
 20
139.5
 30
0.0
 40
2.0
  0
LINE
  8
0
  6
CONTINUOUS
 62
     1
 10
103.5
 20
139.0
 30
0.0
 11
104.5
 21
139.0
 31
0.0
  0
LINE
  8
0
  6
CONTINUOUS
 62
     1
 10
104.5
 20
139.0
 30
0.0
 11
104.5
 21
138.0
 31
0.0
  0
LINE
  8
0
  6
CONTINUOUS
 62
     1
 10
104.5
 20
138.0
 30
0.0
 11
105.5
 21
138.0
 31
0.0
  0
LINE
  8
0
  6
CONTINUOUS
 62
     1
 10
105.5
 20
138.0
 30
0.0
 11
105.5
 21
139.0
 31
0.0
  0
LINE
  8
0
  6
CONTINUOUS
 62
     1
 10
105.5
 20
139.0
 30
0.0
 11
106.5
 21
139.0
 31
0.0
  0
LINE
  8
0
  6
CONTINUOUS
 62
     1
 10
106.5
 20
139.0
 30
0.0
 11
106.5
 21
140.0
 31
0.0
  0
LINE
  8
0
  6
CONTINUOUS
 62
     1
 10
106.5
 20
140.0
 30
0.0
 11
105.5
 21
140.0
 31
0.0
  0
LINE
  8
0
  6
CONTINUOUS
 62
     1
 10
105.5
 20
140.0
 30
0.0
 11
105.5
 21
141.0
 31
0.0
  0
LINE
  8
0
  6
CONTINUOUS
 62
     1
 10
105.5
 20
141.0
 30
0.0
 11
104.5
 21
141.0
 31
0.0
  0
LINE
  8
0
  6
CONTINUOUS
 62
     1
 10
104.5
 20
141.0
 30
0.0
 11
104.5
 21
140.0
 31
0.0
  0
LINE
  8
0
  6
CONTINUOUS
 62
     1
 10
104.5
 20
140.0
 30
0.0
 11
103.5
 21
140.0
 31
0.0
  0
LINE
  8
0
  6
CONTINUOUS
 62
     1
 10
103.5
 20
140.0
 30
0.0
 11
103.5
 21
139.0
 31
0.0
  0
CIRCLE
  8
0
  6
CONTINUOUS
 62
     1
 10
105.0
 20
134.5
 30
0.0
 40
2.0
  0
LINE
  8
0
  6
CONTINUOUS
 62
     1
 10
103.5
 20
134.0
 30
0.0
 11
104.5
 21
134.0
 31
0.0
  0
LINE
  8
0
  6
CONTINUOUS
 62
     1
 10
104.5
 20
134.0
 30
0.0
 11
104.5
 21
133.0
 31
0.0
  0
LINE
  8
0
  6
CONTINUOUS
 62
     1
 10
104.5
 20
133.0
 30
0.0
 11
105.5
 21
133.0
 31
0.0
  0
LINE
  8
0
  6
CONTINUOUS
 62
     1
 10
105.5
 20
133.0
 30
0.0
 11
105.5
 21
134.0
 31
0.0
  0
LINE
  8
0
  6
CONTINUOUS
 62
     1
 10
105.5
 20
134.0
 30
0.0
 11
106.5
 21
134.0
 31
0.0
  0
LINE
  8
0
  6
CONTINUOUS
 62
     1
 10
106.5
 20
134.0
 30
0.0
 11
106.5
 21
135.0
 31
0.0
  0
LINE
  8
0
  6
CONTINUOUS
 62
     1
 10
106.5
 20
135.0
 30
0.0
 11
105.5
 21
135.0
 31
0.0
  0
LINE
  8
0
  6
CONTINUOUS
 62
     1
 10
105.5
 20
135.0
 30
0.0
 11
105.5
 21
136.0
 31
0.0
  0
LINE
  8
0
  6
CONTINUOUS
 62
     1
 10
105.5
 20
136.0
 30
0.0
 11
104.5
 21
136.0
 31
0.0
  0
LINE
  8
0
  6
CONTINUOUS
 62
     1
 10
104.5
 20
136.0
 30
0.0
 11
104.5
 21
135.0
 31
0.0
  0
LINE
  8
0
  6
CONTINUOUS
 62
     1
 10
104.5
 20
135.0
 30
0.0
 11
103.5
 21
135.0
 31
0.0
  0
LINE
  8
0
  6
CONTINUOUS
 62
     1
 10
103.5
 20
135.0
 30
0.0
 11
103.5
 21
134.0
 31
0.0
  0
CIRCLE
  8
0
  6
CONTINUOUS
 62
     1
 10
105.0
 20
129.5
 30
0.0
 40
2.0
  0
LINE
  8
0
  6
CONTINUOUS
 62
     1
 10
103.5
 20
129.0
 30
0.0
 11
104.5
 21
129.0
 31
0.0
  0
LINE
  8
0
  6
CONTINUOUS
 62
     1
 10
104.5
 20
129.0
 30
0.0
 11
104.5
 21
128.0
 31
0.0
  0
LINE
  8
0
  6
CONTINUOUS
 62
     1
 10
104.5
 20
128.0
 30
0.0
 11
105.5
 21
128.0
 31
0.0
  0
LINE
  8
0
  6
CONTINUOUS
 62
     1
 10
105.5
 20
128.0
 30
0.0
 11
105.5
 21
129.0
 31
0.0
  0
LINE
  8
0
  6
CONTINUOUS
 62
     1
 10
105.5
 20
129.0
 30
0.0
 11
106.5
 21
129.0
 31
0.0
  0
LINE
  8
0
  6
CONTINUOUS
 62
     1
 10
106.5
 20
129.0
 30
0.0
 11
106.5
 21
130.0
 31
0.0
  0
LINE
  8
0
  6
CONTINUOUS
 62
     1
 10
106.5
 20
130.0
 30
0.0
 11
105.5
 21
130.0
 31
0.0
  0
LINE
  8
0
  6
CONTINUOUS
 62
     1
 10
105.5
 20
130.0
 30
0.0
 11
105.5
 21
131.0
 31
0.0
  0
LINE
  8
0
  6
CONTINUOUS
 62
     1
 10
105.5
 20
131.0
 30
0.0
 11
104.5
 21
131.0
 31
0.0
  0
LINE
  8
0
  6
CONTINUOUS
 62
     1
 10
104.5
 20
131.0
 30
0.0
 11
104.5
 21
130.0
 31
0.0
  0
LINE
  8
0
  6
CONTINUOUS
 62
     1
 10
104.5
 20
130.0
 30
0.0
 11
103.5
 21
130.0
 31
0.0
  0
LINE
  8
0
  6
CONTINUOUS
 62
     1
 10
103.5
 20
130.0
 30
0.0
 11
103.5
 21
129.0
 31
0.0
  0
CIRCLE
  8
0
  6
CONTINUOUS
 62
     1
 10
105.0
 20
124.5
 30
0.0
 40
2.0
  0
LINE
  8
0
  6
CONTINUOUS
 62
     1
 10
103.5
 20
124.0
 30
0.0
 11
104.5
 21
124.0
 31
0.0
  0
LINE
  8
0
  6
CONTINUOUS
 62
     1
 10
104.5
 20
124.0
 30
0.0
 11
104.5
 21
123.0
 31
0.0
  0
LINE
  8
0
  6
CONTINUOUS
 62
     1
 10
104.5
 20
123.0
 30
0.0
 11
105.5
 21
123.0
 31
0.0
  0
LINE
  8
0
  6
CONTINUOUS
 62
     1
 10
105.5
 20
123.0
 30
0.0
 11
105.5
 21
124.0
 31
0.0
  0
LINE
  8
0
  6
CONTINUOUS
 62
     1
 10
105.5
 20
124.0
 30
0.0
 11
106.5
 21
124.0
 31
0.0
  0
LINE
  8
0
  6
CONTINUOUS
 62
     1
 10
106.5
 20
124.0
 30
0.0
 11
106.5
 21
125.0
 31
0.0
  0
LINE
  8
0
  6
CONTINUOUS
 62
     1
 10
106.5
 20
125.0
 30
0.0
 11
105.5
 21
125.0
 31
0.0
  0
LINE
  8
0
  6
CONTINUOUS
 62
     1
 10
105.5
 20
125.0
 30
0.0
 11
105.5
 21
126.0
 31
0.0
  0
LINE
  8
0
  6
CONTINUOUS
 62
     1
 10
104.5
 20
126.0
 30
0.0
 11
104.5
 21
125.0
 31
0.0
  0
LINE
  8
0
  6
CONTINUOUS
 62
     1
 10
104.5
 20
125.0
 30
0.0
 11
103.5
 21
125.0
 31
0.0
  0
LINE
  8
0
  6
CONTINUOUS
 62
     1
 10
103.5
 20
125.0
 30
0.0
 11
103.5
 21
124.0
 31
0.0
  0
CIRCLE
  8
0
  6
CONTINUOUS
 62
     1
 10
105.0
 20
119.5
 30
0.0
 40
2.0
  0
LINE
  8
0
  6
CONTINUOUS
 62
     1
 10
103.5
 20
119.0
 30
0.0
 11
104.5
 21
119.0
 31
0.0
  0
LINE
  8
0
  6
CONTINUOUS
 62
     1
 10
104.5
 20
119.0
 30
0.0
 11
104.5
 21
118.0
 31
0.0
  0
LINE
  8
0
  6
CONTINUOUS
 62
     1
 10
104.5
 20
118.0
 30
0.0
 11
105.5
 21
118.0
 31
0.0
  0
LINE
  8
0
  6
CONTINUOUS
 62
     1
 10
105.5
 20
118.0
 30
0.0
 11
105.5
 21
119.0
 31
0.0
  0
LINE
  8
0
  6
CONTINUOUS
 62
     1
 10
105.5
 20
119.0
 30
0.0
 11
106.5
 21
119.0
 31
0.0
  0
LINE
  8
0
  6
CONTINUOUS
 62
     1
 10
106.5
 20
119.0
 30
0.0
 11
106.5
 21
120.0
 31
0.0
  0
LINE
  8
0
  6
CONTINUOUS
 62
     1
 10
106.5
 20
120.0
 30
0.0
 11
105.5
 21
120.0
 31
0.0
  0
LINE
  8
0
  6
CONTINUOUS
 62
     1
 10
105.5
 20
120.0
 30
0.0
 11
105.5
 21
121.0
 31
0.0
  0
LINE
  8
0
  6
CONTINUOUS
 62
     1
 10
104.5
 20
121.0
 30
0.0
 11
104.5
 21
120.0
 31
0.0
  0
LINE
  8
0
  6
CONTINUOUS
 62
     1
 10
104.5
 20
120.0
 30
0.0
 11
103.5
 21
120.0
 31
0.0
  0
LINE
  8
0
  6
CONTINUOUS
 62
     1
 10
103.5
 20
120.0
 30
0.0
 11
103.5
 21
119.0
 31
0.0
  0
LINE
  8
0
  6
CONTINUOUS
 62
     1
 10
104.5
 20
121.0
 30
0.0
 11
105.5
 21
121.0
 31
0.0
  0
LINE
  8
0
  6
CONTINUOUS
 62
     1
 10
104.5
 20
126.0
 30
0.0
 11
105.5
 21
126.0
 31
0.0
  0
TEXT
  8
0
  6
CONTINUOUS
 62
     1
 10
108.5
 20
142.5
 30
0.0
 40
3.0
  1
１５レンシ゛ＨＩ
 50
0.0
 41
0.5
 51
0.0
  7
KANJI2
  0
TEXT
  8
0
  6
CONTINUOUS
 62
     1
 10
108.5
 20
137.5
 30
0.0
 40
3.0
  1
１４レンシ゛ＨＩ
 50
0.0
 41
0.5
 51
0.0
  7
KANJI2
  0
TEXT
  8
0
  6
CONTINUOUS
 62
     1
 10
108.5
 20
132.5
 30
0.0
 40
3.0
  1
１３レンシ゛ＨＩ
 50
0.0
 41
0.5
 51
0.0
  7
KANJI2
  0
TEXT
  8
0
  6
CONTINUOUS
 62
     1
 10
108.5
 20
127.5
 30
0.0
 40
3.0
  1
１２レンシ゛ＨＩ
 50
0.0
 41
0.5
 51
0.0
  7
KANJI2
  0
TEXT
  8
0
  6
CONTINUOUS
 62
     1
 10
108.5
 20
122.5
 30
0.0
 40
3.0
  1
１１レンシ゛ＨＩ
 50
0.0
 41
0.5
 51
0.0
  7
KANJI2
  0
TEXT
  8
0
  6
CONTINUOUS
 62
     1
 10
108.5
 20
117.5
 30
0.0
 40
3.0
  1
ＬＯ
 50
0.0
 41
0.5
 51
0.0
  7
KANJI2
  0
LINE
  8
0
  6
CONTINUOUS
 62
     1
 10
147.5
 20
116.5
 30
0.0
 11
152.5
 21
116.5
 31
0.0
  0
LINE
  8
0
  6
CONTINUOUS
 62
     1
 10
152.5
 20
116.5
 30
0.0
 11
152.5
 21
117.5
 31
0.0
  0
LINE
  8
0
  6
CONTINUOUS
 62
     1
 10
152.5
 20
117.5
 30
0.0
 11
147.5
 21
117.5
 31
0.0
  0
LINE
  8
0
  6
CONTINUOUS
 62
     1
 10
147.5
 20
117.5
 30
0.0
 11
147.5
 21
121.5
 31
0.0
  0
LINE
  8
0
  6
CONTINUOUS
 62
     1
 10
147.5
 20
121.5
 30
0.0
 11
152.5
 21
121.5
 31
0.0
  0
LINE
  8
0
  6
CONTINUOUS
 62
     1
 10
152.5
 20
121.5
 30
0.0
 11
152.5
 21
122.5
 31
0.0
  0
LINE
  8
0
  6
CONTINUOUS
 62
     1
 10
152.5
 20
122.5
 30
0.0
 11
147.5
 21
122.5
 31
0.0
  0
LINE
  8
0
  6
CONTINUOUS
 62
     1
 10
147.5
 20
122.5
 30
0.0
 11
147.5
 21
126.5
 31
0.0
  0
LINE
  8
0
  6
CONTINUOUS
 62
     1
 10
147.5
 20
126.5
 30
0.0
 11
152.5
 21
126.5
 31
0.0
  0
LINE
  8
0
  6
CONTINUOUS
 62
     1
 10
152.5
 20
126.5
 30
0.0
 11
152.5
 21
127.5
 31
0.0
  0
LINE
  8
0
  6
CONTINUOUS
 62
     1
 10
152.5
 20
127.5
 30
0.0
 11
147.5
 21
127.5
 31
0.0
  0
LINE
  8
0
  6
CONTINUOUS
 62
     1
 10
147.5
 20
127.5
 30
0.0
 11
147.5
 21
131.5
 31
0.0
  0
LINE
  8
0
  6
CONTINUOUS
 62
     1
 10
147.5
 20
131.5
 30
0.0
 11
152.5
 21
131.5
 31
0.0
  0
LINE
  8
0
  6
CONTINUOUS
 62
     1
 10
152.5
 20
131.5
 30
0.0
 11
152.5
 21
132.5
 31
0.0
  0
LINE
  8
0
  6
CONTINUOUS
 62
     1
 10
152.5
 20
132.5
 30
0.0
 11
147.5
 21
132.5
 31
0.0
  0
LINE
  8
0
  6
CONTINUOUS
 62
     1
 10
147.5
 20
132.5
 30
0.0
 11
147.5
 21
136.5
 31
0.0
  0
LINE
  8
0
  6
CONTINUOUS
 62
     1
 10
147.5
 20
136.5
 30
0.0
 11
152.5
 21
136.5
 31
0.0
  0
LINE
  8
0
  6
CONTINUOUS
 62
     1
 10
152.5
 20
136.5
 30
0.0
 11
152.5
 21
137.5
 31
0.0
  0
LINE
  8
0
  6
CONTINUOUS
 62
     1
 10
152.5
 20
137.5
 30
0.0
 11
147.5
 21
137.5
 31
0.0
  0
LINE
  8
0
  6
CONTINUOUS
 62
     1
 10
147.5
 20
137.5
 30
0.0
 11
147.5
 21
141.5
 31
0.0
  0
LINE
  8
0
  6
CONTINUOUS
 62
     1
 10
147.5
 20
141.5
 30
0.0
 11
152.5
 21
141.5
 31
0.0
  0
LINE
  8
0
  6
CONTINUOUS
 62
     1
 10
152.5
 20
141.5
 30
0.0
 11
152.5
 21
142.5
 31
0.0
  0
LINE
  8
0
  6
CONTINUOUS
 62
     1
 10
152.5
 20
142.5
 30
0.0
 11
147.5
 21
142.5
 31
0.0
  0
LINE
  8
0
  6
CONTINUOUS
 62
     1
 10
147.5
 20
142.5
 30
0.0
 11
147.5
 21
146.5
 31
0.0
  0
LINE
  8
0
  6
CONTINUOUS
 62
     1
 10
147.5
 20
146.5
 30
0.0
 11
152.5
 21
146.5
 31
0.0
  0
LINE
  8
0
  6
CONTINUOUS
 62
     1
 10
152.5
 20
146.5
 30
0.0
 11
152.5
 21
147.5
 31
0.0
  0
LINE
  8
0
  6
CONTINUOUS
 62
     1
 10
152.5
 20
147.5
 30
0.0
 11
147.5
 21
147.5
 31
0.0
  0
LINE
  8
0
  6
CONTINUOUS
 62
     1
 10
147.5
 20
147.5
 30
0.0
 11
147.5
 21
116.5
 31
0.0
  0
LINE
  8
0
  6
CONTINUOUS
 62
     1
 10
147.5
 20
116.5
 30
0.0
 11
152.5
 21
116.5
 31
0.0
  0
LINE
  8
0
  6
CONTINUOUS
 62
     1
 10
152.5
 20
116.5
 30
0.0
 11
152.5
 21
147.5
 31
0.0
  0
CIRCLE
  8
0
  6
CONTINUOUS
 62
     1
 10
150.0
 20
144.5
 30
0.0
 40
2.0
  0
LINE
  8
0
  6
CONTINUOUS
 62
     1
 10
148.5
 20
144.0
 30
0.0
 11
149.5
 21
144.0
 31
0.0
  0
LINE
  8
0
  6
CONTINUOUS
 62
     1
 10
149.5
 20
144.0
 30
0.0
 11
149.5
 21
143.0
 31
0.0
  0
LINE
  8
0
  6
CONTINUOUS
 62
     1
 10
149.5
 20
143.0
 30
0.0
 11
150.5
 21
143.0
 31
0.0
  0
LINE
  8
0
  6
CONTINUOUS
 62
     1
 10
150.5
 20
143.0
 30
0.0
 11
150.5
 21
144.0
 31
0.0
  0
LINE
  8
0
  6
CONTINUOUS
 62
     1
 10
150.5
 20
144.0
 30
0.0
 11
151.5
 21
144.0
 31
0.0
  0
LINE
  8
0
  6
CONTINUOUS
 62
     1
 10
151.5
 20
144.0
 30
0.0
 11
151.5
 21
145.0
 31
0.0
  0
LINE
  8
0
  6
CONTINUOUS
 62
     1
 10
151.5
 20
145.0
 30
0.0
 11
150.5
 21
145.0
 31
0.0
  0
LINE
  8
0
  6
CONTINUOUS
 62
     1
 10
150.5
 20
145.0
 30
0.0
 11
150.5
 21
146.0
 31
0.0
  0
LINE
  8
0
  6
CONTINUOUS
 62
     1
 10
150.5
 20
146.0
 30
0.0
 11
149.5
 21
146.0
 31
0.0
  0
LINE
  8
0
  6
CONTINUOUS
 62
     1
 10
149.5
 20
146.0
 30
0.0
 11
149.5
 21
145.0
 31
0.0
  0
LINE
  8
0
  6
CONTINUOUS
 62
     1
 10
149.5
 20
145.0
 30
0.0
 11
148.5
 21
145.0
 31
0.0
  0
LINE
  8
0
  6
CONTINUOUS
 62
     1
 10
148.5
 20
145.0
 30
0.0
 11
148.5
 21
144.0
 31
0.0
  0
CIRCLE
  8
0
  6
CONTINUOUS
 62
     1
 10
150.0
 20
139.5
 30
0.0
 40
2.0
  0
LINE
  8
0
  6
CONTINUOUS
 62
     1
 10
148.5
 20
139.0
 30
0.0
 11
149.5
 21
139.0
 31
0.0
  0
LINE
  8
0
  6
CONTINUOUS
 62
     1
 10
149.5
 20
139.0
 30
0.0
 11
149.5
 21
138.0
 31
0.0
  0
LINE
  8
0
  6
CONTINUOUS
 62
     1
 10
149.5
 20
138.0
 30
0.0
 11
150.5
 21
138.0
 31
0.0
  0
LINE
  8
0
  6
CONTINUOUS
 62
     1
 10
150.5
 20
138.0
 30
0.0
 11
150.5
 21
139.0
 31
0.0
  0
LINE
  8
0
  6
CONTINUOUS
 62
     1
 10
150.5
 20
139.0
 30
0.0
 11
151.5
 21
139.0
 31
0.0
  0
LINE
  8
0
  6
CONTINUOUS
 62
     1
 10
151.5
 20
139.0
 30
0.0
 11
151.5
 21
140.0
 31
0.0
  0
LINE
  8
0
  6
CONTINUOUS
 62
     1
 10
151.5
 20
140.0
 30
0.0
 11
150.5
 21
140.0
 31
0.0
  0
LINE
  8
0
  6
CONTINUOUS
 62
     1
 10
150.5
 20
140.0
 30
0.0
 11
150.5
 21
141.0
 31
0.0
  0
LINE
  8
0
  6
CONTINUOUS
 62
     1
 10
150.5
 20
141.0
 30
0.0
 11
149.5
 21
141.0
 31
0.0
  0
LINE
  8
0
  6
CONTINUOUS
 62
     1
 10
149.5
 20
141.0
 30
0.0
 11
149.5
 21
140.0
 31
0.0
  0
LINE
  8
0
  6
CONTINUOUS
 62
     1
 10
149.5
 20
140.0
 30
0.0
 11
148.5
 21
140.0
 31
0.0
  0
LINE
  8
0
  6
CONTINUOUS
 62
     1
 10
148.5
 20
140.0
 30
0.0
 11
148.5
 21
139.0
 31
0.0
  0
CIRCLE
  8
0
  6
CONTINUOUS
 62
     1
 10
150.0
 20
134.5
 30
0.0
 40
2.0
  0
LINE
  8
0
  6
CONTINUOUS
 62
     1
 10
148.5
 20
134.0
 30
0.0
 11
149.5
 21
134.0
 31
0.0
  0
LINE
  8
0
  6
CONTINUOUS
 62
     1
 10
149.5
 20
134.0
 30
0.0
 11
149.5
 21
133.0
 31
0.0
  0
LINE
  8
0
  6
CONTINUOUS
 62
     1
 10
149.5
 20
133.0
 30
0.0
 11
150.5
 21
133.0
 31
0.0
  0
LINE
  8
0
  6
CONTINUOUS
 62
     1
 10
150.5
 20
133.0
 30
0.0
 11
150.5
 21
134.0
 31
0.0
  0
LINE
  8
0
  6
CONTINUOUS
 62
     1
 10
150.5
 20
134.0
 30
0.0
 11
151.5
 21
134.0
 31
0.0
  0
LINE
  8
0
  6
CONTINUOUS
 62
     1
 10
151.5
 20
134.0
 30
0.0
 11
151.5
 21
135.0
 31
0.0
  0
LINE
  8
0
  6
CONTINUOUS
 62
     1
 10
151.5
 20
135.0
 30
0.0
 11
150.5
 21
135.0
 31
0.0
  0
LINE
  8
0
  6
CONTINUOUS
 62
     1
 10
150.5
 20
135.0
 30
0.0
 11
150.5
 21
136.0
 31
0.0
  0
LINE
  8
0
  6
CONTINUOUS
 62
     1
 10
150.5
 20
136.0
 30
0.0
 11
149.5
 21
136.0
 31
0.0
  0
LINE
  8
0
  6
CONTINUOUS
 62
     1
 10
149.5
 20
136.0
 30
0.0
 11
149.5
 21
135.0
 31
0.0
  0
LINE
  8
0
  6
CONTINUOUS
 62
     1
 10
149.5
 20
135.0
 30
0.0
 11
148.5
 21
135.0
 31
0.0
  0
LINE
  8
0
  6
CONTINUOUS
 62
     1
 10
148.5
 20
135.0
 30
0.0
 11
148.5
 21
134.0
 31
0.0
  0
CIRCLE
  8
0
  6
CONTINUOUS
 62
     1
 10
150.0
 20
129.5
 30
0.0
 40
2.0
  0
LINE
  8
0
  6
CONTINUOUS
 62
     1
 10
148.5
 20
129.0
 30
0.0
 11
149.5
 21
129.0
 31
0.0
  0
LINE
  8
0
  6
CONTINUOUS
 62
     1
 10
149.5
 20
129.0
 30
0.0
 11
149.5
 21
128.0
 31
0.0
  0
LINE
  8
0
  6
CONTINUOUS
 62
     1
 10
149.5
 20
128.0
 30
0.0
 11
150.5
 21
128.0
 31
0.0
  0
LINE
  8
0
  6
CONTINUOUS
 62
     1
 10
150.5
 20
128.0
 30
0.0
 11
150.5
 21
129.0
 31
0.0
  0
LINE
  8
0
  6
CONTINUOUS
 62
     1
 10
150.5
 20
129.0
 30
0.0
 11
151.5
 21
129.0
 31
0.0
  0
LINE
  8
0
  6
CONTINUOUS
 62
     1
 10
151.5
 20
129.0
 30
0.0
 11
151.5
 21
130.0
 31
0.0
  0
LINE
  8
0
  6
CONTINUOUS
 62
     1
 10
151.5
 20
130.0
 30
0.0
 11
150.5
 21
130.0
 31
0.0
  0
LINE
  8
0
  6
CONTINUOUS
 62
     1
 10
150.5
 20
130.0
 30
0.0
 11
150.5
 21
131.0
 31
0.0
  0
LINE
  8
0
  6
CONTINUOUS
 62
     1
 10
150.5
 20
131.0
 30
0.0
 11
149.5
 21
131.0
 31
0.0
  0
LINE
  8
0
  6
CONTINUOUS
 62
     1
 10
149.5
 20
131.0
 30
0.0
 11
149.5
 21
130.0
 31
0.0
  0
LINE
  8
0
  6
CONTINUOUS
 62
     1
 10
149.5
 20
130.0
 30
0.0
 11
148.5
 21
130.0
 31
0.0
  0
LINE
  8
0
  6
CONTINUOUS
 62
     1
 10
148.5
 20
130.0
 30
0.0
 11
148.5
 21
129.0
 31
0.0
  0
CIRCLE
  8
0
  6
CONTINUOUS
 62
     1
 10
150.0
 20
124.5
 30
0.0
 40
2.0
  0
LINE
  8
0
  6
CONTINUOUS
 62
     1
 10
148.5
 20
124.0
 30
0.0
 11
149.5
 21
124.0
 31
0.0
  0
LINE
  8
0
  6
CONTINUOUS
 62
     1
 10
149.5
 20
124.0
 30
0.0
 11
149.5
 21
123.0
 31
0.0
  0
LINE
  8
0
  6
CONTINUOUS
 62
     1
 10
149.5
 20
123.0
 30
0.0
 11
150.5
 21
123.0
 31
0.0
  0
LINE
  8
0
  6
CONTINUOUS
 62
     1
 10
150.5
 20
123.0
 30
0.0
 11
150.5
 21
124.0
 31
0.0
  0
LINE
  8
0
  6
CONTINUOUS
 62
     1
 10
150.5
 20
124.0
 30
0.0
 11
151.5
 21
124.0
 31
0.0
  0
LINE
  8
0
  6
CONTINUOUS
 62
     1
 10
151.5
 20
124.0
 30
0.0
 11
151.5
 21
125.0
 31
0.0
  0
LINE
  8
0
  6
CONTINUOUS
 62
     1
 10
151.5
 20
125.0
 30
0.0
 11
150.5
 21
125.0
 31
0.0
  0
LINE
  8
0
  6
CONTINUOUS
 62
     1
 10
150.5
 20
125.0
 30
0.0
 11
150.5
 21
126.0
 31
0.0
  0
LINE
  8
0
  6
CONTINUOUS
 62
     1
 10
149.5
 20
126.0
 30
0.0
 11
149.5
 21
125.0
 31
0.0
  0
LINE
  8
0
  6
CONTINUOUS
 62
     1
 10
149.5
 20
125.0
 30
0.0
 11
148.5
 21
125.0
 31
0.0
  0
LINE
  8
0
  6
CONTINUOUS
 62
     1
 10
148.5
 20
125.0
 30
0.0
 11
148.5
 21
124.0
 31
0.0
  0
CIRCLE
  8
0
  6
CONTINUOUS
 62
     1
 10
150.0
 20
119.5
 30
0.0
 40
2.0
  0
LINE
  8
0
  6
CONTINUOUS
 62
     1
 10
148.5
 20
119.0
 30
0.0
 11
149.5
 21
119.0
 31
0.0
  0
LINE
  8
0
  6
CONTINUOUS
 62
     1
 10
149.5
 20
119.0
 30
0.0
 11
149.5
 21
118.0
 31
0.0
  0
LINE
  8
0
  6
CONTINUOUS
 62
     1
 10
149.5
 20
118.0
 30
0.0
 11
150.5
 21
118.0
 31
0.0
  0
LINE
  8
0
  6
CONTINUOUS
 62
     1
 10
150.5
 20
118.0
 30
0.0
 11
150.5
 21
119.0
 31
0.0
  0
LINE
  8
0
  6
CONTINUOUS
 62
     1
 10
150.5
 20
119.0
 30
0.0
 11
151.5
 21
119.0
 31
0.0
  0
LINE
  8
0
  6
CONTINUOUS
 62
     1
 10
151.5
 20
119.0
 30
0.0
 11
151.5
 21
120.0
 31
0.0
  0
LINE
  8
0
  6
CONTINUOUS
 62
     1
 10
151.5
 20
120.0
 30
0.0
 11
150.5
 21
120.0
 31
0.0
  0
LINE
  8
0
  6
CONTINUOUS
 62
     1
 10
150.5
 20
120.0
 30
0.0
 11
150.5
 21
121.0
 31
0.0
  0
LINE
  8
0
  6
CONTINUOUS
 62
     1
 10
149.5
 20
121.0
 30
0.0
 11
149.5
 21
120.0
 31
0.0
  0
LINE
  8
0
  6
CONTINUOUS
 62
     1
 10
149.5
 20
120.0
 30
0.0
 11
148.5
 21
120.0
 31
0.0
  0
LINE
  8
0
  6
CONTINUOUS
 62
     1
 10
148.5
 20
120.0
 30
0.0
 11
148.5
 21
119.0
 31
0.0
  0
LINE
  8
0
  6
CONTINUOUS
 62
     1
 10
149.5
 20
121.0
 30
0.0
 11
150.5
 21
121.0
 31
0.0
  0
LINE
  8
0
  6
CONTINUOUS
 62
     1
 10
149.5
 20
126.0
 30
0.0
 11
150.5
 21
126.0
 31
0.0
  0
TEXT
  8
0
  6
CONTINUOUS
 62
     1
 10
153.5
 20
142.5
 30
0.0
 40
3.0
  1
ＨＩａ
 50
0.0
 41
0.5
 51
0.0
  7
KANJI2
  0
TEXT
  8
0
  6
CONTINUOUS
 62
     1
 10
153.5
 20
137.5
 30
0.0
 40
3.0
  1
ＨＩｃ
 50
0.0
 41
0.5
 51
0.0
  7
KANJI2
  0
TEXT
  8
0
  6
CONTINUOUS
 62
     1
 10
153.5
 20
132.5
 30
0.0
 40
3.0
  1
ＧＯａ
 50
0.0
 41
0.5
 51
0.0
  7
KANJI2
  0
TEXT
  8
0
  6
CONTINUOUS
 62
     1
 10
153.5
 20
127.5
 30
0.0
 40
3.0
  1
ＧＯｃ
 50
0.0
 41
0.5
 51
0.0
  7
KANJI2
  0
TEXT
  8
0
  6
CONTINUOUS
 62
     1
 10
153.5
 20
122.5
 30
0.0
 40
3.0
  1
ＬＯａ
 50
0.0
 41
0.5
 51
0.0
  7
KANJI2
  0
TEXT
  8
0
  6
CONTINUOUS
 62
     1
 10
153.5
 20
117.5
 30
0.0
 40
3.0
  1
ＬＯｃ
 50
0.0
 41
0.5
 51
0.0
  7
KANJI2
  0
TEXT
  8
0
  6
CONTINUOUS
 62
     1
 10
147.5
 20
112.5
 30
0.0
 40
3.0
  1
リレー接点出力
 50
0.0
 41
1.0
 51
0.0
  7
KANJI0
  0
CIRCLE
  8
0
  6
CONTINUOUS
 62
     1
 10
171.0
 20
144.97
 30
0.0
 40
1.0
  0
LINE
  8
0
  6
CONTINUOUS
 62
     1
 10
170.2
 20
145.17
 30
0.0
 11
171.8
 21
145.17
 31
0.0
  0
LINE
  8
0
  6
CONTINUOUS
 62
     1
 10
171.8
 20
145.17
 30
0.0
 11
171.8
 21
144.77
 31
0.0
  0
LINE
  8
0
  6
CONTINUOUS
 62
     1
 10
171.8
 20
144.77
 30
0.0
 11
170.2
 21
144.77
 31
0.0
  0
LINE
  8
0
  6
CONTINUOUS
 62
     1
 10
170.2
 20
144.77
 30
0.0
 11
170.2
 21
145.17
 31
0.0
  0
CIRCLE
  8
0
  6
CONTINUOUS
 62
     1
 10
171.0
 20
141.97
 30
0.0
 40
1.0
  0
LINE
  8
0
  6
CONTINUOUS
 62
     1
 10
170.2
 20
142.17
 30
0.0
 11
171.8
 21
142.17
 31
0.0
  0
LINE
  8
0
  6
CONTINUOUS
 62
     1
 10
171.8
 20
142.17
 30
0.0
 11
171.8
 21
141.77
 31
0.0
  0
LINE
  8
0
  6
CONTINUOUS
 62
     1
 10
171.8
 20
141.77
 30
0.0
 11
170.2
 21
141.77
 31
0.0
  0
LINE
  8
0
  6
CONTINUOUS
 62
     1
 10
170.2
 20
141.77
 30
0.0
 11
170.2
 21
142.17
 31
0.0
  0
CIRCLE
  8
0
  6
CONTINUOUS
 62
     1
 10
171.0
 20
138.97
 30
0.0
 40
1.0
  0
LINE
  8
0
  6
CONTINUOUS
 62
     1
 10
170.2
 20
139.17
 30
0.0
 11
171.8
 21
139.17
 31
0.0
  0
LINE
  8
0
  6
CONTINUOUS
 62
     1
 10
171.8
 20
139.17
 30
0.0
 11
171.8
 21
138.77
 31
0.0
  0
LINE
  8
0
  6
CONTINUOUS
 62
     1
 10
171.8
 20
138.77
 30
0.0
 11
170.2
 21
138.77
 31
0.0
  0
LINE
  8
0
  6
CONTINUOUS
 62
     1
 10
170.2
 20
138.77
 30
0.0
 11
170.2
 21
139.17
 31
0.0
  0
CIRCLE
  8
0
  6
CONTINUOUS
 62
     1
 10
171.0
 20
135.97
 30
0.0
 40
1.0
  0
LINE
  8
0
  6
CONTINUOUS
 62
     1
 10
170.2
 20
136.17
 30
0.0
 11
171.8
 21
136.17
 31
0.0
  0
LINE
  8
0
  6
CONTINUOUS
 62
     1
 10
171.8
 20
136.17
 30
0.0
 11
171.8
 21
135.77
 31
0.0
  0
LINE
  8
0
  6
CONTINUOUS
 62
     1
 10
171.8
 20
135.77
 30
0.0
 11
170.2
 21
135.77
 31
0.0
  0
LINE
  8
0
  6
CONTINUOUS
 62
     1
 10
170.2
 20
135.77
 30
0.0
 11
170.2
 21
136.17
 31
0.0
  0
CIRCLE
  8
0
  6
CONTINUOUS
 62
     1
 10
171.0
 20
132.97
 30
0.0
 40
1.0
  0
LINE
  8
0
  6
CONTINUOUS
 62
     1
 10
170.2
 20
133.17
 30
0.0
 11
171.8
 21
133.17
 31
0.0
  0
LINE
  8
0
  6
CONTINUOUS
 62
     1
 10
171.8
 20
133.17
 30
0.0
 11
171.8
 21
132.77
 31
0.0
  0
LINE
  8
0
  6
CONTINUOUS
 62
     1
 10
171.8
 20
132.77
 30
0.0
 11
170.2
 21
132.77
 31
0.0
  0
LINE
  8
0
  6
CONTINUOUS
 62
     1
 10
170.2
 20
132.77
 30
0.0
 11
170.2
 21
133.17
 31
0.0
  0
CIRCLE
  8
0
  6
CONTINUOUS
 62
     1
 10
171.0
 20
129.97
 30
0.0
 40
1.0
  0
LINE
  8
0
  6
CONTINUOUS
 62
     1
 10
170.2
 20
130.17
 30
0.0
 11
171.8
 21
130.17
 31
0.0
  0
LINE
  8
0
  6
CONTINUOUS
 62
     1
 10
171.8
 20
130.17
 30
0.0
 11
171.8
 21
129.77
 31
0.0
  0
LINE
  8
0
  6
CONTINUOUS
 62
     1
 10
171.8
 20
129.77
 30
0.0
 11
170.2
 21
129.77
 31
0.0
  0
LINE
  8
0
  6
CONTINUOUS
 62
     1
 10
170.2
 20
129.77
 30
0.0
 11
170.2
 21
130.17
 31
0.0
  0
CIRCLE
  8
0
  6
CONTINUOUS
 62
     1
 10
171.0
 20
126.97
 30
0.0
 40
1.0
  0
LINE
  8
0
  6
CONTINUOUS
 62
     1
 10
170.2
 20
127.17
 30
0.0
 11
171.8
 21
127.17
 31
0.0
  0
LINE
  8
0
  6
CONTINUOUS
 62
     1
 10
171.8
 20
127.17
 30
0.0
 11
171.8
 21
126.77
 31
0.0
  0
LINE
  8
0
  6
CONTINUOUS
 62
     1
 10
171.8
 20
126.77
 30
0.0
 11
170.2
 21
126.77
 31
0.0
  0
LINE
  8
0
  6
CONTINUOUS
 62
     1
 10
170.2
 20
126.77
 30
0.0
 11
170.2
 21
127.17
 31
0.0
  0
CIRCLE
  8
0
  6
CONTINUOUS
 62
     1
 10
171.0
 20
123.97
 30
0.0
 40
1.0
  0
LINE
  8
0
  6
CONTINUOUS
 62
     1
 10
170.2
 20
124.17
 30
0.0
 11
171.8
 21
124.17
 31
0.0
  0
LINE
  8
0
  6
CONTINUOUS
 62
     1
 10
171.8
 20
124.17
 30
0.0
 11
171.8
 21
123.77
 31
0.0
  0
LINE
  8
0
  6
CONTINUOUS
 62
     1
 10
171.8
 20
123.77
 30
0.0
 11
170.2
 21
123.77
 31
0.0
  0
LINE
  8
0
  6
CONTINUOUS
 62
     1
 10
170.2
 20
123.77
 30
0.0
 11
170.2
 21
124.17
 31
0.0
  0
CIRCLE
  8
0
  6
CONTINUOUS
 62
     1
 10
171.0
 20
120.97
 30
0.0
 40
1.0
  0
LINE
  8
0
  6
CONTINUOUS
 62
     1
 10
170.2
 20
121.17
 30
0.0
 11
171.8
 21
121.17
 31
0.0
  0
LINE
  8
0
  6
CONTINUOUS
 62
     1
 10
171.8
 20
121.17
 30
0.0
 11
171.8
 21
120.77
 31
0.0
  0
LINE
  8
0
  6
CONTINUOUS
 62
     1
 10
171.8
 20
120.77
 30
0.0
 11
170.2
 21
120.77
 31
0.0
  0
LINE
  8
0
  6
CONTINUOUS
 62
     1
 10
170.2
 20
120.77
 30
0.0
 11
170.2
 21
121.17
 31
0.0
  0
CIRCLE
  8
0
  6
CONTINUOUS
 62
     1
 10
171.0
 20
117.97
 30
0.0
 40
1.0
  0
LINE
  8
0
  6
CONTINUOUS
 62
     1
 10
170.2
 20
118.17
 30
0.0
 11
171.8
 21
118.17
 31
0.0
  0
LINE
  8
0
  6
CONTINUOUS
 62
     1
 10
171.8
 20
118.17
 30
0.0
 11
171.8
 21
117.77
 31
0.0
  0
LINE
  8
0
  6
CONTINUOUS
 62
     1
 10
171.8
 20
117.77
 30
0.0
 11
170.2
 21
117.77
 31
0.0
  0
LINE
  8
0
  6
CONTINUOUS
 62
     1
 10
170.2
 20
117.77
 30
0.0
 11
170.2
 21
118.17
 31
0.0
  0
LINE
  8
0
  6
CONTINUOUS
 62
     1
 10
167.5
 20
147.5
 30
0.0
 11
173.5
 21
147.5
 31
0.0
  0
LINE
  8
0
  6
CONTINUOUS
 62
     1
 10
167.5
 20
116.5
 30
0.0
 11
173.5
 21
116.5
 31
0.0
  0
LINE
  8
0
  6
CONTINUOUS
 62
     1
 10
167.5
 20
147.47
 30
0.0
 11
167.5
 21
116.51
 31
0.0
  0
LINE
  8
0
  6
CONTINUOUS
 62
     1
 10
168.5
 20
116.51
 30
0.0
 11
168.5
 21
147.47
 31
0.0
  0
LINE
  8
0
  6
CONTINUOUS
 62
     1
 10
173.5
 20
147.47
 30
0.0
 11
173.5
 21
116.49
 31
0.0
  0
TEXT
  8
0
  6
CONTINUOUS
 62
     1
 10
174.5
 20
144.0
 30
0.0
 40
3.0
  1
Ｓ／Ｈ
 50
0.0
 41
0.5
 51
0.0
  7
KANJI2
  0
TEXT
  8
0
  6
CONTINUOUS
 62
     1
 10
174.5
 20
141.0
 30
0.0
 40
3.0
  1
ＰＨ
 50
0.0
 41
0.5
 51
0.0
  7
KANJI2
  0
TEXT
  8
0
  6
CONTINUOUS
 62
     1
 10
174.5
 20
138.0
 30
0.0
 40
3.0
  1
ＤＺ
 50
0.0
 41
0.5
 51
0.0
  7
KANJI2
  0
TEXT
  8
0
  6
CONTINUOUS
 62
     1
 10
174.5
 20
135.0
 30
0.0
 40
3.0
  1
Ｒ．ＲＥＳＥＴ
 50
0.0
 41
0.5
 51
0.0
  7
KANJI2
  0
TEXT
  8
0
  6
CONTINUOUS
 62
     1
 10
174.5
 20
126.0
 30
0.0
 40
3.0
  1
Ｐ．ＳＥＬ２
 50
0.0
 41
0.5
 51
0.0
  7
KANJI2
  0
TEXT
  8
0
  6
CONTINUOUS
 62
     1
 10
174.5
 20
123.0
 30
0.0
 40
3.0
  1
ＣＯＭ
 50
0.0
 41
0.5
 51
0.0
  7
KANJI2
  0
TEXT
  8
0
  6
CONTINUOUS
 62
     1
 10
174.5
 20
120.0
 30
0.0
 40
3.0
  1
ＮＣ
 50
0.0
 41
0.5
 51
0.0
  7
KANJI2
  0
TEXT
  8
0
  6
CONTINUOUS
 62
     1
 10
174.5
 20
117.0
 30
0.0
 40
3.0
  1
ＮＣ
 50
0.0
 41
0.5
 51
0.0
  7
KANJI2
  0
TEXT
  8
0
  6
CONTINUOUS
 62
     1
 10
167.5
 20
112.5
 30
0.0
 40
3.0
  1
外部制御
 50
0.0
 41
1.0
 51
0.0
  7
KANJI0
  0
TEXT
  8
0
  6
CONTINUOUS
 62
     1
 10
187.5
 20
112.5
 30
0.0
 40
3.0
  1
直流電源
 50
0.0
 41
1.0
 51
0.0
  7
KANJI0
  0
LINE
  8
0
  6
CONTINUOUS
 62
     1
 10
187.5
 20
116.5
 30
0.0
 11
192.5
 21
116.5
 31
0.0
  0
LINE
  8
0
  6
CONTINUOUS
 62
     1
 10
192.5
 20
116.5
 30
0.0
 11
192.5
 21
117.5
 31
0.0
  0
LINE
  8
0
  6
CONTINUOUS
 62
     1
 10
192.5
 20
117.5
 30
0.0
 11
187.5
 21
117.5
 31
0.0
  0
LINE
  8
0
  6
CONTINUOUS
 62
     1
 10
187.5
 20
117.5
 30
0.0
 11
187.5
 21
121.5
 31
0.0
  0
LINE
  8
0
  6
CONTINUOUS
 62
     1
 10
187.5
 20
121.5
 30
0.0
 11
192.5
 21
121.5
 31
0.0
  0
LINE
  8
0
  6
CONTINUOUS
 62
     1
 10
192.5
 20
121.5
 30
0.0
 11
192.5
 21
122.5
 31
0.0
  0
LINE
  8
0
  6
CONTINUOUS
 62
     1
 10
192.5
 20
122.5
 30
0.0
 11
187.5
 21
122.5
 31
0.0
  0
LINE
  8
0
  6
CONTINUOUS
 62
     1
 10
187.5
 20
122.5
 30
0.0
 11
187.5
 21
126.5
 31
0.0
  0
LINE
  8
0
  6
CONTINUOUS
 62
     1
 10
187.5
 20
126.5
 30
0.0
 11
192.5
 21
126.5
 31
0.0
  0
LINE
  8
0
  6
CONTINUOUS
 62
     1
 10
192.5
 20
126.5
 30
0.0
 11
192.5
 21
127.5
 31
0.0
  0
LINE
  8
0
  6
CONTINUOUS
 62
     1
 10
192.5
 20
127.5
 30
0.0
 11
187.5
 21
127.5
 31
0.0
  0
LINE
  8
0
  6
CONTINUOUS
 62
     1
 10
187.5
 20
127.5
 30
0.0
 11
187.5
 21
131.5
 31
0.0
  0
LINE
  8
0
  6
CONTINUOUS
 62
     1
 10
187.5
 20
131.5
 30
0.0
 11
192.5
 21
131.5
 31
0.0
  0
LINE
  8
0
  6
CONTINUOUS
 62
     1
 10
192.5
 20
131.5
 30
0.0
 11
192.5
 21
132.5
 31
0.0
  0
LINE
  8
0
  6
CONTINUOUS
 62
     1
 10
192.5
 20
132.5
 30
0.0
 11
187.5
 21
132.5
 31
0.0
  0
LINE
  8
0
  6
CONTINUOUS
 62
     1
 10
187.5
 20
132.5
 30
0.0
 11
187.5
 21
136.5
 31
0.0
  0
LINE
  8
0
  6
CONTINUOUS
 62
     1
 10
187.5
 20
136.5
 30
0.0
 11
192.5
 21
136.5
 31
0.0
  0
LINE
  8
0
  6
CONTINUOUS
 62
     1
 10
192.5
 20
136.5
 30
0.0
 11
192.5
 21
137.5
 31
0.0
  0
LINE
  8
0
  6
CONTINUOUS
 62
     1
 10
192.5
 20
137.5
 30
0.0
 11
187.5
 21
137.5
 31
0.0
  0
LINE
  8
0
  6
CONTINUOUS
 62
     1
 10
187.5
 20
137.5
 30
0.0
 11
187.5
 21
141.5
 31
0.0
  0
LINE
  8
0
  6
CONTINUOUS
 62
     1
 10
187.5
 20
141.5
 30
0.0
 11
192.5
 21
141.5
 31
0.0
  0
LINE
  8
0
  6
CONTINUOUS
 62
     1
 10
192.5
 20
141.5
 30
0.0
 11
192.5
 21
142.5
 31
0.0
  0
LINE
  8
0
  6
CONTINUOUS
 62
     1
 10
192.5
 20
142.5
 30
0.0
 11
187.5
 21
142.5
 31
0.0
  0
LINE
  8
0
  6
CONTINUOUS
 62
     1
 10
187.5
 20
142.5
 30
0.0
 11
187.5
 21
146.5
 31
0.0
  0
LINE
  8
0
  6
CONTINUOUS
 62
     1
 10
187.5
 20
146.5
 30
0.0
 11
192.5
 21
146.5
 31
0.0
  0
LINE
  8
0
  6
CONTINUOUS
 62
     1
 10
192.5
 20
146.5
 30
0.0
 11
192.5
 21
147.5
 31
0.0
  0
LINE
  8
0
  6
CONTINUOUS
 62
     1
 10
192.5
 20
147.5
 30
0.0
 11
187.5
 21
147.5
 31
0.0
  0
LINE
  8
0
  6
CONTINUOUS
 62
     1
 10
187.5
 20
147.5
 30
0.0
 11
187.5
 21
116.5
 31
0.0
  0
LINE
  8
0
  6
CONTINUOUS
 62
     1
 10
187.5
 20
116.5
 30
0.0
 11
192.5
 21
116.5
 31
0.0
  0
LINE
  8
0
  6
CONTINUOUS
 62
     1
 10
192.5
 20
116.5
 30
0.0
 11
192.5
 21
147.5
 31
0.0
  0
CIRCLE
  8
0
  6
CONTINUOUS
 62
     1
 10
190.0
 20
144.5
 30
0.0
 40
2.0
  0
LINE
  8
0
  6
CONTINUOUS
 62
     1
 10
188.5
 20
144.0
 30
0.0
 11
189.5
 21
144.0
 31
0.0
  0
LINE
  8
0
  6
CONTINUOUS
 62
     1
 10
189.5
 20
144.0
 30
0.0
 11
189.5
 21
143.0
 31
0.0
  0
LINE
  8
0
  6
CONTINUOUS
 62
     1
 10
189.5
 20
143.0
 30
0.0
 11
190.5
 21
143.0
 31
0.0
  0
LINE
  8
0
  6
CONTINUOUS
 62
     1
 10
190.5
 20
143.0
 30
0.0
 11
190.5
 21
144.0
 31
0.0
  0
LINE
  8
0
  6
CONTINUOUS
 62
     1
 10
190.5
 20
144.0
 30
0.0
 11
191.5
 21
144.0
 31
0.0
  0
LINE
  8
0
  6
CONTINUOUS
 62
     1
 10
191.5
 20
144.0
 30
0.0
 11
191.5
 21
145.0
 31
0.0
  0
LINE
  8
0
  6
CONTINUOUS
 62
     1
 10
191.5
 20
145.0
 30
0.0
 11
190.5
 21
145.0
 31
0.0
  0
LINE
  8
0
  6
CONTINUOUS
 62
     1
 10
190.5
 20
145.0
 30
0.0
 11
190.5
 21
146.0
 31
0.0
  0
LINE
  8
0
  6
CONTINUOUS
 62
     1
 10
190.5
 20
146.0
 30
0.0
 11
189.5
 21
146.0
 31
0.0
  0
LINE
  8
0
  6
CONTINUOUS
 62
     1
 10
189.5
 20
146.0
 30
0.0
 11
189.5
 21
145.0
 31
0.0
  0
LINE
  8
0
  6
CONTINUOUS
 62
     1
 10
189.5
 20
145.0
 30
0.0
 11
188.5
 21
145.0
 31
0.0
  0
LINE
  8
0
  6
CONTINUOUS
 62
     1
 10
188.5
 20
145.0
 30
0.0
 11
188.5
 21
144.0
 31
0.0
  0
CIRCLE
  8
0
  6
CONTINUOUS
 62
     1
 10
190.0
 20
139.5
 30
0.0
 40
2.0
  0
LINE
  8
0
  6
CONTINUOUS
 62
     1
 10
188.5
 20
139.0
 30
0.0
 11
189.5
 21
139.0
 31
0.0
  0
LINE
  8
0
  6
CONTINUOUS
 62
     1
 10
189.5
 20
139.0
 30
0.0
 11
189.5
 21
138.0
 31
0.0
  0
LINE
  8
0
  6
CONTINUOUS
 62
     1
 10
189.5
 20
138.0
 30
0.0
 11
190.5
 21
138.0
 31
0.0
  0
LINE
  8
0
  6
CONTINUOUS
 62
     1
 10
190.5
 20
138.0
 30
0.0
 11
190.5
 21
139.0
 31
0.0
  0
LINE
  8
0
  6
CONTINUOUS
 62
     1
 10
190.5
 20
139.0
 30
0.0
 11
191.5
 21
139.0
 31
0.0
  0
LINE
  8
0
  6
CONTINUOUS
 62
     1
 10
191.5
 20
139.0
 30
0.0
 11
191.5
 21
140.0
 31
0.0
  0
LINE
  8
0
  6
CONTINUOUS
 62
     1
 10
191.5
 20
140.0
 30
0.0
 11
190.5
 21
140.0
 31
0.0
  0
LINE
  8
0
  6
CONTINUOUS
 62
     1
 10
190.5
 20
140.0
 30
0.0
 11
190.5
 21
141.0
 31
0.0
  0
LINE
  8
0
  6
CONTINUOUS
 62
     1
 10
190.5
 20
141.0
 30
0.0
 11
189.5
 21
141.0
 31
0.0
  0
LINE
  8
0
  6
CONTINUOUS
 62
     1
 10
189.5
 20
141.0
 30
0.0
 11
189.5
 21
140.0
 31
0.0
  0
LINE
  8
0
  6
CONTINUOUS
 62
     1
 10
189.5
 20
140.0
 30
0.0
 11
188.5
 21
140.0
 31
0.0
  0
LINE
  8
0
  6
CONTINUOUS
 62
     1
 10
188.5
 20
140.0
 30
0.0
 11
188.5
 21
139.0
 31
0.0
  0
CIRCLE
  8
0
  6
CONTINUOUS
 62
     1
 10
190.0
 20
134.5
 30
0.0
 40
2.0
  0
LINE
  8
0
  6
CONTINUOUS
 62
     1
 10
188.5
 20
134.0
 30
0.0
 11
189.5
 21
134.0
 31
0.0
  0
LINE
  8
0
  6
CONTINUOUS
 62
     1
 10
189.5
 20
134.0
 30
0.0
 11
189.5
 21
133.0
 31
0.0
  0
LINE
  8
0
  6
CONTINUOUS
 62
     1
 10
189.5
 20
133.0
 30
0.0
 11
190.5
 21
133.0
 31
0.0
  0
LINE
  8
0
  6
CONTINUOUS
 62
     1
 10
190.5
 20
133.0
 30
0.0
 11
190.5
 21
134.0
 31
0.0
  0
LINE
  8
0
  6
CONTINUOUS
 62
     1
 10
190.5
 20
134.0
 30
0.0
 11
191.5
 21
134.0
 31
0.0
  0
LINE
  8
0
  6
CONTINUOUS
 62
     1
 10
191.5
 20
134.0
 30
0.0
 11
191.5
 21
135.0
 31
0.0
  0
LINE
  8
0
  6
CONTINUOUS
 62
     1
 10
191.5
 20
135.0
 30
0.0
 11
190.5
 21
135.0
 31
0.0
  0
LINE
  8
0
  6
CONTINUOUS
 62
     1
 10
190.5
 20
135.0
 30
0.0
 11
190.5
 21
136.0
 31
0.0
  0
LINE
  8
0
  6
CONTINUOUS
 62
     1
 10
190.5
 20
136.0
 30
0.0
 11
189.5
 21
136.0
 31
0.0
  0
LINE
  8
0
  6
CONTINUOUS
 62
     1
 10
189.5
 20
136.0
 30
0.0
 11
189.5
 21
135.0
 31
0.0
  0
LINE
  8
0
  6
CONTINUOUS
 62
     1
 10
189.5
 20
135.0
 30
0.0
 11
188.5
 21
135.0
 31
0.0
  0
LINE
  8
0
  6
CONTINUOUS
 62
     1
 10
188.5
 20
135.0
 30
0.0
 11
188.5
 21
134.0
 31
0.0
  0
CIRCLE
  8
0
  6
CONTINUOUS
 62
     1
 10
190.0
 20
129.5
 30
0.0
 40
2.0
  0
LINE
  8
0
  6
CONTINUOUS
 62
     1
 10
188.5
 20
129.0
 30
0.0
 11
189.5
 21
129.0
 31
0.0
  0
LINE
  8
0
  6
CONTINUOUS
 62
     1
 10
189.5
 20
129.0
 30
0.0
 11
189.5
 21
128.0
 31
0.0
  0
LINE
  8
0
  6
CONTINUOUS
 62
     1
 10
189.5
 20
128.0
 30
0.0
 11
190.5
 21
128.0
 31
0.0
  0
LINE
  8
0
  6
CONTINUOUS
 62
     1
 10
190.5
 20
128.0
 30
0.0
 11
190.5
 21
129.0
 31
0.0
  0
LINE
  8
0
  6
CONTINUOUS
 62
     1
 10
190.5
 20
129.0
 30
0.0
 11
191.5
 21
129.0
 31
0.0
  0
LINE
  8
0
  6
CONTINUOUS
 62
     1
 10
191.5
 20
129.0
 30
0.0
 11
191.5
 21
130.0
 31
0.0
  0
LINE
  8
0
  6
CONTINUOUS
 62
     1
 10
191.5
 20
130.0
 30
0.0
 11
190.5
 21
130.0
 31
0.0
  0
LINE
  8
0
  6
CONTINUOUS
 62
     1
 10
190.5
 20
130.0
 30
0.0
 11
190.5
 21
131.0
 31
0.0
  0
LINE
  8
0
  6
CONTINUOUS
 62
     1
 10
190.5
 20
131.0
 30
0.0
 11
189.5
 21
131.0
 31
0.0
  0
LINE
  8
0
  6
CONTINUOUS
 62
     1
 10
189.5
 20
131.0
 30
0.0
 11
189.5
 21
130.0
 31
0.0
  0
LINE
  8
0
  6
CONTINUOUS
 62
     1
 10
189.5
 20
130.0
 30
0.0
 11
188.5
 21
130.0
 31
0.0
  0
LINE
  8
0
  6
CONTINUOUS
 62
     1
 10
188.5
 20
130.0
 30
0.0
 11
188.5
 21
129.0
 31
0.0
  0
CIRCLE
  8
0
  6
CONTINUOUS
 62
     1
 10
190.0
 20
124.5
 30
0.0
 40
2.0
  0
LINE
  8
0
  6
CONTINUOUS
 62
     1
 10
188.5
 20
124.0
 30
0.0
 11
189.5
 21
124.0
 31
0.0
  0
LINE
  8
0
  6
CONTINUOUS
 62
     1
 10
189.5
 20
124.0
 30
0.0
 11
189.5
 21
123.0
 31
0.0
  0
LINE
  8
0
  6
CONTINUOUS
 62
     1
 10
189.5
 20
123.0
 30
0.0
 11
190.5
 21
123.0
 31
0.0
  0
LINE
  8
0
  6
CONTINUOUS
 62
     1
 10
190.5
 20
123.0
 30
0.0
 11
190.5
 21
124.0
 31
0.0
  0
LINE
  8
0
  6
CONTINUOUS
 62
     1
 10
190.5
 20
124.0
 30
0.0
 11
191.5
 21
124.0
 31
0.0
  0
LINE
  8
0
  6
CONTINUOUS
 62
     1
 10
191.5
 20
124.0
 30
0.0
 11
191.5
 21
125.0
 31
0.0
  0
LINE
  8
0
  6
CONTINUOUS
 62
     1
 10
191.5
 20
125.0
 30
0.0
 11
190.5
 21
125.0
 31
0.0
  0
LINE
  8
0
  6
CONTINUOUS
 62
     1
 10
190.5
 20
125.0
 30
0.0
 11
190.5
 21
126.0
 31
0.0
  0
LINE
  8
0
  6
CONTINUOUS
 62
     1
 10
189.5
 20
126.0
 30
0.0
 11
189.5
 21
125.0
 31
0.0
  0
LINE
  8
0
  6
CONTINUOUS
 62
     1
 10
189.5
 20
125.0
 30
0.0
 11
188.5
 21
125.0
 31
0.0
  0
LINE
  8
0
  6
CONTINUOUS
 62
     1
 10
188.5
 20
125.0
 30
0.0
 11
188.5
 21
124.0
 31
0.0
  0
CIRCLE
  8
0
  6
CONTINUOUS
 62
     1
 10
190.0
 20
119.5
 30
0.0
 40
2.0
  0
LINE
  8
0
  6
CONTINUOUS
 62
     1
 10
188.5
 20
119.0
 30
0.0
 11
189.5
 21
119.0
 31
0.0
  0
LINE
  8
0
  6
CONTINUOUS
 62
     1
 10
189.5
 20
119.0
 30
0.0
 11
189.5
 21
118.0
 31
0.0
  0
LINE
  8
0
  6
CONTINUOUS
 62
     1
 10
189.5
 20
118.0
 30
0.0
 11
190.5
 21
118.0
 31
0.0
  0
LINE
  8
0
  6
CONTINUOUS
 62
     1
 10
190.5
 20
118.0
 30
0.0
 11
190.5
 21
119.0
 31
0.0
  0
LINE
  8
0
  6
CONTINUOUS
 62
     1
 10
190.5
 20
119.0
 30
0.0
 11
191.5
 21
119.0
 31
0.0
  0
LINE
  8
0
  6
CONTINUOUS
 62
     1
 10
191.5
 20
119.0
 30
0.0
 11
191.5
 21
120.0
 31
0.0
  0
LINE
  8
0
  6
CONTINUOUS
 62
     1
 10
191.5
 20
120.0
 30
0.0
 11
190.5
 21
120.0
 31
0.0
  0
LINE
  8
0
  6
CONTINUOUS
 62
     1
 10
190.5
 20
120.0
 30
0.0
 11
190.5
 21
121.0
 31
0.0
  0
LINE
  8
0
  6
CONTINUOUS
 62
     1
 10
189.5
 20
121.0
 30
0.0
 11
189.5
 21
120.0
 31
0.0
  0
LINE
  8
0
  6
CONTINUOUS
 62
     1
 10
189.5
 20
120.0
 30
0.0
 11
188.5
 21
120.0
 31
0.0
  0
LINE
  8
0
  6
CONTINUOUS
 62
     1
 10
188.5
 20
120.0
 30
0.0
 11
188.5
 21
119.0
 31
0.0
  0
LINE
  8
0
  6
CONTINUOUS
 62
     1
 10
189.5
 20
121.0
 30
0.0
 11
190.5
 21
121.0
 31
0.0
  0
LINE
  8
0
  6
CONTINUOUS
 62
     1
 10
189.5
 20
126.0
 30
0.0
 11
190.5
 21
126.0
 31
0.0
  0
TEXT
  8
0
  6
CONTINUOUS
 62
     1
 10
193.5
 20
142.5
 30
0.0
 40
3.0
  1
ＤＣ　ＰＯＷ（＋）
 50
0.0
 41
0.5
 51
0.0
  7
KANJI2
  0
TEXT
  8
0
  6
CONTINUOUS
 62
     1
 10
193.5
 20
137.5
 30
0.0
 40
3.0
  1
ＤＣ　ＰＯＷ（－）
 50
0.0
 41
0.5
 51
0.0
  7
KANJI2
  0
TEXT
  8
0
  6
CONTINUOUS
 62
     1
 10
193.5
 20
132.5
 30
0.0
 40
3.0
  1
ＮＣ
 50
0.0
 41
0.5
 51
0.0
  7
KANJI2
  0
TEXT
  8
0
  6
CONTINUOUS
 62
     1
 10
193.5
 20
127.5
 30
0.0
 40
3.0
  1
ＮＣ
 50
0.0
 41
0.5
 51
0.0
  7
KANJI2
  0
TEXT
  8
0
  6
CONTINUOUS
 62
     1
 10
193.5
 20
122.5
 30
0.0
 40
3.0
  1
ＮＣ
 50
0.0
 41
0.5
 51
0.0
  7
KANJI2
  0
TEXT
  8
0
  6
CONTINUOUS
 62
     1
 10
193.5
 20
117.5
 30
0.0
 40
3.0
  1
ＮＣ
 50
0.0
 41
0.5
 51
0.0
  7
KANJI2
  0
LINE
  8
0
  6
CONTINUOUS
 62
     1
 10
100.0
 20
110.0
 30
0.0
 11
210.0
 21
110.0
 31
0.0
  0
TEXT
  8
0
  6
CONTINUOUS
 62
     1
 10
124.0
 20
69.0
 30
0.0
 40
3.0
  1
（大電流）
 50
0.0
 41
1.0
 51
0.0
  7
KANJI0
  0
TEXT
  8
0
  6
CONTINUOUS
 62
     1
 10
124.0
 20
72.5
 30
0.0
 40
3.0
  1
直流電流測定
 50
0.0
 41
1.0
 51
0.0
  7
KANJI0
  0
LINE
  8
0
  6
CONTINUOUS
 62
     1
 10
124.0
 20
76.5
 30
0.0
 11
129.0
 21
76.5
 31
0.0
  0
LINE
  8
0
  6
CONTINUOUS
 62
     1
 10
129.0
 20
76.5
 30
0.0
 11
129.0
 21
77.5
 31
0.0
  0
LINE
  8
0
  6
CONTINUOUS
 62
     1
 10
129.0
 20
77.5
 30
0.0
 11
124.0
 21
77.5
 31
0.0
  0
LINE
  8
0
  6
CONTINUOUS
 62
     1
 10
124.0
 20
77.5
 30
0.0
 11
124.0
 21
81.5
 31
0.0
  0
LINE
  8
0
  6
CONTINUOUS
 62
     1
 10
124.0
 20
81.5
 30
0.0
 11
129.0
 21
81.5
 31
0.0
  0
LINE
  8
0
  6
CONTINUOUS
 62
     1
 10
129.0
 20
81.5
 30
0.0
 11
129.0
 21
82.5
 31
0.0
  0
LINE
  8
0
  6
CONTINUOUS
 62
     1
 10
129.0
 20
82.5
 30
0.0
 11
124.0
 21
82.5
 31
0.0
  0
LINE
  8
0
  6
CONTINUOUS
 62
     1
 10
124.0
 20
82.5
 30
0.0
 11
124.0
 21
86.5
 31
0.0
  0
LINE
  8
0
  6
CONTINUOUS
 62
     1
 10
124.0
 20
86.5
 30
0.0
 11
129.0
 21
86.5
 31
0.0
  0
LINE
  8
0
  6
CONTINUOUS
 62
     1
 10
129.0
 20
86.5
 30
0.0
 11
129.0
 21
87.5
 31
0.0
  0
LINE
  8
0
  6
CONTINUOUS
 62
     1
 10
129.0
 20
87.5
 30
0.0
 11
124.0
 21
87.5
 31
0.0
  0
LINE
  8
0
  6
CONTINUOUS
 62
     1
 10
124.0
 20
87.5
 30
0.0
 11
124.0
 21
91.5
 31
0.0
  0
LINE
  8
0
  6
CONTINUOUS
 62
     1
 10
124.0
 20
91.5
 30
0.0
 11
129.0
 21
91.5
 31
0.0
  0
LINE
  8
0
  6
CONTINUOUS
 62
     1
 10
129.0
 20
91.5
 30
0.0
 11
129.0
 21
92.5
 31
0.0
  0
LINE
  8
0
  6
CONTINUOUS
 62
     1
 10
129.0
 20
92.5
 30
0.0
 11
124.0
 21
92.5
 31
0.0
  0
LINE
  8
0
  6
CONTINUOUS
 62
     1
 10
124.0
 20
92.5
 30
0.0
 11
124.0
 21
96.5
 31
0.0
  0
LINE
  8
0
  6
CONTINUOUS
 62
     1
 10
124.0
 20
96.5
 30
0.0
 11
129.0
 21
96.5
 31
0.0
  0
LINE
  8
0
  6
CONTINUOUS
 62
     1
 10
129.0
 20
96.5
 30
0.0
 11
129.0
 21
97.5
 31
0.0
  0
LINE
  8
0
  6
CONTINUOUS
 62
     1
 10
129.0
 20
97.5
 30
0.0
 11
124.0
 21
97.5
 31
0.0
  0
LINE
  8
0
  6
CONTINUOUS
 62
     1
 10
124.0
 20
97.5
 30
0.0
 11
124.0
 21
101.5
 31
0.0
  0
LINE
  8
0
  6
CONTINUOUS
 62
     1
 10
124.0
 20
101.5
 30
0.0
 11
129.0
 21
101.5
 31
0.0
  0
LINE
  8
0
  6
CONTINUOUS
 62
     1
 10
129.0
 20
101.5
 30
0.0
 11
129.0
 21
102.5
 31
0.0
  0
LINE
  8
0
  6
CONTINUOUS
 62
     1
 10
129.0
 20
102.5
 30
0.0
 11
124.0
 21
102.5
 31
0.0
  0
LINE
  8
0
  6
CONTINUOUS
 62
     1
 10
124.0
 20
102.5
 30
0.0
 11
124.0
 21
106.5
 31
0.0
  0
LINE
  8
0
  6
CONTINUOUS
 62
     1
 10
124.0
 20
106.5
 30
0.0
 11
129.0
 21
106.5
 31
0.0
  0
LINE
  8
0
  6
CONTINUOUS
 62
     1
 10
129.0
 20
106.5
 30
0.0
 11
129.0
 21
107.5
 31
0.0
  0
LINE
  8
0
  6
CONTINUOUS
 62
     1
 10
129.0
 20
107.5
 30
0.0
 11
124.0
 21
107.5
 31
0.0
  0
LINE
  8
0
  6
CONTINUOUS
 62
     1
 10
124.0
 20
107.5
 30
0.0
 11
124.0
 21
76.5
 31
0.0
  0
LINE
  8
0
  6
CONTINUOUS
 62
     1
 10
124.0
 20
76.5
 30
0.0
 11
129.0
 21
76.5
 31
0.0
  0
LINE
  8
0
  6
CONTINUOUS
 62
     1
 10
129.0
 20
76.5
 30
0.0
 11
129.0
 21
107.5
 31
0.0
  0
CIRCLE
  8
0
  6
CONTINUOUS
 62
     1
 10
126.5
 20
104.5
 30
0.0
 40
2.0
  0
LINE
  8
0
  6
CONTINUOUS
 62
     1
 10
125.0
 20
104.0
 30
0.0
 11
126.0
 21
104.0
 31
0.0
  0
LINE
  8
0
  6
CONTINUOUS
 62
     1
 10
126.0
 20
104.0
 30
0.0
 11
126.0
 21
103.0
 31
0.0
  0
LINE
  8
0
  6
CONTINUOUS
 62
     1
 10
126.0
 20
103.0
 30
0.0
 11
127.0
 21
103.0
 31
0.0
  0
LINE
  8
0
  6
CONTINUOUS
 62
     1
 10
127.0
 20
103.0
 30
0.0
 11
127.0
 21
104.0
 31
0.0
  0
LINE
  8
0
  6
CONTINUOUS
 62
     1
 10
127.0
 20
104.0
 30
0.0
 11
128.0
 21
104.0
 31
0.0
  0
LINE
  8
0
  6
CONTINUOUS
 62
     1
 10
128.0
 20
104.0
 30
0.0
 11
128.0
 21
105.0
 31
0.0
  0
LINE
  8
0
  6
CONTINUOUS
 62
     1
 10
128.0
 20
105.0
 30
0.0
 11
127.0
 21
105.0
 31
0.0
  0
LINE
  8
0
  6
CONTINUOUS
 62
     1
 10
127.0
 20
105.0
 30
0.0
 11
127.0
 21
106.0
 31
0.0
  0
LINE
  8
0
  6
CONTINUOUS
 62
     1
 10
127.0
 20
106.0
 30
0.0
 11
126.0
 21
106.0
 31
0.0
  0
LINE
  8
0
  6
CONTINUOUS
 62
     1
 10
126.0
 20
106.0
 30
0.0
 11
126.0
 21
105.0
 31
0.0
  0
LINE
  8
0
  6
CONTINUOUS
 62
     1
 10
126.0
 20
105.0
 30
0.0
 11
125.0
 21
105.0
 31
0.0
  0
LINE
  8
0
  6
CONTINUOUS
 62
     1
 10
125.0
 20
105.0
 30
0.0
 11
125.0
 21
104.0
 31
0.0
  0
CIRCLE
  8
0
  6
CONTINUOUS
 62
     1
 10
126.5
 20
99.5
 30
0.0
 40
2.0
  0
LINE
  8
0
  6
CONTINUOUS
 62
     1
 10
125.0
 20
99.0
 30
0.0
 11
126.0
 21
99.0
 31
0.0
  0
LINE
  8
0
  6
CONTINUOUS
 62
     1
 10
126.0
 20
99.0
 30
0.0
 11
126.0
 21
98.0
 31
0.0
  0
LINE
  8
0
  6
CONTINUOUS
 62
     1
 10
126.0
 20
98.0
 30
0.0
 11
127.0
 21
98.0
 31
0.0
  0
LINE
  8
0
  6
CONTINUOUS
 62
     1
 10
127.0
 20
98.0
 30
0.0
 11
127.0
 21
99.0
 31
0.0
  0
LINE
  8
0
  6
CONTINUOUS
 62
     1
 10
127.0
 20
99.0
 30
0.0
 11
128.0
 21
99.0
 31
0.0
  0
LINE
  8
0
  6
CONTINUOUS
 62
     1
 10
128.0
 20
99.0
 30
0.0
 11
128.0
 21
100.0
 31
0.0
  0
LINE
  8
0
  6
CONTINUOUS
 62
     1
 10
128.0
 20
100.0
 30
0.0
 11
127.0
 21
100.0
 31
0.0
  0
LINE
  8
0
  6
CONTINUOUS
 62
     1
 10
127.0
 20
100.0
 30
0.0
 11
127.0
 21
101.0
 31
0.0
  0
LINE
  8
0
  6
CONTINUOUS
 62
     1
 10
127.0
 20
101.0
 30
0.0
 11
126.0
 21
101.0
 31
0.0
  0
LINE
  8
0
  6
CONTINUOUS
 62
     1
 10
126.0
 20
101.0
 30
0.0
 11
126.0
 21
100.0
 31
0.0
  0
LINE
  8
0
  6
CONTINUOUS
 62
     1
 10
126.0
 20
100.0
 30
0.0
 11
125.0
 21
100.0
 31
0.0
  0
LINE
  8
0
  6
CONTINUOUS
 62
     1
 10
125.0
 20
100.0
 30
0.0
 11
125.0
 21
99.0
 31
0.0
  0
CIRCLE
  8
0
  6
CONTINUOUS
 62
     1
 10
126.5
 20
94.5
 30
0.0
 40
2.0
  0
LINE
  8
0
  6
CONTINUOUS
 62
     1
 10
125.0
 20
94.0
 30
0.0
 11
126.0
 21
94.0
 31
0.0
  0
LINE
  8
0
  6
CONTINUOUS
 62
     1
 10
126.0
 20
94.0
 30
0.0
 11
126.0
 21
93.0
 31
0.0
  0
LINE
  8
0
  6
CONTINUOUS
 62
     1
 10
126.0
 20
93.0
 30
0.0
 11
127.0
 21
93.0
 31
0.0
  0
LINE
  8
0
  6
CONTINUOUS
 62
     1
 10
127.0
 20
93.0
 30
0.0
 11
127.0
 21
94.0
 31
0.0
  0
LINE
  8
0
  6
CONTINUOUS
 62
     1
 10
127.0
 20
94.0
 30
0.0
 11
128.0
 21
94.0
 31
0.0
  0
LINE
  8
0
  6
CONTINUOUS
 62
     1
 10
128.0
 20
94.0
 30
0.0
 11
128.0
 21
95.0
 31
0.0
  0
LINE
  8
0
  6
CONTINUOUS
 62
     1
 10
128.0
 20
95.0
 30
0.0
 11
127.0
 21
95.0
 31
0.0
  0
LINE
  8
0
  6
CONTINUOUS
 62
     1
 10
127.0
 20
95.0
 30
0.0
 11
127.0
 21
96.0
 31
0.0
  0
LINE
  8
0
  6
CONTINUOUS
 62
     1
 10
127.0
 20
96.0
 30
0.0
 11
126.0
 21
96.0
 31
0.0
  0
LINE
  8
0
  6
CONTINUOUS
 62
     1
 10
126.0
 20
96.0
 30
0.0
 11
126.0
 21
95.0
 31
0.0
  0
LINE
  8
0
  6
CONTINUOUS
 62
     1
 10
126.0
 20
95.0
 30
0.0
 11
125.0
 21
95.0
 31
0.0
  0
LINE
  8
0
  6
CONTINUOUS
 62
     1
 10
125.0
 20
95.0
 30
0.0
 11
125.0
 21
94.0
 31
0.0
  0
CIRCLE
  8
0
  6
CONTINUOUS
 62
     1
 10
126.5
 20
89.5
 30
0.0
 40
2.0
  0
LINE
  8
0
  6
CONTINUOUS
 62
     1
 10
125.0
 20
89.0
 30
0.0
 11
126.0
 21
89.0
 31
0.0
  0
LINE
  8
0
  6
CONTINUOUS
 62
     1
 10
126.0
 20
89.0
 30
0.0
 11
126.0
 21
88.0
 31
0.0
  0
LINE
  8
0
  6
CONTINUOUS
 62
     1
 10
126.0
 20
88.0
 30
0.0
 11
127.0
 21
88.0
 31
0.0
  0
LINE
  8
0
  6
CONTINUOUS
 62
     1
 10
127.0
 20
88.0
 30
0.0
 11
127.0
 21
89.0
 31
0.0
  0
LINE
  8
0
  6
CONTINUOUS
 62
     1
 10
127.0
 20
89.0
 30
0.0
 11
128.0
 21
89.0
 31
0.0
  0
LINE
  8
0
  6
CONTINUOUS
 62
     1
 10
128.0
 20
89.0
 30
0.0
 11
128.0
 21
90.0
 31
0.0
  0
LINE
  8
0
  6
CONTINUOUS
 62
     1
 10
128.0
 20
90.0
 30
0.0
 11
127.0
 21
90.0
 31
0.0
  0
LINE
  8
0
  6
CONTINUOUS
 62
     1
 10
127.0
 20
90.0
 30
0.0
 11
127.0
 21
91.0
 31
0.0
  0
LINE
  8
0
  6
CONTINUOUS
 62
     1
 10
127.0
 20
91.0
 30
0.0
 11
126.0
 21
91.0
 31
0.0
  0
LINE
  8
0
  6
CONTINUOUS
 62
     1
 10
126.0
 20
91.0
 30
0.0
 11
126.0
 21
90.0
 31
0.0
  0
LINE
  8
0
  6
CONTINUOUS
 62
     1
 10
126.0
 20
90.0
 30
0.0
 11
125.0
 21
90.0
 31
0.0
  0
LINE
  8
0
  6
CONTINUOUS
 62
     1
 10
125.0
 20
90.0
 30
0.0
 11
125.0
 21
89.0
 31
0.0
  0
CIRCLE
  8
0
  6
CONTINUOUS
 62
     1
 10
126.5
 20
84.5
 30
0.0
 40
2.0
  0
LINE
  8
0
  6
CONTINUOUS
 62
     1
 10
125.0
 20
84.0
 30
0.0
 11
126.0
 21
84.0
 31
0.0
  0
LINE
  8
0
  6
CONTINUOUS
 62
     1
 10
126.0
 20
84.0
 30
0.0
 11
126.0
 21
83.0
 31
0.0
  0
LINE
  8
0
  6
CONTINUOUS
 62
     1
 10
126.0
 20
83.0
 30
0.0
 11
127.0
 21
83.0
 31
0.0
  0
LINE
  8
0
  6
CONTINUOUS
 62
     1
 10
127.0
 20
83.0
 30
0.0
 11
127.0
 21
84.0
 31
0.0
  0
LINE
  8
0
  6
CONTINUOUS
 62
     1
 10
127.0
 20
84.0
 30
0.0
 11
128.0
 21
84.0
 31
0.0
  0
LINE
  8
0
  6
CONTINUOUS
 62
     1
 10
128.0
 20
84.0
 30
0.0
 11
128.0
 21
85.0
 31
0.0
  0
LINE
  8
0
  6
CONTINUOUS
 62
     1
 10
128.0
 20
85.0
 30
0.0
 11
127.0
 21
85.0
 31
0.0
  0
LINE
  8
0
  6
CONTINUOUS
 62
     1
 10
127.0
 20
85.0
 30
0.0
 11
127.0
 21
86.0
 31
0.0
  0
LINE
  8
0
  6
CONTINUOUS
 62
     1
 10
126.0
 20
86.0
 30
0.0
 11
126.0
 21
85.0
 31
0.0
  0
LINE
  8
0
  6
CONTINUOUS
 62
     1
 10
126.0
 20
85.0
 30
0.0
 11
125.0
 21
85.0
 31
0.0
  0
LINE
  8
0
  6
CONTINUOUS
 62
     1
 10
125.0
 20
85.0
 30
0.0
 11
125.0
 21
84.0
 31
0.0
  0
CIRCLE
  8
0
  6
CONTINUOUS
 62
     1
 10
126.5
 20
79.5
 30
0.0
 40
2.0
  0
LINE
  8
0
  6
CONTINUOUS
 62
     1
 10
125.0
 20
79.0
 30
0.0
 11
126.0
 21
79.0
 31
0.0
  0
LINE
  8
0
  6
CONTINUOUS
 62
     1
 10
126.0
 20
79.0
 30
0.0
 11
126.0
 21
78.0
 31
0.0
  0
LINE
  8
0
  6
CONTINUOUS
 62
     1
 10
126.0
 20
78.0
 30
0.0
 11
127.0
 21
78.0
 31
0.0
  0
LINE
  8
0
  6
CONTINUOUS
 62
     1
 10
127.0
 20
78.0
 30
0.0
 11
127.0
 21
79.0
 31
0.0
  0
LINE
  8
0
  6
CONTINUOUS
 62
     1
 10
127.0
 20
79.0
 30
0.0
 11
128.0
 21
79.0
 31
0.0
  0
LINE
  8
0
  6
CONTINUOUS
 62
     1
 10
128.0
 20
79.0
 30
0.0
 11
128.0
 21
80.0
 31
0.0
  0
LINE
  8
0
  6
CONTINUOUS
 62
     1
 10
128.0
 20
80.0
 30
0.0
 11
127.0
 21
80.0
 31
0.0
  0
LINE
  8
0
  6
CONTINUOUS
 62
     1
 10
127.0
 20
80.0
 30
0.0
 11
127.0
 21
81.0
 31
0.0
  0
LINE
  8
0
  6
CONTINUOUS
 62
     1
 10
126.0
 20
81.0
 30
0.0
 11
126.0
 21
80.0
 31
0.0
  0
LINE
  8
0
  6
CONTINUOUS
 62
     1
 10
126.0
 20
80.0
 30
0.0
 11
125.0
 21
80.0
 31
0.0
  0
LINE
  8
0
  6
CONTINUOUS
 62
     1
 10
125.0
 20
80.0
 30
0.0
 11
125.0
 21
79.0
 31
0.0
  0
LINE
  8
0
  6
CONTINUOUS
 62
     1
 10
126.0
 20
81.0
 30
0.0
 11
127.0
 21
81.0
 31
0.0
  0
LINE
  8
0
  6
CONTINUOUS
 62
     1
 10
126.0
 20
86.0
 30
0.0
 11
127.0
 21
86.0
 31
0.0
  0
TEXT
  8
0
  6
CONTINUOUS
 62
     1
 10
130.0
 20
102.5
 30
0.0
 40
3.0
  1
２５レンシ゛ＨＩ
 50
0.0
 41
0.5
 51
0.0
  7
KANJI2
  0
TEXT
  8
0
  6
CONTINUOUS
 62
     1
 10
130.0
 20
97.5
 30
0.0
 40
3.0
  1
２５レンシ゛ＬＯ
 50
0.0
 41
0.5
 51
0.0
  7
KANJI2
  0
TEXT
  8
0
  6
CONTINUOUS
 62
     1
 10
130.0
 20
92.5
 30
0.0
 40
3.0
  1
ＮＣ
 50
0.0
 41
0.5
 51
0.0
  7
KANJI2
  0
TEXT
  8
0
  6
CONTINUOUS
 62
     1
 10
130.0
 20
87.5
 30
0.0
 40
3.0
  1
２６レンシ゛ＨＩ
 50
0.0
 41
0.5
 51
0.0
  7
KANJI2
  0
TEXT
  8
0
  6
CONTINUOUS
 62
     1
 10
130.0
 20
82.5
 30
0.0
 40
3.0
  1
２６レンシ゛ＬＯ
 50
0.0
 41
0.5
 51
0.0
  7
KANJI2
  0
TEXT
  8
0
  6
CONTINUOUS
 62
     1
 10
130.0
 20
77.5
 30
0.0
 40
3.0
  1
ＮＣ
 50
0.0
 41
0.5
 51
0.0
  7
KANJI2
  0
TEXT
  8
0
  6
CONTINUOUS
 62
     1
 10
102.5
 20
69.0
 30
0.0
 40
3.0
  1
（小電流）
 50
0.0
 41
1.0
 51
0.0
  7
KANJI0
  0
TEXT
  8
0
  6
CONTINUOUS
 62
     1
 10
102.5
 20
72.5
 30
0.0
 40
3.0
  1
直流電流測定
 50
0.0
 41
1.0
 51
0.0
  7
KANJI0
  0
LINE
  8
0
  6
CONTINUOUS
 62
     1
 10
102.5
 20
76.5
 30
0.0
 11
107.5
 21
76.5
 31
0.0
  0
LINE
  8
0
  6
CONTINUOUS
 62
     1
 10
107.5
 20
76.5
 30
0.0
 11
107.5
 21
77.5
 31
0.0
  0
LINE
  8
0
  6
CONTINUOUS
 62
     1
 10
107.5
 20
77.5
 30
0.0
 11
102.5
 21
77.5
 31
0.0
  0
LINE
  8
0
  6
CONTINUOUS
 62
     1
 10
102.5
 20
77.5
 30
0.0
 11
102.5
 21
81.5
 31
0.0
  0
LINE
  8
0
  6
CONTINUOUS
 62
     1
 10
102.5
 20
81.5
 30
0.0
 11
107.5
 21
81.5
 31
0.0
  0
LINE
  8
0
  6
CONTINUOUS
 62
     1
 10
107.5
 20
81.5
 30
0.0
 11
107.5
 21
82.5
 31
0.0
  0
LINE
  8
0
  6
CONTINUOUS
 62
     1
 10
107.5
 20
82.5
 30
0.0
 11
102.5
 21
82.5
 31
0.0
  0
LINE
  8
0
  6
CONTINUOUS
 62
     1
 10
102.5
 20
82.5
 30
0.0
 11
102.5
 21
86.5
 31
0.0
  0
LINE
  8
0
  6
CONTINUOUS
 62
     1
 10
102.5
 20
86.5
 30
0.0
 11
107.5
 21
86.5
 31
0.0
  0
LINE
  8
0
  6
CONTINUOUS
 62
     1
 10
107.5
 20
86.5
 30
0.0
 11
107.5
 21
87.5
 31
0.0
  0
LINE
  8
0
  6
CONTINUOUS
 62
     1
 10
107.5
 20
87.5
 30
0.0
 11
102.5
 21
87.5
 31
0.0
  0
LINE
  8
0
  6
CONTINUOUS
 62
     1
 10
102.5
 20
87.5
 30
0.0
 11
102.5
 21
91.5
 31
0.0
  0
LINE
  8
0
  6
CONTINUOUS
 62
     1
 10
102.5
 20
91.5
 30
0.0
 11
107.5
 21
91.5
 31
0.0
  0
LINE
  8
0
  6
CONTINUOUS
 62
     1
 10
107.5
 20
91.5
 30
0.0
 11
107.5
 21
92.5
 31
0.0
  0
LINE
  8
0
  6
CONTINUOUS
 62
     1
 10
107.5
 20
92.5
 30
0.0
 11
102.5
 21
92.5
 31
0.0
  0
LINE
  8
0
  6
CONTINUOUS
 62
     1
 10
102.5
 20
92.5
 30
0.0
 11
102.5
 21
96.5
 31
0.0
  0
LINE
  8
0
  6
CONTINUOUS
 62
     1
 10
102.5
 20
96.5
 30
0.0
 11
107.5
 21
96.5
 31
0.0
  0
LINE
  8
0
  6
CONTINUOUS
 62
     1
 10
107.5
 20
96.5
 30
0.0
 11
107.5
 21
97.5
 31
0.0
  0
LINE
  8
0
  6
CONTINUOUS
 62
     1
 10
107.5
 20
97.5
 30
0.0
 11
102.5
 21
97.5
 31
0.0
  0
LINE
  8
0
  6
CONTINUOUS
 62
     1
 10
102.5
 20
97.5
 30
0.0
 11
102.5
 21
101.5
 31
0.0
  0
LINE
  8
0
  6
CONTINUOUS
 62
     1
 10
102.5
 20
101.5
 30
0.0
 11
107.5
 21
101.5
 31
0.0
  0
LINE
  8
0
  6
CONTINUOUS
 62
     1
 10
107.5
 20
101.5
 30
0.0
 11
107.5
 21
102.5
 31
0.0
  0
LINE
  8
0
  6
CONTINUOUS
 62
     1
 10
107.5
 20
102.5
 30
0.0
 11
102.5
 21
102.5
 31
0.0
  0
LINE
  8
0
  6
CONTINUOUS
 62
     1
 10
102.5
 20
102.5
 30
0.0
 11
102.5
 21
106.5
 31
0.0
  0
LINE
  8
0
  6
CONTINUOUS
 62
     1
 10
102.5
 20
106.5
 30
0.0
 11
107.5
 21
106.5
 31
0.0
  0
LINE
  8
0
  6
CONTINUOUS
 62
     1
 10
107.5
 20
106.5
 30
0.0
 11
107.5
 21
107.5
 31
0.0
  0
LINE
  8
0
  6
CONTINUOUS
 62
     1
 10
107.5
 20
107.5
 30
0.0
 11
102.5
 21
107.5
 31
0.0
  0
LINE
  8
0
  6
CONTINUOUS
 62
     1
 10
102.5
 20
107.5
 30
0.0
 11
102.5
 21
76.5
 31
0.0
  0
LINE
  8
0
  6
CONTINUOUS
 62
     1
 10
102.5
 20
76.5
 30
0.0
 11
107.5
 21
76.5
 31
0.0
  0
LINE
  8
0
  6
CONTINUOUS
 62
     1
 10
107.5
 20
76.5
 30
0.0
 11
107.5
 21
107.5
 31
0.0
  0
CIRCLE
  8
0
  6
CONTINUOUS
 62
     1
 10
105.0
 20
104.5
 30
0.0
 40
2.0
  0
LINE
  8
0
  6
CONTINUOUS
 62
     1
 10
103.5
 20
104.0
 30
0.0
 11
104.5
 21
104.0
 31
0.0
  0
LINE
  8
0
  6
CONTINUOUS
 62
     1
 10
104.5
 20
104.0
 30
0.0
 11
104.5
 21
103.0
 31
0.0
  0
LINE
  8
0
  6
CONTINUOUS
 62
     1
 10
104.5
 20
103.0
 30
0.0
 11
105.5
 21
103.0
 31
0.0
  0
LINE
  8
0
  6
CONTINUOUS
 62
     1
 10
105.5
 20
103.0
 30
0.0
 11
105.5
 21
104.0
 31
0.0
  0
LINE
  8
0
  6
CONTINUOUS
 62
     1
 10
105.5
 20
104.0
 30
0.0
 11
106.5
 21
104.0
 31
0.0
  0
LINE
  8
0
  6
CONTINUOUS
 62
     1
 10
106.5
 20
104.0
 30
0.0
 11
106.5
 21
105.0
 31
0.0
  0
LINE
  8
0
  6
CONTINUOUS
 62
     1
 10
106.5
 20
105.0
 30
0.0
 11
105.5
 21
105.0
 31
0.0
  0
LINE
  8
0
  6
CONTINUOUS
 62
     1
 10
105.5
 20
105.0
 30
0.0
 11
105.5
 21
106.0
 31
0.0
  0
LINE
  8
0
  6
CONTINUOUS
 62
     1
 10
105.5
 20
106.0
 30
0.0
 11
104.5
 21
106.0
 31
0.0
  0
LINE
  8
0
  6
CONTINUOUS
 62
     1
 10
104.5
 20
106.0
 30
0.0
 11
104.5
 21
105.0
 31
0.0
  0
LINE
  8
0
  6
CONTINUOUS
 62
     1
 10
104.5
 20
105.0
 30
0.0
 11
103.5
 21
105.0
 31
0.0
  0
LINE
  8
0
  6
CONTINUOUS
 62
     1
 10
103.5
 20
105.0
 30
0.0
 11
103.5
 21
104.0
 31
0.0
  0
CIRCLE
  8
0
  6
CONTINUOUS
 62
     1
 10
105.0
 20
99.5
 30
0.0
 40
2.0
  0
LINE
  8
0
  6
CONTINUOUS
 62
     1
 10
103.5
 20
99.0
 30
0.0
 11
104.5
 21
99.0
 31
0.0
  0
LINE
  8
0
  6
CONTINUOUS
 62
     1
 10
104.5
 20
99.0
 30
0.0
 11
104.5
 21
98.0
 31
0.0
  0
LINE
  8
0
  6
CONTINUOUS
 62
     1
 10
104.5
 20
98.0
 30
0.0
 11
105.5
 21
98.0
 31
0.0
  0
LINE
  8
0
  6
CONTINUOUS
 62
     1
 10
105.5
 20
98.0
 30
0.0
 11
105.5
 21
99.0
 31
0.0
  0
LINE
  8
0
  6
CONTINUOUS
 62
     1
 10
105.5
 20
99.0
 30
0.0
 11
106.5
 21
99.0
 31
0.0
  0
LINE
  8
0
  6
CONTINUOUS
 62
     1
 10
106.5
 20
99.0
 30
0.0
 11
106.5
 21
100.0
 31
0.0
  0
LINE
  8
0
  6
CONTINUOUS
 62
     1
 10
106.5
 20
100.0
 30
0.0
 11
105.5
 21
100.0
 31
0.0
  0
LINE
  8
0
  6
CONTINUOUS
 62
     1
 10
105.5
 20
100.0
 30
0.0
 11
105.5
 21
101.0
 31
0.0
  0
LINE
  8
0
  6
CONTINUOUS
 62
     1
 10
105.5
 20
101.0
 30
0.0
 11
104.5
 21
101.0
 31
0.0
  0
LINE
  8
0
  6
CONTINUOUS
 62
     1
 10
104.5
 20
101.0
 30
0.0
 11
104.5
 21
100.0
 31
0.0
  0
LINE
  8
0
  6
CONTINUOUS
 62
     1
 10
104.5
 20
100.0
 30
0.0
 11
103.5
 21
100.0
 31
0.0
  0
LINE
  8
0
  6
CONTINUOUS
 62
     1
 10
103.5
 20
100.0
 30
0.0
 11
103.5
 21
99.0
 31
0.0
  0
CIRCLE
  8
0
  6
CONTINUOUS
 62
     1
 10
105.0
 20
94.5
 30
0.0
 40
2.0
  0
LINE
  8
0
  6
CONTINUOUS
 62
     1
 10
103.5
 20
94.0
 30
0.0
 11
104.5
 21
94.0
 31
0.0
  0
LINE
  8
0
  6
CONTINUOUS
 62
     1
 10
104.5
 20
94.0
 30
0.0
 11
104.5
 21
93.0
 31
0.0
  0
LINE
  8
0
  6
CONTINUOUS
 62
     1
 10
104.5
 20
93.0
 30
0.0
 11
105.5
 21
93.0
 31
0.0
  0
LINE
  8
0
  6
CONTINUOUS
 62
     1
 10
105.5
 20
93.0
 30
0.0
 11
105.5
 21
94.0
 31
0.0
  0
LINE
  8
0
  6
CONTINUOUS
 62
     1
 10
105.5
 20
94.0
 30
0.0
 11
106.5
 21
94.0
 31
0.0
  0
LINE
  8
0
  6
CONTINUOUS
 62
     1
 10
106.5
 20
94.0
 30
0.0
 11
106.5
 21
95.0
 31
0.0
  0
LINE
  8
0
  6
CONTINUOUS
 62
     1
 10
106.5
 20
95.0
 30
0.0
 11
105.5
 21
95.0
 31
0.0
  0
LINE
  8
0
  6
CONTINUOUS
 62
     1
 10
105.5
 20
95.0
 30
0.0
 11
105.5
 21
96.0
 31
0.0
  0
LINE
  8
0
  6
CONTINUOUS
 62
     1
 10
105.5
 20
96.0
 30
0.0
 11
104.5
 21
96.0
 31
0.0
  0
LINE
  8
0
  6
CONTINUOUS
 62
     1
 10
104.5
 20
96.0
 30
0.0
 11
104.5
 21
95.0
 31
0.0
  0
LINE
  8
0
  6
CONTINUOUS
 62
     1
 10
104.5
 20
95.0
 30
0.0
 11
103.5
 21
95.0
 31
0.0
  0
LINE
  8
0
  6
CONTINUOUS
 62
     1
 10
103.5
 20
95.0
 30
0.0
 11
103.5
 21
94.0
 31
0.0
  0
CIRCLE
  8
0
  6
CONTINUOUS
 62
     1
 10
105.0
 20
89.5
 30
0.0
 40
2.0
  0
LINE
  8
0
  6
CONTINUOUS
 62
     1
 10
103.5
 20
89.0
 30
0.0
 11
104.5
 21
89.0
 31
0.0
  0
LINE
  8
0
  6
CONTINUOUS
 62
     1
 10
104.5
 20
89.0
 30
0.0
 11
104.5
 21
88.0
 31
0.0
  0
LINE
  8
0
  6
CONTINUOUS
 62
     1
 10
104.5
 20
88.0
 30
0.0
 11
105.5
 21
88.0
 31
0.0
  0
LINE
  8
0
  6
CONTINUOUS
 62
     1
 10
105.5
 20
88.0
 30
0.0
 11
105.5
 21
89.0
 31
0.0
  0
LINE
  8
0
  6
CONTINUOUS
 62
     1
 10
105.5
 20
89.0
 30
0.0
 11
106.5
 21
89.0
 31
0.0
  0
LINE
  8
0
  6
CONTINUOUS
 62
     1
 10
106.5
 20
89.0
 30
0.0
 11
106.5
 21
90.0
 31
0.0
  0
LINE
  8
0
  6
CONTINUOUS
 62
     1
 10
106.5
 20
90.0
 30
0.0
 11
105.5
 21
90.0
 31
0.0
  0
LINE
  8
0
  6
CONTINUOUS
 62
     1
 10
105.5
 20
90.0
 30
0.0
 11
105.5
 21
91.0
 31
0.0
  0
LINE
  8
0
  6
CONTINUOUS
 62
     1
 10
105.5
 20
91.0
 30
0.0
 11
104.5
 21
91.0
 31
0.0
  0
LINE
  8
0
  6
CONTINUOUS
 62
     1
 10
104.5
 20
91.0
 30
0.0
 11
104.5
 21
90.0
 31
0.0
  0
LINE
  8
0
  6
CONTINUOUS
 62
     1
 10
104.5
 20
90.0
 30
0.0
 11
103.5
 21
90.0
 31
0.0
  0
LINE
  8
0
  6
CONTINUOUS
 62
     1
 10
103.5
 20
90.0
 30
0.0
 11
103.5
 21
89.0
 31
0.0
  0
CIRCLE
  8
0
  6
CONTINUOUS
 62
     1
 10
105.0
 20
84.5
 30
0.0
 40
2.0
  0
LINE
  8
0
  6
CONTINUOUS
 62
     1
 10
103.5
 20
84.0
 30
0.0
 11
104.5
 21
84.0
 31
0.0
  0
LINE
  8
0
  6
CONTINUOUS
 62
     1
 10
104.5
 20
84.0
 30
0.0
 11
104.5
 21
83.0
 31
0.0
  0
LINE
  8
0
  6
CONTINUOUS
 62
     1
 10
104.5
 20
83.0
 30
0.0
 11
105.5
 21
83.0
 31
0.0
  0
LINE
  8
0
  6
CONTINUOUS
 62
     1
 10
105.5
 20
83.0
 30
0.0
 11
105.5
 21
84.0
 31
0.0
  0
LINE
  8
0
  6
CONTINUOUS
 62
     1
 10
105.5
 20
84.0
 30
0.0
 11
106.5
 21
84.0
 31
0.0
  0
LINE
  8
0
  6
CONTINUOUS
 62
     1
 10
106.5
 20
84.0
 30
0.0
 11
106.5
 21
85.0
 31
0.0
  0
LINE
  8
0
  6
CONTINUOUS
 62
     1
 10
106.5
 20
85.0
 30
0.0
 11
105.5
 21
85.0
 31
0.0
  0
LINE
  8
0
  6
CONTINUOUS
 62
     1
 10
105.5
 20
85.0
 30
0.0
 11
105.5
 21
86.0
 31
0.0
  0
LINE
  8
0
  6
CONTINUOUS
 62
     1
 10
104.5
 20
86.0
 30
0.0
 11
104.5
 21
85.0
 31
0.0
  0
LINE
  8
0
  6
CONTINUOUS
 62
     1
 10
104.5
 20
85.0
 30
0.0
 11
103.5
 21
85.0
 31
0.0
  0
LINE
  8
0
  6
CONTINUOUS
 62
     1
 10
103.5
 20
85.0
 30
0.0
 11
103.5
 21
84.0
 31
0.0
  0
CIRCLE
  8
0
  6
CONTINUOUS
 62
     1
 10
105.0
 20
79.5
 30
0.0
 40
2.0
  0
LINE
  8
0
  6
CONTINUOUS
 62
     1
 10
103.5
 20
79.0
 30
0.0
 11
104.5
 21
79.0
 31
0.0
  0
LINE
  8
0
  6
CONTINUOUS
 62
     1
 10
104.5
 20
79.0
 30
0.0
 11
104.5
 21
78.0
 31
0.0
  0
LINE
  8
0
  6
CONTINUOUS
 62
     1
 10
104.5
 20
78.0
 30
0.0
 11
105.5
 21
78.0
 31
0.0
  0
LINE
  8
0
  6
CONTINUOUS
 62
     1
 10
105.5
 20
78.0
 30
0.0
 11
105.5
 21
79.0
 31
0.0
  0
LINE
  8
0
  6
CONTINUOUS
 62
     1
 10
105.5
 20
79.0
 30
0.0
 11
106.5
 21
79.0
 31
0.0
  0
LINE
  8
0
  6
CONTINUOUS
 62
     1
 10
106.5
 20
79.0
 30
0.0
 11
106.5
 21
80.0
 31
0.0
  0
LINE
  8
0
  6
CONTINUOUS
 62
     1
 10
106.5
 20
80.0
 30
0.0
 11
105.5
 21
80.0
 31
0.0
  0
LINE
  8
0
  6
CONTINUOUS
 62
     1
 10
105.5
 20
80.0
 30
0.0
 11
105.5
 21
81.0
 31
0.0
  0
LINE
  8
0
  6
CONTINUOUS
 62
     1
 10
104.5
 20
81.0
 30
0.0
 11
104.5
 21
80.0
 31
0.0
  0
LINE
  8
0
  6
CONTINUOUS
 62
     1
 10
104.5
 20
80.0
 30
0.0
 11
103.5
 21
80.0
 31
0.0
  0
LINE
  8
0
  6
CONTINUOUS
 62
     1
 10
103.5
 20
80.0
 30
0.0
 11
103.5
 21
79.0
 31
0.0
  0
LINE
  8
0
  6
CONTINUOUS
 62
     1
 10
104.5
 20
81.0
 30
0.0
 11
105.5
 21
81.0
 31
0.0
  0
LINE
  8
0
  6
CONTINUOUS
 62
     1
 10
104.5
 20
86.0
 30
0.0
 11
105.5
 21
86.0
 31
0.0
  0
TEXT
  8
0
  6
CONTINUOUS
 62
     1
 10
108.5
 20
102.5
 30
0.0
 40
3.0
  1
２４レンシ゛ＨＩ
 50
0.0
 41
0.5
 51
0.0
  7
KANJI2
  0
TEXT
  8
0
  6
CONTINUOUS
 62
     1
 10
108.5
 20
97.5
 30
0.0
 40
3.0
  1
２３レンシ゛ＨＩ
 50
0.0
 41
0.5
 51
0.0
  7
KANJI2
  0
TEXT
  8
0
  6
CONTINUOUS
 62
     1
 10
108.5
 20
92.5
 30
0.0
 40
3.0
  1
２２レンシ゛ＨＩ
 50
0.0
 41
0.5
 51
0.0
  7
KANJI2
  0
TEXT
  8
0
  6
CONTINUOUS
 62
     1
 10
108.5
 20
87.5
 30
0.0
 40
3.0
  1
２１レンシ゛ＨＩ
 50
0.0
 41
0.5
 51
0.0
  7
KANJI2
  0
TEXT
  8
0
  6
CONTINUOUS
 62
     1
 10
108.5
 20
82.5
 30
0.0
 40
3.0
  1
ＬＯ
 50
0.0
 41
0.5
 51
0.0
  7
KANJI2
  0
TEXT
  8
0
  6
CONTINUOUS
 62
     1
 10
108.5
 20
77.5
 30
0.0
 40
3.0
  1
ＬＯ
 50
0.0
 41
0.5
 51
0.0
  7
KANJI2
  0
LINE
  8
0
  6
CONTINUOUS
 62
     1
 10
187.5
 20
76.5
 30
0.0
 11
192.5
 21
76.5
 31
0.0
  0
LINE
  8
0
  6
CONTINUOUS
 62
     1
 10
192.5
 20
76.5
 30
0.0
 11
192.5
 21
77.5
 31
0.0
  0
LINE
  8
0
  6
CONTINUOUS
 62
     1
 10
192.5
 20
77.5
 30
0.0
 11
187.5
 21
77.5
 31
0.0
  0
LINE
  8
0
  6
CONTINUOUS
 62
     1
 10
187.5
 20
77.5
 30
0.0
 11
187.5
 21
81.5
 31
0.0
  0
LINE
  8
0
  6
CONTINUOUS
 62
     1
 10
187.5
 20
81.5
 30
0.0
 11
192.5
 21
81.5
 31
0.0
  0
LINE
  8
0
  6
CONTINUOUS
 62
     1
 10
192.5
 20
81.5
 30
0.0
 11
192.5
 21
82.5
 31
0.0
  0
LINE
  8
0
  6
CONTINUOUS
 62
     1
 10
192.5
 20
82.5
 30
0.0
 11
187.5
 21
82.5
 31
0.0
  0
LINE
  8
0
  6
CONTINUOUS
 62
     1
 10
187.5
 20
82.5
 30
0.0
 11
187.5
 21
86.5
 31
0.0
  0
LINE
  8
0
  6
CONTINUOUS
 62
     1
 10
187.5
 20
86.5
 30
0.0
 11
192.5
 21
86.5
 31
0.0
  0
LINE
  8
0
  6
CONTINUOUS
 62
     1
 10
192.5
 20
86.5
 30
0.0
 11
192.5
 21
87.5
 31
0.0
  0
LINE
  8
0
  6
CONTINUOUS
 62
     1
 10
192.5
 20
87.5
 30
0.0
 11
187.5
 21
87.5
 31
0.0
  0
LINE
  8
0
  6
CONTINUOUS
 62
     1
 10
187.5
 20
87.5
 30
0.0
 11
187.5
 21
91.5
 31
0.0
  0
LINE
  8
0
  6
CONTINUOUS
 62
     1
 10
187.5
 20
91.5
 30
0.0
 11
192.5
 21
91.5
 31
0.0
  0
LINE
  8
0
  6
CONTINUOUS
 62
     1
 10
192.5
 20
91.5
 30
0.0
 11
192.5
 21
92.5
 31
0.0
  0
LINE
  8
0
  6
CONTINUOUS
 62
     1
 10
192.5
 20
92.5
 30
0.0
 11
187.5
 21
92.5
 31
0.0
  0
LINE
  8
0
  6
CONTINUOUS
 62
     1
 10
187.5
 20
92.5
 30
0.0
 11
187.5
 21
96.5
 31
0.0
  0
LINE
  8
0
  6
CONTINUOUS
 62
     1
 10
187.5
 20
96.5
 30
0.0
 11
192.5
 21
96.5
 31
0.0
  0
LINE
  8
0
  6
CONTINUOUS
 62
     1
 10
192.5
 20
96.5
 30
0.0
 11
192.5
 21
97.5
 31
0.0
  0
LINE
  8
0
  6
CONTINUOUS
 62
     1
 10
192.5
 20
97.5
 30
0.0
 11
187.5
 21
97.5
 31
0.0
  0
LINE
  8
0
  6
CONTINUOUS
 62
     1
 10
187.5
 20
97.5
 30
0.0
 11
187.5
 21
101.5
 31
0.0
  0
LINE
  8
0
  6
CONTINUOUS
 62
     1
 10
187.5
 20
101.5
 30
0.0
 11
192.5
 21
101.5
 31
0.0
  0
LINE
  8
0
  6
CONTINUOUS
 62
     1
 10
192.5
 20
101.5
 30
0.0
 11
192.5
 21
102.5
 31
0.0
  0
LINE
  8
0
  6
CONTINUOUS
 62
     1
 10
192.5
 20
102.5
 30
0.0
 11
187.5
 21
102.5
 31
0.0
  0
LINE
  8
0
  6
CONTINUOUS
 62
     1
 10
187.5
 20
102.5
 30
0.0
 11
187.5
 21
106.5
 31
0.0
  0
LINE
  8
0
  6
CONTINUOUS
 62
     1
 10
187.5
 20
106.5
 30
0.0
 11
192.5
 21
106.5
 31
0.0
  0
LINE
  8
0
  6
CONTINUOUS
 62
     1
 10
192.5
 20
106.5
 30
0.0
 11
192.5
 21
107.5
 31
0.0
  0
LINE
  8
0
  6
CONTINUOUS
 62
     1
 10
192.5
 20
107.5
 30
0.0
 11
187.5
 21
107.5
 31
0.0
  0
LINE
  8
0
  6
CONTINUOUS
 62
     1
 10
187.5
 20
107.5
 30
0.0
 11
187.5
 21
76.5
 31
0.0
  0
LINE
  8
0
  6
CONTINUOUS
 62
     1
 10
187.5
 20
76.5
 30
0.0
 11
192.5
 21
76.5
 31
0.0
  0
LINE
  8
0
  6
CONTINUOUS
 62
     1
 10
192.5
 20
76.5
 30
0.0
 11
192.5
 21
107.5
 31
0.0
  0
CIRCLE
  8
0
  6
CONTINUOUS
 62
     1
 10
190.0
 20
104.5
 30
0.0
 40
2.0
  0
LINE
  8
0
  6
CONTINUOUS
 62
     1
 10
188.5
 20
104.0
 30
0.0
 11
189.5
 21
104.0
 31
0.0
  0
LINE
  8
0
  6
CONTINUOUS
 62
     1
 10
189.5
 20
104.0
 30
0.0
 11
189.5
 21
103.0
 31
0.0
  0
LINE
  8
0
  6
CONTINUOUS
 62
     1
 10
189.5
 20
103.0
 30
0.0
 11
190.5
 21
103.0
 31
0.0
  0
LINE
  8
0
  6
CONTINUOUS
 62
     1
 10
190.5
 20
103.0
 30
0.0
 11
190.5
 21
104.0
 31
0.0
  0
LINE
  8
0
  6
CONTINUOUS
 62
     1
 10
190.5
 20
104.0
 30
0.0
 11
191.5
 21
104.0
 31
0.0
  0
LINE
  8
0
  6
CONTINUOUS
 62
     1
 10
191.5
 20
104.0
 30
0.0
 11
191.5
 21
105.0
 31
0.0
  0
LINE
  8
0
  6
CONTINUOUS
 62
     1
 10
191.5
 20
105.0
 30
0.0
 11
190.5
 21
105.0
 31
0.0
  0
LINE
  8
0
  6
CONTINUOUS
 62
     1
 10
190.5
 20
105.0
 30
0.0
 11
190.5
 21
106.0
 31
0.0
  0
LINE
  8
0
  6
CONTINUOUS
 62
     1
 10
190.5
 20
106.0
 30
0.0
 11
189.5
 21
106.0
 31
0.0
  0
LINE
  8
0
  6
CONTINUOUS
 62
     1
 10
189.5
 20
106.0
 30
0.0
 11
189.5
 21
105.0
 31
0.0
  0
LINE
  8
0
  6
CONTINUOUS
 62
     1
 10
189.5
 20
105.0
 30
0.0
 11
188.5
 21
105.0
 31
0.0
  0
LINE
  8
0
  6
CONTINUOUS
 62
     1
 10
188.5
 20
105.0
 30
0.0
 11
188.5
 21
104.0
 31
0.0
  0
CIRCLE
  8
0
  6
CONTINUOUS
 62
     1
 10
190.0
 20
99.5
 30
0.0
 40
2.0
  0
LINE
  8
0
  6
CONTINUOUS
 62
     1
 10
188.5
 20
99.0
 30
0.0
 11
189.5
 21
99.0
 31
0.0
  0
LINE
  8
0
  6
CONTINUOUS
 62
     1
 10
189.5
 20
99.0
 30
0.0
 11
189.5
 21
98.0
 31
0.0
  0
LINE
  8
0
  6
CONTINUOUS
 62
     1
 10
189.5
 20
98.0
 30
0.0
 11
190.5
 21
98.0
 31
0.0
  0
LINE
  8
0
  6
CONTINUOUS
 62
     1
 10
190.5
 20
98.0
 30
0.0
 11
190.5
 21
99.0
 31
0.0
  0
LINE
  8
0
  6
CONTINUOUS
 62
     1
 10
190.5
 20
99.0
 30
0.0
 11
191.5
 21
99.0
 31
0.0
  0
LINE
  8
0
  6
CONTINUOUS
 62
     1
 10
191.5
 20
99.0
 30
0.0
 11
191.5
 21
100.0
 31
0.0
  0
LINE
  8
0
  6
CONTINUOUS
 62
     1
 10
191.5
 20
100.0
 30
0.0
 11
190.5
 21
100.0
 31
0.0
  0
LINE
  8
0
  6
CONTINUOUS
 62
     1
 10
190.5
 20
100.0
 30
0.0
 11
190.5
 21
101.0
 31
0.0
  0
LINE
  8
0
  6
CONTINUOUS
 62
     1
 10
190.5
 20
101.0
 30
0.0
 11
189.5
 21
101.0
 31
0.0
  0
LINE
  8
0
  6
CONTINUOUS
 62
     1
 10
189.5
 20
101.0
 30
0.0
 11
189.5
 21
100.0
 31
0.0
  0
LINE
  8
0
  6
CONTINUOUS
 62
     1
 10
189.5
 20
100.0
 30
0.0
 11
188.5
 21
100.0
 31
0.0
  0
LINE
  8
0
  6
CONTINUOUS
 62
     1
 10
188.5
 20
100.0
 30
0.0
 11
188.5
 21
99.0
 31
0.0
  0
CIRCLE
  8
0
  6
CONTINUOUS
 62
     1
 10
190.0
 20
94.5
 30
0.0
 40
2.0
  0
LINE
  8
0
  6
CONTINUOUS
 62
     1
 10
188.5
 20
94.0
 30
0.0
 11
189.5
 21
94.0
 31
0.0
  0
LINE
  8
0
  6
CONTINUOUS
 62
     1
 10
189.5
 20
94.0
 30
0.0
 11
189.5
 21
93.0
 31
0.0
  0
LINE
  8
0
  6
CONTINUOUS
 62
     1
 10
189.5
 20
93.0
 30
0.0
 11
190.5
 21
93.0
 31
0.0
  0
LINE
  8
0
  6
CONTINUOUS
 62
     1
 10
190.5
 20
93.0
 30
0.0
 11
190.5
 21
94.0
 31
0.0
  0
LINE
  8
0
  6
CONTINUOUS
 62
     1
 10
190.5
 20
94.0
 30
0.0
 11
191.5
 21
94.0
 31
0.0
  0
LINE
  8
0
  6
CONTINUOUS
 62
     1
 10
191.5
 20
94.0
 30
0.0
 11
191.5
 21
95.0
 31
0.0
  0
LINE
  8
0
  6
CONTINUOUS
 62
     1
 10
191.5
 20
95.0
 30
0.0
 11
190.5
 21
95.0
 31
0.0
  0
LINE
  8
0
  6
CONTINUOUS
 62
     1
 10
190.5
 20
95.0
 30
0.0
 11
190.5
 21
96.0
 31
0.0
  0
LINE
  8
0
  6
CONTINUOUS
 62
     1
 10
190.5
 20
96.0
 30
0.0
 11
189.5
 21
96.0
 31
0.0
  0
LINE
  8
0
  6
CONTINUOUS
 62
     1
 10
189.5
 20
96.0
 30
0.0
 11
189.5
 21
95.0
 31
0.0
  0
LINE
  8
0
  6
CONTINUOUS
 62
     1
 10
189.5
 20
95.0
 30
0.0
 11
188.5
 21
95.0
 31
0.0
  0
LINE
  8
0
  6
CONTINUOUS
 62
     1
 10
188.5
 20
95.0
 30
0.0
 11
188.5
 21
94.0
 31
0.0
  0
CIRCLE
  8
0
  6
CONTINUOUS
 62
     1
 10
190.0
 20
89.5
 30
0.0
 40
2.0
  0
LINE
  8
0
  6
CONTINUOUS
 62
     1
 10
188.5
 20
89.0
 30
0.0
 11
189.5
 21
89.0
 31
0.0
  0
LINE
  8
0
  6
CONTINUOUS
 62
     1
 10
189.5
 20
89.0
 30
0.0
 11
189.5
 21
88.0
 31
0.0
  0
LINE
  8
0
  6
CONTINUOUS
 62
     1
 10
189.5
 20
88.0
 30
0.0
 11
190.5
 21
88.0
 31
0.0
  0
LINE
  8
0
  6
CONTINUOUS
 62
     1
 10
190.5
 20
88.0
 30
0.0
 11
190.5
 21
89.0
 31
0.0
  0
LINE
  8
0
  6
CONTINUOUS
 62
     1
 10
190.5
 20
89.0
 30
0.0
 11
191.5
 21
89.0
 31
0.0
  0
LINE
  8
0
  6
CONTINUOUS
 62
     1
 10
191.5
 20
89.0
 30
0.0
 11
191.5
 21
90.0
 31
0.0
  0
LINE
  8
0
  6
CONTINUOUS
 62
     1
 10
191.5
 20
90.0
 30
0.0
 11
190.5
 21
90.0
 31
0.0
  0
LINE
  8
0
  6
CONTINUOUS
 62
     1
 10
190.5
 20
90.0
 30
0.0
 11
190.5
 21
91.0
 31
0.0
  0
LINE
  8
0
  6
CONTINUOUS
 62
     1
 10
190.5
 20
91.0
 30
0.0
 11
189.5
 21
91.0
 31
0.0
  0
LINE
  8
0
  6
CONTINUOUS
 62
     1
 10
189.5
 20
91.0
 30
0.0
 11
189.5
 21
90.0
 31
0.0
  0
LINE
  8
0
  6
CONTINUOUS
 62
     1
 10
189.5
 20
90.0
 30
0.0
 11
188.5
 21
90.0
 31
0.0
  0
LINE
  8
0
  6
CONTINUOUS
 62
     1
 10
188.5
 20
90.0
 30
0.0
 11
188.5
 21
89.0
 31
0.0
  0
CIRCLE
  8
0
  6
CONTINUOUS
 62
     1
 10
190.0
 20
84.5
 30
0.0
 40
2.0
  0
LINE
  8
0
  6
CONTINUOUS
 62
     1
 10
188.5
 20
84.0
 30
0.0
 11
189.5
 21
84.0
 31
0.0
  0
LINE
  8
0
  6
CONTINUOUS
 62
     1
 10
189.5
 20
84.0
 30
0.0
 11
189.5
 21
83.0
 31
0.0
  0
LINE
  8
0
  6
CONTINUOUS
 62
     1
 10
189.5
 20
83.0
 30
0.0
 11
190.5
 21
83.0
 31
0.0
  0
LINE
  8
0
  6
CONTINUOUS
 62
     1
 10
190.5
 20
83.0
 30
0.0
 11
190.5
 21
84.0
 31
0.0
  0
LINE
  8
0
  6
CONTINUOUS
 62
     1
 10
190.5
 20
84.0
 30
0.0
 11
191.5
 21
84.0
 31
0.0
  0
LINE
  8
0
  6
CONTINUOUS
 62
     1
 10
191.5
 20
84.0
 30
0.0
 11
191.5
 21
85.0
 31
0.0
  0
LINE
  8
0
  6
CONTINUOUS
 62
     1
 10
191.5
 20
85.0
 30
0.0
 11
190.5
 21
85.0
 31
0.0
  0
LINE
  8
0
  6
CONTINUOUS
 62
     1
 10
190.5
 20
85.0
 30
0.0
 11
190.5
 21
86.0
 31
0.0
  0
LINE
  8
0
  6
CONTINUOUS
 62
     1
 10
189.5
 20
86.0
 30
0.0
 11
189.5
 21
85.0
 31
0.0
  0
LINE
  8
0
  6
CONTINUOUS
 62
     1
 10
189.5
 20
85.0
 30
0.0
 11
188.5
 21
85.0
 31
0.0
  0
LINE
  8
0
  6
CONTINUOUS
 62
     1
 10
188.5
 20
85.0
 30
0.0
 11
188.5
 21
84.0
 31
0.0
  0
CIRCLE
  8
0
  6
CONTINUOUS
 62
     1
 10
190.0
 20
79.5
 30
0.0
 40
2.0
  0
LINE
  8
0
  6
CONTINUOUS
 62
     1
 10
188.5
 20
79.0
 30
0.0
 11
189.5
 21
79.0
 31
0.0
  0
LINE
  8
0
  6
CONTINUOUS
 62
     1
 10
189.5
 20
79.0
 30
0.0
 11
189.5
 21
78.0
 31
0.0
  0
LINE
  8
0
  6
CONTINUOUS
 62
     1
 10
189.5
 20
78.0
 30
0.0
 11
190.5
 21
78.0
 31
0.0
  0
LINE
  8
0
  6
CONTINUOUS
 62
     1
 10
190.5
 20
78.0
 30
0.0
 11
190.5
 21
79.0
 31
0.0
  0
LINE
  8
0
  6
CONTINUOUS
 62
     1
 10
190.5
 20
79.0
 30
0.0
 11
191.5
 21
79.0
 31
0.0
  0
LINE
  8
0
  6
CONTINUOUS
 62
     1
 10
191.5
 20
79.0
 30
0.0
 11
191.5
 21
80.0
 31
0.0
  0
LINE
  8
0
  6
CONTINUOUS
 62
     1
 10
191.5
 20
80.0
 30
0.0
 11
190.5
 21
80.0
 31
0.0
  0
LINE
  8
0
  6
CONTINUOUS
 62
     1
 10
190.5
 20
80.0
 30
0.0
 11
190.5
 21
81.0
 31
0.0
  0
LINE
  8
0
  6
CONTINUOUS
 62
     1
 10
189.5
 20
81.0
 30
0.0
 11
189.5
 21
80.0
 31
0.0
  0
LINE
  8
0
  6
CONTINUOUS
 62
     1
 10
189.5
 20
80.0
 30
0.0
 11
188.5
 21
80.0
 31
0.0
  0
LINE
  8
0
  6
CONTINUOUS
 62
     1
 10
188.5
 20
80.0
 30
0.0
 11
188.5
 21
79.0
 31
0.0
  0
LINE
  8
0
  6
CONTINUOUS
 62
     1
 10
189.5
 20
81.0
 30
0.0
 11
190.5
 21
81.0
 31
0.0
  0
LINE
  8
0
  6
CONTINUOUS
 62
     1
 10
189.5
 20
86.0
 30
0.0
 11
190.5
 21
86.0
 31
0.0
  0
TEXT
  8
0
  6
CONTINUOUS
 62
     1
 10
193.5
 20
102.5
 30
0.0
 40
3.0
  1
ＮＣ
 50
0.0
 41
0.5
 51
0.0
  7
KANJI2
  0
TEXT
  8
0
  6
CONTINUOUS
 62
     1
 10
193.5
 20
97.5
 30
0.0
 40
3.0
  1
ＮＣ
 50
0.0
 41
0.5
 51
0.0
  7
KANJI2
  0
TEXT
  8
0
  6
CONTINUOUS
 62
     1
 10
193.5
 20
92.5
 30
0.0
 40
3.0
  1
ＮＣ
 50
0.0
 41
0.5
 51
0.0
  7
KANJI2
  0
TEXT
  8
0
  6
CONTINUOUS
 62
     1
 10
193.5
 20
87.5
 30
0.0
 40
3.0
  1
ＮＣ
 50
0.0
 41
0.5
 51
0.0
  7
KANJI2
  0
TEXT
  8
0
  6
CONTINUOUS
 62
     1
 10
193.5
 20
82.5
 30
0.0
 40
3.0
  1
ＡＣ　ＰＯＷ
 50
0.0
 41
0.5
 51
0.0
  7
KANJI2
  0
TEXT
  8
0
  6
CONTINUOUS
 62
     1
 10
193.5
 20
77.5
 30
0.0
 40
3.0
  1
ＡＣ　ＰＯＷ
 50
0.0
 41
0.5
 51
0.0
  7
KANJI2
  0
TEXT
  8
0
  6
CONTINUOUS
 62
     1
 10
187.5
 20
72.5
 30
0.0
 40
3.0
  1
交流電源
 50
0.0
 41
1.0
 51
0.0
  7
KANJI0
  0
LINE
  8
0
  6
CONTINUOUS
 62
     1
 10
100.0
 20
66.5
 30
0.0
 11
210.0
 21
66.5
 31
0.0
  0
LINE
  8
0
  6
CONTINUOUS
 62
     1
 10
210.0
 20
66.5
 30
0.0
 11
210.0
 21
160.0
 31
0.0
  0
LINE
  8
0
  6
CONTINUOUS
 62
     1
 10
210.0
 20
160.0
 30
0.0
 11
185.0
 21
160.0
 31
0.0
  0
LINE
  8
0
  6
CONTINUOUS
 62
     1
 10
185.0
 20
160.0
 30
0.0
 11
185.0
 21
66.5
 31
0.0
  0
LINE
  8
0
  6
CONTINUOUS
 62
     1
 10
185.0
 20
66.5
 30
0.0
 11
165.0
 21
66.5
 31
0.0
  0
LINE
  8
0
  6
CONTINUOUS
 62
     1
 10
165.0
 20
66.5
 30
0.0
 11
165.0
 21
160.0
 31
0.0
  0
LINE
  8
0
  6
CONTINUOUS
 62
     1
 10
165.0
 20
160.0
 30
0.0
 11
185.0
 21
160.0
 31
0.0
  0
LINE
  8
0
  6
CONTINUOUS
 62
     1
 10
185.0
 20
160.0
 30
0.0
 11
145.0
 21
160.0
 31
0.0
  0
LINE
  8
0
  6
CONTINUOUS
 62
     1
 10
145.0
 20
160.0
 30
0.0
 11
145.0
 21
66.5
 31
0.0
  0
LINE
  8
0
  6
CONTINUOUS
 62
     1
 10
145.0
 20
66.5
 30
0.0
 11
100.0
 21
66.5
 31
0.0
  0
LINE
  8
0
  6
CONTINUOUS
 62
     1
 10
100.0
 20
66.5
 30
0.0
 11
100.0
 21
160.0
 31
0.0
  0
LINE
  8
0
  6
CONTINUOUS
 62
     1
 10
100.0
 20
160.0
 30
0.0
 11
145.0
 21
160.0
 31
0.0
  0
TEXT
  8
0
  6
CONTINUOUS
 62
     1
 10
167.5
 20
153.5
 30
0.0
 40
3.0
  1
外部制御
 50
0.0
 41
1.0
 51
0.0
  7
KANJI0
  0
TEXT
  8
0
  6
CONTINUOUS
 62
     1
 10
46.0
 20
107.0
 30
0.0
 40
3.0
  1
外部制御ユニット
 50
0.0
 41
1.0
 51
0.0
  7
KANJI0
  0
TEXT
  8
0
  6
CONTINUOUS
 62
     4
 10
234.5
 20
18.0
 30
0.0
 40
5.0
  1
ＹＭＳ－１０５６４Ａ
 50
0.0
 41
1.0
 51
0.0
  7
KANJI3
  0
TEXT
  8
0
  6
CONTINUOUS
 62
     1
 10
174.5
 20
132.0
 30
0.0
 40
3.0
  1
Ｐ．ＳＥＬ０
 50
0.0
 41
0.5
 51
0.0
  7
KANJI2
  0
TEXT
  8
0
  6
CONTINUOUS
 62
     1
 10
174.5
 20
129.0
 30
0.0
 40
3.0
  1
Ｐ．ＳＥＬ１
 50
0.0
 41
0.5
 51
0.0
  7
KANJI2
  0
TEXT
  8
0
  6
CONTINUOUS
 62
     1
 10
236.4
 20
31.0
 30
0.0
 40
5.0
  1
端子配列図（直流入力）
 50
0.0
 41
0.76
 51
0.0
  7
KANJI4
  0
TEXT
  8
0
  6
CONTINUOUS
 62
     1
 10
235.0
 20
41.0
 30
0.0
 40
5.0
  1
ＴＤＲ－４９ＴＢ－□１□
 50
0.0
 41
0.733333333
 51
0.0
  7
KANJI5
  0
ENDSEC
  0
EOF
