  0
SECTION
  2
HEADER
  9
$EXTMIN
 10
0.0
 20
0.0
 30
0.0
  9
$EXTMAX
 10
297.0
 20
210.0
 30
0.0
  9
$LIMMIN
 10
0.0
 20
0.0
  9
$LIMMAX
 10
297.0
 20
210.0
  9
$LTSCALE
 40
1.0
  9
$PDMODE
 70
     0
  0
ENDSEC
  0
SECTION
  2
TABLES
  0
TABLE
  2
LTYPE
 70
     1
  0
LTYPE
  2
CONTINUOUS
 70
    64
  3
Solid line
 72
    65
 73
     0
 40
0.0
  0
ENDTAB
  0
TABLE
  2
LAYER
 70
   128
  0
LAYER
  2
0
 70
     0
 62
     7
  6
CONTINUOUS
  0
LAYER
  2
2
 70
     0
 62
     7
  6
CONTINUOUS
  0
LAYER
  2
3
 70
     0
 62
     7
  6
CONTINUOUS
  0
LAYER
  2
4
 70
     0
 62
     7
  6
CONTINUOUS
  0
LAYER
  2
5
 70
     0
 62
     7
  6
CONTINUOUS
  0
LAYER
  2
6
 70
     0
 62
     7
  6
CONTINUOUS
  0
LAYER
  2
7
 70
     0
 62
     7
  6
CONTINUOUS
  0
LAYER
  2
8
 70
     0
 62
     7
  6
CONTINUOUS
  0
LAYER
  2
9
 70
     0
 62
     7
  6
CONTINUOUS
  0
LAYER
  2
10
 70
     0
 62
     7
  6
CONTINUOUS
  0
LAYER
  2
11
 70
     0
 62
     7
  6
CONTINUOUS
  0
LAYER
  2
12
 70
     0
 62
     7
  6
CONTINUOUS
  0
LAYER
  2
13
 70
     0
 62
     7
  6
CONTINUOUS
  0
LAYER
  2
14
 70
     0
 62
     7
  6
CONTINUOUS
  0
LAYER
  2
15
 70
     0
 62
     7
  6
CONTINUOUS
  0
LAYER
  2
16
 70
     0
 62
     7
  6
CONTINUOUS
  0
LAYER
  2
17
 70
     0
 62
     7
  6
CONTINUOUS
  0
LAYER
  2
18
 70
     0
 62
     7
  6
CONTINUOUS
  0
LAYER
  2
19
 70
     0
 62
     7
  6
CONTINUOUS
  0
LAYER
  2
20
 70
     0
 62
     7
  6
CONTINUOUS
  0
LAYER
  2
21
 70
     0
 62
     7
  6
CONTINUOUS
  0
LAYER
  2
22
 70
     0
 62
     7
  6
CONTINUOUS
  0
LAYER
  2
23
 70
     0
 62
     7
  6
CONTINUOUS
  0
LAYER
  2
24
 70
     0
 62
     7
  6
CONTINUOUS
  0
LAYER
  2
25
 70
     0
 62
     7
  6
CONTINUOUS
  0
LAYER
  2
26
 70
     0
 62
     7
  6
CONTINUOUS
  0
LAYER
  2
27
 70
     0
 62
     7
  6
CONTINUOUS
  0
LAYER
  2
28
 70
     0
 62
     7
  6
CONTINUOUS
  0
LAYER
  2
29
 70
     0
 62
     7
  6
CONTINUOUS
  0
LAYER
  2
30
 70
     0
 62
     7
  6
CONTINUOUS
  0
LAYER
  2
31
 70
     0
 62
     7
  6
CONTINUOUS
  0
LAYER
  2
32
 70
     0
 62
     7
  6
CONTINUOUS
  0
LAYER
  2
33
 70
     0
 62
     7
  6
CONTINUOUS
  0
LAYER
  2
34
 70
     0
 62
     7
  6
CONTINUOUS
  0
LAYER
  2
35
 70
     0
 62
     7
  6
CONTINUOUS
  0
LAYER
  2
36
 70
     0
 62
     7
  6
CONTINUOUS
  0
LAYER
  2
37
 70
     0
 62
     7
  6
CONTINUOUS
  0
LAYER
  2
38
 70
     0
 62
     7
  6
CONTINUOUS
  0
LAYER
  2
39
 70
     0
 62
     7
  6
CONTINUOUS
  0
LAYER
  2
40
 70
     0
 62
     7
  6
CONTINUOUS
  0
LAYER
  2
41
 70
     0
 62
     7
  6
CONTINUOUS
  0
LAYER
  2
42
 70
     0
 62
     7
  6
CONTINUOUS
  0
LAYER
  2
43
 70
     0
 62
     7
  6
CONTINUOUS
  0
LAYER
  2
44
 70
     0
 62
     7
  6
CONTINUOUS
  0
LAYER
  2
45
 70
     0
 62
     7
  6
CONTINUOUS
  0
LAYER
  2
46
 70
     0
 62
     7
  6
CONTINUOUS
  0
LAYER
  2
47
 70
     0
 62
     7
  6
CONTINUOUS
  0
LAYER
  2
48
 70
     0
 62
     7
  6
CONTINUOUS
  0
LAYER
  2
49
 70
     0
 62
     7
  6
CONTINUOUS
  0
LAYER
  2
50
 70
     0
 62
     7
  6
CONTINUOUS
  0
LAYER
  2
51
 70
     0
 62
     7
  6
CONTINUOUS
  0
LAYER
  2
52
 70
     0
 62
     7
  6
CONTINUOUS
  0
LAYER
  2
53
 70
     0
 62
     7
  6
CONTINUOUS
  0
LAYER
  2
54
 70
     0
 62
     7
  6
CONTINUOUS
  0
LAYER
  2
55
 70
     0
 62
     7
  6
CONTINUOUS
  0
LAYER
  2
56
 70
     0
 62
     7
  6
CONTINUOUS
  0
LAYER
  2
57
 70
     0
 62
     7
  6
CONTINUOUS
  0
LAYER
  2
58
 70
     0
 62
     7
  6
CONTINUOUS
  0
LAYER
  2
59
 70
     0
 62
     7
  6
CONTINUOUS
  0
LAYER
  2
60
 70
     0
 62
     7
  6
CONTINUOUS
  0
LAYER
  2
61
 70
     0
 62
     7
  6
CONTINUOUS
  0
LAYER
  2
62
 70
     0
 62
     7
  6
CONTINUOUS
  0
LAYER
  2
63
 70
     0
 62
     7
  6
CONTINUOUS
  0
LAYER
  2
64
 70
     0
 62
     7
  6
CONTINUOUS
  0
LAYER
  2
65
 70
     0
 62
     7
  6
CONTINUOUS
  0
LAYER
  2
66
 70
     0
 62
     7
  6
CONTINUOUS
  0
LAYER
  2
67
 70
     0
 62
     7
  6
CONTINUOUS
  0
LAYER
  2
68
 70
     0
 62
     7
  6
CONTINUOUS
  0
LAYER
  2
69
 70
     0
 62
     7
  6
CONTINUOUS
  0
LAYER
  2
70
 70
     0
 62
     7
  6
CONTINUOUS
  0
LAYER
  2
71
 70
     0
 62
     7
  6
CONTINUOUS
  0
LAYER
  2
72
 70
     0
 62
     7
  6
CONTINUOUS
  0
LAYER
  2
73
 70
     0
 62
     7
  6
CONTINUOUS
  0
LAYER
  2
74
 70
     0
 62
     7
  6
CONTINUOUS
  0
LAYER
  2
75
 70
     0
 62
     7
  6
CONTINUOUS
  0
LAYER
  2
76
 70
     0
 62
     7
  6
CONTINUOUS
  0
LAYER
  2
77
 70
     0
 62
     7
  6
CONTINUOUS
  0
LAYER
  2
78
 70
     0
 62
     7
  6
CONTINUOUS
  0
LAYER
  2
79
 70
     0
 62
     7
  6
CONTINUOUS
  0
LAYER
  2
80
 70
     0
 62
     7
  6
CONTINUOUS
  0
LAYER
  2
81
 70
     0
 62
     7
  6
CONTINUOUS
  0
LAYER
  2
82
 70
     0
 62
     7
  6
CONTINUOUS
  0
LAYER
  2
83
 70
     0
 62
     7
  6
CONTINUOUS
  0
LAYER
  2
84
 70
     0
 62
     7
  6
CONTINUOUS
  0
LAYER
  2
85
 70
     0
 62
     7
  6
CONTINUOUS
  0
LAYER
  2
86
 70
     0
 62
     7
  6
CONTINUOUS
  0
LAYER
  2
87
 70
     0
 62
     7
  6
CONTINUOUS
  0
LAYER
  2
88
 70
     0
 62
     7
  6
CONTINUOUS
  0
LAYER
  2
89
 70
     0
 62
     7
  6
CONTINUOUS
  0
LAYER
  2
90
 70
     0
 62
     7
  6
CONTINUOUS
  0
LAYER
  2
91
 70
     0
 62
     7
  6
CONTINUOUS
  0
LAYER
  2
92
 70
     0
 62
     7
  6
CONTINUOUS
  0
LAYER
  2
93
 70
     0
 62
     7
  6
CONTINUOUS
  0
LAYER
  2
94
 70
     0
 62
     7
  6
CONTINUOUS
  0
LAYER
  2
95
 70
     0
 62
     7
  6
CONTINUOUS
  0
LAYER
  2
96
 70
     0
 62
     7
  6
CONTINUOUS
  0
LAYER
  2
97
 70
     0
 62
     7
  6
CONTINUOUS
  0
LAYER
  2
98
 70
     0
 62
     7
  6
CONTINUOUS
  0
LAYER
  2
99
 70
     0
 62
     7
  6
CONTINUOUS
  0
LAYER
  2
100
 70
     0
 62
     7
  6
CONTINUOUS
  0
LAYER
  2
101
 70
     0
 62
     7
  6
CONTINUOUS
  0
LAYER
  2
102
 70
     0
 62
     7
  6
CONTINUOUS
  0
LAYER
  2
103
 70
     0
 62
     7
  6
CONTINUOUS
  0
LAYER
  2
104
 70
     0
 62
     7
  6
CONTINUOUS
  0
LAYER
  2
105
 70
     0
 62
     7
  6
CONTINUOUS
  0
LAYER
  2
106
 70
     0
 62
     7
  6
CONTINUOUS
  0
LAYER
  2
107
 70
     0
 62
     7
  6
CONTINUOUS
  0
LAYER
  2
108
 70
     0
 62
     7
  6
CONTINUOUS
  0
LAYER
  2
109
 70
     0
 62
     7
  6
CONTINUOUS
  0
LAYER
  2
110
 70
     0
 62
     7
  6
CONTINUOUS
  0
LAYER
  2
111
 70
     0
 62
     7
  6
CONTINUOUS
  0
LAYER
  2
112
 70
     0
 62
     7
  6
CONTINUOUS
  0
LAYER
  2
113
 70
     0
 62
     7
  6
CONTINUOUS
  0
LAYER
  2
114
 70
     0
 62
     7
  6
CONTINUOUS
  0
LAYER
  2
115
 70
     0
 62
     7
  6
CONTINUOUS
  0
LAYER
  2
116
 70
     0
 62
     7
  6
CONTINUOUS
  0
LAYER
  2
117
 70
     0
 62
     7
  6
CONTINUOUS
  0
LAYER
  2
118
 70
     0
 62
     7
  6
CONTINUOUS
  0
LAYER
  2
119
 70
     0
 62
     7
  6
CONTINUOUS
  0
LAYER
  2
120
 70
     0
 62
     7
  6
CONTINUOUS
  0
LAYER
  2
121
 70
     0
 62
     7
  6
CONTINUOUS
  0
LAYER
  2
122
 70
     0
 62
     7
  6
CONTINUOUS
  0
LAYER
  2
123
 70
     0
 62
     7
  6
CONTINUOUS
  0
LAYER
  2
124
 70
     0
 62
     7
  6
CONTINUOUS
  0
LAYER
  2
125
 70
     0
 62
     7
  6
CONTINUOUS
  0
LAYER
  2
126
 70
     0
 62
     7
  6
CONTINUOUS
  0
LAYER
  2
127
 70
     0
 62
     7
  6
CONTINUOUS
  0
LAYER
  2
128
 70
     0
 62
     7
  6
CONTINUOUS
  0
ENDTAB
  0
TABLE
  2
STYLE
 70
    23
  0
STYLE
  2
STANDARD
 70
     0
 40
0.0
 41
1.0
 50
0.0
 71
     0
 42
0.2
  3
txt
  4

  0
STYLE
  2
KANJI0
 70
     0
 40
3.0
 41
0.75
 50
0.0
 71
     0
 42
3.0
  3

  4
bigfont
  0
STYLE
  2
KANJI1
 70
     0
 40
3.5
 41
0.9
 50
0.0
 71
     0
 42
3.5
  3

  4
bigfont
  0
STYLE
  2
KANJI2
 70
     0
 40
3.5
 41
0.914285714
 50
0.0
 71
     0
 42
3.5
  3

  4
bigfont
  0
STYLE
  2
KANJI3
 70
     0
 40
5.0
 41
1.0
 50
0.0
 71
     0
 42
5.0
  3

  4
bigfont
  0
STYLE
  2
KANJI4
 70
     0
 40
3.5
 41
0.771428571
 50
0.0
 71
     0
 42
3.5
  3

  4
bigfont
  0
STYLE
  2
KANJI5
 70
     0
 40
3.5
 41
0.571428571
 50
0.0
 71
     0
 42
3.5
  3

  4
bigfont
  0
STYLE
  2
KANJI6
 70
     0
 40
3.5
 41
0.571428571
 50
0.0
 71
     0
 42
3.5
  3

  4
bigfont
  0
STYLE
  2
KANJI7
 70
     0
 40
3.5
 41
0.9
 50
0.0
 71
     0
 42
3.5
  3

  4
bigfont
  0
STYLE
  2
KANJI8
 70
     0
 40
8.0
 41
0.75
 50
0.0
 71
     0
 42
8.0
  3

  4
bigfont
  0
STYLE
  2
KANJI9
 70
     0
 40
5.0
 41
0.733333333
 50
0.0
 71
     0
 42
5.0
  3

  4
bigfont
  0
STYLE
  2
KANJI10
 70
     0
 40
5.0
 41
0.76
 50
0.0
 71
     0
 42
5.0
  3

  4
bigfont
  0
STYLE
  2
KANJI11
 70
     4
 40
10.0
 41
1.0
 50
0.0
 71
     0
 42
10.0
  3

  4
bigfont
  0
STYLE
  2
KANJI12
 70
     4
 40
5.0
 41
1.0
 50
0.0
 71
     0
 42
5.0
  3

  4
bigfont
  0
STYLE
  2
KANJI13
 70
     0
 40
5.0
 41
0.5
 50
0.0
 71
     0
 42
5.0
  3

  4
bigfont
  0
STYLE
  2
KANJI14
 70
     0
 40
6.0
 41
0.5
 50
0.0
 71
     0
 42
6.0
  3

  4
bigfont
  0
STYLE
  2
KANJI15
 70
     0
 40
8.0
 41
1.0
 50
0.0
 71
     0
 42
8.0
  3

  4
bigfont
  0
STYLE
  2
KANJI16
 70
     0
 40
6.0
 41
1.0
 50
0.0
 71
     0
 42
6.0
  3

  4
bigfont
  0
STYLE
  2
KANJI17
 70
     0
 40
2.0
 41
0.5
 50
0.0
 71
     0
 42
2.0
  3

  4
bigfont
  0
STYLE
  2
KANJI18
 70
     0
 40
3.0
 41
0.5
 50
0.0
 71
     0
 42
3.0
  3

  4
bigfont
  0
STYLE
  2
KANJI19
 70
     0
 40
3.0
 41
1.0
 50
0.0
 71
     0
 42
3.0
  3

  4
bigfont
  0
STYLE
  2
KANJI20
 70
     0
 40
5.0
 41
1.0
 50
0.0
 71
     0
 42
5.0
  3

  4
bigfont
  0
STYLE
  2
KANJI21
 70
     0
 40
4.0
 41
0.9
 50
0.0
 71
     0
 42
4.0
  3

  4
bigfont
  0
ENDTAB
  0
TABLE
  2
VIEW
 70
     0
  0
ENDTAB
  0
ENDSEC
  0
SECTION
  2
BLOCKS
  0
ENDSEC
  0
SECTION
  2
ENTITIES
  0
POINT
  8
0
  6
CONTINUOUS
 62
     1
 10
288.0
 20
16.0
  0
LINE
  8
0
  6
CONTINUOUS
 62
     1
 10
288.0
 20
16.077722881
 11
288.0
 21
191.577722881
  0
LINE
  8
0
  6
CONTINUOUS
 62
     1
 10
288.0
 20
191.577722881
 11
10.5
 21
191.577722881
  0
LINE
  8
0
  6
CONTINUOUS
 62
     1
 10
10.5
 20
16.077722881
 11
288.0
 21
16.077722881
  0
LINE
  8
0
  6
CONTINUOUS
 62
     1
 10
10.5
 20
16.077722881
 11
10.5
 21
191.577722881
  0
LINE
  8
0
  6
CONTINUOUS
 62
     2
 10
69.5
 20
201.577722881
 11
69.5
 21
191.577722881
  0
LINE
  8
0
  6
CONTINUOUS
 62
     2
 10
63.5
 20
191.577722881
 11
63.5
 21
201.577722881
  0
LINE
  8
0
  6
CONTINUOUS
 62
     2
 10
69.5
 20
201.577722881
 11
10.5
 21
201.577722881
  0
LINE
  8
0
  6
CONTINUOUS
 62
     2
 10
10.5
 20
201.577722881
 11
10.5
 21
191.577722881
  0
LINE
  8
0
  6
CONTINUOUS
 62
     2
 10
228.0
 20
191.577722881
 11
228.0
 21
198.077722881
  0
LINE
  8
0
  6
CONTINUOUS
 62
     2
 10
228.0
 20
198.077722881
 11
288.0
 21
198.077722881
  0
LINE
  8
0
  6
CONTINUOUS
 62
     2
 10
288.0
 20
198.077722881
 11
288.0
 21
191.577722881
  0
LINE
  8
0
  6
CONTINUOUS
 62
     2
 10
228.0
 20
21.077722881
 11
203.0
 21
21.077722881
  0
LINE
  8
0
  6
CONTINUOUS
 62
     2
 10
203.0
 20
21.077722881
 11
203.0
 21
16.077722881
  0
LINE
  8
0
  6
CONTINUOUS
 62
     2
 10
183.0
 20
16.077722881
 11
183.0
 21
21.077722881
  0
LINE
  8
0
  6
CONTINUOUS
 62
     2
 10
173.0
 20
16.077722881
 11
173.0
 21
21.077722881
  0
LINE
  8
0
  6
CONTINUOUS
 62
     2
 10
149.0
 20
16.077722881
 11
149.0
 21
21.077722881
  0
LINE
  8
0
  6
CONTINUOUS
 62
     2
 10
129.0
 20
16.077722881
 11
129.0
 21
21.077722881
  0
LINE
  8
0
  6
CONTINUOUS
 62
     2
 10
119.0
 20
16.077722881
 11
119.0
 21
21.077722881
  0
LINE
  8
0
  6
CONTINUOUS
 62
     2
 10
119.0
 20
21.077722881
 11
203.0
 21
21.077722881
  0
LINE
  8
0
  6
CONTINUOUS
 62
     2
 10
242.5
 20
198.077722881
 11
242.5
 21
191.577722881
  0
TEXT
  8
0
  6
CONTINUOUS
 62
     6
 10
120.5
 20
17.077722881
 30
0.375
 40
3.0
  1
部　番
 50
0.0
 41
0.75
 51
0.0
  7
KANJI0
  0
TEXT
  8
0
  6
CONTINUOUS
 62
     6
 10
132.5
 20
17.077722881
 30
0.375
 40
3.0
  1
形　　　式
 50
0.0
 41
0.75
 51
0.0
  7
KANJI0
  0
TEXT
  8
0
  6
CONTINUOUS
 62
     6
 10
153.5
 20
17.077722881
 30
0.375
 40
3.0
  1
名　　　　称
 50
0.0
 41
0.75
 51
0.0
  7
KANJI0
  0
TEXT
  8
0
  6
CONTINUOUS
 62
     6
 10
174.4
 20
17.077722881
 30
0.375
 40
3.0
  1
個　数
 50
0.0
 41
0.75
 51
0.0
  7
KANJI0
  0
TEXT
  8
0
  6
CONTINUOUS
 62
     6
 10
185.0
 20
17.077722881
 30
0.375
 40
3.0
  1
部
 50
0.0
 41
0.75
 51
0.0
  7
KANJI0
  0
TEXT
  8
0
  6
CONTINUOUS
 62
     6
 10
188.5
 20
17.077722881
 30
0.375
 40
3.0
  1
品
 50
0.0
 41
0.75
 51
0.0
  7
KANJI0
  0
TEXT
  8
0
  6
CONTINUOUS
 62
     6
 10
192.0
 20
17.077722881
 30
0.375
 40
3.0
  1
図
 50
0.0
 41
0.75
 51
0.0
  7
KANJI0
  0
TEXT
  8
0
  6
CONTINUOUS
 62
     6
 10
195.5
 20
17.077722881
 30
0.375
 40
3.0
  1
図
 50
0.0
 41
0.75
 51
0.0
  7
KANJI0
  0
TEXT
  8
0
  6
CONTINUOUS
 62
     6
 10
199.0
 20
17.077722881
 30
0.375
 40
3.0
  1
番
 50
0.0
 41
0.75
 51
0.0
  7
KANJI0
  0
TEXT
  8
0
  6
CONTINUOUS
 62
     6
 10
207.0
 20
17.077722881
 30
0.375
 40
3.0
  1
備
 50
0.0
 41
0.75
 51
0.0
  7
KANJI0
  0
TEXT
  8
0
  6
CONTINUOUS
 62
     6
 10
222.0
 20
17.077722881
 30
0.375
 40
3.0
  1
考
 50
0.0
 41
0.75
 51
0.0
  7
KANJI0
  0
TEXT
  8
0
  6
CONTINUOUS
 62
     2
 10
229.0
 20
120.077722881
 30
0.35
 40
3.5
  1
部品記号
 50
0.0
 41
0.9
 51
0.0
  7
KANJI1
  0
TEXT
  8
0
  6
CONTINUOUS
 62
     2
 10
228.9
 20
114.577722881
 30
0.35
 40
3.5
  1
分
 50
0.0
 41
0.9
 51
0.0
  7
KANJI1
  0
TEXT
  8
0
  6
CONTINUOUS
 62
     2
 10
228.9
 20
111.077722881
 30
0.35
 40
3.5
  1
類
 50
0.0
 41
0.9
 51
0.0
  7
KANJI1
  0
TEXT
  8
0
  6
CONTINUOUS
 62
     2
 10
228.9
 20
104.577722881
 30
0.35
 40
3.5
  1
形
 50
0.0
 41
0.9
 51
0.0
  7
KANJI1
  0
TEXT
  8
0
  6
CONTINUOUS
 62
     2
 10
228.9
 20
101.077722881
 30
0.35
 40
3.5
  1
式
 50
0.0
 41
0.9
 51
0.0
  7
KANJI1
  0
TEXT
  8
0
  6
CONTINUOUS
 62
     2
 10
229.0
 20
94.577722881
 30
0.35
 40
3.5
  1
名
 50
0.0
 41
0.9
 51
0.0
  7
KANJI1
  0
TEXT
  8
0
  6
CONTINUOUS
 62
     2
 10
229.0
 20
91.077722881
 30
0.35
 40
3.5
  1
称
 50
0.0
 41
0.9
 51
0.0
  7
KANJI1
  0
TEXT
  8
0
  6
CONTINUOUS
 62
     2
 10
273.0
 20
84.077722881
 30
0.4
 40
3.5
  1
個
 50
0.0
 41
0.914285714
 51
0.0
  7
KANJI2
  0
TEXT
  8
0
  6
CONTINUOUS
 62
     2
 10
273.0
 20
80.577722881
 30
0.4
 40
3.5
  1
数
 50
0.0
 41
0.914285714
 51
0.0
  7
KANJI2
  0
TEXT
  8
0
  6
CONTINUOUS
 62
     2
 10
229.0
 20
21.077722881
 30
0.35
 40
3.5
  1
図
 50
0.0
 41
0.9
 51
0.0
  7
KANJI1
  0
TEXT
  8
0
  6
CONTINUOUS
 62
     2
 10
229.0
 20
17.577722881
 30
0.35
 40
3.5
  1
番
 50
0.0
 41
0.9
 51
0.0
  7
KANJI1
  0
TEXT
  8
0
  6
CONTINUOUS
 62
     2
 10
232.25
 20
54.877722881
 30
0.35
 40
3.5
  1
承認　
 50
0.0
 41
0.9
 51
0.0
  7
KANJI1
  0
TEXT
  8
0
  6
CONTINUOUS
 62
     2
 10
247.25
 20
54.877722881
 30
0.35
 40
3.5
  1
検図　
 50
0.0
 41
0.9
 51
0.0
  7
KANJI1
  0
TEXT
  8
0
  6
CONTINUOUS
 62
     2
 10
262.25
 20
54.877722881
 30
0.35
 40
3.5
  1
製図　
 50
0.0
 41
0.9
 51
0.0
  7
KANJI1
  0
TEXT
  8
0
  6
CONTINUOUS
 62
     2
 10
277.25
 20
54.877722881
 30
0.35
 40
3.5
  1
設計　
 50
0.0
 41
0.9
 51
0.0
  7
KANJI1
  0
TEXT
  8
0
  6
CONTINUOUS
 62
     2
 10
230.4
 20
82.077722881
 30
0.4
 40
3.5
  1
工　程
 50
0.0
 41
0.914285714
 51
0.0
  7
KANJI2
  0
TEXT
  8
0
  6
CONTINUOUS
 62
     2
 10
230.4
 20
71.577722881
 30
0.4
 40
3.5
  1
材　質
 50
0.0
 41
0.914285714
 51
0.0
  7
KANJI2
  0
TEXT
  8
0
  6
CONTINUOUS
 62
     2
 10
230.4
 20
62.577722881
 30
0.4
 40
3.5
  1
処　理
 50
0.0
 41
0.914285714
 51
0.0
  7
KANJI2
  0
TEXT
  8
0
  6
CONTINUOUS
 62
     2
 10
230.4
 20
35.077722881
 30
0.35
 40
3.5
  1
年月日
 50
0.0
 41
0.9
 51
0.0
  7
KANJI1
  0
LINE
  8
0
  6
CONTINUOUS
 62
     6
 10
288.0
 20
34.077722881
 11
228.0
 21
34.077722881
  0
LINE
  8
0
  6
CONTINUOUS
 62
     6
 10
228.0
 20
39.077722881
 11
288.0
 21
39.077722881
  0
LINE
  8
0
  6
CONTINUOUS
 62
     6
 10
288.0
 20
54.077722881
 11
228.0
 21
54.077722881
  0
LINE
  8
0
  6
CONTINUOUS
 62
     6
 10
228.0
 20
59.077722881
 11
288.0
 21
59.077722881
  0
LINE
  8
0
  6
CONTINUOUS
 62
     6
 10
228.0
 20
46.077722881
 11
228.0
 21
16.077722881
  0
LINE
  8
0
  6
CONTINUOUS
 62
     6
 10
228.0
 20
69.077722881
 11
288.0
 21
69.077722881
  0
LINE
  8
0
  6
CONTINUOUS
 62
     6
 10
288.0
 20
79.077722881
 11
228.0
 21
79.077722881
  0
LINE
  8
0
  6
CONTINUOUS
 62
     6
 10
228.0
 20
89.077722881
 11
288.0
 21
89.077722881
  0
LINE
  8
0
  6
CONTINUOUS
 62
     6
 10
288.0
 20
99.077722881
 11
228.0
 21
99.077722881
  0
LINE
  8
0
  6
CONTINUOUS
 62
     6
 10
228.0
 20
109.077722881
 11
288.0
 21
109.077722881
  0
LINE
  8
0
  6
CONTINUOUS
 62
     6
 10
288.0
 20
119.077722881
 11
228.0
 21
119.077722881
  0
LINE
  8
0
  6
CONTINUOUS
 62
     6
 10
228.0
 20
46.077722881
 11
228.0
 21
165.077722881
  0
LINE
  8
0
  6
CONTINUOUS
 62
     6
 10
233.0
 20
119.077722881
 11
233.0
 21
89.077722881
  0
LINE
  8
0
  6
CONTINUOUS
 62
     6
 10
262.0
 20
109.077722881
 11
262.0
 21
119.077722881
  0
LINE
  8
0
  6
CONTINUOUS
 62
     6
 10
233.0
 20
26.077722881
 11
233.0
 21
16.077722881
  0
LINE
  8
0
  6
CONTINUOUS
 62
     6
 10
272.0
 20
89.077722881
 11
272.0
 21
79.077722881
  0
LINE
  8
0
  6
CONTINUOUS
 62
     6
 10
277.0
 20
79.077722881
 11
277.0
 21
89.077722881
  0
LINE
  8
0
  6
CONTINUOUS
 62
     6
 10
278.0
 20
84.077722881
 11
287.0
 21
84.077722881
  0
TEXT
  8
0
  6
CONTINUOUS
 62
     6
 10
232.0
 20
27.577722881
 30
1.5
 40
5.0
  1
東洋計器株式会社
 50
0.0
 41
1.0
 51
0.0
  7
KANJI3
  0
LINE
  8
0
  6
CONTINUOUS
 62
     6
 10
228.0
 20
26.077722881
 11
288.0
 21
26.077722881
  0
LINE
  8
0
  6
CONTINUOUS
 62
     6
 10
243.0
 20
89.077722881
 11
243.0
 21
34.077722881
  0
LINE
  8
0
  6
CONTINUOUS
 62
     6
 10
258.0
 20
39.077722881
 11
258.0
 21
59.077722881
  0
LINE
  8
0
  6
CONTINUOUS
 62
     6
 10
273.0
 20
39.077722881
 11
273.0
 21
59.077722881
  0
LINE
  8
0
  6
CONTINUOUS
 62
     6
 10
245.0
 20
84.077722881
 11
270.0
 21
84.077722881
  0
LINE
  8
0
  6
CONTINUOUS
 62
     6
 10
286.0
 20
64.077722881
 11
245.0
 21
64.077722881
  0
LINE
  8
0
  6
CONTINUOUS
 62
     6
 10
286.0
 20
74.077722881
 11
245.0
 21
74.077722881
  0
LINE
  8
0
  6
CONTINUOUS
 62
     6
 10
244.0
 20
119.077722881
 11
244.0
 21
124.077722881
  0
TEXT
  8
0
  6
CONTINUOUS
 62
     2
 10
240.0
 20
124.977722881
 30
0.35
 40
3.5
  1
図　面　来　歴　欄
 50
0.0
 41
0.9
 51
0.0
  7
KANJI1
  0
LINE
  8
0
  6
CONTINUOUS
 62
     6
 10
228.0
 20
124.077722881
 11
288.0
 21
124.077722881
  0
LINE
  8
0
  6
CONTINUOUS
 62
     6
 10
288.0
 20
129.077722881
 11
228.0
 21
129.077722881
  0
LINE
  8
0
  6
CONTINUOUS
 62
     6
 10
228.0
 20
159.077722881
 11
288.0
 21
159.077722881
  0
LINE
  8
0
  6
CONTINUOUS
 62
     6
 10
228.0
 20
153.077722881
 11
288.0
 21
153.077722881
  0
LINE
  8
0
  6
CONTINUOUS
 62
     6
 10
228.0
 20
147.077722881
 11
288.0
 21
147.077722881
  0
LINE
  8
0
  6
CONTINUOUS
 62
     6
 10
228.0
 20
141.077722881
 11
288.0
 21
141.077722881
  0
LINE
  8
0
  6
CONTINUOUS
 62
     6
 10
228.0
 20
135.077722881
 11
288.0
 21
135.077722881
  0
LINE
  8
0
  6
CONTINUOUS
 62
     6
 10
228.0
 20
165.077722881
 11
288.0
 21
165.077722881
  0
LINE
  8
0
  6
CONTINUOUS
 62
     6
 10
288.0
 20
124.077722881
 11
288.0
 21
165.077722881
  0
TEXT
  8
0
  6
CONTINUOUS
 62
     2
 10
228.8
 20
130.377722881
 30
0.0
 40
3.5
  1
符号
 50
0.0
 41
0.771428571
 51
0.0
  7
KANJI4
  0
TEXT
  8
0
  6
CONTINUOUS
 62
     2
 10
235.3
 20
130.277722881
 30
0.35
 40
3.5
  1
数
 50
0.0
 41
0.9
 51
0.0
  7
KANJI1
  0
TEXT
  8
0
  6
CONTINUOUS
 62
     2
 10
240.4
 20
130.177722881
 30
0.35
 40
3.5
  1
年月日
 50
0.0
 41
0.571428571
 51
0.0
  7
KANJI5
  0
LINE
  8
0
  6
CONTINUOUS
 62
     6
 10
239.5
 20
165.077722881
 11
239.5
 21
129.077722881
  0
LINE
  8
0
  6
CONTINUOUS
 62
     6
 10
234.5
 20
129.077722881
 11
234.5
 21
165.077722881
  0
LINE
  8
0
  6
CONTINUOUS
 62
     6
 10
247.5
 20
129.077722881
 11
247.5
 21
165.077722881
  0
LINE
  8
0
  6
CONTINUOUS
 62
     6
 10
240.5
 20
138.077722881
 11
246.5
 21
138.077722881
  0
LINE
  8
0
  6
CONTINUOUS
 62
     6
 10
240.5
 20
144.077722881
 11
246.5
 21
144.077722881
  0
LINE
  8
0
  6
CONTINUOUS
 62
     6
 10
246.5
 20
150.077722881
 11
240.5
 21
150.077722881
  0
LINE
  8
0
  6
CONTINUOUS
 62
     6
 10
240.5
 20
156.077722881
 11
246.5
 21
156.077722881
  0
LINE
  8
0
  6
CONTINUOUS
 62
     6
 10
246.5
 20
162.077722881
 11
240.5
 21
162.077722881
  0
TEXT
  8
0
  6
CONTINUOUS
 62
     6
 10
242.5
 20
159.577722881
 30
0.4
 40
3.5
  1
．
 50
0.0
 41
0.914285714
 51
0.0
  7
KANJI2
  0
TEXT
  8
0
  6
CONTINUOUS
 62
     6
 10
242.5
 20
153.577722881
 30
0.4
 40
3.5
  1
．
 50
0.0
 41
0.914285714
 51
0.0
  7
KANJI2
  0
TEXT
  8
0
  6
CONTINUOUS
 62
     6
 10
242.5
 20
147.577722881
 30
0.4
 40
3.5
  1
．
 50
0.0
 41
0.914285714
 51
0.0
  7
KANJI2
  0
TEXT
  8
0
  6
CONTINUOUS
 62
     6
 10
242.5
 20
141.577722881
 30
0.4
 40
3.5
  1
．
 50
0.0
 41
0.914285714
 51
0.0
  7
KANJI2
  0
TEXT
  8
0
  6
CONTINUOUS
 62
     6
 10
242.5
 20
135.577722881
 30
0.4
 40
3.5
  1
．
 50
0.0
 41
0.914285714
 51
0.0
  7
KANJI2
  0
TEXT
  8
0
  6
CONTINUOUS
 62
     2
 10
252.5
 20
130.177722881
 30
0.35
 40
3.5
  1
記　　　事
 50
0.0
 41
0.9
 51
0.0
  7
KANJI1
  0
LINE
  8
0
  6
CONTINUOUS
 62
     6
 10
273.0
 20
129.077722881
 11
273.0
 21
165.077722881
  0
LINE
  8
0
  6
CONTINUOUS
 62
     6
 10
278.0
 20
165.077722881
 11
278.0
 21
129.077722881
  0
LINE
  8
0
  6
CONTINUOUS
 62
     6
 10
283.0
 20
129.077722881
 11
283.0
 21
165.077722881
  0
LINE
  8
0
  6
CONTINUOUS
 62
     6
 10
248.5
 20
138.077722881
 11
272.0
 21
138.077722881
  0
LINE
  8
0
  6
CONTINUOUS
 62
     6
 10
272.0
 20
144.077722881
 11
248.5
 21
144.077722881
  0
LINE
  8
0
  6
CONTINUOUS
 62
     6
 10
248.5
 20
150.077722881
 11
272.0
 21
150.077722881
  0
LINE
  8
0
  6
CONTINUOUS
 62
     6
 10
272.0
 20
156.077722881
 11
248.5
 21
156.077722881
  0
LINE
  8
0
  6
CONTINUOUS
 62
     6
 10
248.5
 20
162.077722881
 11
272.0
 21
162.077722881
  0
TEXT
  8
0
  6
CONTINUOUS
 62
     2
 10
273.5
 20
130.177722881
 30
0.0
 40
3.5
  1
承認
 50
0.0
 41
0.571428571
 51
0.0
  7
KANJI6
  0
TEXT
  8
0
  6
CONTINUOUS
 62
     2
 10
278.5
 20
130.177722881
 30
0.0
 40
3.5
  1
審査
 50
0.0
 41
0.571428571
 51
0.0
  7
KANJI6
  0
TEXT
  8
0
  6
CONTINUOUS
 62
     2
 10
283.5
 20
130.177722881
 30
0.0
 40
3.5
  1
担当
 50
0.0
 41
0.571428571
 51
0.0
  7
KANJI6
  0
TEXT
  8
0
  6
CONTINUOUS
 62
     2
 10
273.5
 20
120.077722881
 30
0.35
 40
3.5
  1
第三角法
 50
0.0
 41
0.9
 51
0.0
  7
KANJI1
  0
LINE
  8
0
  6
CONTINUOUS
 62
     6
 10
272.0
 20
124.077722881
 11
272.0
 21
109.077722881
  0
TEXT
  8
0
  6
CONTINUOUS
 62
     2
 10
275.0
 20
114.577722881
 30
0.35
 40
3.5
  1
尺　度
 50
0.0
 41
0.9
 51
0.0
  7
KANJI1
  0
LINE
  8
0
  6
CONTINUOUS
 62
     6
 10
288.0
 20
109.077722881
 11
288.0
 21
124.077722881
  0
LINE
  8
0
  6
CONTINUOUS
 62
     6
 10
288.0
 20
124.077722881
 11
272.0
 21
124.077722881
  0
LINE
  8
0
  6
CONTINUOUS
 62
     6
 10
288.0
 20
119.077722881
 11
272.0
 21
119.077722881
  0
LINE
  8
0
  6
CONTINUOUS
 62
     6
 10
272.0
 20
109.077722881
 11
288.0
 21
109.077722881
  0
TEXT
  8
0
  6
CONTINUOUS
 62
     2
 10
278.5
 20
110.077722881
 30
7.0
 40
3.5
  1
：
 50
0.0
 41
0.9
 51
0.0
  7
KANJI7
  0
TEXT
  8
0
  6
CONTINUOUS
 62
     2
 10
67.5
 20
195.8
 30
0.375
 40
3.0
  1
図
 50
180.0
 41
0.75
 51
0.0
  7
KANJI0
  0
TEXT
  8
0
  6
CONTINUOUS
 62
     2
 10
67.5
 20
200.277722881
 30
0.375
 40
3.0
  1
番
 50
180.0
 41
0.75
 51
0.0
  7
KANJI0
  0
TEXT
  8
0
  6
CONTINUOUS
 62
     2
 10
67.5
 20
195.877722881
 30
0.375
 40
3.0
  1
図
 50
180.0
 41
0.75
 51
0.0
  7
KANJI0
  0
TEXT
  8
0
  6
CONTINUOUS
 62
     2
 10
232.8
 20
193.277722881
 30
0.375
 40
3.0
  1
般
 50
0.0
 41
0.75
 51
0.0
  7
KANJI0
  0
TEXT
  8
0
  6
CONTINUOUS
 62
     2
 10
235.8
 20
193.277722881
 30
0.375
 40
3.0
  1
公
 50
0.0
 41
0.75
 51
0.0
  7
KANJI0
  0
TEXT
  8
0
  6
CONTINUOUS
 62
     2
 10
238.8
 20
193.277722881
 30
0.375
 40
3.0
  1
差
 50
0.0
 41
0.75
 51
0.0
  7
KANJI0
  0
TEXT
  8
0
  6
CONTINUOUS
 62
     2
 10
229.8
 20
193.277722881
 30
0.375
 40
3.0
  1
一
 50
0.0
 41
0.75
 51
0.0
  7
KANJI0
  0
TEXT
  8
0
  6
CONTINUOUS
 62
     4
 10
235.0
 20
110.0
 30
1.0
 40
8.0
  1
３６３０
 50
0.0
 41
0.75
 51
0.0
  7
KANJI8
  0
TEXT
  8
0
  6
CONTINUOUS
 62
     1
 10
235.0
 20
102.0
 30
0.0
 40
5.0
  1
　□ＤＰ－□Ａ
 50
0.0
 41
0.733333333
 51
0.0
  7
KANJI9
  0
TEXT
  8
0
  6
CONTINUOUS
 62
     1
 10
238.4
 20
92.0
 30
0.0
 40
5.0
  1
端子配列図
 50
0.0
 41
0.76
 51
0.0
  7
KANJI10
  0
LINE
  8
0
  6
CONTINUOUS
 62
     1
 10
40.0
 20
140.0
 11
50.0
 21
140.0
  0
LINE
  8
0
  6
CONTINUOUS
 62
     1
 10
50.0
 20
140.0
 11
50.0
 21
130.0
  0
LINE
  8
0
  6
CONTINUOUS
 62
     1
 10
50.0
 20
130.0
 11
40.0
 21
130.0
  0
LINE
  8
0
  6
CONTINUOUS
 62
     1
 10
40.0
 20
130.0
 11
40.0
 21
140.0
  0
LINE
  8
0
  6
CONTINUOUS
 62
     1
 10
50.0
 20
140.0
 11
60.0
 21
140.0
  0
LINE
  8
0
  6
CONTINUOUS
 62
     1
 10
60.0
 20
140.0
 11
60.0
 21
130.0
  0
LINE
  8
0
  6
CONTINUOUS
 62
     1
 10
60.0
 20
130.0
 11
50.0
 21
130.0
  0
LINE
  8
0
  6
CONTINUOUS
 62
     1
 10
50.0
 20
130.0
 11
50.0
 21
140.0
  0
LINE
  8
0
  6
CONTINUOUS
 62
     1
 10
60.0
 20
140.0
 11
70.0
 21
140.0
  0
LINE
  8
0
  6
CONTINUOUS
 62
     1
 10
70.0
 20
140.0
 11
70.0
 21
130.0
  0
LINE
  8
0
  6
CONTINUOUS
 62
     1
 10
70.0
 20
130.0
 11
60.0
 21
130.0
  0
LINE
  8
0
  6
CONTINUOUS
 62
     1
 10
60.0
 20
130.0
 11
60.0
 21
140.0
  0
LINE
  8
0
  6
CONTINUOUS
 62
     1
 10
70.0
 20
140.0
 11
80.0
 21
140.0
  0
LINE
  8
0
  6
CONTINUOUS
 62
     1
 10
80.0
 20
140.0
 11
80.0
 21
130.0
  0
LINE
  8
0
  6
CONTINUOUS
 62
     1
 10
80.0
 20
130.0
 11
70.0
 21
130.0
  0
LINE
  8
0
  6
CONTINUOUS
 62
     1
 10
70.0
 20
130.0
 11
70.0
 21
140.0
  0
LINE
  8
0
  6
CONTINUOUS
 62
     1
 10
70.0
 20
130.0
 11
80.0
 21
130.0
  0
LINE
  8
0
  6
CONTINUOUS
 62
     1
 10
80.0
 20
130.0
 11
80.0
 21
120.0
  0
LINE
  8
0
  6
CONTINUOUS
 62
     1
 10
80.0
 20
120.0
 11
70.0
 21
120.0
  0
LINE
  8
0
  6
CONTINUOUS
 62
     1
 10
70.0
 20
120.0
 11
70.0
 21
130.0
  0
LINE
  8
0
  6
CONTINUOUS
 62
     1
 10
80.0
 20
120.0
 11
80.0
 21
130.0
  0
LINE
  8
0
  6
CONTINUOUS
 62
     1
 10
70.0
 20
110.0
 11
70.0
 21
100.0
  0
LINE
  8
0
  6
CONTINUOUS
 62
     1
 10
70.0
 20
110.0
 11
80.0
 21
110.0
  0
LINE
  8
0
  6
CONTINUOUS
 62
     1
 10
80.0
 20
110.0
 11
80.0
 21
100.0
  0
LINE
  8
0
  6
CONTINUOUS
 62
     1
 10
80.0
 20
100.0
 11
70.0
 21
100.0
  0
LINE
  8
0
  6
CONTINUOUS
 62
     1
 10
70.0
 20
100.0
 11
70.0
 21
110.0
  0
LINE
  8
0
  6
CONTINUOUS
 62
     1
 10
70.0
 20
100.0
 11
80.0
 21
100.0
  0
LINE
  8
0
  6
CONTINUOUS
 62
     1
 10
80.0
 20
100.0
 11
80.0
 21
90.0
  0
LINE
  8
0
  6
CONTINUOUS
 62
     1
 10
80.0
 20
90.0
 11
70.0
 21
90.0
  0
LINE
  8
0
  6
CONTINUOUS
 62
     1
 10
70.0
 20
90.0
 11
70.0
 21
100.0
  0
LINE
  8
0
  6
CONTINUOUS
 62
     1
 10
80.0
 20
90.0
 11
80.0
 21
100.0
  0
LINE
  8
0
  6
CONTINUOUS
 62
     1
 10
40.0
 20
100.0
 11
50.0
 21
100.0
  0
LINE
  8
0
  6
CONTINUOUS
 62
     1
 10
50.0
 20
100.0
 11
50.0
 21
90.0
  0
LINE
  8
0
  6
CONTINUOUS
 62
     1
 10
50.0
 20
90.0
 11
40.0
 21
90.0
  0
LINE
  8
0
  6
CONTINUOUS
 62
     1
 10
40.0
 20
90.0
 11
40.0
 21
100.0
  0
LINE
  8
0
  6
CONTINUOUS
 62
     1
 10
50.0
 20
100.0
 11
60.0
 21
100.0
  0
LINE
  8
0
  6
CONTINUOUS
 62
     1
 10
60.0
 20
100.0
 11
60.0
 21
90.0
  0
LINE
  8
0
  6
CONTINUOUS
 62
     1
 10
60.0
 20
90.0
 11
50.0
 21
90.0
  0
LINE
  8
0
  6
CONTINUOUS
 62
     1
 10
50.0
 20
90.0
 11
50.0
 21
100.0
  0
LINE
  8
0
  6
CONTINUOUS
 62
     1
 10
60.0
 20
100.0
 11
70.0
 21
100.0
  0
LINE
  8
0
  6
CONTINUOUS
 62
     1
 10
70.0
 20
90.0
 11
60.0
 21
90.0
  0
LINE
  8
0
  6
CONTINUOUS
 62
     1
 10
60.0
 20
90.0
 11
60.0
 21
100.0
  0
LINE
  8
0
  6
CONTINUOUS
 62
     1
 10
40.0
 20
110.0
 11
40.0
 21
100.0
  0
LINE
  8
0
  6
CONTINUOUS
 62
     1
 10
40.0
 20
110.0
 11
50.0
 21
110.0
  0
LINE
  8
0
  6
CONTINUOUS
 62
     1
 10
50.0
 20
110.0
 11
50.0
 21
100.0
  0
LINE
  8
0
  6
CONTINUOUS
 62
     1
 10
40.0
 20
100.0
 11
40.0
 21
110.0
  0
TEXT
  8
0
  6
CONTINUOUS
 62
     1
 10
45.0
 20
140.0
 30
0.0
 40
10.0
  1
８
 50
0.0
 41
1.0
 51
0.0
  7
KANJI11
  0
TEXT
  8
0
  6
CONTINUOUS
 62
     1
 10
55.0
 20
140.0
 30
0.0
 40
10.0
  1
７
 50
0.0
 41
1.0
 51
0.0
  7
KANJI11
  0
TEXT
  8
0
  6
CONTINUOUS
 62
     1
 10
65.0
 20
140.0
 30
0.0
 40
10.0
  1
６
 50
0.0
 41
1.0
 51
0.0
  7
KANJI11
  0
TEXT
  8
0
  6
CONTINUOUS
 62
     1
 10
75.0
 20
140.0
 30
0.0
 40
10.0
  1
５
 50
0.0
 41
1.0
 51
0.0
  7
KANJI11
  0
TEXT
  8
0
  6
CONTINUOUS
 62
     1
 10
75.0
 20
130.0
 30
0.0
 40
10.0
  1
４
 50
0.0
 41
1.0
 51
0.0
  7
KANJI11
  0
TEXT
  8
0
  6
CONTINUOUS
 62
     1
 10
45.0
 20
110.0
 30
0.0
 40
10.0
  1
９
 50
0.0
 41
1.0
 51
0.0
  7
KANJI11
  0
TEXT
  8
0
  6
CONTINUOUS
 62
     1
 10
75.0
 20
100.0
 30
0.0
 40
10.0
  1
２
 50
0.0
 41
1.0
 51
0.0
  7
KANJI11
  0
TEXT
  8
0
  6
CONTINUOUS
 62
     1
 10
75.0
 20
110.0
 30
0.0
 40
10.0
  1
３
 50
0.0
 41
1.0
 51
0.0
  7
KANJI11
  0
TEXT
  8
0
  6
CONTINUOUS
 62
     1
 10
52.5
 20
97.5
 30
0.0
 40
5.0
  1
１
 50
0.0
 41
1.0
 51
0.0
  7
KANJI12
  0
TEXT
  8
0
  6
CONTINUOUS
 62
     1
 10
57.5
 20
97.5
 30
0.0
 40
5.0
  1
１
 50
0.0
 41
1.0
 51
0.0
  7
KANJI12
  0
TEXT
  8
0
  6
CONTINUOUS
 62
     1
 10
42.5
 20
97.5
 30
0.0
 40
5.0
  1
１
 50
0.0
 41
1.0
 51
0.0
  7
KANJI12
  0
TEXT
  8
0
  6
CONTINUOUS
 62
     1
 10
47.5
 20
97.5
 30
0.0
 40
5.0
  1
０
 50
0.0
 41
1.0
 51
0.0
  7
KANJI12
  0
TEXT
  8
0
  6
CONTINUOUS
 62
     1
 10
65.0
 20
100.0
 30
0.0
 40
10.0
  1
１
 50
0.0
 41
1.0
 51
0.0
  7
KANJI11
  0
LINE
  8
0
  6
CONTINUOUS
 62
     1
 10
45.0
 20
140.0
 11
45.0
 21
150.0
  0
LINE
  8
0
  6
CONTINUOUS
 62
     1
 10
55.0
 20
140.0
 11
55.0
 21
150.0
  0
LINE
  8
0
  6
CONTINUOUS
 62
     1
 10
65.0
 20
140.0
 11
65.0
 21
150.0
  0
LINE
  8
0
  6
CONTINUOUS
 62
     1
 10
75.0
 20
140.0
 11
75.0
 21
150.0
  0
LINE
  8
0
  6
CONTINUOUS
 62
     1
 10
80.0
 20
125.0
 11
90.0
 21
125.0
  0
LINE
  8
0
  6
CONTINUOUS
 62
     1
 10
90.0
 20
125.0
 11
90.0
 21
120.0
  0
POINT
  8
0
  6
CONTINUOUS
 62
     1
 10
90.0
 20
120.0
  0
LINE
  8
0
  6
CONTINUOUS
 62
     1
 10
87.0
 20
120.0
 11
93.0
 21
120.0
  0
LINE
  8
0
  6
CONTINUOUS
 62
     1
 10
88.0
 20
119.0
 11
92.0
 21
119.0
  0
LINE
  8
0
  6
CONTINUOUS
 62
     1
 10
89.0
 20
118.0
 11
91.0
 21
118.0
  0
LINE
  8
0
  6
CONTINUOUS
 62
     1
 10
65.0
 20
90.0
 11
65.0
 21
80.0
  0
LINE
  8
0
  6
CONTINUOUS
 62
     1
 10
65.0
 20
80.0
 11
70.0
 21
80.0
  0
LINE
  8
0
  6
CONTINUOUS
 62
     1
 10
75.0
 20
90.0
 11
75.0
 21
85.0
  0
LINE
  8
0
  6
CONTINUOUS
 62
     1
 10
75.0
 20
75.0
 11
75.0
 21
70.0
  0
LINE
  8
0
  6
CONTINUOUS
 62
     1
 10
75.0
 20
70.0
 11
90.0
 21
70.0
  0
LINE
  8
0
  6
CONTINUOUS
 62
     1
 10
90.0
 20
70.0
 11
90.0
 21
105.0
  0
LINE
  8
0
  6
CONTINUOUS
 62
     1
 10
90.0
 20
105.0
 11
80.0
 21
105.0
  0
LINE
  8
0
  6
CONTINUOUS
 62
     1
 10
55.0
 20
90.0
 11
55.0
 21
70.0
  0
LINE
  8
0
  6
CONTINUOUS
 62
     1
 10
40.0
 20
105.0
 11
30.0
 21
105.0
  0
LINE
  8
0
  6
CONTINUOUS
 62
     1
 10
30.0
 20
105.0
 11
30.0
 21
80.0
  0
LINE
  8
0
  6
CONTINUOUS
 62
     1
 10
30.0
 20
80.0
 11
40.0
 21
80.0
  0
LINE
  8
0
  6
CONTINUOUS
 62
     1
 10
45.0
 20
90.0
 11
45.0
 21
85.0
  0
CIRCLE
  8
0
  6
CONTINUOUS
 62
     1
 10
45.0
 20
151.0
 40
1.0
  0
CIRCLE
  8
0
  6
CONTINUOUS
 62
     1
 10
55.0
 20
151.0
 40
1.0
  0
CIRCLE
  8
0
  6
CONTINUOUS
 62
     1
 10
65.0
 20
151.0
 40
1.0
  0
CIRCLE
  8
0
  6
CONTINUOUS
 62
     1
 10
75.0
 20
151.0
 40
1.0
  0
LINE
  8
0
  6
CONTINUOUS
 62
     1
 10
74.0
 20
85.0
 11
76.0
 21
85.0
  0
LINE
  8
0
  6
CONTINUOUS
 62
     1
 10
74.0
 20
85.0
 11
75.0
 21
84.0
  0
LINE
  8
0
  6
CONTINUOUS
 62
     1
 10
76.0
 20
85.0
 11
75.0
 21
84.0
  0
LINE
  8
0
  6
CONTINUOUS
 62
     1
 10
74.0
 20
75.0
 11
76.0
 21
75.0
  0
LINE
  8
0
  6
CONTINUOUS
 62
     1
 10
75.0
 20
76.0
 11
74.0
 21
75.0
  0
LINE
  8
0
  6
CONTINUOUS
 62
     1
 10
75.0
 20
76.0
 11
76.0
 21
75.0
  0
CIRCLE
  8
0
  6
CONTINUOUS
 62
     1
 10
71.0
 20
80.0
 40
1.0
  0
LINE
  8
0
  6
CONTINUOUS
 62
     1
 10
72.0
 20
80.0
 11
75.0
 21
76.0
  0
LINE
  8
0
  6
CONTINUOUS
 62
     1
 10
45.0
 20
90.0
 11
45.0
 21
85.0
  0
LINE
  8
0
  6
CONTINUOUS
 62
     1
 10
45.0
 20
75.0
 11
45.0
 21
70.0
  0
LINE
  8
0
  6
CONTINUOUS
 62
     1
 10
44.0
 20
85.0
 11
46.0
 21
85.0
  0
LINE
  8
0
  6
CONTINUOUS
 62
     1
 10
44.0
 20
85.0
 11
45.0
 21
84.0
  0
LINE
  8
0
  6
CONTINUOUS
 62
     1
 10
46.0
 20
85.0
 11
45.0
 21
84.0
  0
LINE
  8
0
  6
CONTINUOUS
 62
     1
 10
44.0
 20
75.0
 11
46.0
 21
75.0
  0
LINE
  8
0
  6
CONTINUOUS
 62
     1
 10
45.0
 20
76.0
 11
44.0
 21
75.0
  0
LINE
  8
0
  6
CONTINUOUS
 62
     1
 10
45.0
 20
76.0
 11
46.0
 21
75.0
  0
CIRCLE
  8
0
  6
CONTINUOUS
 62
     1
 10
41.0
 20
80.0
 40
1.0
  0
LINE
  8
0
  6
CONTINUOUS
 62
     1
 10
42.0
 20
80.0
 11
45.0
 21
76.0
  0
LINE
  8
0
  6
CONTINUOUS
 62
     1
 10
45.0
 20
70.0
 11
55.0
 21
70.0
  0
TEXT
  8
0
  6
CONTINUOUS
 62
     1
 10
70.0
 20
81.0
 30
0.0
 40
5.0
  1
ｃ
 50
0.0
 41
0.5
 51
0.0
  7
KANJI13
  0
TEXT
  8
0
  6
CONTINUOUS
 62
     1
 10
76.0
 20
85.0
 30
0.0
 40
5.0
  1
ａ
 50
0.0
 41
0.5
 51
0.0
  7
KANJI13
  0
TEXT
  8
0
  6
CONTINUOUS
 62
     1
 10
76.0
 20
75.0
 30
0.0
 40
5.0
  1
ｂ
 50
0.0
 41
0.5
 51
0.0
  7
KANJI13
  0
TEXT
  8
0
  6
CONTINUOUS
 62
     1
 10
40.0
 20
81.0
 30
0.0
 40
5.0
  1
ｃ
 50
0.0
 41
0.5
 51
0.0
  7
KANJI13
  0
TEXT
  8
0
  6
CONTINUOUS
 62
     1
 10
46.0
 20
85.0
 30
0.0
 40
5.0
  1
ａ
 50
0.0
 41
0.5
 51
0.0
  7
KANJI13
  0
TEXT
  8
0
  6
CONTINUOUS
 62
     1
 10
46.0
 20
75.0
 30
0.0
 40
5.0
  1
ｂ
 50
0.0
 41
0.5
 51
0.0
  7
KANJI13
  0
TEXT
  8
0
  6
CONTINUOUS
 62
     1
 10
85.5
 20
111.0
 30
0.0
 40
6.0
  1
ＧＮＤ
 50
0.0
 41
0.5
 51
0.0
  7
KANJI14
  0
TEXT
  8
0
  6
CONTINUOUS
 62
     1
 10
63.5
 20
158.0
 30
0.0
 40
6.0
  1
Ｉｎｐｕｔ
 50
0.0
 41
0.5
 51
0.0
  7
KANJI14
  0
TEXT
  8
0
  6
CONTINUOUS
 62
     1
 10
39.5
 20
164.0
 30
0.0
 40
6.0
  1
Ｐｏｗｅｒ
 50
0.0
 41
0.5
 51
0.0
  7
KANJI14
  0
TEXT
  8
0
  6
CONTINUOUS
 62
     1
 10
39.5
 20
158.0
 30
0.0
 40
6.0
  1
Ｓｕｐｐｌｙ
 50
0.0
 41
0.5
 51
0.0
  7
KANJI14
  0
LINE
  8
0
  6
CONTINUOUS
 62
     1
 10
140.0
 20
140.0
 11
150.0
 21
140.0
  0
LINE
  8
0
  6
CONTINUOUS
 62
     1
 10
150.0
 20
140.0
 11
150.0
 21
130.0
  0
LINE
  8
0
  6
CONTINUOUS
 62
     1
 10
150.0
 20
130.0
 11
140.0
 21
130.0
  0
LINE
  8
0
  6
CONTINUOUS
 62
     1
 10
140.0
 20
130.0
 11
140.0
 21
140.0
  0
LINE
  8
0
  6
CONTINUOUS
 62
     1
 10
150.0
 20
140.0
 11
160.0
 21
140.0
  0
LINE
  8
0
  6
CONTINUOUS
 62
     1
 10
160.0
 20
140.0
 11
160.0
 21
130.0
  0
LINE
  8
0
  6
CONTINUOUS
 62
     1
 10
160.0
 20
130.0
 11
150.0
 21
130.0
  0
LINE
  8
0
  6
CONTINUOUS
 62
     1
 10
150.0
 20
130.0
 11
150.0
 21
140.0
  0
LINE
  8
0
  6
CONTINUOUS
 62
     1
 10
160.0
 20
140.0
 11
170.0
 21
140.0
  0
LINE
  8
0
  6
CONTINUOUS
 62
     1
 10
170.0
 20
140.0
 11
170.0
 21
130.0
  0
LINE
  8
0
  6
CONTINUOUS
 62
     1
 10
170.0
 20
130.0
 11
160.0
 21
130.0
  0
LINE
  8
0
  6
CONTINUOUS
 62
     1
 10
160.0
 20
130.0
 11
160.0
 21
140.0
  0
LINE
  8
0
  6
CONTINUOUS
 62
     1
 10
170.0
 20
140.0
 11
180.0
 21
140.0
  0
LINE
  8
0
  6
CONTINUOUS
 62
     1
 10
180.0
 20
140.0
 11
180.0
 21
130.0
  0
LINE
  8
0
  6
CONTINUOUS
 62
     1
 10
180.0
 20
130.0
 11
170.0
 21
130.0
  0
LINE
  8
0
  6
CONTINUOUS
 62
     1
 10
170.0
 20
130.0
 11
170.0
 21
140.0
  0
LINE
  8
0
  6
CONTINUOUS
 62
     1
 10
170.0
 20
130.0
 11
180.0
 21
130.0
  0
LINE
  8
0
  6
CONTINUOUS
 62
     1
 10
180.0
 20
130.0
 11
180.0
 21
120.0
  0
LINE
  8
0
  6
CONTINUOUS
 62
     1
 10
180.0
 20
120.0
 11
170.0
 21
120.0
  0
LINE
  8
0
  6
CONTINUOUS
 62
     1
 10
170.0
 20
120.0
 11
170.0
 21
130.0
  0
LINE
  8
0
  6
CONTINUOUS
 62
     1
 10
180.0
 20
120.0
 11
180.0
 21
130.0
  0
LINE
  8
0
  6
CONTINUOUS
 62
     1
 10
170.0
 20
110.0
 11
170.0
 21
100.0
  0
LINE
  8
0
  6
CONTINUOUS
 62
     1
 10
170.0
 20
110.0
 11
180.0
 21
110.0
  0
LINE
  8
0
  6
CONTINUOUS
 62
     1
 10
180.0
 20
110.0
 11
180.0
 21
100.0
  0
LINE
  8
0
  6
CONTINUOUS
 62
     1
 10
180.0
 20
100.0
 11
170.0
 21
100.0
  0
LINE
  8
0
  6
CONTINUOUS
 62
     1
 10
170.0
 20
100.0
 11
170.0
 21
110.0
  0
LINE
  8
0
  6
CONTINUOUS
 62
     1
 10
170.0
 20
100.0
 11
180.0
 21
100.0
  0
LINE
  8
0
  6
CONTINUOUS
 62
     1
 10
180.0
 20
100.0
 11
180.0
 21
90.0
  0
LINE
  8
0
  6
CONTINUOUS
 62
     1
 10
180.0
 20
90.0
 11
170.0
 21
90.0
  0
LINE
  8
0
  6
CONTINUOUS
 62
     1
 10
170.0
 20
90.0
 11
170.0
 21
100.0
  0
LINE
  8
0
  6
CONTINUOUS
 62
     1
 10
180.0
 20
90.0
 11
180.0
 21
100.0
  0
LINE
  8
0
  6
CONTINUOUS
 62
     1
 10
140.0
 20
100.0
 11
150.0
 21
100.0
  0
LINE
  8
0
  6
CONTINUOUS
 62
     1
 10
150.0
 20
100.0
 11
150.0
 21
90.0
  0
LINE
  8
0
  6
CONTINUOUS
 62
     1
 10
150.0
 20
90.0
 11
140.0
 21
90.0
  0
LINE
  8
0
  6
CONTINUOUS
 62
     1
 10
140.0
 20
90.0
 11
140.0
 21
100.0
  0
LINE
  8
0
  6
CONTINUOUS
 62
     1
 10
150.0
 20
100.0
 11
160.0
 21
100.0
  0
LINE
  8
0
  6
CONTINUOUS
 62
     1
 10
160.0
 20
100.0
 11
160.0
 21
90.0
  0
LINE
  8
0
  6
CONTINUOUS
 62
     1
 10
160.0
 20
90.0
 11
150.0
 21
90.0
  0
LINE
  8
0
  6
CONTINUOUS
 62
     1
 10
150.0
 20
90.0
 11
150.0
 21
100.0
  0
LINE
  8
0
  6
CONTINUOUS
 62
     1
 10
160.0
 20
100.0
 11
170.0
 21
100.0
  0
LINE
  8
0
  6
CONTINUOUS
 62
     1
 10
170.0
 20
90.0
 11
160.0
 21
90.0
  0
LINE
  8
0
  6
CONTINUOUS
 62
     1
 10
160.0
 20
90.0
 11
160.0
 21
100.0
  0
LINE
  8
0
  6
CONTINUOUS
 62
     1
 10
140.0
 20
110.0
 11
140.0
 21
100.0
  0
LINE
  8
0
  6
CONTINUOUS
 62
     1
 10
140.0
 20
110.0
 11
150.0
 21
110.0
  0
LINE
  8
0
  6
CONTINUOUS
 62
     1
 10
150.0
 20
110.0
 11
150.0
 21
100.0
  0
LINE
  8
0
  6
CONTINUOUS
 62
     1
 10
140.0
 20
100.0
 11
140.0
 21
110.0
  0
TEXT
  8
0
  6
CONTINUOUS
 62
     1
 10
145.0
 20
140.0
 30
0.0
 40
10.0
  1
８
 50
0.0
 41
1.0
 51
0.0
  7
KANJI11
  0
TEXT
  8
0
  6
CONTINUOUS
 62
     1
 10
155.0
 20
140.0
 30
0.0
 40
10.0
  1
７
 50
0.0
 41
1.0
 51
0.0
  7
KANJI11
  0
TEXT
  8
0
  6
CONTINUOUS
 62
     1
 10
165.0
 20
140.0
 30
0.0
 40
10.0
  1
６
 50
0.0
 41
1.0
 51
0.0
  7
KANJI11
  0
TEXT
  8
0
  6
CONTINUOUS
 62
     1
 10
175.0
 20
140.0
 30
0.0
 40
10.0
  1
５
 50
0.0
 41
1.0
 51
0.0
  7
KANJI11
  0
TEXT
  8
0
  6
CONTINUOUS
 62
     1
 10
175.0
 20
130.0
 30
0.0
 40
10.0
  1
４
 50
0.0
 41
1.0
 51
0.0
  7
KANJI11
  0
TEXT
  8
0
  6
CONTINUOUS
 62
     1
 10
145.0
 20
110.0
 30
0.0
 40
10.0
  1
９
 50
0.0
 41
1.0
 51
0.0
  7
KANJI11
  0
TEXT
  8
0
  6
CONTINUOUS
 62
     1
 10
175.0
 20
100.0
 30
0.0
 40
10.0
  1
２
 50
0.0
 41
1.0
 51
0.0
  7
KANJI11
  0
TEXT
  8
0
  6
CONTINUOUS
 62
     1
 10
175.0
 20
110.0
 30
0.0
 40
10.0
  1
３
 50
0.0
 41
1.0
 51
0.0
  7
KANJI11
  0
TEXT
  8
0
  6
CONTINUOUS
 62
     1
 10
152.5
 20
97.5
 30
0.0
 40
5.0
  1
１
 50
0.0
 41
1.0
 51
0.0
  7
KANJI12
  0
TEXT
  8
0
  6
CONTINUOUS
 62
     1
 10
157.5
 20
97.5
 30
0.0
 40
5.0
  1
１
 50
0.0
 41
1.0
 51
0.0
  7
KANJI12
  0
TEXT
  8
0
  6
CONTINUOUS
 62
     1
 10
142.5
 20
97.5
 30
0.0
 40
5.0
  1
１
 50
0.0
 41
1.0
 51
0.0
  7
KANJI12
  0
TEXT
  8
0
  6
CONTINUOUS
 62
     1
 10
147.5
 20
97.5
 30
0.0
 40
5.0
  1
０
 50
0.0
 41
1.0
 51
0.0
  7
KANJI12
  0
TEXT
  8
0
  6
CONTINUOUS
 62
     1
 10
165.0
 20
100.0
 30
0.0
 40
10.0
  1
１
 50
0.0
 41
1.0
 51
0.0
  7
KANJI11
  0
LINE
  8
0
  6
CONTINUOUS
 62
     1
 10
145.0
 20
140.0
 11
145.0
 21
150.0
  0
LINE
  8
0
  6
CONTINUOUS
 62
     1
 10
155.0
 20
140.0
 11
155.0
 21
150.0
  0
LINE
  8
0
  6
CONTINUOUS
 62
     1
 10
165.0
 20
140.0
 11
165.0
 21
150.0
  0
LINE
  8
0
  6
CONTINUOUS
 62
     1
 10
175.0
 20
140.0
 11
175.0
 21
150.0
  0
LINE
  8
0
  6
CONTINUOUS
 62
     1
 10
180.0
 20
125.0
 11
190.0
 21
125.0
  0
LINE
  8
0
  6
CONTINUOUS
 62
     1
 10
190.0
 20
125.0
 11
190.0
 21
120.0
  0
POINT
  8
0
  6
CONTINUOUS
 62
     1
 10
190.0
 20
120.0
  0
LINE
  8
0
  6
CONTINUOUS
 62
     1
 10
187.0
 20
120.0
 11
193.0
 21
120.0
  0
LINE
  8
0
  6
CONTINUOUS
 62
     1
 10
188.0
 20
119.0
 11
192.0
 21
119.0
  0
LINE
  8
0
  6
CONTINUOUS
 62
     1
 10
189.0
 20
118.0
 11
191.0
 21
118.0
  0
CIRCLE
  8
0
  6
CONTINUOUS
 62
     1
 10
145.0
 20
151.0
 40
1.0
  0
CIRCLE
  8
0
  6
CONTINUOUS
 62
     1
 10
155.0
 20
151.0
 40
1.0
  0
CIRCLE
  8
0
  6
CONTINUOUS
 62
     1
 10
165.0
 20
151.0
 40
1.0
  0
CIRCLE
  8
0
  6
CONTINUOUS
 62
     1
 10
175.0
 20
151.0
 40
1.0
  0
TEXT
  8
0
  6
CONTINUOUS
 62
     1
 10
185.5
 20
111.0
 30
0.0
 40
6.0
  1
ＧＮＤ
 50
0.0
 41
0.5
 51
0.0
  7
KANJI14
  0
TEXT
  8
0
  6
CONTINUOUS
 62
     1
 10
163.5
 20
158.0
 30
0.0
 40
6.0
  1
Ｉｎｐｕｔ
 50
0.0
 41
0.5
 51
0.0
  7
KANJI14
  0
TEXT
  8
0
  6
CONTINUOUS
 62
     1
 10
139.5
 20
164.0
 30
0.0
 40
6.0
  1
Ｐｏｗｅｒ
 50
0.0
 41
0.5
 51
0.0
  7
KANJI14
  0
TEXT
  8
0
  6
CONTINUOUS
 62
     1
 10
139.5
 20
158.0
 30
0.0
 40
6.0
  1
Ｓｕｐｐｌｙ
 50
0.0
 41
0.5
 51
0.0
  7
KANJI14
  0
LINE
  8
0
  6
CONTINUOUS
 62
     1
 10
175.0
 20
90.0
 11
175.0
 21
80.0
  0
LINE
  8
0
  6
CONTINUOUS
 62
     1
 10
165.0
 20
90.0
 11
165.0
 21
60.0
  0
CIRCLE
  8
0
  6
CONTINUOUS
 62
     1
 10
175.0
 20
79.0
 40
1.0
  0
CIRCLE
  8
0
  6
CONTINUOUS
 62
     1
 10
175.0
 20
71.0
 40
1.0
  0
LINE
  8
0
  6
CONTINUOUS
 62
     1
 10
175.0
 20
70.0
 11
175.0
 21
60.0
  0
LINE
  8
0
  6
CONTINUOUS
 62
     1
 10
175.0
 20
72.0
 11
177.0
 21
79.0
  0
LINE
  8
0
  6
CONTINUOUS
 62
     1
 10
155.0
 20
60.0
 11
155.0
 21
70.0
  0
LINE
  8
0
  6
CONTINUOUS
 62
     1
 10
155.0
 20
90.0
 11
155.0
 21
80.0
  0
LINE
  8
0
  6
CONTINUOUS
 62
     1
 10
145.0
 20
90.0
 11
145.0
 21
80.0
  0
LINE
  8
0
  6
CONTINUOUS
 62
     1
 10
145.0
 20
70.0
 11
145.0
 21
60.0
  0
CIRCLE
  8
0
  6
CONTINUOUS
 62
     1
 10
145.0
 20
79.0
 40
1.0
  0
CIRCLE
  8
0
  6
CONTINUOUS
 62
     1
 10
155.0
 20
79.0
 40
1.0
  0
CIRCLE
  8
0
  6
CONTINUOUS
 62
     1
 10
155.0
 20
71.0
 40
1.0
  0
CIRCLE
  8
0
  6
CONTINUOUS
 62
     1
 10
145.0
 20
71.0
 40
1.0
  0
LINE
  8
0
  6
CONTINUOUS
 62
     1
 10
155.0
 20
72.0
 11
157.0
 21
79.0
  0
LINE
  8
0
  6
CONTINUOUS
 62
     1
 10
145.0
 20
72.0
 11
147.0
 21
79.0
  0
LINE
  8
0
  6
CONTINUOUS
 62
     1
 10
185.0
 20
105.0
 11
185.0
 21
80.0
  0
LINE
  8
0
  6
CONTINUOUS
 62
     1
 10
185.0
 20
60.0
 11
185.0
 21
70.0
  0
CIRCLE
  8
0
  6
CONTINUOUS
 62
     1
 10
185.0
 20
71.0
 40
1.0
  0
CIRCLE
  8
0
  6
CONTINUOUS
 62
     1
 10
185.0
 20
79.0
 40
1.0
  0
LINE
  8
0
  6
CONTINUOUS
 62
     1
 10
185.0
 20
72.0
 11
187.0
 21
79.0
  0
LINE
  8
0
  6
CONTINUOUS
 62
     1
 10
135.0
 20
105.0
 11
135.0
 21
60.0
  0
LINE
  8
0
  6
CONTINUOUS
 62
     1
 10
140.0
 20
105.0
 11
135.0
 21
105.0
  0
LINE
  8
0
  6
CONTINUOUS
 62
     1
 10
135.0
 20
60.0
 11
155.0
 21
60.0
  0
LINE
  8
0
  6
CONTINUOUS
 62
     1
 10
180.0
 20
105.0
 11
185.0
 21
105.0
  0
LINE
  8
0
  6
CONTINUOUS
 62
     1
 10
165.0
 20
60.0
 11
185.0
 21
60.0
  0
TEXT
  8
0
  6
CONTINUOUS
 62
     1
 10
137.0
 20
73.0
 30
0.0
 40
5.0
  1
ＣＨ１
 50
0.0
 41
0.5
 51
0.0
  7
KANJI13
  0
TEXT
  8
0
  6
CONTINUOUS
 62
     1
 10
127.0
 20
73.0
 30
0.0
 40
5.0
  1
ＣＯＭ
 50
0.0
 41
0.5
 51
0.0
  7
KANJI13
  0
TEXT
  8
0
  6
CONTINUOUS
 62
     1
 10
147.0
 20
73.0
 30
0.0
 40
5.0
  1
ＣＨ２
 50
0.0
 41
0.5
 51
0.0
  7
KANJI13
  0
TEXT
  8
0
  6
CONTINUOUS
 62
     1
 10
136.0
 20
48.0
 30
0.0
 40
8.0
  1
４接点設定時
 50
0.0
 41
1.0
 51
0.0
  7
KANJI15
  0
TEXT
  8
0
  6
CONTINUOUS
 62
     1
 10
36.0
 20
48.0
 30
0.0
 40
8.0
  1
２接点設定時
 50
0.0
 41
1.0
 51
0.0
  7
KANJI15
  0
TEXT
  8
0
  6
CONTINUOUS
 62
     1
 10
187.0
 20
73.0
 30
0.0
 40
5.0
  1
ＣＨ４
 50
0.0
 41
0.5
 51
0.0
  7
KANJI13
  0
TEXT
  8
0
  6
CONTINUOUS
 62
     1
 10
177.0
 20
73.0
 30
0.0
 40
5.0
  1
ＣＨ３
 50
0.0
 41
0.5
 51
0.0
  7
KANJI13
  0
TEXT
  8
0
  6
CONTINUOUS
 62
     1
 10
166.0
 20
73.0
 30
0.0
 40
5.0
  1
ＣＯＭ
 50
0.0
 41
0.5
 51
0.0
  7
KANJI13
  0
TEXT
  8
0
  6
CONTINUOUS
 62
     1
 10
275.0
 20
47.0
 30
0.0
 40
6.0
  1
白
 50
0.0
 41
1.0
 51
0.0
  7
KANJI16
  0
TEXT
  8
0
  6
CONTINUOUS
 62
     1
 10
280.0
 20
41.0
 30
0.0
 40
6.0
  1
崎
 50
0.0
 41
1.0
 51
0.0
  7
KANJI16
  0
TEXT
  8
0
  6
CONTINUOUS
 62
     1
 10
40.5
 20
152.0
 30
0.0
 40
6.0
  1
（－）
 50
0.0
 41
0.5
 51
0.0
  7
KANJI14
  0
TEXT
  8
0
  6
CONTINUOUS
 62
     1
 10
50.5
 20
152.0
 30
0.0
 40
6.0
  1
（＋）
 50
0.0
 41
0.5
 51
0.0
  7
KANJI14
  0
TEXT
  8
0
  6
CONTINUOUS
 62
     1
 10
140.5
 20
152.0
 30
0.0
 40
6.0
  1
（－）
 50
0.0
 41
0.5
 51
0.0
  7
KANJI14
  0
TEXT
  8
0
  6
CONTINUOUS
 62
     1
 10
150.5
 20
152.0
 30
0.0
 40
6.0
  1
（＋）
 50
0.0
 41
0.5
 51
0.0
  7
KANJI14
  0
TEXT
  8
0
  6
CONTINUOUS
 62
     1
 10
37.0
 20
152.0
 30
0.0
 40
2.0
  1
１
 50
0.0
 41
0.5
 51
0.0
  7
KANJI17
  0
LINE
  8
0
  6
CONTINUOUS
 62
     1
 10
36.0
 20
152.0
 11
39.0
 21
152.0
  0
LINE
  8
0
  6
CONTINUOUS
 62
     1
 10
36.0
 20
152.0
 11
37.5
 21
155.0
  0
LINE
  8
0
  6
CONTINUOUS
 62
     1
 10
39.0
 20
152.0
 11
37.5
 21
155.0
  0
TEXT
  8
0
  6
CONTINUOUS
 62
     1
 10
137.0
 20
152.0
 30
0.0
 40
2.0
  1
１
 50
0.0
 41
0.5
 51
0.0
  7
KANJI17
  0
LINE
  8
0
  6
CONTINUOUS
 62
     1
 10
136.0
 20
152.0
 11
139.0
 21
152.0
  0
LINE
  8
0
  6
CONTINUOUS
 62
     1
 10
136.0
 20
152.0
 11
137.5
 21
155.0
  0
LINE
  8
0
  6
CONTINUOUS
 62
     1
 10
139.0
 20
152.0
 11
137.5
 21
155.0
  0
TEXT
  8
0
  6
CONTINUOUS
 62
     1
 10
231.0
 20
136.0
 30
0.0
 40
2.0
  1
１
 50
0.0
 41
0.5
 51
0.0
  7
KANJI17
  0
LINE
  8
0
  6
CONTINUOUS
 62
     1
 10
230.0
 20
136.0
 11
233.0
 21
136.0
  0
LINE
  8
0
  6
CONTINUOUS
 62
     1
 10
230.0
 20
136.0
 11
231.5
 21
139.0
  0
LINE
  8
0
  6
CONTINUOUS
 62
     1
 10
233.0
 20
136.0
 11
231.5
 21
139.0
  0
TEXT
  8
0
  6
CONTINUOUS
 62
     1
 10
240.5
 20
138.0
 30
0.0
 40
3.0
  1
２００４
 50
0.0
 41
0.5
 51
0.0
  7
KANJI18
  0
TEXT
  8
0
  6
CONTINUOUS
 62
     1
 10
240.0
 20
135.0
 30
0.0
 40
3.0
  1
１２
 50
0.0
 41
0.5
 51
0.0
  7
KANJI18
  0
TEXT
  8
0
  6
CONTINUOUS
 62
     1
 10
244.0
 20
135.0
 30
0.0
 40
3.0
  1
１５
 50
0.0
 41
0.5
 51
0.0
  7
KANJI18
  0
TEXT
  8
0
  6
CONTINUOUS
 62
     1
 10
248.4
 20
138.1
 30
0.0
 40
3.0
  1
＋及び－極性
 50
0.0
 41
1.0
 51
0.0
  7
KANJI19
  0
TEXT
  8
0
  6
CONTINUOUS
 62
     1
 10
260.4
 20
135.1
 30
0.0
 40
3.0
  1
違い訂正
 50
0.0
 41
1.0
 51
0.0
  7
KANJI19
  0
TEXT
  8
0
  6
CONTINUOUS
 62
     1
 10
63.5
 20
152.0
 30
0.0
 40
6.0
  1
－
 50
0.0
 41
0.5
 51
0.0
  7
KANJI14
  0
TEXT
  8
0
  6
CONTINUOUS
 62
     1
 10
73.5
 20
152.0
 30
0.0
 40
6.0
  1
＋
 50
0.0
 41
0.5
 51
0.0
  7
KANJI14
  0
TEXT
  8
0
  6
CONTINUOUS
 62
     1
 10
163.5
 20
152.0
 30
0.0
 40
6.0
  1
－
 50
0.0
 41
0.5
 51
0.0
  7
KANJI14
  0
TEXT
  8
0
  6
CONTINUOUS
 62
     1
 10
173.5
 20
152.0
 30
0.0
 40
6.0
  1
＋
 50
0.0
 41
0.5
 51
0.0
  7
KANJI14
  0
TEXT
  8
0
  6
CONTINUOUS
 62
     1
 10
79.0
 20
152.0
 30
0.0
 40
2.0
  1
１
 50
0.0
 41
0.5
 51
0.0
  7
KANJI17
  0
LINE
  8
0
  6
CONTINUOUS
 62
     1
 10
78.0
 20
152.0
 11
81.0
 21
152.0
  0
LINE
  8
0
  6
CONTINUOUS
 62
     1
 10
78.0
 20
152.0
 11
79.5
 21
155.0
  0
LINE
  8
0
  6
CONTINUOUS
 62
     1
 10
81.0
 20
152.0
 11
79.5
 21
155.0
  0
TEXT
  8
0
  6
CONTINUOUS
 62
     1
 10
179.0
 20
152.0
 30
0.0
 40
2.0
  1
１
 50
0.0
 41
0.5
 51
0.0
  7
KANJI17
  0
LINE
  8
0
  6
CONTINUOUS
 62
     1
 10
178.0
 20
152.0
 11
181.0
 21
152.0
  0
LINE
  8
0
  6
CONTINUOUS
 62
     1
 10
178.0
 20
152.0
 11
179.5
 21
155.0
  0
LINE
  8
0
  6
CONTINUOUS
 62
     1
 10
181.0
 20
152.0
 11
179.5
 21
155.0
  0
TEXT
  8
0
  6
CONTINUOUS
 62
     1
 10
236.5
 20
136.0
 30
0.0
 40
3.0
  1
４
 50
0.0
 41
0.5
 51
0.0
  7
KANJI18
  0
TEXT
  8
0
  6
CONTINUOUS
 62
     1
 10
40.0
 20
64.0
 30
0.0
 40
5.0
  1
ＣＨ　１
 50
0.0
 41
0.5
 51
0.0
  7
KANJI13
  0
TEXT
  8
0
  6
CONTINUOUS
 62
     1
 10
70.0
 20
64.0
 30
0.0
 40
5.0
  1
ＣＨ　２
 50
0.0
 41
0.5
 51
0.0
  7
KANJI13
  0
LINE
  8
0
  6
CONTINUOUS
 62
     1
 10
49.2
 20
63.6
 11
52.2
 21
63.6
  0
LINE
  8
0
  6
CONTINUOUS
 62
     1
 10
49.2
 20
63.6
 11
50.7
 21
66.6
  0
LINE
  8
0
  6
CONTINUOUS
 62
     1
 10
52.2
 20
63.6
 11
50.7
 21
66.6
  0
TEXT
  8
0
  6
CONTINUOUS
 62
     1
 10
50.2
 20
63.6
 30
0.0
 40
2.0
  1
２
 50
0.0
 41
0.5
 51
0.0
  7
KANJI17
  0
LINE
  8
0
  6
CONTINUOUS
 62
     1
 10
80.6
 20
63.6
 11
83.6
 21
63.6
  0
LINE
  8
0
  6
CONTINUOUS
 62
     1
 10
80.6
 20
63.6
 11
82.1
 21
66.6
  0
LINE
  8
0
  6
CONTINUOUS
 62
     1
 10
83.6
 20
63.6
 11
82.1
 21
66.6
  0
TEXT
  8
0
  6
CONTINUOUS
 62
     1
 10
81.6
 20
63.6
 30
0.0
 40
2.0
  1
２
 50
0.0
 41
0.5
 51
0.0
  7
KANJI17
  0
LINE
  8
0
  6
CONTINUOUS
 62
     1
 10
230.0
 20
142.1
 11
233.0
 21
142.1
  0
LINE
  8
0
  6
CONTINUOUS
 62
     1
 10
230.0
 20
142.1
 11
231.5
 21
145.1
  0
LINE
  8
0
  6
CONTINUOUS
 62
     1
 10
233.0
 20
142.1
 11
231.5
 21
145.1
  0
TEXT
  8
0
  6
CONTINUOUS
 62
     1
 10
283.9
 20
138.2
 30
0.0
 40
3.0
  1
八
 50
0.0
 41
1.0
 51
0.0
  7
KANJI19
  0
TEXT
  8
0
  6
CONTINUOUS
 62
     1
 10
283.9
 20
135.2
 30
0.0
 40
3.0
  1
田
 50
0.0
 41
1.0
 51
0.0
  7
KANJI19
  0
TEXT
  8
0
  6
CONTINUOUS
 62
     1
 10
278.9
 20
138.2
 30
0.0
 40
3.0
  1
田
 50
0.0
 41
1.0
 51
0.0
  7
KANJI19
  0
TEXT
  8
0
  6
CONTINUOUS
 62
     1
 10
278.9
 20
135.2
 30
0.0
 40
3.0
  1
中
 50
0.0
 41
1.0
 51
0.0
  7
KANJI19
  0
TEXT
  8
0
  6
CONTINUOUS
 62
     1
 10
273.9
 20
135.2
 30
0.0
 40
3.0
  1
崎
 50
0.0
 41
1.0
 51
0.0
  7
KANJI19
  0
TEXT
  8
0
  6
CONTINUOUS
 62
     1
 10
273.9
 20
138.2
 30
0.0
 40
3.0
  1
白
 50
0.0
 41
1.0
 51
0.0
  7
KANJI19
  0
TEXT
  8
0
  6
CONTINUOUS
 62
     1
 10
231.0
 20
142.1
 30
0.0
 40
2.0
  1
２
 50
0.0
 41
0.5
 51
0.0
  7
KANJI17
  0
TEXT
  8
0
  6
CONTINUOUS
 62
     1
 10
236.5
 20
142.0
 30
0.0
 40
3.0
  1
２
 50
0.0
 41
0.5
 51
0.0
  7
KANJI18
  0
TEXT
  8
0
  6
CONTINUOUS
 62
     1
 10
240.5
 20
144.0
 30
0.0
 40
3.0
  1
２００５
 50
0.0
 41
0.5
 51
0.0
  7
KANJI18
  0
TEXT
  8
0
  6
CONTINUOUS
 62
     1
 10
239.9
 20
141.0
 30
0.0
 40
3.0
  1
７
 50
0.0
 41
0.5
 51
0.0
  7
KANJI18
  0
TEXT
  8
0
  6
CONTINUOUS
 62
     1
 10
244.0
 20
141.0
 30
0.0
 40
3.0
  1
１４
 50
0.0
 41
0.5
 51
0.0
  7
KANJI18
  0
TEXT
  8
0
  6
CONTINUOUS
 62
     1
 10
248.4
 20
144.0
 30
0.0
 40
3.0
  1
リレー表記訂正
 50
0.0
 41
1.0
 51
0.0
  7
KANJI19
  0
TEXT
  8
0
  6
CONTINUOUS
 62
     4
 10
234.0
 20
18.5
 30
0.0
 40
5.0
  1
ＹＭＳ－１０６０２Ｂ
 50
0.0
 41
1.0
 51
0.0
  7
KANJI20
  0
TEXT
  8
0
  6
CONTINUOUS
 62
     2
 10
245.5
 20
34.577722881
 30
0.4
 40
4.0
  1
２００５．７．１４　　
 50
0.0
 41
0.9
 51
0.0
  7
KANJI21
  0
TEXT
  8
0
  6
CONTINUOUS
 62
     4
 10
63.0
 20
199.5
 30
0.0
 40
5.0
  1
ＹＭＳ－１０６０２Ｂ
 50
180.0
 41
1.0
 51
0.0
  7
KANJI20
  0
ENDSEC
  0
EOF
