  0
SECTION
  2
HEADER
  9
$ACADVER
  1
AC1009
  9
$DWGCODEPAGE
  3
dos932
  9
$EXTMIN
 10
0.0
 20
0.0
 30
0.0
  9
$EXTMAX
 10
297.0
 20
210.0
 30
0.0
  9
$LIMMIN
 10
0.0
 20
0.0
  9
$LIMMAX
 10
297.0
 20
210.0
  9
$LTSCALE
 40
1.0
  9
$PDMODE
 70
     0
  0
ENDSEC
  0
SECTION
  2
TABLES
  0
TABLE
  2
VPORT
 70
     1
  0
VPORT
  2
*ACTIVE
 70
     0
 10
0.0
 20
0.0
 11
1.0
 21
1.0
 12
148.5
 22
105.0
 13
0.0
 23
0.0
 14
10.0
 24
10.0
 15
10.0
 25
10.0
 16
0.0
 26
0.0
 36
1.0
 17
0.0
 27
0.0
 37
0.0
 40
297.0
 41
1.414285714
 42
50.0
 43
0.0
 44
0.0
 50
0.0
 51
0.0
 71
     0
 72
  1000
 73
     1
 74
     3
 75
     0
 76
     0
 77
     0
 78
     0
  0
ENDTAB
  0
TABLE
  2
LTYPE
 70
     3
  0
LTYPE
  2
CONTINUOUS
 70
    64
  3
Solid line
 72
    65
 73
     0
 40
0.0
  0
LTYPE
  2
LTYPE1
 70
    64
  3
CENTER
 72
    65
 73
     4
 40
5.0
 49
3.5
 49
-0.5
 49
0.5
 49
-0.5
  0
LTYPE
  2
LTYPE2
 70
    64
  3
HIDDEN
 72
    65
 73
     2
 40
2.0
 49
1.2
 49
-0.8
  0
ENDTAB
  0
TABLE
  2
LAYER
 70
   128
  0
LAYER
  2
0
 70
     0
 62
     7
  6
CONTINUOUS
  0
LAYER
  2
2
 70
     0
 62
     7
  6
CONTINUOUS
  0
LAYER
  2
3
 70
     0
 62
     7
  6
CONTINUOUS
  0
LAYER
  2
4
 70
     0
 62
     7
  6
CONTINUOUS
  0
LAYER
  2
5
 70
     0
 62
     7
  6
CONTINUOUS
  0
LAYER
  2
6
 70
     0
 62
     7
  6
CONTINUOUS
  0
LAYER
  2
7
 70
     0
 62
     7
  6
CONTINUOUS
  0
LAYER
  2
8
 70
     0
 62
     7
  6
CONTINUOUS
  0
LAYER
  2
9
 70
     0
 62
     7
  6
CONTINUOUS
  0
LAYER
  2
10
 70
     0
 62
     7
  6
CONTINUOUS
  0
LAYER
  2
11
 70
     0
 62
     7
  6
CONTINUOUS
  0
LAYER
  2
12
 70
     0
 62
     7
  6
CONTINUOUS
  0
LAYER
  2
13
 70
     0
 62
     7
  6
CONTINUOUS
  0
LAYER
  2
14
 70
     0
 62
     7
  6
CONTINUOUS
  0
LAYER
  2
15
 70
     0
 62
     7
  6
CONTINUOUS
  0
LAYER
  2
16
 70
     0
 62
     7
  6
CONTINUOUS
  0
LAYER
  2
17
 70
     0
 62
     7
  6
CONTINUOUS
  0
LAYER
  2
18
 70
     0
 62
     7
  6
CONTINUOUS
  0
LAYER
  2
19
 70
     0
 62
     7
  6
CONTINUOUS
  0
LAYER
  2
20
 70
     0
 62
     7
  6
CONTINUOUS
  0
LAYER
  2
21
 70
     0
 62
     7
  6
CONTINUOUS
  0
LAYER
  2
22
 70
     0
 62
     7
  6
CONTINUOUS
  0
LAYER
  2
23
 70
     0
 62
     7
  6
CONTINUOUS
  0
LAYER
  2
24
 70
     0
 62
     7
  6
CONTINUOUS
  0
LAYER
  2
25
 70
     0
 62
     7
  6
CONTINUOUS
  0
LAYER
  2
26
 70
     0
 62
     7
  6
CONTINUOUS
  0
LAYER
  2
27
 70
     0
 62
     7
  6
CONTINUOUS
  0
LAYER
  2
28
 70
     0
 62
     7
  6
CONTINUOUS
  0
LAYER
  2
29
 70
     0
 62
     7
  6
CONTINUOUS
  0
LAYER
  2
30
 70
     0
 62
     7
  6
CONTINUOUS
  0
LAYER
  2
31
 70
     0
 62
     7
  6
CONTINUOUS
  0
LAYER
  2
32
 70
     0
 62
     7
  6
CONTINUOUS
  0
LAYER
  2
33
 70
     0
 62
     7
  6
CONTINUOUS
  0
LAYER
  2
34
 70
     0
 62
     7
  6
CONTINUOUS
  0
LAYER
  2
35
 70
     0
 62
     7
  6
CONTINUOUS
  0
LAYER
  2
36
 70
     0
 62
     7
  6
CONTINUOUS
  0
LAYER
  2
37
 70
     0
 62
     7
  6
CONTINUOUS
  0
LAYER
  2
38
 70
     0
 62
     7
  6
CONTINUOUS
  0
LAYER
  2
39
 70
     0
 62
     7
  6
CONTINUOUS
  0
LAYER
  2
40
 70
     0
 62
     7
  6
CONTINUOUS
  0
LAYER
  2
41
 70
     0
 62
     7
  6
CONTINUOUS
  0
LAYER
  2
42
 70
     0
 62
     7
  6
CONTINUOUS
  0
LAYER
  2
43
 70
     0
 62
     7
  6
CONTINUOUS
  0
LAYER
  2
44
 70
     0
 62
     7
  6
CONTINUOUS
  0
LAYER
  2
45
 70
     0
 62
     7
  6
CONTINUOUS
  0
LAYER
  2
46
 70
     0
 62
     7
  6
CONTINUOUS
  0
LAYER
  2
47
 70
     0
 62
     7
  6
CONTINUOUS
  0
LAYER
  2
48
 70
     0
 62
     7
  6
CONTINUOUS
  0
LAYER
  2
49
 70
     0
 62
     7
  6
CONTINUOUS
  0
LAYER
  2
50
 70
     0
 62
     7
  6
CONTINUOUS
  0
LAYER
  2
51
 70
     0
 62
     7
  6
CONTINUOUS
  0
LAYER
  2
52
 70
     0
 62
     7
  6
CONTINUOUS
  0
LAYER
  2
53
 70
     0
 62
     7
  6
CONTINUOUS
  0
LAYER
  2
54
 70
     0
 62
     7
  6
CONTINUOUS
  0
LAYER
  2
55
 70
     0
 62
     7
  6
CONTINUOUS
  0
LAYER
  2
56
 70
     0
 62
     7
  6
CONTINUOUS
  0
LAYER
  2
57
 70
     0
 62
     7
  6
CONTINUOUS
  0
LAYER
  2
58
 70
     0
 62
     7
  6
CONTINUOUS
  0
LAYER
  2
59
 70
     0
 62
     7
  6
CONTINUOUS
  0
LAYER
  2
60
 70
     0
 62
     7
  6
CONTINUOUS
  0
LAYER
  2
61
 70
     0
 62
     7
  6
CONTINUOUS
  0
LAYER
  2
62
 70
     0
 62
     7
  6
CONTINUOUS
  0
LAYER
  2
63
 70
     0
 62
     7
  6
CONTINUOUS
  0
LAYER
  2
64
 70
     0
 62
     7
  6
CONTINUOUS
  0
LAYER
  2
65
 70
     0
 62
     7
  6
CONTINUOUS
  0
LAYER
  2
66
 70
     0
 62
     7
  6
CONTINUOUS
  0
LAYER
  2
67
 70
     0
 62
     7
  6
CONTINUOUS
  0
LAYER
  2
68
 70
     0
 62
     7
  6
CONTINUOUS
  0
LAYER
  2
69
 70
     0
 62
     7
  6
CONTINUOUS
  0
LAYER
  2
70
 70
     0
 62
     7
  6
CONTINUOUS
  0
LAYER
  2
71
 70
     0
 62
     7
  6
CONTINUOUS
  0
LAYER
  2
72
 70
     0
 62
     7
  6
CONTINUOUS
  0
LAYER
  2
73
 70
     0
 62
     7
  6
CONTINUOUS
  0
LAYER
  2
74
 70
     0
 62
     7
  6
CONTINUOUS
  0
LAYER
  2
75
 70
     0
 62
     7
  6
CONTINUOUS
  0
LAYER
  2
76
 70
     0
 62
     7
  6
CONTINUOUS
  0
LAYER
  2
77
 70
     0
 62
     7
  6
CONTINUOUS
  0
LAYER
  2
78
 70
     0
 62
     7
  6
CONTINUOUS
  0
LAYER
  2
79
 70
     0
 62
     7
  6
CONTINUOUS
  0
LAYER
  2
80
 70
     0
 62
     7
  6
CONTINUOUS
  0
LAYER
  2
81
 70
     0
 62
     7
  6
CONTINUOUS
  0
LAYER
  2
82
 70
     0
 62
     7
  6
CONTINUOUS
  0
LAYER
  2
83
 70
     0
 62
     7
  6
CONTINUOUS
  0
LAYER
  2
84
 70
     0
 62
     7
  6
CONTINUOUS
  0
LAYER
  2
85
 70
     0
 62
     7
  6
CONTINUOUS
  0
LAYER
  2
86
 70
     0
 62
     7
  6
CONTINUOUS
  0
LAYER
  2
87
 70
     0
 62
     7
  6
CONTINUOUS
  0
LAYER
  2
88
 70
     0
 62
     7
  6
CONTINUOUS
  0
LAYER
  2
89
 70
     0
 62
     7
  6
CONTINUOUS
  0
LAYER
  2
90
 70
     0
 62
     7
  6
CONTINUOUS
  0
LAYER
  2
91
 70
     0
 62
     7
  6
CONTINUOUS
  0
LAYER
  2
92
 70
     0
 62
     7
  6
CONTINUOUS
  0
LAYER
  2
93
 70
     0
 62
     7
  6
CONTINUOUS
  0
LAYER
  2
94
 70
     0
 62
     7
  6
CONTINUOUS
  0
LAYER
  2
95
 70
     0
 62
     7
  6
CONTINUOUS
  0
LAYER
  2
96
 70
     0
 62
     7
  6
CONTINUOUS
  0
LAYER
  2
97
 70
     0
 62
     7
  6
CONTINUOUS
  0
LAYER
  2
98
 70
     0
 62
     7
  6
CONTINUOUS
  0
LAYER
  2
99
 70
     0
 62
     7
  6
CONTINUOUS
  0
LAYER
  2
100
 70
     0
 62
     7
  6
CONTINUOUS
  0
LAYER
  2
101
 70
     0
 62
     7
  6
CONTINUOUS
  0
LAYER
  2
102
 70
     0
 62
     7
  6
CONTINUOUS
  0
LAYER
  2
103
 70
     0
 62
     7
  6
CONTINUOUS
  0
LAYER
  2
104
 70
     0
 62
     7
  6
CONTINUOUS
  0
LAYER
  2
105
 70
     0
 62
     7
  6
CONTINUOUS
  0
LAYER
  2
106
 70
     0
 62
     7
  6
CONTINUOUS
  0
LAYER
  2
107
 70
     0
 62
     7
  6
CONTINUOUS
  0
LAYER
  2
108
 70
     0
 62
     7
  6
CONTINUOUS
  0
LAYER
  2
109
 70
     0
 62
     7
  6
CONTINUOUS
  0
LAYER
  2
110
 70
     0
 62
     7
  6
CONTINUOUS
  0
LAYER
  2
111
 70
     0
 62
     7
  6
CONTINUOUS
  0
LAYER
  2
112
 70
     0
 62
     7
  6
CONTINUOUS
  0
LAYER
  2
113
 70
     0
 62
     7
  6
CONTINUOUS
  0
LAYER
  2
114
 70
     0
 62
     7
  6
CONTINUOUS
  0
LAYER
  2
115
 70
     0
 62
     7
  6
CONTINUOUS
  0
LAYER
  2
116
 70
     0
 62
     7
  6
CONTINUOUS
  0
LAYER
  2
117
 70
     0
 62
     7
  6
CONTINUOUS
  0
LAYER
  2
118
 70
     0
 62
     7
  6
CONTINUOUS
  0
LAYER
  2
119
 70
     0
 62
     7
  6
CONTINUOUS
  0
LAYER
  2
120
 70
     0
 62
     7
  6
CONTINUOUS
  0
LAYER
  2
121
 70
     0
 62
     7
  6
CONTINUOUS
  0
LAYER
  2
122
 70
     0
 62
     7
  6
CONTINUOUS
  0
LAYER
  2
123
 70
     0
 62
     7
  6
CONTINUOUS
  0
LAYER
  2
124
 70
     0
 62
     7
  6
CONTINUOUS
  0
LAYER
  2
125
 70
     0
 62
     7
  6
CONTINUOUS
  0
LAYER
  2
126
 70
     0
 62
     7
  6
CONTINUOUS
  0
LAYER
  2
127
 70
     0
 62
     7
  6
CONTINUOUS
  0
LAYER
  2
128
 70
     0
 62
     7
  6
CONTINUOUS
  0
ENDTAB
  0
TABLE
  2
STYLE
 70
    13
  0
STYLE
  2
STANDARD
 70
     0
 40
0.0
 41
1.0
 50
0.0
 71
     0
 42
0.2
  3
txt.shx
  4
extfont.shx
  0
STYLE
  2
KANJI0
 70
     0
 40
4.0
 41
0.9
 50
0.0
 71
     0
 42
4.0
  3
txt.shx
  4
extfont.shx
  0
STYLE
  2
KANJI1
 70
     0
 40
3.0
 41
0.9
 50
0.0
 71
     0
 42
3.0
  3
txt.shx
  4
extfont.shx
  0
STYLE
  2
KANJI2
 70
     0
 40
2.5
 41
1.0
 50
0.0
 71
     0
 42
2.5
  3
txt.shx
  4
extfont.shx
  0
STYLE
  2
KANJI3
 70
     0
 40
3.0
 41
0.45
 50
0.0
 71
     0
 42
3.0
  3
txt.shx
  4
extfont.shx
  0
STYLE
  2
KANJI4
 70
     4
 40
4.0
 41
0.9
 50
0.0
 71
     0
 42
4.0
  3
txt.shx
  4
extfont.shx
  0
STYLE
  2
KANJI5
 70
     0
 40
3.0
 41
0.9
 50
0.0
 71
     0
 42
3.0
  3
txt.shx
  4
extfont.shx
  0
STYLE
  2
KANJI6
 70
     0
 40
2.0
 41
0.9
 50
0.0
 71
     0
 42
2.0
  3
txt.shx
  4
extfont.shx
  0
STYLE
  2
KANJI7
 70
     0
 40
3.0
 41
0.9
 50
0.0
 71
     0
 42
3.0
  3
txt.shx
  4
extfont.shx
  0
STYLE
  2
KANJI8
 70
     0
 40
2.0
 41
0.75
 50
0.0
 71
     0
 42
2.0
  3
txt.shx
  4
extfont.shx
  0
STYLE
  2
KANJI9
 70
     0
 40
4.0
 41
0.75
 50
0.0
 71
     0
 42
4.0
  3
txt.shx
  4
extfont.shx
  0
STYLE
  2
KANJI10
 70
     0
 40
5.8
 41
0.827586207
 50
0.0
 71
     0
 42
5.8
  3
txt.shx
  4
extfont.shx
  0
STYLE
  2
KANJI11
 70
     0
 40
4.0
 41
0.9
 50
0.0
 71
     0
 42
4.0
  3
txt.shx
  4
extfont.shx
  0
ENDTAB
  0
TABLE
  2
VIEW
 70
     0
  0
ENDTAB
  0
ENDSEC
  0
SECTION
  2
BLOCKS
  0
ENDSEC
  0
SECTION
  2
ENTITIES
  0
LINE
  8
0
  6
CONTINUOUS
 62
     2
 10
163.0
 20
173.0
 30
0.0
 11
223.0
 21
173.0
 31
0.0
  0
LINE
  8
0
  6
CONTINUOUS
 62
     2
 10
198.0
 20
168.0
 30
0.0
 11
223.0
 21
168.0
 31
0.0
  0
LINE
  8
0
  6
CONTINUOUS
 62
     2
 10
163.0
 20
179.0
 30
0.0
 11
223.0
 21
179.0
 31
0.0
  0
LINE
  8
0
  6
CONTINUOUS
 62
     2
 10
163.0
 20
185.0
 30
0.0
 11
223.0
 21
185.0
 31
0.0
  0
TEXT
  8
0
  6
CONTINUOUS
 62
     2
 10
199.0
 20
173.9
 30
0.4
 40
4.0
  1
屋内用乾式
 50
0.0
 41
0.9
 51
0.0
  7
KANJI0
  0
LINE
  8
0
  6
CONTINUOUS
 62
     2
 10
195.5
 20
173.0
 30
0.0
 11
195.5
 21
179.0
 31
0.0
  0
POINT
  8
2
  6
CONTINUOUS
 62
     2
 10
73.333333333
 20
30.0
 30
0.0
  0
LINE
  8
0
  6
CONTINUOUS
 62
     2
 10
36.667
 20
30.0
 30
0.0
 11
38.598851653
 21
30.51763809
 31
0.0
  0
LINE
  8
0
  6
CONTINUOUS
 62
     2
 10
36.667
 20
30.0
 30
0.0
 11
38.598851653
 21
29.48236191
 31
0.0
  0
LINE
  8
0
  6
CONTINUOUS
 62
     2
 10
36.667
 20
30.0
 30
0.0
 11
73.333333333
 21
30.0
 31
0.0
  0
LINE
  8
0
  6
CONTINUOUS
 62
     2
 10
73.333
 20
30.0
 30
0.0
 11
71.401148347
 21
30.51763809
 31
0.0
  0
LINE
  8
0
  6
CONTINUOUS
 62
     2
 10
73.333
 20
30.0
 30
0.0
 11
71.401148347
 21
29.48236191
 31
0.0
  0
TEXT
  8
0
  6
CONTINUOUS
 62
     2
 10
50.653
 20
30.333333333
 30
0.3
 40
3.0
  1
１１０
 50
0.0
 41
0.9
 51
0.0
  7
KANJI1
  0
LINE
  8
0
  6
CONTINUOUS
 62
     2
 10
77.0
 20
41.0
 30
0.0
 11
77.0
 21
40.0
 31
0.0
  0
POINT
  8
2
  6
CONTINUOUS
 62
     2
 10
77.0
 20
25.0
 30
0.0
  0
LINE
  8
0
  6
CONTINUOUS
 62
     2
 10
77.000333333
 20
25.0
 30
0.0
 11
75.068481681
 21
25.51763809
 31
0.0
  0
LINE
  8
0
  6
CONTINUOUS
 62
     2
 10
77.000333333
 20
25.0
 30
0.0
 11
75.068481681
 21
24.48236191
 31
0.0
  0
LINE
  8
0
  6
CONTINUOUS
 62
     2
 10
33.0
 20
25.0
 30
0.0
 11
34.931851653
 21
25.51763809
 31
0.0
  0
LINE
  8
0
  6
CONTINUOUS
 62
     2
 10
33.0
 20
25.0
 30
0.0
 11
34.931851653
 21
24.48236191
 31
0.0
  0
LINE
  8
0
  6
CONTINUOUS
 62
     2
 10
33.0
 20
25.0
 30
0.0
 11
77.0
 21
25.0
 31
0.0
  0
LINE
  8
0
  6
CONTINUOUS
 62
     2
 10
33.0
 20
41.0
 30
0.0
 11
33.0
 21
40.0
 31
0.0
  0
TEXT
  8
0
  6
CONTINUOUS
 62
     2
 10
50.653
 20
25.333333333
 30
0.3
 40
3.0
  1
１３２
 50
0.0
 41
0.9
 51
0.0
  7
KANJI1
  0
LINE
  8
0
  6
CONTINUOUS
 62
     2
 10
73.0
 20
99.0
 30
0.0
 11
72.399993896
 21
100.0
 31
0.0
  0
LINE
  8
0
  6
CONTINUOUS
 62
     2
 10
67.599990845
 20
100.0
 30
0.0
 11
67.0
 21
99.0
 31
0.0
  0
LINE
  8
0
  6
CONTINUOUS
 62
     2
 10
37.5
 20
100.000003815
 30
0.0
 11
42.500003815
 21
99.999996185
 31
0.0
  0
LINE
  8
0
  6
CONTINUOUS
 62
     2
 10
37.0
 20
99.0
 30
0.0
 11
37.5
 21
99.999996185
 31
0.0
  0
LINE
  8
0
  6
CONTINUOUS
 62
     2
 10
42.500003815
 20
99.999996185
 30
0.0
 11
43.000003815
 21
99.0
 31
0.0
  0
ARC
  8
0
  6
CONTINUOUS
 62
     2
 10
29.833
 20
97.499998651
 30
0.0
 40
1.5
 50
90.0
 51
270.0
  0
ARC
  8
0
  6
CONTINUOUS
 62
     2
 10
80.166666667
 20
97.499998093
 30
0.0
 40
1.5
 50
270.0
 51
90.0
  0
LINE
  8
0
  6
CONTINUOUS
 62
     2
 10
29.833
 20
95.999998651
 30
0.0
 11
80.166666667
 21
95.999998093
 31
0.0
  0
LINE
  8
0
  6
CONTINUOUS
 62
     2
 10
29.833
 20
98.999998651
 30
0.0
 11
80.166666667
 21
98.999998093
 31
0.0
  0
LINE
  8
0
  6
CONTINUOUS
 62
     2
 10
28.333
 20
112.000005503
 30
0.0
 11
28.333
 21
97.5
 31
0.0
  0
ARC
  8
0
  6
CONTINUOUS
 62
     2
 10
31.333
 20
112.000005503
 30
0.0
 40
3.0
 50
89.999986677
 51
180.0
  0
LINE
  8
0
  6
CONTINUOUS
 62
     2
 10
81.666666667
 20
111.999994497
 30
0.0
 11
81.666666667
 21
97.5
 31
0.0
  0
LINE
  8
0
  6
CONTINUOUS
 62
     2
 10
78.666667364
 20
114.999994497
 30
0.0
 11
31.333000698
 21
115.000005503
 31
0.0
  0
ARC
  8
0
  6
CONTINUOUS
 62
     2
 10
78.666666667
 20
111.999994497
 30
0.0
 40
3.0
 50
0.0
 51
89.999986677
  0
LINE
  8
0
  6
CONTINUOUS
 62
     2
 10
52.0
 20
86.399998372
 30
0.0
 11
58.0
 21
86.399998372
 31
0.0
  0
LINE
  8
0
  6
CONTINUOUS
 62
     2
 10
52.0
 20
85.399998372
 30
0.0
 11
46.0
 21
85.399998372
 31
0.0
  0
LINE
  8
0
  6
CONTINUOUS
 62
     2
 10
58.0
 20
85.399998372
 30
0.0
 11
64.0
 21
85.399998372
 31
0.0
  0
LINE
  8
0
  6
CONTINUOUS
 62
     2
 10
34.600000051
 20
91.399998598
 30
0.0
 11
30.0
 21
95.999998649
 31
0.0
  0
LINE
  8
0
  6
CONTINUOUS
 62
     2
 10
75.399999496
 20
91.399998146
 30
0.0
 11
80.0
 21
95.999998649
 31
0.0
  0
LINE
  8
0
  6
CONTINUOUS
 62
     2
 10
34.600000051
 20
91.399998598
 30
0.0
 11
75.399999496
 21
91.399998146
 31
0.0
  0
LINE
  8
0
  6
CONTINUOUS
 62
     2
 10
43.0
 20
87.399998527
 30
0.0
 11
46.0
 21
87.399998527
 31
0.0
  0
ARC
  8
0
  6
CONTINUOUS
 62
     2
 10
43.0
 20
85.399998527
 30
0.0
 40
2.0
 50
90.0
 51
180.0
  0
LINE
  8
0
  6
CONTINUOUS
 62
     2
 10
64.0
 20
87.399998527
 30
0.0
 11
67.0
 21
87.399998527
 31
0.0
  0
ARC
  8
0
  6
CONTINUOUS
 62
     2
 10
67.0
 20
85.399998527
 30
0.0
 40
2.0
 50
0.0
 51
90.0
  0
ARC
  8
0
  6
CONTINUOUS
 62
     2
 10
65.5
 20
41.5
 30
0.0
 40
0.5
 50
90.0
 51
270.0
  0
LINE
  8
0
  6
CONTINUOUS
 62
     2
 10
77.0
 20
41.0
 30
0.0
 11
65.5
 21
41.0
 31
0.0
  0
LINE
  8
0
  6
CONTINUOUS
 62
     2
 10
69.0
 20
85.399998527
 30
0.0
 11
69.0
 21
45.0
 31
0.0
  0
LINE
  8
0
  6
CONTINUOUS
 62
     2
 10
66.0
 20
42.0
 30
0.0
 11
65.5
 21
42.0
 31
0.0
  0
ARC
  8
0
  6
CONTINUOUS
 62
     2
 10
66.0
 20
45.0
 30
0.0
 40
3.0
 50
270.0
 51
0.0
  0
ARC
  8
0
  6
CONTINUOUS
 62
     2
 10
44.5
 20
41.5
 30
0.0
 40
0.5
 50
270.0
 51
90.0
  0
LINE
  8
0
  6
CONTINUOUS
 62
     2
 10
44.0
 20
42.0
 30
0.0
 11
44.5
 21
42.0
 31
0.0
  0
ARC
  8
0
  6
CONTINUOUS
 62
     2
 10
44.0
 20
45.0
 30
0.0
 40
3.0
 50
180.0
 51
270.0
  0
LINE
  8
0
  6
CONTINUOUS
 62
     2
 10
44.5
 20
41.0
 30
0.0
 11
33.0
 21
41.0
 31
0.0
  0
LINE
  8
0
  6
CONTINUOUS
 62
     2
 10
41.0
 20
45.0
 30
0.0
 11
41.0
 21
85.399998527
 31
0.0
  0
LINE
  8
0
  6
CONTINUOUS
 62
     2
 10
33.0
 20
40.0
 30
0.0
 11
46.0
 21
40.0
 31
0.0
  0
LINE
  8
0
  6
CONTINUOUS
 62
     2
 10
64.0
 20
40.0
 30
0.0
 11
77.0
 21
40.0
 31
0.0
  0
LINE
  8
0
  6
CONTINUOUS
 62
     2
 10
46.0
 20
42.5
 30
0.0
 11
64.0
 21
42.5
 31
0.0
  0
LINE
  8
0
  6
CONTINUOUS
 62
     2
 10
52.0
 20
43.5
 30
0.0
 11
58.0
 21
43.5
 31
0.0
  0
ARC
  8
0
  6
CONTINUOUS
 62
     2
 10
52.0
 20
44.5
 30
0.0
 40
1.0
 50
90.0
 51
270.0
  0
ARC
  8
0
  6
CONTINUOUS
 62
     2
 10
58.0
 20
44.5
 30
0.0
 40
1.0
 50
270.0
 51
90.0
  0
LINE
  8
0
  6
CONTINUOUS
 62
     2
 10
59.0
 20
44.5
 30
0.0
 11
64.0
 21
44.5
 31
0.0
  0
LINE
  8
0
  6
CONTINUOUS
 62
     2
 10
46.0
 20
44.5
 30
0.0
 11
51.0
 21
44.5
 31
0.0
  0
LINE
  8
0
  6
CONTINUOUS
 62
     2
 10
66.0
 20
78.899998372
 30
0.0
 11
66.0
 21
70.899998372
 31
0.0
  0
LINE
  8
0
  6
CONTINUOUS
 62
     2
 10
44.0
 20
70.899998372
 30
0.0
 11
44.0
 21
78.899998372
 31
0.0
  0
LINE
  8
0
  6
CONTINUOUS
 62
     2
 10
66.0
 20
70.899998372
 30
0.0
 11
44.0
 21
70.899998372
 31
0.0
  0
LINE
  8
0
  6
CONTINUOUS
 62
     2
 10
44.0
 20
78.899998372
 30
0.0
 11
66.0
 21
78.899998372
 31
0.0
  0
TEXT
  8
3
  6
CONTINUOUS
 62
     2
 10
51.517
 20
73.378998372
 30
0.0
 40
2.5
  1
Ｎ．Ｐ
 50
0.0
 41
1.0
 51
0.0
  7
KANJI2
  0
LINE
  8
0
  6
CONTINUOUS
 62
     2
 10
46.0
 20
70.899998372
 30
0.0
 11
46.0
 21
40.0
 31
0.0
  0
LINE
  8
0
  6
CONTINUOUS
 62
     2
 10
46.0
 20
87.399998527
 30
0.0
 11
46.0
 21
78.899998372
 31
0.0
  0
LINE
  8
0
  6
CONTINUOUS
 62
     2
 10
52.0
 20
78.899998372
 30
0.0
 11
52.0
 21
86.399998372
 31
0.0
  0
LINE
  8
0
  6
CONTINUOUS
 62
     2
 10
52.0
 20
43.5
 30
0.0
 11
52.0
 21
70.899998372
 31
0.0
  0
LINE
  8
0
  6
CONTINUOUS
 62
     2
 10
58.0
 20
70.899998372
 30
0.0
 11
58.0
 21
43.5
 31
0.0
  0
LINE
  8
0
  6
CONTINUOUS
 62
     2
 10
58.0
 20
86.399998372
 30
0.0
 11
58.0
 21
78.899998372
 31
0.0
  0
LINE
  8
0
  6
CONTINUOUS
 62
     2
 10
64.0
 20
70.899998372
 30
0.0
 11
64.0
 21
40.0
 31
0.0
  0
LINE
  8
0
  6
CONTINUOUS
 62
     2
 10
64.0
 20
87.399998527
 30
0.0
 11
64.0
 21
78.899998372
 31
0.0
  0
ARC
  8
0
  6
CONTINUOUS
 62
     2
 10
68.0
 20
68.958260743
 30
0.0
 40
12.0
 50
274.780191847
 51
0.0
  0
ARC
  8
0
  6
CONTINUOUS
 62
     2
 10
42.0
 20
68.958260743
 30
0.0
 40
12.0
 50
180.0
 51
265.219808153
  0
LINE
  8
0
  6
CONTINUOUS
 62
     2
 10
30.0
 20
68.958260743
 30
0.0
 11
30.0
 21
95.999998649
 31
0.0
  0
LINE
  8
0
  6
CONTINUOUS
 62
     2
 10
80.0
 20
68.958260743
 30
0.0
 11
80.0
 21
95.999998095
 31
0.0
  0
POLYLINE
  8
0
  6
CONTINUOUS
 62
     2
 66
     1
  0
VERTEX
  8
0
  6
CONTINUOUS
 62
     2
 10
37.928571429
 20
74.160689296
 30
0.0
  0
VERTEX
  8
0
  6
CONTINUOUS
 62
     2
 10
38.142857143
 20
74.160689296
 30
0.0
  0
VERTEX
  8
0
  6
CONTINUOUS
 62
     2
 10
38.142857143
 20
72.660689296
 30
0.0
  0
VERTEX
  8
0
  6
CONTINUOUS
 62
     2
 10
38.357142857
 20
72.160689296
 30
0.0
  0
VERTEX
  8
0
  6
CONTINUOUS
 62
     2
 10
39.214285714
 20
72.160689296
 30
0.0
  0
VERTEX
  8
0
  6
CONTINUOUS
 62
     2
 10
39.428571429
 20
72.410689296
 30
0.0
  0
VERTEX
  8
0
  6
CONTINUOUS
 62
     2
 10
39.428571429
 20
74.160689296
 30
0.0
  0
SEQEND
  0
LINE
  8
0
  6
CONTINUOUS
 62
     2
 10
39.428571429
 20
72.410689296
 30
0.0
 11
39.642857143
 21
72.160689296
 31
0.0
  0
LINE
  8
0
  6
CONTINUOUS
 62
     2
 10
39.642857143
 20
72.160689296
 30
0.0
 11
39.857142857
 21
72.160689296
 31
0.0
  0
LINE
  8
0
  6
CONTINUOUS
 62
     2
 10
39.857142857
 20
72.160689296
 30
0.0
 11
40.071428571
 21
72.410689296
 31
0.0
  0
POLYLINE
  8
0
  6
CONTINUOUS
 62
     2
 66
     1
  0
VERTEX
  8
0
  6
CONTINUOUS
 62
     2
 10
69.928571429
 20
74.160689296
 30
0.0
  0
VERTEX
  8
0
  6
CONTINUOUS
 62
     2
 10
70.142857143
 20
74.160689296
 30
0.0
  0
VERTEX
  8
0
  6
CONTINUOUS
 62
     2
 10
70.142857143
 20
72.910689296
 30
0.0
  0
VERTEX
  8
0
  6
CONTINUOUS
 62
     2
 10
70.357142857
 20
72.410689296
 30
0.0
  0
VERTEX
  8
0
  6
CONTINUOUS
 62
     2
 10
70.571428571
 20
72.160689296
 30
0.0
  0
VERTEX
  8
0
  6
CONTINUOUS
 62
     2
 10
71.0
 20
72.160689296
 30
0.0
  0
VERTEX
  8
0
  6
CONTINUOUS
 62
     2
 10
71.214285714
 20
72.410689296
 30
0.0
  0
VERTEX
  8
0
  6
CONTINUOUS
 62
     2
 10
71.428571429
 20
72.910689296
 30
0.0
  0
VERTEX
  8
0
  6
CONTINUOUS
 62
     2
 10
71.428571429
 20
74.160689296
 30
0.0
  0
VERTEX
  8
0
  6
CONTINUOUS
 62
     2
 10
71.857142857
 20
74.160689296
 30
0.0
  0
SEQEND
  0
LINE
  8
0
  6
LTYPE1
 62
     2
 10
40.0
 20
71.0
 30
0.0
 11
40.0
 21
62.0
 31
0.0
  0
LINE
  8
0
  6
LTYPE1
 62
     2
 10
70.0
 20
71.0
 30
0.0
 11
70.0
 21
62.0
 31
0.0
  0
LINE
  8
0
  6
LTYPE1
 62
     2
 10
74.5
 20
66.5
 30
0.0
 11
65.5
 21
66.5
 31
0.0
  0
ARC
  8
0
  6
CONTINUOUS
 62
     2
 10
70.0
 20
66.5
 30
0.0
 40
3.0
 50
250.528779365
 51
109.471220635
  0
LINE
  8
0
  6
CONTINUOUS
 62
     2
 10
36.667
 20
39.0
 30
0.0
 11
36.667
 21
29.0
 31
0.0
  0
LINE
  8
0
  6
CONTINUOUS
 62
     2
 10
73.333333333
 20
39.0
 30
0.0
 11
73.333333333
 21
29.0
 31
0.0
  0
LINE
  8
0
  6
CONTINUOUS
 62
     2
 10
77.0
 20
39.0
 30
0.0
 11
77.0
 21
24.0
 31
0.0
  0
LINE
  8
0
  6
CONTINUOUS
 62
     2
 10
33.0
 20
39.0
 30
0.0
 11
33.0
 21
24.0
 31
0.0
  0
LINE
  8
0
  6
CONTINUOUS
 62
     2
 10
28.333
 20
150.0
 30
0.0
 11
28.333
 21
149.934234619
 31
0.0
  0
LINE
  8
0
  6
CONTINUOUS
 62
     2
 10
28.333
 20
183.483001709
 30
0.0
 11
30.264851653
 21
184.000639799
 31
0.0
  0
LINE
  8
0
  6
CONTINUOUS
 62
     2
 10
28.333
 20
183.483001709
 30
0.0
 11
30.264851653
 21
182.965363619
 31
0.0
  0
LINE
  8
0
  6
CONTINUOUS
 62
     2
 10
81.666666667
 20
183.483001709
 30
0.0
 11
79.734815014
 21
184.000639799
 31
0.0
  0
LINE
  8
0
  6
CONTINUOUS
 62
     2
 10
81.666666667
 20
183.483001709
 30
0.0
 11
79.734815014
 21
182.965363619
 31
0.0
  0
LINE
  8
0
  6
CONTINUOUS
 62
     2
 10
28.333
 20
183.483001709
 30
0.0
 11
81.666666667
 21
183.483001709
 31
0.0
  0
LINE
  8
0
  6
CONTINUOUS
 62
     2
 10
28.333
 20
177.666666667
 30
0.0
 11
28.333
 21
185.483001709
 31
0.0
  0
LINE
  8
0
  6
CONTINUOUS
 62
     2
 10
81.667648376
 20
177.666666667
 30
0.0
 11
81.666666667
 21
185.483001709
 31
0.0
  0
LINE
  8
0
  6
CONTINUOUS
 62
     2
 10
18.333
 20
176.666666667
 30
0.0
 11
17.81536191
 21
174.734815014
 31
0.0
  0
LINE
  8
0
  6
CONTINUOUS
 62
     2
 10
18.333
 20
176.666666667
 30
0.0
 11
18.85063809
 21
174.734815014
 31
0.0
  0
LINE
  8
0
  6
CONTINUOUS
 62
     2
 10
18.333
 20
123.333
 30
0.0
 11
17.81536191
 21
125.264851653
 31
0.0
  0
LINE
  8
0
  6
CONTINUOUS
 62
     2
 10
18.333
 20
123.333
 30
0.0
 11
18.85063809
 21
125.264851653
 31
0.0
  0
LINE
  8
0
  6
CONTINUOUS
 62
     2
 10
18.333
 20
176.666666667
 30
0.0
 11
18.333
 21
123.333
 31
0.0
  0
LINE
  8
0
  6
CONTINUOUS
 62
     2
 10
27.333
 20
176.66667947
 30
0.0
 11
16.333
 21
176.666666667
 31
0.0
  0
LINE
  8
0
  6
CONTINUOUS
 62
     2
 10
27.333
 20
123.333
 30
0.0
 11
16.333
 21
123.333
 31
0.0
  0
LINE
  8
0
  6
CONTINUOUS
 62
     2
 10
81.666666667
 20
150.0
 30
0.0
 11
80.017253405
 21
172.039812676
 31
0.0
  0
ARC
  8
0
  6
CONTINUOUS
 62
     2
 10
75.031196641
 20
171.666666667
 30
0.0
 40
5.0
 50
4.279917431
 51
90.0
  0
LINE
  8
0
  6
CONTINUOUS
 62
     2
 10
81.666666667
 20
150.0
 30
0.0
 11
80.017249424
 21
127.959858629
 31
0.0
  0
ARC
  8
0
  6
CONTINUOUS
 62
     2
 10
75.031192313
 20
128.333
 30
0.0
 40
5.0
 50
270.0
 51
355.720135869
  0
LINE
  8
0
  6
CONTINUOUS
 62
     2
 10
28.333333333
 20
150.0
 30
0.0
 11
29.982746595
 21
172.039812676
 31
0.0
  0
ARC
  8
0
  6
CONTINUOUS
 62
     2
 10
34.968803359
 20
171.666666667
 30
0.0
 40
5.0
 50
90.0
 51
175.720082569
  0
LINE
  8
0
  6
CONTINUOUS
 62
     2
 10
28.333333333
 20
150.0
 30
0.0
 11
29.982750576
 21
127.959858629
 31
0.0
  0
ARC
  8
0
  6
CONTINUOUS
 62
     2
 10
34.968807687
 20
128.333
 30
0.0
 40
5.0
 50
184.279864131
 51
270.0
  0
LINE
  8
0
  6
CONTINUOUS
 62
     2
 10
34.968803359
 20
176.666666667
 30
0.0
 11
75.031196641
 21
176.666666667
 31
0.0
  0
LINE
  8
0
  6
CONTINUOUS
 62
     2
 10
75.031192313
 20
123.333
 30
0.0
 11
34.968807687
 21
123.333
 31
0.0
  0
TEXT
  8
0
  6
CONTINUOUS
 62
     2
 10
50.653
 20
183.816335042
 30
0.3
 40
3.0
  1
１６０
 50
0.0
 41
0.9
 51
0.0
  7
KANJI1
  0
LINE
  8
0
  6
CONTINUOUS
 62
     2
 10
18.333
 20
40.0
 30
0.0
 11
17.81536191
 21
41.931851653
 31
0.0
  0
LINE
  8
0
  6
CONTINUOUS
 62
     2
 10
18.333
 20
40.0
 30
0.0
 11
18.85063809
 21
41.931851653
 31
0.0
  0
LINE
  8
0
  6
CONTINUOUS
 62
     2
 10
32.0
 20
40.0
 30
0.0
 11
17.333
 21
40.0
 31
0.0
  0
LINE
  8
0
  6
CONTINUOUS
 62
     2
 10
18.333
 20
115.0
 30
0.0
 11
17.81536191
 21
113.068148347
 31
0.0
  0
LINE
  8
0
  6
CONTINUOUS
 62
     2
 10
18.333
 20
115.0
 30
0.0
 11
18.85063809
 21
113.068148347
 31
0.0
  0
LINE
  8
0
  6
CONTINUOUS
 62
     2
 10
28.333
 20
115.0
 30
0.0
 11
17.333
 21
115.0
 31
0.0
  0
LINE
  8
0
  6
CONTINUOUS
 62
     2
 10
18.333
 20
115.0
 30
0.0
 11
18.333
 21
40.0
 31
0.0
  0
TEXT
  8
0
  6
CONTINUOUS
 62
     2
 10
17.669666667
 20
72.427
 30
0.3
 40
3.0
  1
２２５
 50
90.0
 41
0.9
 51
0.0
  7
KANJI1
  0
TEXT
  8
0
  6
CONTINUOUS
 62
     2
 10
17.586852275
 20
145.790001628
 30
0.3
 40
3.0
  1
１６０
 50
90.0
 41
0.9
 51
0.0
  7
KANJI1
  0
LINE
  8
0
  6
CONTINUOUS
 62
     2
 10
163.0
 20
131.0
 30
0.0
 11
223.0
 21
131.0
 31
0.0
  0
LINE
  8
0
  6
CONTINUOUS
 62
     2
 10
223.0
 20
133.0
 30
0.0
 11
163.0
 21
133.0
 31
0.0
  0
LINE
  8
0
  6
CONTINUOUS
 62
     2
 10
163.0
 20
148.0
 30
0.0
 11
223.0
 21
148.0
 31
0.0
  0
LINE
  8
0
  6
CONTINUOUS
 62
     2
 10
163.0
 20
143.0
 30
0.0
 11
223.0
 21
143.0
 31
0.0
  0
LINE
  8
0
  6
CONTINUOUS
 62
     2
 10
163.0
 20
138.0
 30
0.0
 11
223.0
 21
138.0
 31
0.0
  0
LINE
  8
0
  6
CONTINUOUS
 62
     2
 10
178.0
 20
143.0
 30
0.0
 11
178.0
 21
133.0
 31
0.0
  0
LINE
  8
0
  6
CONTINUOUS
 62
     2
 10
203.0
 20
133.0
 30
0.0
 11
203.0
 21
143.0
 31
0.0
  0
LINE
  8
0
  6
CONTINUOUS
 62
     2
 10
213.0
 20
143.0
 30
0.0
 11
213.0
 21
138.0
 31
0.0
  0
TEXT
  8
0
  6
CONTINUOUS
 62
     2
 10
180.0
 20
139.0
 30
0.3
 40
3.0
  1
ＪＩＳ－Ｃ－１７３１
 50
0.0
 41
0.45
 51
0.0
  7
KANJI3
  0
LINE
  8
0
  6
CONTINUOUS
 62
     2
 10
198.0
 20
143.0
 30
0.0
 11
198.0
 21
173.0
 31
0.0
  0
LINE
  8
0
  6
CONTINUOUS
 62
     2
 10
173.0
 20
173.0
 30
0.0
 11
173.0
 21
148.0
 31
0.0
  0
LINE
  8
0
  6
CONTINUOUS
 62
     2
 10
173.0
 20
153.0
 30
0.0
 11
223.0
 21
153.0
 31
0.0
  0
LINE
  8
0
  6
CONTINUOUS
 62
     2
 10
173.0
 20
158.0
 30
0.0
 11
223.0
 21
158.0
 31
0.0
  0
LINE
  8
0
  6
CONTINUOUS
 62
     2
 10
173.0
 20
163.0
 30
0.0
 11
223.0
 21
163.0
 31
0.0
  0
LINE
  8
0
  6
CONTINUOUS
 62
     2
 10
163.0
 20
133.0
 30
0.0
 11
163.0
 21
185.0
 31
0.0
  0
LINE
  8
0
  6
CONTINUOUS
 62
     2
 10
223.0
 20
185.0
 30
0.0
 11
223.0
 21
133.0
 31
0.0
  0
TEXT
  8
0
  6
CONTINUOUS
 62
     2
 10
167.8
 20
171.0
 30
1.0
 40
4.0
  1
定　格
 50
0.0
 41
0.9
 51
0.0
  7
KANJI4
  0
TEXT
  8
0
  6
CONTINUOUS
 62
     2
 10
180.0
 20
159.0
 30
0.3
 40
3.0
  1
二次電圧
 50
0.0
 41
0.9
 51
0.0
  7
KANJI5
  0
TEXT
  8
0
  6
CONTINUOUS
 62
     2
 10
180.0
 20
149.0
 30
0.3
 40
3.0
  1
負　　担
 50
0.0
 41
0.9
 51
0.0
  7
KANJI5
  0
TEXT
  8
0
  6
CONTINUOUS
 62
     2
 10
180.0
 20
154.0
 30
0.3
 40
3.0
  1
周　波　数
 50
0.0
 41
0.9
 51
0.0
  7
KANJI5
  0
TEXT
  8
0
  6
CONTINUOUS
 62
     2
 10
206.0
 20
154.0
 30
0.3
 40
3.0
  1
５０／６０Ｈｚ
 50
0.0
 41
0.45
 51
0.0
  7
KANJI3
  0
TEXT
  8
0
  6
CONTINUOUS
 62
     2
 10
206.0
 20
159.0
 30
0.3
 40
3.0
  1
１１０Ｖ
 50
0.0
 41
0.45
 51
0.0
  7
KANJI3
  0
TEXT
  8
0
  6
CONTINUOUS
 62
     2
 10
166.5
 20
139.0
 30
0.3
 40
3.0
  1
規　格
 50
0.0
 41
0.9
 51
0.0
  7
KANJI5
  0
TEXT
  8
0
  6
CONTINUOUS
 62
     2
 10
204.0
 20
139.0
 30
0.3
 40
3.0
  1
階　級
 50
0.0
 41
0.9
 51
0.0
  7
KANJI5
  0
TEXT
  8
0
  6
CONTINUOUS
 62
     2
 10
207.0
 20
134.0
 30
0.3
 40
3.0
  1
ヒュース゛付
 50
0.0
 41
0.9
 51
0.0
  7
KANJI5
  0
TEXT
  8
0
  6
CONTINUOUS
 62
     2
 10
215.0
 20
139.0
 30
0.3
 40
3.0
  1
１．０　
 50
0.0
 41
0.45
 51
0.0
  7
KANJI3
  0
TEXT
  8
0
  6
CONTINUOUS
 62
     2
 10
206.0
 20
149.0
 30
0.3
 40
3.0
  1
１００ＶＡ
 50
0.0
 41
0.45
 51
0.0
  7
KANJI3
  0
TEXT
  8
0
  6
CONTINUOUS
 62
     2
 10
164.0
 20
144.0
 30
0.3
 40
3.0
  1
制限負荷　３００　ＶＡ
 50
0.0
 41
0.9
 51
0.0
  7
KANJI5
  0
TEXT
  8
0
  6
CONTINUOUS
 62
     2
 10
199.0
 20
144.0
 30
0.3
 40
3.0
  1
相　数　　単　相
 50
0.0
 41
0.9
 51
0.0
  7
KANJI5
  0
TEXT
  8
0
  6
CONTINUOUS
 62
     2
 10
180.0
 20
134.0
 30
0.3
 40
3.0
  1
約　８．９　ｋｇ
 50
0.0
 41
0.9
 51
0.0
  7
KANJI5
  0
POLYLINE
  8
0
  6
CONTINUOUS
 62
     2
 66
     1
  0
VERTEX
  8
0
  6
CONTINUOUS
 62
     2
 10
223.0
 20
116.0
 30
0.0
  0
VERTEX
  8
0
  6
CONTINUOUS
 62
     2
 10
163.0
 20
116.0
 30
0.0
  0
VERTEX
  8
0
  6
CONTINUOUS
 62
     2
 10
163.0
 20
131.0
 30
0.0
  0
SEQEND
  0
LINE
  8
0
  6
CONTINUOUS
 62
     2
 10
223.0
 20
131.0
 30
0.0
 11
223.0
 21
116.0
 31
0.0
  0
LINE
  8
0
  6
CONTINUOUS
 62
     2
 10
223.0
 20
121.0
 30
0.0
 11
163.0
 21
121.0
 31
0.0
  0
TEXT
  8
0
  6
CONTINUOUS
 62
     2
 10
183.97828982
 20
118.5
 30
0.2
 40
2.0
  1
φ
 50
0.0
 41
0.9
 51
0.0
  7
KANJI6
  0
TEXT
  8
0
  6
CONTINUOUS
 62
     2
 10
184.0
 20
127.1
 30
0.3
 40
3.0
  1
６号Ａ級（ＰＭｅ－６Ｄａ）
 50
0.0
 41
0.9
 51
0.0
  7
KANJI7
  0
TEXT
  8
0
  6
CONTINUOUS
 62
     2
 10
184.0
 20
122.1
 30
0.3
 40
3.0
  1
３号Ａ級（ＰＭｅ－３Ｄａ）
 50
0.0
 41
0.9
 51
0.0
  7
KANJI7
  0
TEXT
  8
0
  6
CONTINUOUS
 62
     2
 10
166.0
 20
117.0
 30
0.3
 40
3.0
  1
ヒューズ　１５　×１１０　　（形名ＭＰＴ１１０）
 50
0.0
 41
0.9
 51
0.0
  7
KANJI7
  0
ARC
  8
0
  6
CONTINUOUS
 62
     2
 10
194.945019109
 20
119.425820013
 30
0.0
 40
0.26229859
 50
0.0
 51
175.063900229
  0
ARC
  8
0
  6
CONTINUOUS
 62
     2
 10
192.125187113
 20
118.707664529
 30
0.0
 40
3.164692124
 50
351.233883044
 51
13.116244519
  0
ARC
  8
0
  6
CONTINUOUS
 62
     2
 10
193.919679558
 20
118.319753193
 30
0.0
 40
1.333866073
 50
295.517424946
 51
355.487941371
  0
ARC
  8
0
  6
CONTINUOUS
 62
     2
 10
197.764851104
 20
118.707664529
 30
0.0
 40
3.164692124
 50
166.883755481
 51
188.766116956
  0
ARC
  8
0
  6
CONTINUOUS
 62
     2
 10
195.970358659
 20
118.319753193
 30
0.0
 40
1.333866073
 50
184.512058629
 51
244.482575054
  0
TEXT
  8
0
  6
CONTINUOUS
 62
     2
 10
166.0
 20
124.852
 30
0.3
 40
3.0
  1
絶縁階級
 50
0.0
 41
0.9
 51
0.0
  7
KANJI7
  0
LINE
  8
0
  6
CONTINUOUS
 62
     2
 10
180.0
 20
126.0
 30
0.0
 11
223.0
 21
126.0
 31
0.0
  0
TEXT
  8
0
  6
CONTINUOUS
 62
     2
 10
180.0
 20
166.185
 30
0.3
 40
3.0
  1
一次電圧
 50
0.0
 41
0.9
 51
0.0
  7
KANJI5
  0
TEXT
  8
0
  6
CONTINUOUS
 62
     2
 10
169.188
 20
173.123
 30
0.3
 40
3.0
  1
ＰＭｅ－３Ｄａ
 50
0.0
 41
0.9
 51
0.0
  7
KANJI5
  0
TEXT
  8
0
  6
CONTINUOUS
 62
     2
 10
181.128
 20
175.991
 30
0.3
 40
3.0
  1
６
 50
0.0
 41
0.9
 51
0.0
  7
KANJI5
  0
LINE
  8
0
  6
CONTINUOUS
 62
     2
 10
73.333333325
 20
43.0
 30
0.0
 11
73.333333325
 21
40.0
 31
0.0
  0
LINE
  8
0
  6
CONTINUOUS
 62
     2
 10
36.666999992
 20
43.0
 30
0.0
 11
36.666999992
 21
40.0
 31
0.0
  0
LINE
  8
0
  6
CONTINUOUS
 62
     2
 10
73.333333325
 20
40.0
 30
0.0
 11
75.748147891
 21
39.352952387
 31
0.0
  0
LINE
  8
0
  6
CONTINUOUS
 62
     2
 10
73.333333325
 20
40.0
 30
0.0
 11
75.101100278
 21
38.232233047
 31
0.0
  0
LINE
  8
0
  6
CONTINUOUS
 62
     2
 10
73.333333325
 20
40.0
 30
0.0
 11
84.808883165
 21
33.374588211
 31
0.0
  0
ARC
  8
0
  6
CONTINUOUS
 62
     2
 10
120.999267578
 20
97.5
 30
0.0
 40
1.5
 50
90.0
 51
180.0
  0
ARC
  8
0
  6
CONTINUOUS
 62
     2
 10
120.999267578
 20
97.5
 30
0.0
 40
1.5
 50
180.0
 51
270.0
  0
ARC
  8
0
  6
CONTINUOUS
 62
     2
 10
159.000732422
 20
97.5
 30
0.0
 40
1.5
 50
0.0
 51
90.0
  0
ARC
  8
0
  6
CONTINUOUS
 62
     2
 10
159.000732422
 20
97.5
 30
0.0
 40
1.5
 50
270.0
 51
0.0
  0
LINE
  8
0
  6
CONTINUOUS
 62
     2
 10
138.500015259
 20
113.5
 30
0.0
 11
137.596328735
 21
100.39679718
 31
0.0
  0
ARC
  8
0
  6
CONTINUOUS
 62
     2
 10
136.099899292
 20
100.5
 30
0.0
 40
1.5
 50
270.0
 51
356.05480957
  0
LINE
  8
0
  6
CONTINUOUS
 62
     2
 10
141.500015259
 20
113.5
 30
0.0
 11
142.403701782
 21
100.39679718
 31
0.0
  0
ARC
  8
0
  6
CONTINUOUS
 62
     2
 10
143.900100708
 20
100.5
 30
0.0
 40
1.5
 50
183.945220947
 51
270.0
  0
ARC
  8
0
  6
CONTINUOUS
 62
     2
 10
140.000015259
 20
113.5
 30
0.0
 40
1.5
 50
0.001457107
 51
180.002624512
  0
LINE
  8
0
  6
CONTINUOUS
 62
     2
 10
120.999267578
 20
99.0
 30
0.0
 11
159.000732422
 21
99.0
 31
0.0
  0
LINE
  8
0
  6
CONTINUOUS
 62
     2
 10
140.0
 20
96.000007629
 30
0.0
 11
159.000732422
 21
96.0
 31
0.0
  0
LINE
  8
0
  6
CONTINUOUS
 62
     2
 10
120.999267578
 20
96.0
 30
0.0
 11
140.0
 21
96.0
 31
0.0
  0
LINE
  8
0
  6
CONTINUOUS
 62
     2
 10
129.602226074
 20
105.487180074
 30
0.0
 11
130.166343506
 21
106.333333333
 31
0.0
  0
LINE
  8
0
  6
CONTINUOUS
 62
     2
 10
126.499671753
 20
106.333333333
 30
0.0
 11
127.063758667
 21
105.487180074
 31
0.0
  0
LINE
  8
0
  6
CONTINUOUS
 62
     2
 10
75.0
 20
105.397908529
 30
0.0
 11
76.0
 21
105.397908529
 31
0.0
  0
LINE
  8
0
  6
CONTINUOUS
 62
     2
 10
130.333
 20
105.397908529
 30
0.0
 11
126.333
 21
105.397908529
 31
0.0
  0
LINE
  8
0
  6
CONTINUOUS
 62
     2
 10
130.333
 20
105.397908529
 30
0.0
 11
130.333
 21
100.0
 31
0.0
  0
LINE
  8
0
  6
CONTINUOUS
 62
     2
 10
126.333
 20
105.397908529
 30
0.0
 11
126.333
 21
100.0
 31
0.0
  0
ARC
  8
0
  6
CONTINUOUS
 62
     2
 10
128.333
 20
103.333333333
 30
0.0
 40
2.5
 50
120.510536194
 51
124.327261045
  0
ARC
  8
0
  6
CONTINUOUS
 62
     2
 10
128.333
 20
103.333333333
 30
0.0
 40
2.5
 50
55.672738955
 51
59.489860535
  0
ARC
  8
0
  6
CONTINUOUS
 62
     2
 10
128.333
 20
103.333333333
 30
0.0
 40
2.5
 50
323.130102354
 51
36.869897646
  0
ARC
  8
0
  6
CONTINUOUS
 62
     2
 10
128.333
 20
103.333333333
 30
0.0
 40
2.5
 50
143.130102354
 51
216.869897646
  0
LINE
  8
0
  6
CONTINUOUS
 62
     2
 10
67.599990845
 20
100.0
 30
0.0
 11
75.0
 21
100.0
 31
0.0
  0
LINE
  8
0
  6
CONTINUOUS
 62
     2
 10
76.0
 20
101.0
 30
0.0
 11
76.0
 21
105.397908529
 31
0.0
  0
ARC
  8
0
  6
CONTINUOUS
 62
     2
 10
75.0
 20
101.0
 30
0.0
 40
1.0
 50
270.0
 51
0.0
  0
LINE
  8
0
  6
CONTINUOUS
 62
     2
 10
75.0
 20
101.5
 30
0.0
 11
75.0
 21
105.397908529
 31
0.0
  0
ARC
  8
0
  6
CONTINUOUS
 62
     2
 10
74.5
 20
101.5
 30
0.0
 40
0.5
 50
270.0
 51
0.0
  0
LINE
  8
0
  6
CONTINUOUS
 62
     2
 10
126.333
 20
101.0
 30
0.0
 11
125.833
 21
101.0
 31
0.0
  0
LINE
  8
0
  6
CONTINUOUS
 62
     2
 10
125.333
 20
100.5
 30
0.0
 11
125.333
 21
100.0
 31
0.0
  0
ARC
  8
0
  6
CONTINUOUS
 62
     2
 10
125.833
 20
100.5
 30
0.0
 40
0.5
 50
90.0
 51
180.0
  0
LINE
  8
0
  6
CONTINUOUS
 62
     2
 10
130.833
 20
101.0
 30
0.0
 11
130.333
 21
101.0
 31
0.0
  0
LINE
  8
0
  6
CONTINUOUS
 62
     2
 10
131.333
 20
100.5
 30
0.0
 11
131.333
 21
100.0
 31
0.0
  0
ARC
  8
0
  6
CONTINUOUS
 62
     2
 10
130.833
 20
100.5
 30
0.0
 40
0.5
 50
0.0
 51
90.0
  0
LINE
  8
0
  6
CONTINUOUS
 62
     2
 10
137.514112854
 20
100.0
 30
0.0
 11
124.5
 21
100.0
 31
0.0
  0
LINE
  8
0
  6
CONTINUOUS
 62
     2
 10
124.0
 20
99.0
 30
0.0
 11
124.0
 21
99.5
 31
0.0
  0
ARC
  8
0
  6
CONTINUOUS
 62
     2
 10
124.5
 20
99.5
 30
0.0
 40
0.5
 50
90.0
 51
180.0
  0
LINE
  8
0
  6
CONTINUOUS
 62
     2
 10
155.5
 20
100.0
 30
0.0
 11
142.485887146
 21
100.0
 31
0.0
  0
LINE
  8
0
  6
CONTINUOUS
 62
     2
 10
156.0
 20
99.0
 30
0.0
 11
156.0
 21
99.5
 31
0.0
  0
ARC
  8
0
  6
CONTINUOUS
 62
     2
 10
155.5
 20
99.5
 30
0.0
 40
0.5
 50
0.0
 51
90.0
  0
LINE
  8
0
  6
CONTINUOUS
 62
     2
 10
150.397773926
 20
105.487180074
 30
0.0
 11
149.833656494
 21
106.333333333
 31
0.0
  0
LINE
  8
0
  6
CONTINUOUS
 62
     2
 10
153.500328247
 20
106.333333333
 30
0.0
 11
152.936241333
 21
105.487180074
 31
0.0
  0
LINE
  8
0
  6
CONTINUOUS
 62
     2
 10
149.667
 20
105.397908529
 30
0.0
 11
153.667
 21
105.397908529
 31
0.0
  0
LINE
  8
0
  6
CONTINUOUS
 62
     2
 10
149.667
 20
105.397908529
 30
0.0
 11
149.667
 21
100.0
 31
0.0
  0
LINE
  8
0
  6
CONTINUOUS
 62
     2
 10
153.667
 20
105.397908529
 30
0.0
 11
153.667
 21
100.0
 31
0.0
  0
ARC
  8
0
  6
CONTINUOUS
 62
     2
 10
151.667
 20
103.333333333
 30
0.0
 40
2.5
 50
55.672738955
 51
59.489463806
  0
ARC
  8
0
  6
CONTINUOUS
 62
     2
 10
151.667
 20
103.333333333
 30
0.0
 40
2.5
 50
120.510139465
 51
124.327261045
  0
ARC
  8
0
  6
CONTINUOUS
 62
     2
 10
151.667
 20
103.333333333
 30
0.0
 40
2.5
 50
143.130102354
 51
216.869897646
  0
ARC
  8
0
  6
CONTINUOUS
 62
     2
 10
151.667
 20
103.333333333
 30
0.0
 40
2.5
 50
323.130102354
 51
36.869897646
  0
LINE
  8
0
  6
CONTINUOUS
 62
     2
 10
153.667
 20
101.0
 30
0.0
 11
154.167
 21
101.0
 31
0.0
  0
LINE
  8
0
  6
CONTINUOUS
 62
     2
 10
154.667
 20
100.5
 30
0.0
 11
154.667
 21
100.0
 31
0.0
  0
ARC
  8
0
  6
CONTINUOUS
 62
     2
 10
154.167
 20
100.5
 30
0.0
 40
0.5
 50
0.0
 51
90.0
  0
LINE
  8
0
  6
CONTINUOUS
 62
     2
 10
149.167
 20
101.0
 30
0.0
 11
149.667
 21
101.0
 31
0.0
  0
LINE
  8
0
  6
CONTINUOUS
 62
     2
 10
148.667
 20
100.5
 30
0.0
 11
148.667
 21
100.0
 31
0.0
  0
ARC
  8
0
  6
CONTINUOUS
 62
     2
 10
149.167
 20
100.5
 30
0.0
 40
0.5
 50
90.0
 51
180.0
  0
LINE
  8
0
  6
CONTINUOUS
 62
     2
 10
118.5
 20
41.0
 30
0.0
 11
118.5
 21
40.0
 31
0.0
  0
LINE
  8
0
  6
CONTINUOUS
 62
     2
 10
121.5
 20
41.0
 30
0.0
 11
121.5
 21
40.0
 31
0.0
  0
LINE
  8
0
  6
CONTINUOUS
 62
     2
 10
161.5
 20
41.0
 30
0.0
 11
161.5
 21
40.0
 31
0.0
  0
LINE
  8
0
  6
CONTINUOUS
 62
     2
 10
158.5
 20
41.0
 30
0.0
 11
158.5
 21
40.0
 31
0.0
  0
POINT
  8
2
  6
CONTINUOUS
 62
     2
 10
160.0
 20
30.0
 30
0.0
  0
LINE
  8
0
  6
CONTINUOUS
 62
     2
 10
159.999666667
 20
30.0
 30
0.0
 11
158.067815014
 21
30.51763809
 31
0.0
  0
LINE
  8
0
  6
CONTINUOUS
 62
     2
 10
159.999666667
 20
30.0
 30
0.0
 11
158.067815014
 21
29.48236191
 31
0.0
  0
LINE
  8
0
  6
CONTINUOUS
 62
     2
 10
160.0
 20
39.0
 30
0.0
 11
160.0
 21
29.0
 31
0.0
  0
LINE
  8
0
  6
CONTINUOUS
 62
     2
 10
120.0
 20
30.0
 30
0.0
 11
121.931851653
 21
30.51763809
 31
0.0
  0
LINE
  8
0
  6
CONTINUOUS
 62
     2
 10
120.0
 20
30.0
 30
0.0
 11
121.931851653
 21
29.48236191
 31
0.0
  0
LINE
  8
0
  6
CONTINUOUS
 62
     2
 10
120.0
 20
39.0
 30
0.0
 11
120.0
 21
29.0
 31
0.0
  0
LINE
  8
0
  6
CONTINUOUS
 62
     2
 10
120.0
 20
30.0
 30
0.0
 11
160.0
 21
30.0
 31
0.0
  0
TEXT
  8
0
  6
CONTINUOUS
 62
     2
 10
135.653
 20
30.333333333
 30
0.3
 40
3.0
  1
１２０
 50
0.0
 41
0.9
 51
0.0
  7
KANJI1
  0
TEXT
  8
0
  6
CONTINUOUS
 62
     2
 10
135.653
 20
25.333333333
 30
0.3
 40
3.0
  1
１５６
 50
0.0
 41
0.9
 51
0.0
  7
KANJI1
  0
LINE
  8
0
  6
CONTINUOUS
 62
     2
 10
115.0
 20
43.0
 30
0.0
 11
115.0
 21
87.399998527
 31
0.0
  0
LINE
  8
0
  6
CONTINUOUS
 62
     2
 10
117.0
 20
41.0
 30
0.0
 11
115.0
 21
43.0
 31
0.0
  0
LINE
  8
0
  6
CONTINUOUS
 62
     2
 10
165.0
 20
43.0
 30
0.0
 11
165.0
 21
87.399998527
 31
0.0
  0
LINE
  8
0
  6
CONTINUOUS
 62
     2
 10
117.0
 20
41.0
 30
0.0
 11
163.0
 21
41.0
 31
0.0
  0
LINE
  8
0
  6
CONTINUOUS
 62
     2
 10
165.0
 20
43.0
 30
0.0
 11
163.0
 21
41.0
 31
0.0
  0
LINE
  8
0
  6
CONTINUOUS
 62
     2
 10
117.0
 20
41.0
 30
0.0
 11
117.0
 21
40.0
 31
0.0
  0
LINE
  8
0
  6
CONTINUOUS
 62
     2
 10
163.0
 20
41.0
 30
0.0
 11
163.0
 21
40.0
 31
0.0
  0
LINE
  8
0
  6
CONTINUOUS
 62
     2
 10
163.0
 20
40.0
 30
0.0
 11
117.0
 21
40.0
 31
0.0
  0
LINE
  8
0
  6
CONTINUOUS
 62
     2
 10
115.0
 20
43.0
 30
0.0
 11
114.0
 21
43.0
 31
0.0
  0
LINE
  8
0
  6
CONTINUOUS
 62
     2
 10
166.0
 20
43.0
 30
0.0
 11
165.0
 21
43.0
 31
0.0
  0
ARC
  8
0
  6
CONTINUOUS
 62
     2
 10
158.5
 20
89.5
 30
0.0
 40
6.5
 50
90.0
 51
180.0
  0
LINE
  8
0
  6
CONTINUOUS
 62
     2
 10
152.0
 20
84.399998527
 30
0.0
 11
154.0
 21
84.399998527
 31
0.0
  0
ARC
  8
0
  6
CONTINUOUS
 62
     2
 10
121.5
 20
89.5
 30
0.0
 40
6.5
 50
0.0
 51
90.0
  0
LINE
  8
0
  6
CONTINUOUS
 62
     2
 10
126.0
 20
84.399998527
 30
0.0
 11
128.0
 21
84.399998527
 31
0.0
  0
LINE
  8
0
  6
CONTINUOUS
 62
     2
 10
114.0
 20
87.399998527
 30
0.0
 11
114.0
 21
43.0
 31
0.0
  0
LINE
  8
0
  6
CONTINUOUS
 62
     2
 10
166.0
 20
43.0
 30
0.0
 11
166.0
 21
87.399998527
 31
0.0
  0
LINE
  8
0
  6
CONTINUOUS
 62
     2
 10
128.0
 20
73.0
 30
0.0
 11
127.5
 21
73.0
 31
0.0
  0
ARC
  8
0
  6
CONTINUOUS
 62
     2
 10
127.5
 20
72.5
 30
0.0
 40
0.5
 50
90.0
 51
180.0
  0
LINE
  8
0
  6
CONTINUOUS
 62
     2
 10
152.5
 20
73.0
 30
0.0
 11
152.0
 21
73.0
 31
0.0
  0
ARC
  8
0
  6
CONTINUOUS
 62
     2
 10
152.5
 20
72.5
 30
0.0
 40
0.5
 50
0.0
 51
90.0
  0
LINE
  8
0
  6
CONTINUOUS
 62
     2
 10
128.0
 20
89.5
 30
0.0
 11
128.0
 21
54.0
 31
0.0
  0
ARC
  8
0
  6
CONTINUOUS
 62
     2
 10
129.0
 20
54.0
 30
0.0
 40
1.0
 50
180.0
 51
270.0
  0
LINE
  8
0
  6
CONTINUOUS
 62
     2
 10
152.0
 20
89.5
 30
0.0
 11
152.0
 21
54.0
 31
0.0
  0
LINE
  8
0
  6
CONTINUOUS
 62
     2
 10
151.0
 20
53.0
 30
0.0
 11
129.0
 21
53.0
 31
0.0
  0
ARC
  8
0
  6
CONTINUOUS
 62
     2
 10
151.0
 20
54.0
 30
0.0
 40
1.0
 50
270.0
 51
0.0
  0
LINE
  8
0
  6
CONTINUOUS
 62
     2
 10
153.0
 20
54.0
 30
0.0
 11
153.0
 21
72.5
 31
0.0
  0
ARC
  8
0
  6
CONTINUOUS
 62
     2
 10
151.0
 20
54.0
 30
0.0
 40
2.0
 50
270.0
 51
0.0
  0
LINE
  8
0
  6
CONTINUOUS
 62
     2
 10
151.0
 20
52.0
 30
0.0
 11
129.0
 21
52.0
 31
0.0
  0
ARC
  8
0
  6
CONTINUOUS
 62
     2
 10
129.0
 20
54.0
 30
0.0
 40
2.0
 50
180.0
 51
270.0
  0
ARC
  8
0
  6
CONTINUOUS
 62
     2
 10
129.0
 20
54.0
 30
0.0
 40
3.0
 50
180.0
 51
270.0
  0
LINE
  8
0
  6
CONTINUOUS
 62
     2
 10
129.0
 20
51.0
 30
0.0
 11
151.0
 21
51.0
 31
0.0
  0
ARC
  8
0
  6
CONTINUOUS
 62
     2
 10
151.0
 20
54.0
 30
0.0
 40
3.0
 50
270.0
 51
0.0
  0
CIRCLE
  8
0
  6
CONTINUOUS
 62
     2
 10
125.0
 20
46.0
 30
0.0
 40
2.0
  0
CIRCLE
  8
0
  6
CONTINUOUS
 62
     2
 10
125.0
 20
46.0
 30
0.0
 40
1.0
  0
LINE
  8
0
  6
CONTINUOUS
 62
     2
 10
123.153839111
 20
46.769226074
 30
0.0
 11
123.153839111
 21
45.230766296
 31
0.0
  0
LINE
  8
0
  6
CONTINUOUS
 62
     2
 10
126.785400391
 20
46.901290894
 30
0.0
 11
126.785400391
 21
45.098709106
 31
0.0
  0
LINE
  8
0
  6
CONTINUOUS
 62
     2
 10
125.0
 20
44.0
 30
0.0
 11
126.785400391
 21
45.098716736
 31
0.0
  0
LINE
  8
0
  6
CONTINUOUS
 62
     2
 10
125.0
 20
48.0
 30
0.0
 11
126.785400391
 21
46.901290894
 31
0.0
  0
LINE
  8
0
  6
CONTINUOUS
 62
     2
 10
125.0
 20
44.0
 30
0.0
 11
123.153839111
 21
45.230766296
 31
0.0
  0
LINE
  8
0
  6
CONTINUOUS
 62
     2
 10
125.0
 20
48.0
 30
0.0
 11
123.153839111
 21
46.769226074
 31
0.0
  0
CIRCLE
  8
0
  6
CONTINUOUS
 62
     2
 10
155.0
 20
46.0
 30
0.0
 40
2.0
  0
CIRCLE
  8
0
  6
CONTINUOUS
 62
     2
 10
155.0
 20
46.0
 30
0.0
 40
1.0
  0
LINE
  8
0
  6
CONTINUOUS
 62
     2
 10
156.846160889
 20
46.769226074
 30
0.0
 11
156.846160889
 21
45.230766296
 31
0.0
  0
LINE
  8
0
  6
CONTINUOUS
 62
     2
 10
153.214599609
 20
46.901290894
 30
0.0
 11
153.214599609
 21
45.098709106
 31
0.0
  0
LINE
  8
0
  6
CONTINUOUS
 62
     2
 10
155.0
 20
44.0
 30
0.0
 11
153.214599609
 21
45.098716736
 31
0.0
  0
LINE
  8
0
  6
CONTINUOUS
 62
     2
 10
155.0
 20
48.0
 30
0.0
 11
153.214599609
 21
46.901290894
 31
0.0
  0
LINE
  8
0
  6
CONTINUOUS
 62
     2
 10
155.0
 20
44.0
 30
0.0
 11
156.846160889
 21
45.230766296
 31
0.0
  0
LINE
  8
0
  6
CONTINUOUS
 62
     2
 10
155.0
 20
48.0
 30
0.0
 11
156.846160889
 21
46.769226074
 31
0.0
  0
CIRCLE
  8
0
  6
CONTINUOUS
 62
     2
 10
162.0
 20
84.899998527
 30
0.0
 40
2.0
  0
CIRCLE
  8
0
  6
CONTINUOUS
 62
     2
 10
162.0
 20
84.899998527
 30
0.0
 40
1.0
  0
LINE
  8
0
  6
CONTINUOUS
 62
     2
 10
163.846160889
 20
85.669224602
 30
0.0
 11
163.846160889
 21
84.130764824
 31
0.0
  0
LINE
  8
0
  6
CONTINUOUS
 62
     2
 10
160.214599609
 20
85.801289421
 30
0.0
 11
160.214599609
 21
83.998707634
 31
0.0
  0
LINE
  8
0
  6
CONTINUOUS
 62
     2
 10
162.0
 20
82.899998527
 30
0.0
 11
160.214599609
 21
83.998715263
 31
0.0
  0
LINE
  8
0
  6
CONTINUOUS
 62
     2
 10
162.0
 20
86.899998527
 30
0.0
 11
160.214599609
 21
85.801289421
 31
0.0
  0
LINE
  8
0
  6
CONTINUOUS
 62
     2
 10
162.0
 20
82.899998527
 30
0.0
 11
163.846160889
 21
84.130764824
 31
0.0
  0
LINE
  8
0
  6
CONTINUOUS
 62
     2
 10
162.0
 20
86.899998527
 30
0.0
 11
163.846160889
 21
85.669224602
 31
0.0
  0
CIRCLE
  8
0
  6
CONTINUOUS
 62
     2
 10
118.0
 20
84.899998527
 30
0.0
 40
2.0
  0
CIRCLE
  8
0
  6
CONTINUOUS
 62
     2
 10
118.0
 20
84.899998527
 30
0.0
 40
1.0
  0
LINE
  8
0
  6
CONTINUOUS
 62
     2
 10
119.846160889
 20
85.669224602
 30
0.0
 11
119.846160889
 21
84.130764824
 31
0.0
  0
LINE
  8
0
  6
CONTINUOUS
 62
     2
 10
116.214599609
 20
85.801289421
 30
0.0
 11
116.214599609
 21
83.998707634
 31
0.0
  0
LINE
  8
0
  6
CONTINUOUS
 62
     2
 10
118.0
 20
82.899998527
 30
0.0
 11
116.214599609
 21
83.998715263
 31
0.0
  0
LINE
  8
0
  6
CONTINUOUS
 62
     2
 10
118.0
 20
86.899998527
 30
0.0
 11
116.214599609
 21
85.801289421
 31
0.0
  0
LINE
  8
0
  6
CONTINUOUS
 62
     2
 10
118.0
 20
82.899998527
 30
0.0
 11
119.846160889
 21
84.130764824
 31
0.0
  0
LINE
  8
0
  6
CONTINUOUS
 62
     2
 10
118.0
 20
86.899998527
 30
0.0
 11
119.846160889
 21
85.669224602
 31
0.0
  0
LINE
  8
0
  6
CONTINUOUS
 62
     2
 10
38.0
 20
163.166666667
 30
0.0
 11
38.0
 21
160.166666667
 31
0.0
  0
ARC
  8
0
  6
CONTINUOUS
 62
     2
 10
32.333
 20
150.0
 30
0.0
 40
2.0
 50
90.0
 51
270.0
  0
ARC
  8
0
  6
CONTINUOUS
 62
     2
 10
77.675312086
 20
150.0
 30
0.0
 40
2.0
 50
270.0
 51
90.0
  0
LINE
  8
0
  6
CONTINUOUS
 62
     2
 10
32.333
 20
148.0
 30
0.0
 11
77.675312086
 21
148.0
 31
0.0
  0
LINE
  8
0
  6
CONTINUOUS
 62
     2
 10
32.333
 20
152.0
 30
0.0
 11
77.675312086
 21
152.0
 31
0.0
  0
ARC
  8
0
  6
CONTINUOUS
 62
     2
 10
32.333
 20
150.0
 30
0.0
 40
4.0
 50
90.0
 51
270.0
  0
ARC
  8
0
  6
CONTINUOUS
 62
     2
 10
77.675312086
 20
150.0
 30
0.0
 40
4.0
 50
270.0
 51
90.0
  0
LINE
  8
0
  6
CONTINUOUS
 62
     2
 10
32.333
 20
146.0
 30
0.0
 11
77.675312086
 21
146.0
 31
0.0
  0
LINE
  8
0
  6
CONTINUOUS
 62
     2
 10
32.333
 20
154.0
 30
0.0
 11
77.675312086
 21
154.0
 31
0.0
  0
ARC
  8
0
  6
CONTINUOUS
 62
     2
 10
38.0
 20
163.166666667
 30
0.0
 40
1.0
 50
90.0
 51
180.0
  0
ARC
  8
0
  6
CONTINUOUS
 62
     2
 10
72.0
 20
163.166666667
 30
0.0
 40
1.0
 50
0.0
 51
90.0
  0
ARC
  8
0
  6
CONTINUOUS
 62
     2
 10
36.0
 20
155.0
 30
0.0
 40
1.0
 50
270.0
 51
0.0
  0
ARC
  8
0
  6
CONTINUOUS
 62
     2
 10
74.0
 20
155.0
 30
0.0
 40
1.0
 50
180.0
 51
270.0
  0
LINE
  8
0
  6
CONTINUOUS
 62
     2
 10
37.0
 20
163.166666667
 30
0.0
 11
37.0
 21
155.0
 31
0.0
  0
LINE
  8
0
  6
CONTINUOUS
 62
     2
 10
38.0
 20
136.833333333
 30
0.0
 11
38.0
 21
139.833333333
 31
0.0
  0
ARC
  8
0
  6
CONTINUOUS
 62
     2
 10
38.0
 20
136.833333333
 30
0.0
 40
1.0
 50
180.0
 51
270.0
  0
ARC
  8
0
  6
CONTINUOUS
 62
     2
 10
72.0
 20
136.833333333
 30
0.0
 40
1.0
 50
270.0
 51
0.0
  0
ARC
  8
0
  6
CONTINUOUS
 62
     2
 10
36.0
 20
145.0
 30
0.0
 40
1.0
 50
0.0
 51
90.0
  0
ARC
  8
0
  6
CONTINUOUS
 62
     2
 10
74.0
 20
145.0
 30
0.0
 40
1.0
 50
90.0
 51
180.0
  0
LINE
  8
0
  6
CONTINUOUS
 62
     2
 10
37.0
 20
136.833333333
 30
0.0
 11
37.0
 21
145.0
 31
0.0
  0
LINE
  8
0
  6
CONTINUOUS
 62
     2
 10
76.0
 20
163.166666667
 30
0.0
 11
76.0
 21
160.166666667
 31
0.0
  0
LINE
  8
0
  6
CONTINUOUS
 62
     2
 10
75.0
 20
163.166666667
 30
0.0
 11
75.0
 21
160.166666667
 31
0.0
  0
LINE
  8
0
  6
CONTINUOUS
 62
     2
 10
76.0
 20
139.833333333
 30
0.0
 11
76.0
 21
136.833333333
 31
0.0
  0
LINE
  8
0
  6
CONTINUOUS
 62
     2
 10
75.0
 20
139.833333333
 30
0.0
 11
75.0
 21
136.833333333
 31
0.0
  0
LINE
  8
0
  6
CONTINUOUS
 62
     2
 10
73.0
 20
145.0
 30
0.0
 11
73.0
 21
139.833333333
 31
0.0
  0
LINE
  8
0
  6
CONTINUOUS
 62
     2
 10
73.0
 20
155.0
 30
0.0
 11
73.0
 21
160.166666667
 31
0.0
  0
ARC
  8
0
  6
CONTINUOUS
 62
     2
 10
44.000003815
 20
145.0
 30
0.0
 40
1.0
 50
90.0
 51
180.0
  0
LINE
  8
0
  6
CONTINUOUS
 62
     2
 10
43.000003815
 20
139.833333333
 30
0.0
 11
43.000003815
 21
145.0
 31
0.0
  0
ARC
  8
0
  6
CONTINUOUS
 62
     2
 10
66.0
 20
145.0
 30
0.0
 40
1.0
 50
0.0
 51
90.0
  0
LINE
  8
0
  6
CONTINUOUS
 62
     2
 10
67.0
 20
145.0
 30
0.0
 11
67.0
 21
139.833333333
 31
0.0
  0
ARC
  8
0
  6
CONTINUOUS
 62
     2
 10
66.0
 20
155.0
 30
0.0
 40
1.0
 50
270.0
 51
0.0
  0
LINE
  8
0
  6
CONTINUOUS
 62
     2
 10
67.0
 20
155.0
 30
0.0
 11
67.0
 21
160.166666667
 31
0.0
  0
ARC
  8
0
  6
CONTINUOUS
 62
     2
 10
44.000003815
 20
155.0
 30
0.0
 40
1.0
 50
180.0
 51
270.0
  0
LINE
  8
0
  6
CONTINUOUS
 62
     2
 10
43.000003815
 20
160.166666667
 30
0.0
 11
43.000003815
 21
155.0
 31
0.0
  0
ARC
  8
0
  6
CONTINUOUS
 62
     2
 10
42.000003815
 20
163.166666667
 30
0.0
 40
1.0
 50
0.0
 51
90.0
  0
LINE
  8
0
  6
CONTINUOUS
 62
     2
 10
42.000003815
 20
164.166666667
 30
0.0
 11
38.0
 21
164.166666667
 31
0.0
  0
ARC
  8
0
  6
CONTINUOUS
 62
     2
 10
68.0
 20
163.166666667
 30
0.0
 40
1.0
 50
90.0
 51
180.0
  0
LINE
  8
0
  6
CONTINUOUS
 62
     2
 10
72.0
 20
164.166666667
 30
0.0
 11
68.0
 21
164.166666667
 31
0.0
  0
ARC
  8
0
  6
CONTINUOUS
 62
     2
 10
68.0
 20
136.833333333
 30
0.0
 40
1.0
 50
180.0
 51
270.0
  0
LINE
  8
0
  6
CONTINUOUS
 62
     2
 10
72.0
 20
135.833333333
 30
0.0
 11
68.0
 21
135.833333333
 31
0.0
  0
ARC
  8
0
  6
CONTINUOUS
 62
     2
 10
42.000003815
 20
136.833333333
 30
0.0
 40
1.0
 50
270.0
 51
0.0
  0
LINE
  8
0
  6
CONTINUOUS
 62
     2
 10
42.000003815
 20
135.833333333
 30
0.0
 11
38.0
 21
135.833333333
 31
0.0
  0
LINE
  8
0
  6
CONTINUOUS
 62
     2
 10
68.5
 20
105.833333333
 30
0.0
 11
68.5
 21
100.0
 31
0.0
  0
LINE
  8
0
  6
CONTINUOUS
 62
     2
 10
71.5
 20
100.0
 30
0.0
 11
71.5
 21
105.833333333
 31
0.0
  0
LINE
  8
0
  6
CONTINUOUS
 62
     2
 10
68.5
 20
105.397908529
 30
0.0
 11
71.5
 21
105.397908529
 31
0.0
  0
LINE
  8
0
  6
CONTINUOUS
 62
     2
 10
71.5
 20
105.833333333
 30
0.0
 11
68.5
 21
105.833333333
 31
0.0
  0
LINE
  8
0
  6
CONTINUOUS
 62
     2
 10
75.0
 20
104.833333333
 30
0.0
 11
71.5
 21
104.833333333
 31
0.0
  0
LINE
  8
0
  6
CONTINUOUS
 62
     2
 10
71.5
 20
101.833333333
 30
0.0
 11
75.0
 21
101.833333333
 31
0.0
  0
LINE
  8
0
  6
CONTINUOUS
 62
     2
 10
71.5
 20
101.0
 30
0.0
 11
74.5
 21
101.0
 31
0.0
  0
LINE
  8
0
  6
CONTINUOUS
 62
     2
 10
41.5
 20
105.833333333
 30
0.0
 11
41.5
 21
99.999996185
 31
0.0
  0
LINE
  8
0
  6
CONTINUOUS
 62
     2
 10
38.5
 20
100.000003815
 30
0.0
 11
38.5
 21
105.833333333
 31
0.0
  0
LINE
  8
0
  6
CONTINUOUS
 62
     2
 10
41.5
 20
105.397908529
 30
0.0
 11
38.5
 21
105.397908529
 31
0.0
  0
LINE
  8
0
  6
CONTINUOUS
 62
     2
 10
38.5
 20
105.833333333
 30
0.0
 11
41.5
 21
105.833333333
 31
0.0
  0
LINE
  8
0
  6
CONTINUOUS
 62
     2
 10
68.5
 20
104.833333333
 30
0.0
 11
41.5
 21
104.833333333
 31
0.0
  0
LINE
  8
0
  6
CONTINUOUS
 62
     2
 10
41.5
 20
101.833333333
 30
0.0
 11
68.5
 21
101.833333333
 31
0.0
  0
LINE
  8
0
  6
CONTINUOUS
 62
     2
 10
38.5
 20
101.833333333
 30
0.0
 11
38.0
 21
101.833333333
 31
0.0
  0
LINE
  8
0
  6
CONTINUOUS
 62
     2
 10
38.5
 20
104.833333333
 30
0.0
 11
38.0
 21
104.833333333
 31
0.0
  0
LINE
  8
0
  6
CONTINUOUS
 62
     2
 10
38.0
 20
101.833333333
 30
0.0
 11
38.0
 21
104.833333333
 31
0.0
  0
LINE
  8
0
  6
CONTINUOUS
 62
     2
 10
71.5
 20
160.766666667
 30
0.0
 11
71.5
 21
160.166666667
 31
0.0
  0
LINE
  8
0
  6
CONTINUOUS
 62
     2
 10
71.5
 20
162.566666667
 30
0.0
 11
71.5
 21
163.166666667
 31
0.0
  0
LINE
  8
0
  6
CONTINUOUS
 62
     2
 10
68.5
 20
163.166666667
 30
0.0
 11
68.5
 21
162.566666667
 31
0.0
  0
LINE
  8
0
  6
CONTINUOUS
 62
     2
 10
68.5
 20
160.766666667
 30
0.0
 11
68.5
 21
160.166666667
 31
0.0
  0
LINE
  8
0
  6
CONTINUOUS
 62
     2
 10
68.5
 20
162.566666667
 30
0.0
 11
71.5
 21
162.566666667
 31
0.0
  0
LINE
  8
0
  6
CONTINUOUS
 62
     2
 10
68.5
 20
160.766666667
 30
0.0
 11
71.5
 21
160.766666667
 31
0.0
  0
LINE
  8
0
  6
CONTINUOUS
 62
     2
 10
71.5
 20
137.433
 30
0.0
 11
71.5
 21
136.833
 31
0.0
  0
LINE
  8
0
  6
CONTINUOUS
 62
     2
 10
71.5
 20
139.233
 30
0.0
 11
71.5
 21
139.833
 31
0.0
  0
LINE
  8
0
  6
CONTINUOUS
 62
     2
 10
68.5
 20
139.833
 30
0.0
 11
68.5
 21
139.233
 31
0.0
  0
LINE
  8
0
  6
CONTINUOUS
 62
     2
 10
68.5
 20
137.433
 30
0.0
 11
68.5
 21
136.833
 31
0.0
  0
LINE
  8
0
  6
CONTINUOUS
 62
     2
 10
68.5
 20
139.233
 30
0.0
 11
71.5
 21
139.233
 31
0.0
  0
LINE
  8
0
  6
CONTINUOUS
 62
     2
 10
68.5
 20
137.433
 30
0.0
 11
71.5
 21
137.433
 31
0.0
  0
LINE
  8
0
  6
CONTINUOUS
 62
     2
 10
41.5
 20
160.766666667
 30
0.0
 11
41.5
 21
160.166666667
 31
0.0
  0
LINE
  8
0
  6
CONTINUOUS
 62
     2
 10
41.5
 20
162.566666667
 30
0.0
 11
41.5
 21
163.166666667
 31
0.0
  0
LINE
  8
0
  6
CONTINUOUS
 62
     2
 10
38.5
 20
163.166666667
 30
0.0
 11
38.5
 21
162.566666667
 31
0.0
  0
LINE
  8
0
  6
CONTINUOUS
 62
     2
 10
38.5
 20
160.766666667
 30
0.0
 11
38.5
 21
160.166666667
 31
0.0
  0
LINE
  8
0
  6
CONTINUOUS
 62
     2
 10
38.5
 20
162.566666667
 30
0.0
 11
41.5
 21
162.566666667
 31
0.0
  0
LINE
  8
0
  6
CONTINUOUS
 62
     2
 10
38.5
 20
160.766666667
 30
0.0
 11
41.5
 21
160.766666667
 31
0.0
  0
LINE
  8
0
  6
CONTINUOUS
 62
     2
 10
41.5
 20
137.433
 30
0.0
 11
41.5
 21
136.833
 31
0.0
  0
LINE
  8
0
  6
CONTINUOUS
 62
     2
 10
41.5
 20
139.233
 30
0.0
 11
41.5
 21
139.833
 31
0.0
  0
LINE
  8
0
  6
CONTINUOUS
 62
     2
 10
38.5
 20
139.833
 30
0.0
 11
38.5
 21
139.233
 31
0.0
  0
LINE
  8
0
  6
CONTINUOUS
 62
     2
 10
38.5
 20
137.433
 30
0.0
 11
38.5
 21
136.833
 31
0.0
  0
LINE
  8
0
  6
CONTINUOUS
 62
     2
 10
38.5
 20
139.233
 30
0.0
 11
41.5
 21
139.233
 31
0.0
  0
LINE
  8
0
  6
CONTINUOUS
 62
     2
 10
38.5
 20
137.433
 30
0.0
 11
41.5
 21
137.433
 31
0.0
  0
POLYLINE
  8
0
  6
CONTINUOUS
 62
     2
 66
     1
  0
VERTEX
  8
0
  6
CONTINUOUS
 62
     2
 10
72.365142857
 20
110.84262207
 30
0.0
  0
VERTEX
  8
0
  6
CONTINUOUS
 62
     2
 10
73.079428571
 20
107.99887207
 30
0.0
  0
VERTEX
  8
0
  6
CONTINUOUS
 62
     2
 10
73.972285714
 20
110.84262207
 30
0.0
  0
SEQEND
  0
TEXT
  8
0
  6
CONTINUOUS
 62
     2
 10
137.04861685
 20
120.333333333
 30
0.3
 40
3.0
  1
７０
 50
0.0
 41
0.9
 51
0.0
  7
KANJI1
  0
LINE
  8
0
  6
CONTINUOUS
 62
     2
 10
128.333
 20
120.0
 30
0.0
 11
130.264851653
 21
120.51763809
 31
0.0
  0
LINE
  8
0
  6
CONTINUOUS
 62
     2
 10
128.333
 20
120.0
 30
0.0
 11
130.264851653
 21
119.48236191
 31
0.0
  0
LINE
  8
0
  6
CONTINUOUS
 62
     2
 10
151.666666667
 20
120.0
 30
0.0
 11
149.734815014
 21
120.51763809
 31
0.0
  0
LINE
  8
0
  6
CONTINUOUS
 62
     2
 10
151.666666667
 20
120.0
 30
0.0
 11
149.734815014
 21
119.48236191
 31
0.0
  0
LINE
  8
0
  6
CONTINUOUS
 62
     2
 10
128.333
 20
120.0
 30
0.0
 11
151.667
 21
120.0
 31
0.0
  0
LINE
  8
0
  6
CONTINUOUS
 62
     2
 10
76.5
 20
104.333333333
 30
0.0
 11
77.5
 21
104.333333333
 31
0.0
  0
LINE
  8
0
  6
CONTINUOUS
 62
     2
 10
77.5
 20
102.333333333
 30
0.0
 11
76.5
 21
102.333333333
 31
0.0
  0
LINE
  8
0
  6
CONTINUOUS
 62
     2
 10
76.5
 20
101.833333333
 30
0.0
 11
76.0
 21
101.833333333
 31
0.0
  0
LINE
  8
0
  6
CONTINUOUS
 62
     2
 10
76.0
 20
104.833333333
 30
0.0
 11
76.5
 21
104.833333333
 31
0.0
  0
LINE
  8
0
  6
CONTINUOUS
 62
     2
 10
77.5
 20
104.333333333
 30
0.0
 11
77.5
 21
102.333333333
 31
0.0
  0
LINE
  8
0
  6
CONTINUOUS
 62
     2
 10
76.5
 20
104.833333333
 30
0.0
 11
76.5
 21
101.833333333
 31
0.0
  0
LINE
  8
0
  6
CONTINUOUS
 62
     2
 10
76.5
 20
139.333
 30
0.0
 11
77.5
 21
139.333
 31
0.0
  0
LINE
  8
0
  6
CONTINUOUS
 62
     2
 10
77.5
 20
137.333
 30
0.0
 11
76.5
 21
137.333
 31
0.0
  0
LINE
  8
0
  6
CONTINUOUS
 62
     2
 10
77.5
 20
139.333
 30
0.0
 11
77.5
 21
137.333
 31
0.0
  0
LINE
  8
0
  6
CONTINUOUS
 62
     2
 10
76.5
 20
139.833
 30
0.0
 11
76.5
 21
136.833
 31
0.0
  0
LINE
  8
0
  6
CONTINUOUS
 62
     2
 10
76.5
 20
162.666666667
 30
0.0
 11
77.5
 21
162.666666667
 31
0.0
  0
LINE
  8
0
  6
CONTINUOUS
 62
     2
 10
77.5
 20
160.666666667
 30
0.0
 11
76.5
 21
160.666666667
 31
0.0
  0
LINE
  8
0
  6
CONTINUOUS
 62
     2
 10
77.5
 20
162.666666667
 30
0.0
 11
77.5
 21
160.666666667
 31
0.0
  0
LINE
  8
0
  6
CONTINUOUS
 62
     2
 10
76.5
 20
163.166666667
 30
0.0
 11
76.5
 21
160.166666667
 31
0.0
  0
LINE
  8
0
  6
CONTINUOUS
 62
     2
 10
38.0
 20
163.166666667
 30
0.0
 11
76.5
 21
163.166666667
 31
0.0
  0
LINE
  8
0
  6
CONTINUOUS
 62
     2
 10
38.0
 20
160.166666667
 30
0.0
 11
76.5
 21
160.166666667
 31
0.0
  0
LINE
  8
0
  6
CONTINUOUS
 62
     2
 10
38.0
 20
139.833333333
 30
0.0
 11
76.5
 21
139.833333333
 31
0.0
  0
LINE
  8
0
  6
CONTINUOUS
 62
     2
 10
38.0
 20
136.833333333
 30
0.0
 11
76.5
 21
136.833333333
 31
0.0
  0
LINE
  8
0
  6
CONTINUOUS
 62
     2
 10
128.333
 20
122.0
 30
0.0
 11
128.333
 21
109.119664958
 31
0.0
  0
LINE
  8
0
  6
CONTINUOUS
 62
     2
 10
151.666666667
 20
109.119664958
 30
0.0
 11
151.666666667
 21
122.0
 31
0.0
  0
LINE
  8
0
  6
CONTINUOUS
 62
     2
 10
77.009037882
 20
104.739
 30
0.0
 11
76.77800589
 21
107.228301954
 31
0.0
  0
LINE
  8
0
  6
CONTINUOUS
 62
     2
 10
77.009037882
 20
104.739
 30
0.0
 11
78.053609285
 21
107.010314726
 31
0.0
  0
TEXT
  8
0
  6
CONTINUOUS
 62
     2
 10
79.291500111
 20
118.537029878
 30
0.3
 40
3.0
  1
２－Ｍ６一次端子
 50
0.0
 41
0.9
 51
0.0
  7
KANJI1
  0
LINE
  8
0
  6
CONTINUOUS
 62
     2
 10
79.291500111
 20
118.095363107
 30
0.0
 11
102.999500111
 21
118.095363107
 31
0.0
  0
LINE
  8
0
  6
CONTINUOUS
 62
     2
 10
77.009037882
 20
104.739
 30
0.0
 11
79.291500111
 21
118.095363107
 31
0.0
  0
CIRCLE
  8
0
  6
CONTINUOUS
 62
     2
 10
140.0
 20
140.000030518
 30
0.0
 40
0.75
  0
POLYLINE
  8
0
  6
CONTINUOUS
 62
     2
 66
     1
  0
VERTEX
  8
0
  6
CONTINUOUS
 62
     2
 10
139.107142857
 20
137.937652588
 30
0.0
  0
VERTEX
  8
0
  6
CONTINUOUS
 62
     2
 10
139.285714286
 20
137.937652588
 30
0.0
  0
VERTEX
  8
0
  6
CONTINUOUS
 62
     2
 10
139.285714286
 20
136.843902588
 30
0.0
  0
VERTEX
  8
0
  6
CONTINUOUS
 62
     2
 10
139.464285714
 20
136.406402588
 30
0.0
  0
VERTEX
  8
0
  6
CONTINUOUS
 62
     2
 10
139.642857143
 20
136.187652588
 30
0.0
  0
VERTEX
  8
0
  6
CONTINUOUS
 62
     2
 10
140.0
 20
136.187652588
 30
0.0
  0
VERTEX
  8
0
  6
CONTINUOUS
 62
     2
 10
140.178571429
 20
136.406402588
 30
0.0
  0
VERTEX
  8
0
  6
CONTINUOUS
 62
     2
 10
140.357142857
 20
136.843902588
 30
0.0
  0
VERTEX
  8
0
  6
CONTINUOUS
 62
     2
 10
140.357142857
 20
137.937652588
 30
0.0
  0
VERTEX
  8
0
  6
CONTINUOUS
 62
     2
 10
140.714285714
 20
137.937652588
 30
0.0
  0
SEQEND
  0
CIRCLE
  8
0
  6
CONTINUOUS
 62
     2
 10
140.0
 20
165.00012207
 30
0.0
 40
0.75
  0
LINE
  8
0
  6
CONTINUOUS
 62
     2
 10
139.0
 20
162.00012207
 30
0.0
 11
141.0
 21
162.00012207
 31
0.0
  0
LINE
  8
0
  6
CONTINUOUS
 62
     2
 10
141.0
 20
162.00012207
 30
0.0
 11
141.0
 21
158.00012207
 31
0.0
  0
LINE
  8
0
  6
CONTINUOUS
 62
     2
 10
141.0
 20
158.00012207
 30
0.0
 11
139.0
 21
158.00012207
 31
0.0
  0
LINE
  8
0
  6
CONTINUOUS
 62
     2
 10
139.0
 20
158.00012207
 30
0.0
 11
139.0
 21
162.00012207
 31
0.0
  0
LINE
  8
0
  6
CONTINUOUS
 62
     2
 10
141.0
 20
162.00012207
 30
0.0
 11
139.0
 21
158.00012207
 31
0.0
  0
LINE
  8
0
  6
CONTINUOUS
 62
     2
 10
140.0
 20
162.00012207
 30
0.0
 11
140.0
 21
164.25012207
 31
0.0
  0
POLYLINE
  8
0
  6
CONTINUOUS
 62
     2
 66
     1
  0
VERTEX
  8
0
  6
CONTINUOUS
 62
     2
 10
139.107142857
 20
169.31262207
 30
0.0
  0
VERTEX
  8
0
  6
CONTINUOUS
 62
     2
 10
139.821428571
 20
166.46887207
 30
0.0
  0
VERTEX
  8
0
  6
CONTINUOUS
 62
     2
 10
140.714285714
 20
169.31262207
 30
0.0
  0
SEQEND
  0
LINE
  8
0
  6
CONTINUOUS
 62
     2
 10
138.0
 20
152.00012207
 30
0.0
 11
136.0
 21
154.00012207
 31
0.0
  0
LINE
  8
0
  6
CONTINUOUS
 62
     2
 10
136.0
 20
154.00012207
 30
0.0
 11
134.0
 21
152.00012207
 31
0.0
  0
LINE
  8
0
  6
CONTINUOUS
 62
     2
 10
134.0
 20
152.00012207
 30
0.0
 11
132.0
 21
154.00012207
 31
0.0
  0
LINE
  8
0
  6
CONTINUOUS
 62
     2
 10
132.0
 20
154.00012207
 30
0.0
 11
130.0
 21
152.00012207
 31
0.0
  0
LINE
  8
0
  6
CONTINUOUS
 62
     2
 10
130.0
 20
152.00012207
 30
0.0
 11
128.0
 21
154.00012207
 31
0.0
  0
LINE
  8
0
  6
CONTINUOUS
 62
     2
 10
128.0
 20
154.00012207
 30
0.0
 11
126.0
 21
152.00012207
 31
0.0
  0
LINE
  8
0
  6
CONTINUOUS
 62
     2
 10
126.0
 20
152.00012207
 30
0.0
 11
124.0
 21
154.00012207
 31
0.0
  0
LINE
  8
0
  6
CONTINUOUS
 62
     2
 10
124.0
 20
154.00012207
 30
0.0
 11
122.0
 21
152.00012207
 31
0.0
  0
LINE
  8
0
  6
CONTINUOUS
 62
     2
 10
122.0
 20
152.00012207
 30
0.0
 11
120.0
 21
154.00012207
 31
0.0
  0
LINE
  8
0
  6
CONTINUOUS
 62
     2
 10
120.0
 20
154.00012207
 30
0.0
 11
118.0
 21
152.00012207
 31
0.0
  0
LINE
  8
0
  6
CONTINUOUS
 62
     2
 10
118.0
 20
152.00012207
 30
0.0
 11
116.0
 21
154.00012207
 31
0.0
  0
LINE
  8
0
  6
CONTINUOUS
 62
     2
 10
116.0
 20
154.00012207
 30
0.0
 11
114.0
 21
152.00012207
 31
0.0
  0
LINE
  8
0
  6
CONTINUOUS
 62
     2
 10
114.0
 20
152.00012207
 30
0.0
 11
112.0
 21
154.00012207
 31
0.0
  0
LINE
  8
0
  6
CONTINUOUS
 62
     2
 10
112.0
 20
154.00012207
 30
0.0
 11
110.0
 21
152.00012207
 31
0.0
  0
CIRCLE
  8
0
  6
CONTINUOUS
 62
     2
 10
108.0
 20
140.000030518
 30
0.0
 40
0.75
  0
POLYLINE
  8
0
  6
CONTINUOUS
 62
     2
 66
     1
  0
VERTEX
  8
0
  6
CONTINUOUS
 62
     2
 10
107.107142857
 20
137.718902588
 30
0.0
  0
VERTEX
  8
0
  6
CONTINUOUS
 62
     2
 10
107.285714286
 20
137.718902588
 30
0.0
  0
VERTEX
  8
0
  6
CONTINUOUS
 62
     2
 10
107.285714286
 20
136.406402588
 30
0.0
  0
VERTEX
  8
0
  6
CONTINUOUS
 62
     2
 10
107.464285714
 20
135.968902588
 30
0.0
  0
VERTEX
  8
0
  6
CONTINUOUS
 62
     2
 10
108.178571429
 20
135.968902588
 30
0.0
  0
VERTEX
  8
0
  6
CONTINUOUS
 62
     2
 10
108.357142857
 20
136.187652588
 30
0.0
  0
VERTEX
  8
0
  6
CONTINUOUS
 62
     2
 10
108.357142857
 20
137.718902588
 30
0.0
  0
SEQEND
  0
LINE
  8
0
  6
CONTINUOUS
 62
     2
 10
108.357142857
 20
136.187652588
 30
0.0
 11
108.535714286
 21
135.968902588
 31
0.0
  0
LINE
  8
0
  6
CONTINUOUS
 62
     2
 10
108.535714286
 20
135.968902588
 30
0.0
 11
108.714285714
 21
135.968902588
 31
0.0
  0
LINE
  8
0
  6
CONTINUOUS
 62
     2
 10
108.714285714
 20
135.968902588
 30
0.0
 11
108.892857143
 21
136.187652588
 31
0.0
  0
LINE
  8
0
  6
LTYPE2
 62
     2
 10
107.0
 20
150.0
 30
0.0
 11
141.0
 21
150.0
 31
0.0
  0
CIRCLE
  8
0
  6
CONTINUOUS
 62
     2
 10
108.0
 20
165.00012207
 30
0.0
 40
0.75
  0
LINE
  8
0
  6
CONTINUOUS
 62
     2
 10
107.0
 20
162.00012207
 30
0.0
 11
109.0
 21
162.00012207
 31
0.0
  0
LINE
  8
0
  6
CONTINUOUS
 62
     2
 10
109.0
 20
162.00012207
 30
0.0
 11
109.0
 21
158.00012207
 31
0.0
  0
LINE
  8
0
  6
CONTINUOUS
 62
     2
 10
109.0
 20
158.00012207
 30
0.0
 11
107.0
 21
158.00012207
 31
0.0
  0
LINE
  8
0
  6
CONTINUOUS
 62
     2
 10
107.0
 20
158.00012207
 30
0.0
 11
107.0
 21
162.00012207
 31
0.0
  0
LINE
  8
0
  6
CONTINUOUS
 62
     2
 10
109.0
 20
162.00012207
 30
0.0
 11
107.0
 21
158.00012207
 31
0.0
  0
LINE
  8
0
  6
CONTINUOUS
 62
     2
 10
108.0
 20
162.00012207
 30
0.0
 11
108.0
 21
164.25012207
 31
0.0
  0
POLYLINE
  8
0
  6
CONTINUOUS
 62
     2
 66
     1
  0
VERTEX
  8
0
  6
CONTINUOUS
 62
     2
 10
107.107142857
 20
167.12512207
 30
0.0
  0
VERTEX
  8
0
  6
CONTINUOUS
 62
     2
 10
107.285714286
 20
166.68762207
 30
0.0
  0
VERTEX
  8
0
  6
CONTINUOUS
 62
     2
 10
107.642857143
 20
166.46887207
 30
0.0
  0
VERTEX
  8
0
  6
CONTINUOUS
 62
     2
 10
108.178571429
 20
166.46887207
 30
0.0
  0
VERTEX
  8
0
  6
CONTINUOUS
 62
     2
 10
108.535714286
 20
166.68762207
 30
0.0
  0
VERTEX
  8
0
  6
CONTINUOUS
 62
     2
 10
108.714285714
 20
167.12512207
 30
0.0
  0
VERTEX
  8
0
  6
CONTINUOUS
 62
     2
 10
108.714285714
 20
169.31262207
 30
0.0
  0
SEQEND
  0
LINE
  8
0
  6
CONTINUOUS
 62
     2
 10
107.107142857
 20
167.12512207
 30
0.0
 11
107.107142857
 21
169.31262207
 31
0.0
  0
LINE
  8
0
  6
CONTINUOUS
 62
     2
 10
138.0
 20
147.99987793
 30
0.0
 11
136.0
 21
145.99987793
 31
0.0
  0
LINE
  8
0
  6
CONTINUOUS
 62
     2
 10
136.0
 20
145.99987793
 30
0.0
 11
134.0
 21
147.99987793
 31
0.0
  0
LINE
  8
0
  6
CONTINUOUS
 62
     2
 10
134.0
 20
147.99987793
 30
0.0
 11
132.0
 21
145.99987793
 31
0.0
  0
LINE
  8
0
  6
CONTINUOUS
 62
     2
 10
132.0
 20
145.99987793
 30
0.0
 11
130.0
 21
147.99987793
 31
0.0
  0
LINE
  8
0
  6
CONTINUOUS
 62
     2
 10
130.0
 20
147.99987793
 30
0.0
 11
128.0
 21
145.99987793
 31
0.0
  0
LINE
  8
0
  6
CONTINUOUS
 62
     2
 10
128.0
 20
145.99987793
 30
0.0
 11
126.0
 21
147.99987793
 31
0.0
  0
LINE
  8
0
  6
CONTINUOUS
 62
     2
 10
126.0
 20
147.99987793
 30
0.0
 11
124.0
 21
145.99987793
 31
0.0
  0
LINE
  8
0
  6
CONTINUOUS
 62
     2
 10
124.0
 20
145.99987793
 30
0.0
 11
122.0
 21
147.99987793
 31
0.0
  0
LINE
  8
0
  6
CONTINUOUS
 62
     2
 10
122.0
 20
147.99987793
 30
0.0
 11
120.0
 21
145.99987793
 31
0.0
  0
LINE
  8
0
  6
CONTINUOUS
 62
     2
 10
120.0
 20
145.99987793
 30
0.0
 11
118.0
 21
147.99987793
 31
0.0
  0
LINE
  8
0
  6
CONTINUOUS
 62
     2
 10
118.0
 20
147.99987793
 30
0.0
 11
116.0
 21
145.99987793
 31
0.0
  0
LINE
  8
0
  6
CONTINUOUS
 62
     2
 10
116.0
 20
145.99987793
 30
0.0
 11
114.0
 21
147.99987793
 31
0.0
  0
LINE
  8
0
  6
CONTINUOUS
 62
     2
 10
114.0
 20
147.99987793
 30
0.0
 11
112.0
 21
145.99987793
 31
0.0
  0
LINE
  8
0
  6
CONTINUOUS
 62
     2
 10
112.0
 20
145.99987793
 30
0.0
 11
110.0
 21
147.99987793
 31
0.0
  0
POLYLINE
  8
0
  6
CONTINUOUS
 62
     2
 66
     1
  0
VERTEX
  8
0
  6
CONTINUOUS
 62
     2
 10
110.0
 20
147.99987793
 30
0.0
  0
VERTEX
  8
0
  6
CONTINUOUS
 62
     2
 10
108.0
 20
145.99987793
 30
0.0
  0
VERTEX
  8
0
  6
CONTINUOUS
 62
     2
 10
108.0
 20
140.750030518
 30
0.0
  0
SEQEND
  0
LINE
  8
0
  6
CONTINUOUS
 62
     2
 10
140.0
 20
145.99987793
 30
0.0
 11
138.0
 21
147.99987793
 31
0.0
  0
LINE
  8
0
  6
CONTINUOUS
 62
     2
 10
140.0
 20
145.99987793
 30
0.0
 11
140.0
 21
140.750030518
 31
0.0
  0
LINE
  8
0
  6
CONTINUOUS
 62
     2
 10
140.0
 20
154.00012207
 30
0.0
 11
138.0
 21
152.00012207
 31
0.0
  0
LINE
  8
0
  6
CONTINUOUS
 62
     2
 10
140.0
 20
154.00012207
 30
0.0
 11
140.0
 21
158.00012207
 31
0.0
  0
LINE
  8
0
  6
CONTINUOUS
 62
     2
 10
110.0
 20
152.00012207
 30
0.0
 11
108.0
 21
154.00012207
 31
0.0
  0
LINE
  8
0
  6
CONTINUOUS
 62
     2
 10
108.0
 20
154.00012207
 30
0.0
 11
108.0
 21
158.00012207
 31
0.0
  0
TEXT
  8
0
  6
CONTINUOUS
 62
     2
 10
142.399
 20
154.255335042
 30
0.3
 40
3.0
  1
一次
 50
0.0
 41
0.9
 51
0.0
  7
KANJI1
  0
TEXT
  8
0
  6
CONTINUOUS
 62
     2
 10
142.399
 20
142.588335042
 30
0.3
 40
3.0
  1
二次
 50
0.0
 41
0.9
 51
0.0
  7
KANJI1
  0
LINE
  8
0
  6
CONTINUOUS
 62
     2
 10
124.0
 20
87.399998527
 30
0.0
 11
114.0
 21
87.399998527
 31
0.0
  0
ARC
  8
0
  6
CONTINUOUS
 62
     2
 10
124.0
 20
85.399998527
 30
0.0
 40
2.0
 50
0.0
 51
90.0
  0
LINE
  8
0
  6
CONTINUOUS
 62
     2
 10
156.0
 20
87.399998527
 30
0.0
 11
166.0
 21
87.399998527
 31
0.0
  0
LINE
  8
0
  6
CONTINUOUS
 62
     2
 10
154.0
 20
54.0
 30
0.0
 11
154.0
 21
85.399998527
 31
0.0
  0
ARC
  8
0
  6
CONTINUOUS
 62
     2
 10
156.0
 20
85.399998527
 30
0.0
 40
2.0
 50
90.0
 51
180.0
  0
POINT
  8
2
  6
CONTINUOUS
 62
     2
 10
166.0
 20
25.0
 30
0.0
  0
LINE
  8
0
  6
CONTINUOUS
 62
     2
 10
166.000333333
 20
25.0
 30
0.0
 11
164.068481681
 21
25.51763809
 31
0.0
  0
LINE
  8
0
  6
CONTINUOUS
 62
     2
 10
166.000333333
 20
25.0
 30
0.0
 11
164.068481681
 21
24.48236191
 31
0.0
  0
LINE
  8
0
  6
CONTINUOUS
 62
     2
 10
166.0
 20
39.0
 30
0.0
 11
166.0
 21
24.0
 31
0.0
  0
LINE
  8
0
  6
CONTINUOUS
 62
     2
 10
114.0
 20
25.0
 30
0.0
 11
115.931851653
 21
25.51763809
 31
0.0
  0
LINE
  8
0
  6
CONTINUOUS
 62
     2
 10
114.0
 20
25.0
 30
0.0
 11
115.931851653
 21
24.48236191
 31
0.0
  0
LINE
  8
0
  6
CONTINUOUS
 62
     2
 10
114.0
 20
39.0
 30
0.0
 11
114.0
 21
24.0
 31
0.0
  0
LINE
  8
0
  6
CONTINUOUS
 62
     2
 10
114.0
 20
25.0
 30
0.0
 11
166.0
 21
25.0
 31
0.0
  0
TEXT
  8
0
  6
CONTINUOUS
 62
     2
 10
144.297264597
 20
31.859333333
 30
0.0
 40
2.0
  1
±０．５
 50
0.0
 41
0.75
 51
0.0
  7
KANJI8
  0
CIRCLE
  8
0
  6
CONTINUOUS
 62
     2
 10
70.0
 20
66.5
 30
0.0
 40
1.0
  0
ARC
  8
0
  6
CONTINUOUS
 62
     2
 10
70.0
 20
66.5
 30
0.0
 40
2.0
 50
240.0
 51
120.0
  0
ARC
  8
0
  6
CONTINUOUS
 62
     2
 10
40.0
 20
66.5
 30
0.0
 40
3.0
 50
70.528779365
 51
289.471220635
  0
CIRCLE
  8
0
  6
CONTINUOUS
 62
     2
 10
40.0
 20
66.5
 30
0.0
 40
1.0
  0
ARC
  8
0
  6
CONTINUOUS
 62
     2
 10
40.0
 20
66.5
 30
0.0
 40
2.0
 50
60.0
 51
300.0
  0
LINE
  8
0
  6
LTYPE1
 62
     2
 10
140.0
 20
36.233588211
 30
0.0
 11
140.0
 21
116.292922974
 31
0.0
  0
LINE
  8
0
  6
LTYPE1
 62
     2
 10
120.0
 20
42.5
 30
0.0
 11
120.0
 21
40.0
 31
0.0
  0
LINE
  8
0
  6
LTYPE1
 62
     2
 10
125.0
 20
49.0
 30
0.0
 11
125.0
 21
43.0
 31
0.0
  0
LINE
  8
0
  6
LTYPE1
 62
     2
 10
122.0
 20
46.0
 30
0.0
 11
128.0
 21
46.0
 31
0.0
  0
LINE
  8
0
  6
LTYPE1
 62
     2
 10
160.0
 20
42.5
 30
0.0
 11
160.0
 21
40.0
 31
0.0
  0
LINE
  8
0
  6
LTYPE1
 62
     2
 10
155.0
 20
49.0
 30
0.0
 11
155.0
 21
43.0
 31
0.0
  0
LINE
  8
0
  6
LTYPE1
 62
     2
 10
152.0
 20
46.0
 30
0.0
 11
158.0
 21
46.0
 31
0.0
  0
LINE
  8
0
  6
LTYPE1
 62
     2
 10
162.0
 20
87.899998527
 30
0.0
 11
162.0
 21
81.899998527
 31
0.0
  0
LINE
  8
0
  6
LTYPE1
 62
     2
 10
159.0
 20
84.899998527
 30
0.0
 11
165.0
 21
84.899998527
 31
0.0
  0
LINE
  8
0
  6
LTYPE1
 62
     2
 10
115.0
 20
84.899998527
 30
0.0
 11
121.0
 21
84.899998527
 31
0.0
  0
LINE
  8
0
  6
LTYPE1
 62
     2
 10
118.0
 20
87.899998527
 30
0.0
 11
118.0
 21
81.899998527
 31
0.0
  0
LINE
  8
0
  6
LTYPE1
 62
     2
 10
124.333
 20
103.333333333
 30
0.0
 11
132.333
 21
103.333333333
 31
0.0
  0
LINE
  8
0
  6
LTYPE1
 62
     2
 10
128.333
 20
107.333333333
 30
0.0
 11
128.333
 21
98.333333333
 31
0.0
  0
LINE
  8
0
  6
LTYPE1
 62
     2
 10
147.666666667
 20
103.333333333
 30
0.0
 11
155.666666667
 21
103.333333333
 31
0.0
  0
LINE
  8
0
  6
LTYPE1
 62
     2
 10
151.666666667
 20
107.333333333
 30
0.0
 11
151.666666667
 21
98.333333333
 31
0.0
  0
LINE
  8
0
  6
LTYPE1
 62
     2
 10
25.494502838
 20
150.0
 30
0.0
 11
84.256827694
 21
150.0
 31
0.0
  0
LINE
  8
0
  6
LTYPE1
 62
     2
 10
55.0
 20
120.494502838
 30
0.0
 11
55.0
 21
179.256827694
 31
0.0
  0
LINE
  8
0
  6
LTYPE1
 62
     2
 10
70.0
 20
107.333333333
 30
0.0
 11
70.0
 21
97.5
 31
0.0
  0
LINE
  8
0
  6
LTYPE1
 62
     2
 10
36.5
 20
103.333333333
 30
0.0
 11
79.57
 21
103.333333333
 31
0.0
  0
LINE
  8
0
  6
LTYPE1
 62
     2
 10
40.0
 20
107.333333333
 30
0.0
 11
40.0
 21
97.5
 31
0.0
  0
LINE
  8
0
  6
LTYPE1
 62
     2
 10
54.999999992
 20
117.822085531
 30
0.0
 11
54.999999992
 21
36.233588211
 31
0.0
  0
LINE
  8
0
  6
LTYPE1
 62
     2
 10
44.5
 20
66.5
 30
0.0
 11
35.5
 21
66.5
 31
0.0
  0
LINE
  8
0
  6
LTYPE1
 62
     2
 10
33.0
 20
161.666666667
 30
0.0
 11
80.170989376
 21
161.666666667
 31
0.0
  0
LINE
  8
0
  6
LTYPE1
 62
     2
 10
33.0
 20
138.333333333
 30
0.0
 11
80.170989376
 21
138.333333333
 31
0.0
  0
LINE
  8
0
  6
CONTINUOUS
 62
     2
 10
88.183837891
 20
40.000003815
 30
0.0
 11
97.0
 21
40.0
 31
0.0
  0
LINE
  8
0
  6
CONTINUOUS
 62
     2
 10
95.0
 20
40.0
 30
0.0
 11
94.48236191
 21
41.931851653
 31
0.0
  0
LINE
  8
0
  6
CONTINUOUS
 62
     2
 10
95.0
 20
40.0
 30
0.0
 11
95.51763809
 21
41.931851653
 31
0.0
  0
LINE
  8
0
  6
CONTINUOUS
 62
     2
 10
84.591918945
 20
103.333333333
 30
0.0
 11
97.0
 21
103.333329518
 31
0.0
  0
LINE
  8
0
  6
CONTINUOUS
 62
     2
 10
95.0
 20
103.333329518
 30
0.0
 11
95.0
 21
40.0
 31
0.0
  0
LINE
  8
0
  6
CONTINUOUS
 62
     2
 10
95.0
 20
103.333329518
 30
0.0
 11
94.48236191
 21
101.401477866
 31
0.0
  0
LINE
  8
0
  6
CONTINUOUS
 62
     2
 10
95.0
 20
103.333329518
 30
0.0
 11
95.51763809
 21
101.401477866
 31
0.0
  0
TEXT
  8
0
  6
CONTINUOUS
 62
     2
 10
94.253852275
 20
66.689996185
 30
0.3
 40
3.0
  1
１９０
 50
90.0
 41
0.9
 51
0.0
  7
KANJI1
  0
LINE
  8
0
  6
CONTINUOUS
 62
     2
 10
180.0
 20
131.0
 30
0.0
 11
180.0
 21
116.0
 31
0.0
  0
LINE
  8
0
  6
CONTINUOUS
 62
     2
 10
208.0
 20
148.0
 30
0.0
 11
208.0
 21
143.0
 31
0.0
  0
TEXT
  8
0
  6
CONTINUOUS
 62
     2
 10
202.0
 20
169.0
 30
0.3
 40
3.0
  1
＃１　　　６６００Ｖ
 50
0.0
 41
0.9
 51
0.0
  7
KANJI5
  0
TEXT
  8
0
  6
CONTINUOUS
 62
     2
 10
202.0
 20
164.0
 30
0.3
 40
3.0
  1
＃２　　　３３００Ｖ
 50
0.0
 41
0.9
 51
0.0
  7
KANJI5
  0
LINE
  8
0
  6
CONTINUOUS
 62
     2
 10
208.0
 20
173.0
 30
0.0
 11
208.0
 21
163.0
 31
0.0
  0
TEXT
  8
0
  6
CONTINUOUS
 62
     2
 10
142.399
 20
158.755335042
 30
0.3
 40
3.0
  1
ヒューズ
 50
0.0
 41
0.9
 51
0.0
  7
KANJI1
  0
TEXT
  8
0
  6
CONTINUOUS
 62
     2
 10
93.691
 20
158.755335042
 30
0.3
 40
3.0
  1
ヒューズ
 50
0.0
 41
0.9
 51
0.0
  7
KANJI1
  0
LINE
  8
0
  6
CONTINUOUS
 62
     2
 10
84.808883165
 20
33.374588211
 30
0.0
 11
105.950883165
 21
33.374588211
 31
0.0
  0
TEXT
  8
0
  6
CONTINUOUS
 62
     2
 10
172.0
 20
180.0
 30
0.4
 40
4.0
  1
エホ゜キシモールト゛計器用変圧器
 50
0.0
 41
0.9
 51
0.0
  7
KANJI0
  0
TEXT
  8
0
  6
CONTINUOUS
 62
     2
 10
166.5
 20
134.0
 30
0.3
 40
3.0
  1
質　量
 50
0.0
 41
0.9
 51
0.0
  7
KANJI5
  0
TEXT
  8
0
  6
CONTINUOUS
 62
     2
 10
84.808883165
 20
33.816254982
 30
0.3
 40
3.0
  1
４－φ９取付穴
 50
0.0
 41
0.9
 51
0.0
  7
KANJI1
  0
LINE
  8
0
  6
CONTINUOUS
 62
     2
 10
123.0
 20
68.5
 30
0.0
 11
123.0
 21
64.5
 31
0.0
  0
LINE
  8
0
  6
CONTINUOUS
 62
     2
 10
128.0
 20
63.5
 30
0.0
 11
123.0
 21
64.5
 31
0.0
  0
LINE
  8
0
  6
CONTINUOUS
 62
     2
 10
128.0
 20
69.5
 30
0.0
 11
123.0
 21
68.5
 31
0.0
  0
LINE
  8
0
  6
CONTINUOUS
 62
     2
 10
123.0
 20
67.5
 30
0.0
 11
122.3
 21
67.5
 31
0.0
  0
ARC
  8
0
  6
CONTINUOUS
 62
     2
 10
122.3
 20
66.7
 30
0.0
 40
0.8
 50
90.0
 51
180.0
  0
LINE
  8
0
  6
CONTINUOUS
 62
     2
 10
123.0
 20
65.5
 30
0.0
 11
122.3
 21
65.5
 31
0.0
  0
LINE
  8
0
  6
CONTINUOUS
 62
     2
 10
121.5
 20
66.7
 30
0.0
 11
121.5
 21
66.3
 31
0.0
  0
ARC
  8
0
  6
CONTINUOUS
 62
     2
 10
122.3
 20
66.3
 30
0.0
 40
0.8
 50
180.0
 51
270.0
  0
LINE
  8
0
  6
CONTINUOUS
 62
     2
 10
122.5
 20
67.5
 30
0.0
 11
122.5
 21
65.5
 31
0.0
  0
LINE
  8
0
  6
LTYPE1
 62
     2
 10
120.534820115
 20
66.5
 30
0.0
 11
129.562605467
 21
66.5
 31
0.0
  0
LINE
  8
0
  6
CONTINUOUS
 62
     2
 10
126.0
 20
69.1
 30
0.0
 11
126.0
 21
85.399998527
 31
0.0
  0
LINE
  8
0
  6
CONTINUOUS
 62
     2
 10
127.0
 20
69.3
 30
0.0
 11
127.0
 21
72.5
 31
0.0
  0
LINE
  8
0
  6
CONTINUOUS
 62
     2
 10
126.0
 20
54.0
 30
0.0
 11
126.0
 21
63.9
 31
0.0
  0
LINE
  8
0
  6
CONTINUOUS
 62
     2
 10
127.0
 20
54.0
 30
0.0
 11
127.0
 21
63.7
 31
0.0
  0
LINE
  8
0
  6
CONTINUOUS
 62
     2
 10
122.036974727
 20
68.040594945
 30
0.0
 11
122.26800672
 21
70.5298969
 31
0.0
  0
LINE
  8
0
  6
CONTINUOUS
 62
     2
 10
122.036974727
 20
68.040594945
 30
0.0
 11
120.992403325
 21
70.311909672
 31
0.0
  0
LINE
  8
0
  6
CONTINUOUS
 62
     2
 10
122.036974727
 20
68.040594945
 30
0.0
 11
115.200883165
 21
108.043588211
 31
0.0
  0
TEXT
  8
0
  6
CONTINUOUS
 62
     2
 10
91.492883165
 20
108.485254982
 30
0.3
 40
3.0
  1
２－Ｍ５二次端子
 50
0.0
 41
0.9
 51
0.0
  7
KANJI1
  0
LINE
  8
0
  6
CONTINUOUS
 62
     2
 10
91.492883165
 20
108.043588211
 30
0.0
 11
115.200883165
 21
108.043588211
 31
0.0
  0
TEXT
  8
0
  6
CONTINUOUS
 62
     1
 10
183.0
 20
57.0
 30
0.0
 40
4.0
  1
エポキシモールド計器用変圧器外形図
 50
0.0
 41
0.75
 51
0.0
  7
KANJI9
  0
TEXT
  8
0
  6
CONTINUOUS
 62
     3
 10
182.0
 20
37.0
 30
0.2
 40
5.8
  1
ＭＳ－９４７８Ａ
 50
0.0
 41
0.827586207
 51
0.0
  7
KANJI10
  0
TEXT
  8
0
  6
CONTINUOUS
 62
     1
 10
185.0
 20
70.946
 30
0.4
 40
4.0
  1
ＰＭｅ－３Ｄａ
 50
0.0
 41
0.9
 51
0.0
  7
KANJI11
  0
TEXT
  8
0
  6
CONTINUOUS
 62
     1
 10
185.0
 20
65.946
 30
0.4
 40
4.0
  1
ＰＭｅ－６Ｄａ
 50
0.0
 41
0.9
 51
0.0
  7
KANJI11
  0
ENDSEC
  0
EOF
