  0
SECTION
  2
HEADER
  9
$ACADVER
  1
AC1009
  9
$DWGCODEPAGE
  3
dos932
  9
$EXTMIN
 10
0.0
 20
0.0
 30
0.0
  9
$EXTMAX
 10
297.0
 20
210.0
 30
0.0
  9
$LIMMIN
 10
0.0
 20
0.0
  9
$LIMMAX
 10
297.0
 20
210.0
  9
$LTSCALE
 40
1.0
  9
$PDMODE
 70
     0
  0
ENDSEC
  0
SECTION
  2
TABLES
  0
TABLE
  2
VPORT
 70
     1
  0
VPORT
  2
*ACTIVE
 70
     0
 10
0.0
 20
0.0
 11
1.0
 21
1.0
 12
148.5
 22
105.0
 13
0.0
 23
0.0
 14
10.0
 24
10.0
 15
10.0
 25
10.0
 16
0.0
 26
0.0
 36
1.0
 17
0.0
 27
0.0
 37
0.0
 40
297.0
 41
1.414285714
 42
50.0
 43
0.0
 44
0.0
 50
0.0
 51
0.0
 71
     0
 72
  1000
 73
     1
 74
     3
 75
     0
 76
     0
 77
     0
 78
     0
  0
ENDTAB
  0
TABLE
  2
LTYPE
 70
     3
  0
LTYPE
  2
CONTINUOUS
 70
    64
  3
Solid line
 72
    65
 73
     0
 40
0.0
  0
LTYPE
  2
LTYPE1
 70
    64
  3
CENTER
 72
    65
 73
     4
 40
5.0
 49
3.5
 49
-0.5
 49
0.5
 49
-0.5
  0
LTYPE
  2
LTYPE2
 70
    64
  3
HIDDEN
 72
    65
 73
     2
 40
2.0
 49
1.2
 49
-0.8
  0
ENDTAB
  0
TABLE
  2
LAYER
 70
   128
  0
LAYER
  2
0
 70
     0
 62
     7
  6
CONTINUOUS
  0
LAYER
  2
2
 70
     0
 62
     7
  6
CONTINUOUS
  0
LAYER
  2
3
 70
     0
 62
     7
  6
CONTINUOUS
  0
LAYER
  2
4
 70
     0
 62
     7
  6
CONTINUOUS
  0
LAYER
  2
5
 70
     0
 62
     7
  6
CONTINUOUS
  0
LAYER
  2
6
 70
     0
 62
     7
  6
CONTINUOUS
  0
LAYER
  2
7
 70
     0
 62
     7
  6
CONTINUOUS
  0
LAYER
  2
8
 70
     0
 62
     7
  6
CONTINUOUS
  0
LAYER
  2
9
 70
     0
 62
     7
  6
CONTINUOUS
  0
LAYER
  2
10
 70
     0
 62
     7
  6
CONTINUOUS
  0
LAYER
  2
11
 70
     0
 62
     7
  6
CONTINUOUS
  0
LAYER
  2
12
 70
     0
 62
     7
  6
CONTINUOUS
  0
LAYER
  2
13
 70
     0
 62
     7
  6
CONTINUOUS
  0
LAYER
  2
14
 70
     0
 62
     7
  6
CONTINUOUS
  0
LAYER
  2
15
 70
     0
 62
     7
  6
CONTINUOUS
  0
LAYER
  2
16
 70
     0
 62
     7
  6
CONTINUOUS
  0
LAYER
  2
17
 70
     0
 62
     7
  6
CONTINUOUS
  0
LAYER
  2
18
 70
     0
 62
     7
  6
CONTINUOUS
  0
LAYER
  2
19
 70
     0
 62
     7
  6
CONTINUOUS
  0
LAYER
  2
20
 70
     0
 62
     7
  6
CONTINUOUS
  0
LAYER
  2
21
 70
     0
 62
     7
  6
CONTINUOUS
  0
LAYER
  2
22
 70
     0
 62
     7
  6
CONTINUOUS
  0
LAYER
  2
23
 70
     0
 62
     7
  6
CONTINUOUS
  0
LAYER
  2
24
 70
     0
 62
     7
  6
CONTINUOUS
  0
LAYER
  2
25
 70
     0
 62
     7
  6
CONTINUOUS
  0
LAYER
  2
26
 70
     0
 62
     7
  6
CONTINUOUS
  0
LAYER
  2
27
 70
     0
 62
     7
  6
CONTINUOUS
  0
LAYER
  2
28
 70
     0
 62
     7
  6
CONTINUOUS
  0
LAYER
  2
29
 70
     0
 62
     7
  6
CONTINUOUS
  0
LAYER
  2
30
 70
     0
 62
     7
  6
CONTINUOUS
  0
LAYER
  2
31
 70
     0
 62
     7
  6
CONTINUOUS
  0
LAYER
  2
32
 70
     0
 62
     7
  6
CONTINUOUS
  0
LAYER
  2
33
 70
     0
 62
     7
  6
CONTINUOUS
  0
LAYER
  2
34
 70
     0
 62
     7
  6
CONTINUOUS
  0
LAYER
  2
35
 70
     0
 62
     7
  6
CONTINUOUS
  0
LAYER
  2
36
 70
     0
 62
     7
  6
CONTINUOUS
  0
LAYER
  2
37
 70
     0
 62
     7
  6
CONTINUOUS
  0
LAYER
  2
38
 70
     0
 62
     7
  6
CONTINUOUS
  0
LAYER
  2
39
 70
     0
 62
     7
  6
CONTINUOUS
  0
LAYER
  2
40
 70
     0
 62
     7
  6
CONTINUOUS
  0
LAYER
  2
41
 70
     0
 62
     7
  6
CONTINUOUS
  0
LAYER
  2
42
 70
     0
 62
     7
  6
CONTINUOUS
  0
LAYER
  2
43
 70
     0
 62
     7
  6
CONTINUOUS
  0
LAYER
  2
44
 70
     0
 62
     7
  6
CONTINUOUS
  0
LAYER
  2
45
 70
     0
 62
     7
  6
CONTINUOUS
  0
LAYER
  2
46
 70
     0
 62
     7
  6
CONTINUOUS
  0
LAYER
  2
47
 70
     0
 62
     7
  6
CONTINUOUS
  0
LAYER
  2
48
 70
     0
 62
     7
  6
CONTINUOUS
  0
LAYER
  2
49
 70
     0
 62
     7
  6
CONTINUOUS
  0
LAYER
  2
50
 70
     0
 62
     7
  6
CONTINUOUS
  0
LAYER
  2
51
 70
     0
 62
     7
  6
CONTINUOUS
  0
LAYER
  2
52
 70
     0
 62
     7
  6
CONTINUOUS
  0
LAYER
  2
53
 70
     0
 62
     7
  6
CONTINUOUS
  0
LAYER
  2
54
 70
     0
 62
     7
  6
CONTINUOUS
  0
LAYER
  2
55
 70
     0
 62
     7
  6
CONTINUOUS
  0
LAYER
  2
56
 70
     0
 62
     7
  6
CONTINUOUS
  0
LAYER
  2
57
 70
     0
 62
     7
  6
CONTINUOUS
  0
LAYER
  2
58
 70
     0
 62
     7
  6
CONTINUOUS
  0
LAYER
  2
59
 70
     0
 62
     7
  6
CONTINUOUS
  0
LAYER
  2
60
 70
     0
 62
     7
  6
CONTINUOUS
  0
LAYER
  2
61
 70
     0
 62
     7
  6
CONTINUOUS
  0
LAYER
  2
62
 70
     0
 62
     7
  6
CONTINUOUS
  0
LAYER
  2
63
 70
     0
 62
     7
  6
CONTINUOUS
  0
LAYER
  2
64
 70
     0
 62
     7
  6
CONTINUOUS
  0
LAYER
  2
65
 70
     0
 62
     7
  6
CONTINUOUS
  0
LAYER
  2
66
 70
     0
 62
     7
  6
CONTINUOUS
  0
LAYER
  2
67
 70
     0
 62
     7
  6
CONTINUOUS
  0
LAYER
  2
68
 70
     0
 62
     7
  6
CONTINUOUS
  0
LAYER
  2
69
 70
     0
 62
     7
  6
CONTINUOUS
  0
LAYER
  2
70
 70
     0
 62
     7
  6
CONTINUOUS
  0
LAYER
  2
71
 70
     0
 62
     7
  6
CONTINUOUS
  0
LAYER
  2
72
 70
     0
 62
     7
  6
CONTINUOUS
  0
LAYER
  2
73
 70
     0
 62
     7
  6
CONTINUOUS
  0
LAYER
  2
74
 70
     0
 62
     7
  6
CONTINUOUS
  0
LAYER
  2
75
 70
     0
 62
     7
  6
CONTINUOUS
  0
LAYER
  2
76
 70
     0
 62
     7
  6
CONTINUOUS
  0
LAYER
  2
77
 70
     0
 62
     7
  6
CONTINUOUS
  0
LAYER
  2
78
 70
     0
 62
     7
  6
CONTINUOUS
  0
LAYER
  2
79
 70
     0
 62
     7
  6
CONTINUOUS
  0
LAYER
  2
80
 70
     0
 62
     7
  6
CONTINUOUS
  0
LAYER
  2
81
 70
     0
 62
     7
  6
CONTINUOUS
  0
LAYER
  2
82
 70
     0
 62
     7
  6
CONTINUOUS
  0
LAYER
  2
83
 70
     0
 62
     7
  6
CONTINUOUS
  0
LAYER
  2
84
 70
     0
 62
     7
  6
CONTINUOUS
  0
LAYER
  2
85
 70
     0
 62
     7
  6
CONTINUOUS
  0
LAYER
  2
86
 70
     0
 62
     7
  6
CONTINUOUS
  0
LAYER
  2
87
 70
     0
 62
     7
  6
CONTINUOUS
  0
LAYER
  2
88
 70
     0
 62
     7
  6
CONTINUOUS
  0
LAYER
  2
89
 70
     0
 62
     7
  6
CONTINUOUS
  0
LAYER
  2
90
 70
     0
 62
     7
  6
CONTINUOUS
  0
LAYER
  2
91
 70
     0
 62
     7
  6
CONTINUOUS
  0
LAYER
  2
92
 70
     0
 62
     7
  6
CONTINUOUS
  0
LAYER
  2
93
 70
     0
 62
     7
  6
CONTINUOUS
  0
LAYER
  2
94
 70
     0
 62
     7
  6
CONTINUOUS
  0
LAYER
  2
95
 70
     0
 62
     7
  6
CONTINUOUS
  0
LAYER
  2
96
 70
     0
 62
     7
  6
CONTINUOUS
  0
LAYER
  2
97
 70
     0
 62
     7
  6
CONTINUOUS
  0
LAYER
  2
98
 70
     0
 62
     7
  6
CONTINUOUS
  0
LAYER
  2
99
 70
     0
 62
     7
  6
CONTINUOUS
  0
LAYER
  2
100
 70
     0
 62
     7
  6
CONTINUOUS
  0
LAYER
  2
101
 70
     0
 62
     7
  6
CONTINUOUS
  0
LAYER
  2
102
 70
     0
 62
     7
  6
CONTINUOUS
  0
LAYER
  2
103
 70
     0
 62
     7
  6
CONTINUOUS
  0
LAYER
  2
104
 70
     0
 62
     7
  6
CONTINUOUS
  0
LAYER
  2
105
 70
     0
 62
     7
  6
CONTINUOUS
  0
LAYER
  2
106
 70
     0
 62
     7
  6
CONTINUOUS
  0
LAYER
  2
107
 70
     0
 62
     7
  6
CONTINUOUS
  0
LAYER
  2
108
 70
     0
 62
     7
  6
CONTINUOUS
  0
LAYER
  2
109
 70
     0
 62
     7
  6
CONTINUOUS
  0
LAYER
  2
110
 70
     0
 62
     7
  6
CONTINUOUS
  0
LAYER
  2
111
 70
     0
 62
     7
  6
CONTINUOUS
  0
LAYER
  2
112
 70
     0
 62
     7
  6
CONTINUOUS
  0
LAYER
  2
113
 70
     0
 62
     7
  6
CONTINUOUS
  0
LAYER
  2
114
 70
     0
 62
     7
  6
CONTINUOUS
  0
LAYER
  2
115
 70
     0
 62
     7
  6
CONTINUOUS
  0
LAYER
  2
116
 70
     0
 62
     7
  6
CONTINUOUS
  0
LAYER
  2
117
 70
     0
 62
     7
  6
CONTINUOUS
  0
LAYER
  2
118
 70
     0
 62
     7
  6
CONTINUOUS
  0
LAYER
  2
119
 70
     0
 62
     7
  6
CONTINUOUS
  0
LAYER
  2
120
 70
     0
 62
     7
  6
CONTINUOUS
  0
LAYER
  2
121
 70
     0
 62
     7
  6
CONTINUOUS
  0
LAYER
  2
122
 70
     0
 62
     7
  6
CONTINUOUS
  0
LAYER
  2
123
 70
     0
 62
     7
  6
CONTINUOUS
  0
LAYER
  2
124
 70
     0
 62
     7
  6
CONTINUOUS
  0
LAYER
  2
125
 70
     0
 62
     7
  6
CONTINUOUS
  0
LAYER
  2
126
 70
     0
 62
     7
  6
CONTINUOUS
  0
LAYER
  2
127
 70
     0
 62
     7
  6
CONTINUOUS
  0
LAYER
  2
128
 70
     0
 62
     7
  6
CONTINUOUS
  0
ENDTAB
  0
TABLE
  2
STYLE
 70
    15
  0
STYLE
  2
STANDARD
 70
     0
 40
0.0
 41
1.0
 50
0.0
 71
     0
 42
0.2
  3
txt.shx
  4
extfont.shx
  0
STYLE
  2
KANJI0
 70
     0
 40
4.0
 41
0.9
 50
0.0
 71
     0
 42
4.0
  3
txt.shx
  4
extfont.shx
  0
STYLE
  2
KANJI1
 70
     0
 40
4.0
 41
0.875
 50
0.0
 71
     0
 42
4.0
  3
txt.shx
  4
extfont.shx
  0
STYLE
  2
KANJI2
 70
     4
 40
4.0
 41
0.9
 50
0.0
 71
     0
 42
4.0
  3
txt.shx
  4
extfont.shx
  0
STYLE
  2
KANJI3
 70
     0
 40
3.0
 41
0.9
 50
0.0
 71
     0
 42
3.0
  3
txt.shx
  4
extfont.shx
  0
STYLE
  2
KANJI4
 70
     0
 40
3.0
 41
0.45
 50
0.0
 71
     0
 42
3.0
  3
txt.shx
  4
extfont.shx
  0
STYLE
  2
KANJI5
 70
     0
 40
2.0
 41
0.9
 50
0.0
 71
     0
 42
2.0
  3
txt.shx
  4
extfont.shx
  0
STYLE
  2
KANJI6
 70
     0
 40
3.0
 41
0.9
 50
0.0
 71
     0
 42
3.0
  3
txt.shx
  4
extfont.shx
  0
STYLE
  2
KANJI7
 70
     0
 40
3.0
 41
0.9
 50
0.0
 71
     0
 42
3.0
  3
txt.shx
  4
extfont.shx
  0
STYLE
  2
KANJI8
 70
     0
 40
2.2
 41
0.909090909
 50
0.0
 71
     0
 42
2.2
  3
txt.shx
  4
extfont.shx
  0
STYLE
  2
KANJI9
 70
     0
 40
3.0
 41
0.6
 50
0.0
 71
     0
 42
3.0
  3
txt.shx
  4
extfont.shx
  0
STYLE
  2
KANJI10
 70
     0
 40
3.5
 41
0.9
 50
0.0
 71
     0
 42
3.5
  3
txt.shx
  4
extfont.shx
  0
STYLE
  2
KANJI11
 70
     0
 40
3.0
 41
0.733333333
 50
0.0
 71
     0
 42
3.0
  3
txt.shx
  4
extfont.shx
  0
STYLE
  2
KANJI12
 70
     0
 40
4.0
 41
0.9
 50
0.0
 71
     0
 42
4.0
  3
txt.shx
  4
extfont.shx
  0
STYLE
  2
KANJI13
 70
     0
 40
5.8
 41
0.827586207
 50
0.0
 71
     0
 42
5.8
  3
txt.shx
  4
extfont.shx
  0
ENDTAB
  0
TABLE
  2
VIEW
 70
     0
  0
ENDTAB
  0
ENDSEC
  0
SECTION
  2
BLOCKS
  0
ENDSEC
  0
SECTION
  2
ENTITIES
  0
LINE
  8
0
  6
CONTINUOUS
 62
     2
 10
163.0
 20
168.0
 30
0.0
 11
223.0
 21
168.0
 31
0.0
  0
LINE
  8
0
  6
CONTINUOUS
 62
     2
 10
163.0
 20
174.0
 30
0.0
 11
223.0
 21
174.0
 31
0.0
  0
LINE
  8
0
  6
CONTINUOUS
 62
     2
 10
163.0
 20
180.0
 30
0.0
 11
223.0
 21
180.0
 31
0.0
  0
TEXT
  8
0
  6
CONTINUOUS
 62
     2
 10
199.0
 20
168.9
 30
0.4
 40
4.0
  1
屋内用乾式
 50
0.0
 41
0.9
 51
0.0
  7
KANJI0
  0
LINE
  8
0
  6
CONTINUOUS
 62
     2
 10
195.5
 20
168.0
 30
0.0
 11
195.5
 21
174.0
 31
0.0
  0
TEXT
  8
0
  6
CONTINUOUS
 62
     2
 10
172.0
 20
175.0
 30
0.4
 40
4.0
  1
エホ゜キシモールト゛計器用変圧器
 50
0.0
 41
0.9
 51
0.0
  7
KANJI0
  0
TEXT
  8
0
  6
CONTINUOUS
 62
     2
 10
166.0
 20
168.9
 30
0.1
 40
4.0
  1
ＰＭｅ－１ＥＶａ
 50
0.0
 41
0.875
 51
0.0
  7
KANJI1
  0
LINE
  8
0
  6
CONTINUOUS
 62
     2
 10
163.0
 20
126.0
 30
0.0
 11
223.0
 21
126.0
 31
0.0
  0
LINE
  8
0
  6
CONTINUOUS
 62
     2
 10
223.0
 20
128.0
 30
0.0
 11
163.0
 21
128.0
 31
0.0
  0
LINE
  8
0
  6
CONTINUOUS
 62
     2
 10
163.0
 20
143.0
 30
0.0
 11
223.0
 21
143.0
 31
0.0
  0
LINE
  8
0
  6
CONTINUOUS
 62
     2
 10
163.0
 20
138.0
 30
0.0
 11
223.0
 21
138.0
 31
0.0
  0
LINE
  8
0
  6
CONTINUOUS
 62
     2
 10
163.0
 20
133.0
 30
0.0
 11
223.0
 21
133.0
 31
0.0
  0
LINE
  8
0
  6
CONTINUOUS
 62
     2
 10
178.0
 20
138.0
 30
0.0
 11
178.0
 21
128.0
 31
0.0
  0
LINE
  8
0
  6
CONTINUOUS
 62
     2
 10
203.0
 20
128.0
 30
0.0
 11
203.0
 21
138.0
 31
0.0
  0
LINE
  8
0
  6
CONTINUOUS
 62
     2
 10
213.0
 20
138.0
 30
0.0
 11
213.0
 21
133.0
 31
0.0
  0
LINE
  8
0
  6
CONTINUOUS
 62
     2
 10
198.0
 20
163.0
 30
0.0
 11
223.0
 21
163.0
 31
0.0
  0
LINE
  8
0
  6
CONTINUOUS
 62
     2
 10
173.0
 20
148.0
 30
0.0
 11
223.0
 21
148.0
 31
0.0
  0
LINE
  8
0
  6
CONTINUOUS
 62
     2
 10
173.0
 20
153.0
 30
0.0
 11
223.0
 21
153.0
 31
0.0
  0
LINE
  8
0
  6
CONTINUOUS
 62
     2
 10
173.0
 20
158.0
 30
0.0
 11
223.0
 21
158.0
 31
0.0
  0
LINE
  8
0
  6
CONTINUOUS
 62
     2
 10
163.0
 20
128.0
 30
0.0
 11
163.0
 21
180.0
 31
0.0
  0
LINE
  8
0
  6
CONTINUOUS
 62
     2
 10
223.0
 20
180.0
 30
0.0
 11
223.0
 21
128.0
 31
0.0
  0
TEXT
  8
0
  6
CONTINUOUS
 62
     2
 10
167.8
 20
166.0
 30
1.0
 40
4.0
  1
定　格
 50
0.0
 41
0.9
 51
0.0
  7
KANJI2
  0
TEXT
  8
0
  6
CONTINUOUS
 62
     2
 10
180.0
 20
154.0
 30
0.3
 40
3.0
  1
二次電圧
 50
0.0
 41
0.9
 51
0.0
  7
KANJI3
  0
TEXT
  8
0
  6
CONTINUOUS
 62
     2
 10
180.0
 20
144.0
 30
0.3
 40
3.0
  1
負　　担
 50
0.0
 41
0.9
 51
0.0
  7
KANJI3
  0
TEXT
  8
0
  6
CONTINUOUS
 62
     2
 10
180.0
 20
149.0
 30
0.3
 40
3.0
  1
周　波　数
 50
0.0
 41
0.9
 51
0.0
  7
KANJI3
  0
TEXT
  8
0
  6
CONTINUOUS
 62
     2
 10
206.0
 20
149.0
 30
0.3
 40
3.0
  1
５０／６０Ｈｚ
 50
0.0
 41
0.45
 51
0.0
  7
KANJI4
  0
TEXT
  8
0
  6
CONTINUOUS
 62
     2
 10
206.0
 20
154.0
 30
0.3
 40
3.0
  1
１１０Ｖ
 50
0.0
 41
0.45
 51
0.0
  7
KANJI4
  0
TEXT
  8
0
  6
CONTINUOUS
 62
     2
 10
206.0
 20
159.0
 30
0.3
 40
3.0
  1
２２０Ｖ
 50
0.0
 41
0.45
 51
0.0
  7
KANJI4
  0
TEXT
  8
0
  6
CONTINUOUS
 62
     2
 10
206.0
 20
164.0
 30
0.3
 40
3.0
  1
４４０Ｖ
 50
0.0
 41
0.45
 51
0.0
  7
KANJI4
  0
TEXT
  8
0
  6
CONTINUOUS
 62
     2
 10
166.5
 20
134.0
 30
0.3
 40
3.0
  1
規　格
 50
0.0
 41
0.9
 51
0.0
  7
KANJI3
  0
TEXT
  8
0
  6
CONTINUOUS
 62
     2
 10
204.0
 20
134.0
 30
0.3
 40
3.0
  1
階　級
 50
0.0
 41
0.9
 51
0.0
  7
KANJI3
  0
TEXT
  8
0
  6
CONTINUOUS
 62
     2
 10
207.0
 20
129.0
 30
0.3
 40
3.0
  1
ヒュース゛付
 50
0.0
 41
0.9
 51
0.0
  7
KANJI3
  0
TEXT
  8
0
  6
CONTINUOUS
 62
     2
 10
215.0
 20
134.0
 30
0.3
 40
3.0
  1
１．０　
 50
0.0
 41
0.45
 51
0.0
  7
KANJI4
  0
TEXT
  8
0
  6
CONTINUOUS
 62
     2
 10
166.5
 20
129.0
 30
0.3
 40
3.0
  1
質　量
 50
0.0
 41
0.9
 51
0.0
  7
KANJI3
  0
TEXT
  8
0
  6
CONTINUOUS
 62
     2
 10
206.0
 20
144.0
 30
0.3
 40
3.0
  1
２×２００ＶＡ
 50
0.0
 41
0.9
 51
0.0
  7
KANJI3
  0
LINE
  8
0
  6
CONTINUOUS
 62
     2
 10
173.0
 20
168.0
 30
0.0
 11
173.0
 21
138.0
 31
0.0
  0
LINE
  8
0
  6
CONTINUOUS
 62
     2
 10
198.0
 20
143.0
 30
0.0
 11
198.0
 21
168.0
 31
0.0
  0
TEXT
  8
0
  6
CONTINUOUS
 62
     2
 10
179.967
 20
139.0
 30
0.3
 40
3.0
  1
三相Ｖ結線
 50
0.0
 41
0.9
 51
0.0
  7
KANJI3
  0
TEXT
  8
0
  6
CONTINUOUS
 62
     2
 10
180.0
 20
129.0
 30
0.3
 40
3.0
  1
約　１４　ｋｇ
 50
0.0
 41
0.9
 51
0.0
  7
KANJI3
  0
POLYLINE
  8
0
  6
CONTINUOUS
 62
     2
 66
     1
  0
VERTEX
  8
0
  6
CONTINUOUS
 62
     2
 10
223.0
 20
121.0
 30
0.0
  0
VERTEX
  8
0
  6
CONTINUOUS
 62
     2
 10
163.0
 20
121.0
 30
0.0
  0
VERTEX
  8
0
  6
CONTINUOUS
 62
     2
 10
163.0
 20
126.0
 30
0.0
  0
SEQEND
  0
LINE
  8
0
  6
CONTINUOUS
 62
     2
 10
223.0
 20
126.0
 30
0.0
 11
223.0
 21
121.0
 31
0.0
  0
TEXT
  8
0
  6
CONTINUOUS
 62
     2
 10
183.97828982
 20
123.5
 30
0.2
 40
2.0
  1
φ
 50
0.0
 41
0.9
 51
0.0
  7
KANJI5
  0
TEXT
  8
0
  6
CONTINUOUS
 62
     2
 10
166.0
 20
122.0
 30
0.3
 40
3.0
  1
ヒューズ　１５　×５０　　使用（形名ＰＣ１）
 50
0.0
 41
0.9
 51
0.0
  7
KANJI6
  0
ARC
  8
0
  6
CONTINUOUS
 62
     2
 10
193.163019109
 20
124.425820013
 30
0.0
 40
0.26229859
 50
0.0
 51
175.063900229
  0
ARC
  8
0
  6
CONTINUOUS
 62
     2
 10
190.343187113
 20
123.707664529
 30
0.0
 40
3.164692124
 50
351.233883044
 51
13.116244519
  0
ARC
  8
0
  6
CONTINUOUS
 62
     2
 10
192.137679558
 20
123.319753193
 30
0.0
 40
1.333866073
 50
295.517424946
 51
355.487941371
  0
ARC
  8
0
  6
CONTINUOUS
 62
     2
 10
195.982851104
 20
123.707664529
 30
0.0
 40
3.164692124
 50
166.883755481
 51
188.766116956
  0
ARC
  8
0
  6
CONTINUOUS
 62
     2
 10
194.188358659
 20
123.319753193
 30
0.0
 40
1.333866073
 50
184.512058629
 51
244.482575054
  0
TEXT
  8
0
  6
CONTINUOUS
 62
     2
 10
164.593
 20
139.1
 30
1.0
 40
3.0
  1
相数
 50
0.0
 41
0.9
 51
0.0
  7
KANJI7
  0
TEXT
  8
0
  6
CONTINUOUS
 62
     2
 10
180.0
 20
161.642
 30
0.3
 40
3.0
  1
一次電圧
 50
0.0
 41
0.9
 51
0.0
  7
KANJI3
  0
LINE
  8
0
  6
LTYPE1
 62
     2
 10
88.75
 20
47.5
 30
0.0
 11
28.25
 21
47.5
 31
0.0
  0
LINE
  8
0
  6
CONTINUOUS
 62
     2
 10
40.5
 20
39.0
 30
0.0
 11
40.5
 21
37.3
 31
0.0
  0
LINE
  8
0
  6
CONTINUOUS
 62
     2
 10
39.5
 20
37.3
 30
0.0
 11
40.5
 21
37.3
 31
0.0
  0
LINE
  8
0
  6
CONTINUOUS
 62
     2
 10
39.5
 20
39.0
 30
0.0
 11
39.5
 21
37.3
 31
0.0
  0
LINE
  8
0
  6
CONTINUOUS
 62
     2
 10
38.5
 20
39.0
 30
0.0
 11
38.5
 21
38.0
 31
0.0
  0
LINE
  8
0
  6
CONTINUOUS
 62
     2
 10
38.5
 20
38.0
 30
0.0
 11
41.5
 21
38.0
 31
0.0
  0
LINE
  8
0
  6
CONTINUOUS
 62
     2
 10
41.5
 20
39.0
 30
0.0
 11
41.5
 21
38.0
 31
0.0
  0
LINE
  8
0
  6
CONTINUOUS
 62
     2
 10
79.5
 20
39.0
 30
0.0
 11
79.5
 21
37.3
 31
0.0
  0
LINE
  8
0
  6
CONTINUOUS
 62
     2
 10
80.5
 20
37.3
 30
0.0
 11
79.5
 21
37.3
 31
0.0
  0
LINE
  8
0
  6
CONTINUOUS
 62
     2
 10
80.5
 20
39.0
 30
0.0
 11
80.5
 21
37.3
 31
0.0
  0
LINE
  8
0
  6
CONTINUOUS
 62
     2
 10
81.5
 20
39.0
 30
0.0
 11
81.5
 21
38.0
 31
0.0
  0
LINE
  8
0
  6
CONTINUOUS
 62
     2
 10
81.5
 20
38.0
 30
0.0
 11
78.5
 21
38.0
 31
0.0
  0
LINE
  8
0
  6
CONTINUOUS
 62
     2
 10
78.5
 20
39.0
 30
0.0
 11
78.5
 21
38.0
 31
0.0
  0
LINE
  8
0
  6
CONTINUOUS
 62
     2
 10
36.0
 20
39.0
 30
0.0
 11
36.0
 21
31.0
 31
0.0
  0
LINE
  8
0
  6
CONTINUOUS
 62
     2
 10
35.0
 20
40.0
 30
0.0
 11
35.0
 21
30.0
 31
0.0
  0
LINE
  8
0
  6
CONTINUOUS
 62
     2
 10
85.0
 20
40.0
 30
0.0
 11
35.0
 21
40.0
 31
0.0
  0
LINE
  8
0
  6
CONTINUOUS
 62
     2
 10
85.0
 20
40.0
 30
0.0
 11
85.0
 21
30.0
 31
0.0
  0
LINE
  8
0
  6
CONTINUOUS
 62
     2
 10
84.0
 20
39.0
 30
0.0
 11
36.0
 21
39.0
 31
0.0
  0
LINE
  8
0
  6
CONTINUOUS
 62
     2
 10
84.0
 20
39.0
 30
0.0
 11
84.0
 21
31.0
 31
0.0
  0
LINE
  8
0
  6
CONTINUOUS
 62
     2
 10
50.0
 20
30.0
 30
0.0
 11
35.0
 21
30.0
 31
0.0
  0
LINE
  8
0
  6
CONTINUOUS
 62
     2
 10
85.0
 20
30.0
 30
0.0
 11
70.0
 21
30.0
 31
0.0
  0
LINE
  8
0
  6
CONTINUOUS
 62
     2
 10
50.0
 20
31.0
 30
0.0
 11
50.0
 21
30.0
 31
0.0
  0
LINE
  8
0
  6
CONTINUOUS
 62
     2
 10
50.0
 20
31.0
 30
0.0
 11
36.0
 21
31.0
 31
0.0
  0
LINE
  8
0
  6
CONTINUOUS
 62
     2
 10
70.0
 20
31.0
 30
0.0
 11
70.0
 21
30.0
 31
0.0
  0
LINE
  8
0
  6
CONTINUOUS
 62
     2
 10
84.0
 20
31.0
 30
0.0
 11
70.0
 21
31.0
 31
0.0
  0
LINE
  8
0
  6
CONTINUOUS
 62
     2
 10
82.0
 20
43.0
 30
0.0
 11
38.0
 21
43.0
 31
0.0
  0
LINE
  8
0
  6
CONTINUOUS
 62
     2
 10
38.0
 20
40.0
 30
0.0
 11
38.0
 21
43.0
 31
0.0
  0
LINE
  8
0
  6
CONTINUOUS
 62
     2
 10
82.0
 20
40.0
 30
0.0
 11
82.0
 21
43.0
 31
0.0
  0
LINE
  8
0
  6
LTYPE1
 62
     2
 10
44.75
 20
31.719
 30
0.0
 11
44.75
 21
64.5
 31
0.0
  0
ARC
  8
0
  6
CONTINUOUS
 62
     2
 10
37.25
 20
57.5
 30
0.0
 40
5.0
 50
90.0
 51
180.0
  0
ARC
  8
0
  6
CONTINUOUS
 62
     2
 10
52.25
 20
37.5
 30
0.0
 40
5.0
 50
270.0
 51
0.0
  0
LINE
  8
0
  6
CONTINUOUS
 62
     2
 10
32.25
 20
57.5
 30
0.0
 11
32.25
 21
37.5
 31
0.0
  0
LINE
  8
0
  6
CONTINUOUS
 62
     2
 10
52.25
 20
32.5
 30
0.0
 11
37.25
 21
32.5
 31
0.0
  0
ARC
  8
0
  6
CONTINUOUS
 62
     2
 10
37.25
 20
57.5
 30
0.0
 40
4.25
 50
90.0
 51
180.0
  0
LINE
  8
0
  6
CONTINUOUS
 62
     2
 10
52.25
 20
61.75
 30
0.0
 11
37.25
 21
61.75
 31
0.0
  0
ARC
  8
0
  6
CONTINUOUS
 62
     2
 10
52.25
 20
37.5
 30
0.0
 40
4.25
 50
270.000009091
 51
0.000009076
  0
LINE
  8
0
  6
CONTINUOUS
 62
     2
 10
52.250000674
 20
33.25
 30
0.0
 11
37.25
 21
33.25
 31
0.0
  0
LINE
  8
0
  6
CONTINUOUS
 62
     2
 10
33.0
 20
57.5
 30
0.0
 11
33.0
 21
37.5
 31
0.0
  0
LINE
  8
0
  6
CONTINUOUS
 62
     2
 10
57.25
 20
39.0
 30
0.0
 11
57.25
 21
37.5
 31
0.0
  0
LINE
  8
0
  6
CONTINUOUS
 62
     2
 10
56.5
 20
39.0
 30
0.0
 11
56.5
 21
37.500000674
 31
0.0
  0
LINE
  8
0
  6
CONTINUOUS
 62
     2
 10
67.75
 20
62.5
 30
0.0
 11
82.75
 21
62.5
 31
0.0
  0
LINE
  8
0
  6
CONTINUOUS
 62
     2
 10
67.75
 20
61.75
 30
0.0
 11
82.75
 21
61.75
 31
0.0
  0
ARC
  8
0
  6
CONTINUOUS
 62
     2
 10
67.75
 20
37.5
 30
0.0
 40
5.0
 50
180.0
 51
270.0
  0
LINE
  8
0
  6
CONTINUOUS
 62
     2
 10
67.75
 20
32.5
 30
0.0
 11
82.75
 21
32.5
 31
0.0
  0
ARC
  8
0
  6
CONTINUOUS
 62
     2
 10
67.75
 20
37.5
 30
0.0
 40
4.25
 50
179.999990924
 51
269.999990909
  0
LINE
  8
0
  6
CONTINUOUS
 62
     2
 10
67.749999326
 20
33.25
 30
0.0
 11
82.75
 21
33.25
 31
0.0
  0
LINE
  8
0
  6
CONTINUOUS
 62
     2
 10
62.75
 20
39.0
 30
0.0
 11
62.75
 21
37.5
 31
0.0
  0
LINE
  8
0
  6
CONTINUOUS
 62
     2
 10
63.5
 20
39.0
 30
0.0
 11
63.5
 21
37.500000674
 31
0.0
  0
LINE
  8
0
  6
CONTINUOUS
 62
     2
 10
87.75
 20
57.5
 30
0.0
 11
87.75
 21
37.5
 31
0.0
  0
LINE
  8
0
  6
CONTINUOUS
 62
     2
 10
87.0
 20
57.5
 30
0.0
 11
87.0
 21
37.5
 31
0.0
  0
ARC
  8
0
  6
CONTINUOUS
 62
     2
 10
82.75
 20
57.5
 30
0.0
 40
5.0
 50
0.0
 51
90.0
  0
ARC
  8
0
  6
CONTINUOUS
 62
     2
 10
82.75
 20
57.5
 30
0.0
 40
4.25
 50
0.0
 51
90.0
  0
ARC
  8
0
  6
CONTINUOUS
 62
     2
 10
37.25
 20
37.5
 30
0.0
 40
5.0
 50
255.522487814
 51
270.0
  0
ARC
  8
0
  6
CONTINUOUS
 62
     2
 10
37.25
 20
37.5
 30
0.0
 40
5.0
 50
180.0
 51
243.25631605
  0
ARC
  8
0
  6
CONTINUOUS
 62
     2
 10
37.25
 20
37.5
 30
0.0
 40
4.25
 50
252.895364823
 51
270.0
  0
ARC
  8
0
  6
CONTINUOUS
 62
     2
 10
37.25
 20
37.5
 30
0.0
 40
4.25
 50
180.0
 51
238.034281249
  0
ARC
  8
0
  6
CONTINUOUS
 62
     2
 10
82.75
 20
37.5
 30
0.0
 40
5.0
 50
296.74368395
 51
0.0
  0
ARC
  8
0
  6
CONTINUOUS
 62
     2
 10
82.75
 20
37.5
 30
0.0
 40
5.0
 50
270.0
 51
284.477512186
  0
ARC
  8
0
  6
CONTINUOUS
 62
     2
 10
82.75
 20
37.5
 30
0.0
 40
4.25
 50
301.965718751
 51
0.0
  0
ARC
  8
0
  6
CONTINUOUS
 62
     2
 10
82.75
 20
37.5
 30
0.0
 40
4.25
 50
270.0
 51
287.104635177
  0
LINE
  8
0
  6
LTYPE1
 62
     2
 10
75.25
 20
31.719
 30
0.0
 11
75.25
 21
64.5
 31
0.0
  0
LINE
  8
0
  6
CONTINUOUS
 62
     2
 10
82.0
 20
52.5
 30
0.0
 11
38.0
 21
52.5
 31
0.0
  0
LINE
  8
0
  6
CONTINUOUS
 62
     2
 10
82.0
 20
55.5
 30
0.0
 11
38.0
 21
55.5
 31
0.0
  0
LINE
  8
0
  6
CONTINUOUS
 62
     2
 10
38.0
 20
52.5
 30
0.0
 11
38.0
 21
55.5
 31
0.0
  0
LINE
  8
0
  6
CONTINUOUS
 62
     2
 10
82.0
 20
52.5
 30
0.0
 11
82.0
 21
55.5
 31
0.0
  0
LINE
  8
0
  6
CONTINUOUS
 62
     2
 10
57.25
 20
57.5
 30
0.0
 11
57.25
 21
55.5
 31
0.0
  0
LINE
  8
0
  6
CONTINUOUS
 62
     2
 10
56.5
 20
57.5
 30
0.0
 11
56.5
 21
55.5
 31
0.0
  0
LINE
  8
0
  6
CONTINUOUS
 62
     2
 10
62.75
 20
57.5
 30
0.0
 11
62.75
 21
55.5
 31
0.0
  0
LINE
  8
0
  6
CONTINUOUS
 62
     2
 10
63.5
 20
57.5
 30
0.0
 11
63.5
 21
55.5
 31
0.0
  0
LINE
  8
0
  6
LTYPE1
 62
     2
 10
40.0
 20
53.5
 30
0.0
 11
40.0
 21
34.5
 31
0.0
  0
LINE
  8
0
  6
LTYPE1
 62
     2
 10
80.0
 20
53.5
 30
0.0
 11
80.0
 21
34.5
 31
0.0
  0
CIRCLE
  8
0
  6
CONTINUOUS
 62
     2
 10
48.75
 20
58.5
 30
0.0
 40
1.0
  0
CIRCLE
  8
0
  6
CONTINUOUS
 62
     2
 10
48.75
 20
58.5
 30
0.0
 40
2.0
  0
CIRCLE
  8
0
  6
CONTINUOUS
 62
     2
 10
48.75
 20
58.5
 30
0.0
 40
2.5
  0
LINE
  8
0
  6
LTYPE1
 62
     2
 10
48.75
 20
62.0
 30
0.0
 11
48.75
 21
55.0
 31
0.0
  0
CIRCLE
  8
0
  6
CONTINUOUS
 62
     2
 10
40.75
 20
58.5
 30
0.0
 40
1.0
  0
CIRCLE
  8
0
  6
CONTINUOUS
 62
     2
 10
40.75
 20
58.5
 30
0.0
 40
2.0
  0
CIRCLE
  8
0
  6
CONTINUOUS
 62
     2
 10
40.75
 20
58.5
 30
0.0
 40
2.5
  0
LINE
  8
0
  6
LTYPE1
 62
     2
 10
40.75
 20
62.0
 30
0.0
 11
40.75
 21
55.0
 31
0.0
  0
CIRCLE
  8
0
  6
CONTINUOUS
 62
     2
 10
71.25
 20
58.5
 30
0.0
 40
1.0
  0
CIRCLE
  8
0
  6
CONTINUOUS
 62
     2
 10
71.25
 20
58.5
 30
0.0
 40
2.0
  0
CIRCLE
  8
0
  6
CONTINUOUS
 62
     2
 10
71.25
 20
58.5
 30
0.0
 40
2.5
  0
LINE
  8
0
  6
LTYPE1
 62
     2
 10
71.25
 20
62.0
 30
0.0
 11
71.25
 21
55.0
 31
0.0
  0
CIRCLE
  8
0
  6
CONTINUOUS
 62
     2
 10
79.25
 20
58.5
 30
0.0
 40
1.0
  0
CIRCLE
  8
0
  6
CONTINUOUS
 62
     2
 10
79.25
 20
58.5
 30
0.0
 40
2.0
  0
CIRCLE
  8
0
  6
CONTINUOUS
 62
     2
 10
79.25
 20
58.5
 30
0.0
 40
2.5
  0
LINE
  8
0
  6
LTYPE1
 62
     2
 10
79.25
 20
62.0
 30
0.0
 11
79.25
 21
55.0
 31
0.0
  0
LINE
  8
0
  6
LTYPE1
 62
     2
 10
52.25
 20
58.5
 30
0.0
 11
37.25
 21
58.5
 31
0.0
  0
LINE
  8
0
  6
LTYPE1
 62
     2
 10
82.75
 20
58.5
 30
0.0
 11
67.75
 21
58.5
 31
0.0
  0
LINE
  8
0
  6
CONTINUOUS
 62
     2
 10
70.281754163
 20
58.75
 30
0.0
 11
50.734313483
 21
58.75
 31
0.0
  0
LINE
  8
0
  6
CONTINUOUS
 62
     2
 10
70.281754163
 20
58.25
 30
0.0
 11
50.734313483
 21
58.25
 31
0.0
  0
LINE
  8
15
  6
LTYPE1
 62
     2
 10
80.25
 20
72.687746109
 30
0.0
 11
80.25
 21
62.984014626
 31
0.0
  0
LINE
  8
0
  6
LTYPE1
 62
     2
 10
83.625210951
 20
68.75
 30
0.0
 11
76.874789049
 21
68.75
 31
0.0
  0
LINE
  8
0
  6
CONTINUOUS
 62
     2
 10
82.203979692
 20
71.790470911
 30
0.0
 11
81.75
 21
72.0
 31
0.0
  0
LINE
  8
0
  6
CONTINUOUS
 62
     2
 10
78.75
 20
72.0
 30
0.0
 11
78.296020308
 21
71.790470911
 31
0.0
  0
LINE
  8
0
  6
CONTINUOUS
 62
     2
 10
79.621412734
 20
70.111939077
 30
0.0
 11
78.75
 21
72.0
 31
0.0
  0
ARC
  8
0
  6
CONTINUOUS
 62
     2
 10
80.25
 20
68.75
 30
0.0
 40
2.0
 50
129.252652755
 51
230.747347245
  0
LINE
  8
0
  6
CONTINUOUS
 62
     2
 10
78.984517637
 20
70.298726699
 30
0.0
 11
78.296020308
 21
71.790470911
 31
0.0
  0
LINE
  8
0
  6
CONTINUOUS
 62
     2
 10
80.878587266
 20
70.111939077
 30
0.0
 11
81.75
 21
72.0
 31
0.0
  0
ARC
  8
0
  6
CONTINUOUS
 62
     2
 10
80.25
 20
68.75
 30
0.0
 40
2.0
 50
309.252652755
 51
50.747347245
  0
LINE
  8
0
  6
CONTINUOUS
 62
     2
 10
81.515482363
 20
70.298726699
 30
0.0
 11
82.203979692
 21
71.790470911
 31
0.0
  0
LINE
  8
0
  6
CONTINUOUS
 62
     2
 10
78.984517637
 20
67.201273301
 30
0.0
 11
78.230525315
 21
65.567623271
 31
0.0
  0
ARC
  8
0
  6
CONTINUOUS
 62
     2
 10
78.593709069
 20
65.4
 30
0.0
 40
0.4
 50
155.224859431
 51
270.0
  0
LINE
  8
0
  6
CONTINUOUS
 62
     2
 10
81.515482363
 20
67.201273301
 30
0.0
 11
82.269474685
 21
65.567623271
 31
0.0
  0
ARC
  8
0
  6
CONTINUOUS
 62
     2
 10
81.906290931
 20
65.4
 30
0.0
 40
0.4
 50
270.0
 51
24.775140569
  0
LINE
  8
0
  6
CONTINUOUS
 62
     2
 10
80.878587266
 20
67.388060923
 30
0.0
 11
81.684505007
 21
65.641905818
 31
0.0
  0
ARC
  8
0
  6
CONTINUOUS
 62
     2
 10
81.593709069
 20
65.6
 30
0.0
 40
0.1
 50
270.0
 51
24.775140569
  0
LINE
  8
0
  6
CONTINUOUS
 62
     2
 10
79.621412734
 20
67.388060923
 30
0.0
 11
78.815494993
 21
65.641905818
 31
0.0
  0
LINE
  8
0
  6
CONTINUOUS
 62
     2
 10
78.906290931
 20
65.5
 30
0.0
 11
81.593709069
 21
65.5
 31
0.0
  0
ARC
  8
0
  6
CONTINUOUS
 62
     2
 10
78.906290931
 20
65.6
 30
0.0
 40
0.1
 50
155.224859431
 51
270.0
  0
LINE
  8
0
  6
CONTINUOUS
 62
     2
 10
78.18427394
 20
65.0
 30
0.0
 11
82.31572606
 21
65.0
 31
0.0
  0
LINE
  8
0
  6
CONTINUOUS
 62
     2
 10
78.75
 20
64.25
 30
0.0
 11
78.25
 21
62.5
 31
0.0
  0
POLYLINE
  8
0
  6
CONTINUOUS
 62
     2
 66
     1
  0
VERTEX
  8
0
  6
CONTINUOUS
 62
     2
 10
78.75
 20
64.25
 30
0.0
  0
VERTEX
  8
0
  6
CONTINUOUS
 62
     2
 10
81.75
 20
64.25
 30
0.0
  0
VERTEX
  8
0
  6
CONTINUOUS
 62
     2
 10
82.25
 20
62.5
 30
0.0
  0
SEQEND
  0
LINE
  8
0
  6
CONTINUOUS
 62
     2
 10
78.18427394
 20
65.0
 30
0.0
 11
77.469988226
 21
62.5
 31
0.0
  0
LINE
  8
0
  6
CONTINUOUS
 62
     2
 10
82.31572606
 20
65.0
 30
0.0
 11
83.032290387
 21
62.492024853
 31
0.0
  0
LINE
  8
15
  6
LTYPE1
 62
     2
 10
70.25
 20
72.687746109
 30
0.0
 11
70.25
 21
62.984014626
 31
0.0
  0
LINE
  8
0
  6
LTYPE1
 62
     2
 10
66.874789049
 20
68.75
 30
0.0
 11
73.625210951
 21
68.75
 31
0.0
  0
LINE
  8
0
  6
CONTINUOUS
 62
     2
 10
68.296020308
 20
71.790470911
 30
0.0
 11
68.75
 21
72.0
 31
0.0
  0
LINE
  8
0
  6
CONTINUOUS
 62
     2
 10
71.75
 20
72.0
 30
0.0
 11
72.203979692
 21
71.790470911
 31
0.0
  0
LINE
  8
0
  6
CONTINUOUS
 62
     2
 10
70.878587266
 20
70.111939077
 30
0.0
 11
71.75
 21
72.0
 31
0.0
  0
ARC
  8
0
  6
CONTINUOUS
 62
     2
 10
70.25
 20
68.75
 30
0.0
 40
2.0
 50
309.252652755
 51
50.747347245
  0
LINE
  8
0
  6
CONTINUOUS
 62
     2
 10
71.515482363
 20
70.298726699
 30
0.0
 11
72.203979692
 21
71.790470911
 31
0.0
  0
LINE
  8
0
  6
CONTINUOUS
 62
     2
 10
69.621412734
 20
70.111939077
 30
0.0
 11
68.75
 21
72.0
 31
0.0
  0
ARC
  8
0
  6
CONTINUOUS
 62
     2
 10
70.25
 20
68.75
 30
0.0
 40
2.0
 50
129.252652755
 51
230.747347245
  0
LINE
  8
0
  6
CONTINUOUS
 62
     2
 10
68.984517637
 20
70.298726699
 30
0.0
 11
68.296020308
 21
71.790470911
 31
0.0
  0
LINE
  8
0
  6
CONTINUOUS
 62
     2
 10
71.515482363
 20
67.201273301
 30
0.0
 11
72.269474685
 21
65.567623271
 31
0.0
  0
ARC
  8
0
  6
CONTINUOUS
 62
     2
 10
71.906290931
 20
65.4
 30
0.0
 40
0.4
 50
270.0
 51
24.775140569
  0
LINE
  8
0
  6
CONTINUOUS
 62
     2
 10
68.984517637
 20
67.201273301
 30
0.0
 11
68.230525315
 21
65.567623271
 31
0.0
  0
ARC
  8
0
  6
CONTINUOUS
 62
     2
 10
68.593709069
 20
65.4
 30
0.0
 40
0.4
 50
155.224859431
 51
270.0
  0
LINE
  8
0
  6
CONTINUOUS
 62
     2
 10
69.621412734
 20
67.388060923
 30
0.0
 11
68.815494993
 21
65.641905818
 31
0.0
  0
ARC
  8
0
  6
CONTINUOUS
 62
     2
 10
68.906290931
 20
65.6
 30
0.0
 40
0.1
 50
155.224859431
 51
270.0
  0
LINE
  8
0
  6
CONTINUOUS
 62
     2
 10
70.878587266
 20
67.388060923
 30
0.0
 11
71.684505007
 21
65.641905818
 31
0.0
  0
LINE
  8
0
  6
CONTINUOUS
 62
     2
 10
71.593709069
 20
65.5
 30
0.0
 11
68.906290931
 21
65.5
 31
0.0
  0
ARC
  8
0
  6
CONTINUOUS
 62
     2
 10
71.593709069
 20
65.6
 30
0.0
 40
0.1
 50
270.0
 51
24.775140569
  0
LINE
  8
0
  6
CONTINUOUS
 62
     2
 10
72.31572606
 20
65.0
 30
0.0
 11
68.18427394
 21
65.0
 31
0.0
  0
LINE
  8
0
  6
CONTINUOUS
 62
     2
 10
71.75
 20
64.25
 30
0.0
 11
72.25
 21
62.5
 31
0.0
  0
POLYLINE
  8
0
  6
CONTINUOUS
 62
     2
 66
     1
  0
VERTEX
  8
0
  6
CONTINUOUS
 62
     2
 10
71.75
 20
64.25
 30
0.0
  0
VERTEX
  8
0
  6
CONTINUOUS
 62
     2
 10
68.75
 20
64.25
 30
0.0
  0
VERTEX
  8
0
  6
CONTINUOUS
 62
     2
 10
68.25
 20
62.5
 30
0.0
  0
SEQEND
  0
LINE
  8
0
  6
CONTINUOUS
 62
     2
 10
72.31572606
 20
65.0
 30
0.0
 11
73.030011774
 21
62.5
 31
0.0
  0
LINE
  8
0
  6
CONTINUOUS
 62
     2
 10
68.18427394
 20
65.0
 30
0.0
 11
67.467709613
 21
62.492024853
 31
0.0
  0
LINE
  8
0
  6
CONTINUOUS
 62
     2
 10
52.25
 20
62.5
 30
0.0
 11
37.25
 21
62.5
 31
0.0
  0
LINE
  8
15
  6
LTYPE1
 62
     2
 10
39.75
 20
72.687746109
 30
0.0
 11
39.75
 21
62.984014626
 31
0.0
  0
LINE
  8
0
  6
LTYPE1
 62
     2
 10
36.374789049
 20
68.75
 30
0.0
 11
43.125210951
 21
68.75
 31
0.0
  0
LINE
  8
0
  6
CONTINUOUS
 62
     2
 10
37.796020308
 20
71.790470911
 30
0.0
 11
38.25
 21
72.0
 31
0.0
  0
LINE
  8
0
  6
CONTINUOUS
 62
     2
 10
41.25
 20
72.0
 30
0.0
 11
41.703979692
 21
71.790470911
 31
0.0
  0
LINE
  8
0
  6
CONTINUOUS
 62
     2
 10
40.378587266
 20
70.111939077
 30
0.0
 11
41.25
 21
72.0
 31
0.0
  0
ARC
  8
0
  6
CONTINUOUS
 62
     2
 10
39.75
 20
68.75
 30
0.0
 40
2.0
 50
309.252652755
 51
50.747347245
  0
LINE
  8
0
  6
CONTINUOUS
 62
     2
 10
41.015482363
 20
70.298726699
 30
0.0
 11
41.703979692
 21
71.790470911
 31
0.0
  0
LINE
  8
0
  6
CONTINUOUS
 62
     2
 10
39.121412734
 20
70.111939077
 30
0.0
 11
38.25
 21
72.0
 31
0.0
  0
ARC
  8
0
  6
CONTINUOUS
 62
     2
 10
39.75
 20
68.75
 30
0.0
 40
2.0
 50
129.252652755
 51
230.747347245
  0
LINE
  8
0
  6
CONTINUOUS
 62
     2
 10
38.484517637
 20
70.298726699
 30
0.0
 11
37.796020308
 21
71.790470911
 31
0.0
  0
LINE
  8
0
  6
CONTINUOUS
 62
     2
 10
41.015482363
 20
67.201273301
 30
0.0
 11
41.769474685
 21
65.567623271
 31
0.0
  0
ARC
  8
0
  6
CONTINUOUS
 62
     2
 10
41.406290931
 20
65.4
 30
0.0
 40
0.4
 50
270.0
 51
24.775140569
  0
LINE
  8
0
  6
CONTINUOUS
 62
     2
 10
38.484517637
 20
67.201273301
 30
0.0
 11
37.730525315
 21
65.567623271
 31
0.0
  0
ARC
  8
0
  6
CONTINUOUS
 62
     2
 10
38.093709069
 20
65.4
 30
0.0
 40
0.4
 50
155.224859431
 51
270.0
  0
LINE
  8
0
  6
CONTINUOUS
 62
     2
 10
39.121412734
 20
67.388060923
 30
0.0
 11
38.315494993
 21
65.641905818
 31
0.0
  0
ARC
  8
0
  6
CONTINUOUS
 62
     2
 10
38.406290931
 20
65.6
 30
0.0
 40
0.1
 50
155.224859431
 51
270.0
  0
LINE
  8
0
  6
CONTINUOUS
 62
     2
 10
40.378587266
 20
67.388060923
 30
0.0
 11
41.184505007
 21
65.641905818
 31
0.0
  0
LINE
  8
0
  6
CONTINUOUS
 62
     2
 10
41.093709069
 20
65.5
 30
0.0
 11
38.406290931
 21
65.5
 31
0.0
  0
ARC
  8
0
  6
CONTINUOUS
 62
     2
 10
41.093709069
 20
65.6
 30
0.0
 40
0.1
 50
270.0
 51
24.775140569
  0
LINE
  8
0
  6
CONTINUOUS
 62
     2
 10
41.81572606
 20
65.0
 30
0.0
 11
37.68427394
 21
65.0
 31
0.0
  0
LINE
  8
0
  6
CONTINUOUS
 62
     2
 10
41.25
 20
64.25
 30
0.0
 11
41.75
 21
62.5
 31
0.0
  0
POLYLINE
  8
0
  6
CONTINUOUS
 62
     2
 66
     1
  0
VERTEX
  8
0
  6
CONTINUOUS
 62
     2
 10
41.25
 20
64.25
 30
0.0
  0
VERTEX
  8
0
  6
CONTINUOUS
 62
     2
 10
38.25
 20
64.25
 30
0.0
  0
VERTEX
  8
0
  6
CONTINUOUS
 62
     2
 10
37.75
 20
62.5
 30
0.0
  0
SEQEND
  0
LINE
  8
0
  6
CONTINUOUS
 62
     2
 10
41.81572606
 20
65.0
 30
0.0
 11
42.530011774
 21
62.5
 31
0.0
  0
LINE
  8
0
  6
CONTINUOUS
 62
     2
 10
37.68427394
 20
65.0
 30
0.0
 11
36.967709613
 21
62.492024853
 31
0.0
  0
LINE
  8
0
  6
CONTINUOUS
 62
     2
 10
47.68427394
 20
65.0
 30
0.0
 11
51.81572606
 21
65.0
 31
0.0
  0
LINE
  8
0
  6
CONTINUOUS
 62
     2
 10
48.25
 20
64.25
 30
0.0
 11
47.75
 21
62.5
 31
0.0
  0
POLYLINE
  8
0
  6
CONTINUOUS
 62
     2
 66
     1
  0
VERTEX
  8
0
  6
CONTINUOUS
 62
     2
 10
48.25
 20
64.25
 30
0.0
  0
VERTEX
  8
0
  6
CONTINUOUS
 62
     2
 10
51.25
 20
64.25
 30
0.0
  0
VERTEX
  8
0
  6
CONTINUOUS
 62
     2
 10
51.75
 20
62.5
 30
0.0
  0
SEQEND
  0
LINE
  8
0
  6
CONTINUOUS
 62
     2
 10
47.68427394
 20
65.0
 30
0.0
 11
46.969988226
 21
62.5
 31
0.0
  0
LINE
  8
0
  6
CONTINUOUS
 62
     2
 10
51.81572606
 20
65.0
 30
0.0
 11
52.532290387
 21
62.492024853
 31
0.0
  0
LINE
  8
0
  6
CONTINUOUS
 62
     2
 10
51.81572606
 20
65.0
 30
0.0
 11
68.18427394
 21
65.0
 31
0.0
  0
ARC
  8
0
  6
CONTINUOUS
 62
     2
 10
49.75
 20
64.708333333
 30
0.0
 40
1.041666667
 50
16.260204708
 51
163.739795292
  0
LINE
  8
0
  6
CONTINUOUS
 62
     2
 10
50.4270032
 20
65.5
 30
0.0
 11
68.206410734
 21
65.5
 31
0.0
  0
ARC
  8
0
  6
CONTINUOUS
 62
     2
 10
67.206410734
 20
65.208333333
 30
0.0
 40
1.041666667
 50
16.260204708
 51
163.739795292
  0
ARC
  8
0
  6
CONTINUOUS
 62
     2
 10
52.25
 20
57.5
 30
0.0
 40
4.25
 50
17.104635177
 51
90.0
  0
ARC
  8
0
  6
CONTINUOUS
 62
     2
 10
52.25
 20
57.5
 30
0.0
 40
4.25
 50
0.0
 51
10.164248622
  0
ARC
  8
0
  6
CONTINUOUS
 62
     2
 10
52.25
 20
57.5
 30
0.0
 40
5.0
 50
14.477512186
 51
90.0
  0
ARC
  8
0
  6
CONTINUOUS
 62
     2
 10
52.25
 20
57.5
 30
0.0
 40
5.0
 50
0.0
 51
8.626926559
  0
ARC
  8
0
  6
CONTINUOUS
 62
     2
 10
67.75
 20
57.5
 30
0.0
 40
5.0
 50
171.373073441
 51
180.0
  0
ARC
  8
0
  6
CONTINUOUS
 62
     2
 10
67.75
 20
57.5
 30
0.0
 40
5.0
 50
90.0
 51
165.522487814
  0
ARC
  8
0
  6
CONTINUOUS
 62
     2
 10
67.75
 20
57.5
 30
0.0
 40
4.25
 50
169.835751378
 51
180.0
  0
ARC
  8
0
  6
CONTINUOUS
 62
     2
 10
67.75
 20
57.5
 30
0.0
 40
4.25
 50
90.0
 51
162.895364823
  0
ARC
  8
0
  6
CONTINUOUS
 62
     2
 10
60.0
 20
56.208333333
 30
0.0
 40
1.041666667
 50
16.260204708
 51
163.739795292
  0
LINE
  8
0
  6
CONTINUOUS
 62
     2
 10
58.0
 20
55.5
 30
0.0
 11
58.0
 21
56.5
 31
0.0
  0
LINE
  8
0
  6
CONTINUOUS
 62
     2
 10
62.0
 20
56.5
 30
0.0
 11
58.0
 21
56.5
 31
0.0
  0
LINE
  8
0
  6
CONTINUOUS
 62
     2
 10
62.0
 20
55.5
 30
0.0
 11
62.0
 21
56.5
 31
0.0
  0
LINE
  8
0
  6
CONTINUOUS
 62
     2
 10
39.0
 20
43.0
 30
0.0
 11
39.0
 21
52.5
 31
0.0
  0
LINE
  8
0
  6
CONTINUOUS
 62
     2
 10
81.0
 20
43.0
 30
0.0
 11
81.0
 21
52.5
 31
0.0
  0
LINE
  8
15
  6
LTYPE1
 62
     2
 10
49.75
 20
67.25
 30
0.0
 11
49.75
 21
62.984014626
 31
0.0
  0
TEXT
  8
0
  6
CONTINUOUS
 62
     2
 10
38.451
 20
73.762
 30
0.3
 40
3.0
  1
Ｕ
 50
0.0
 41
0.9
 51
0.0
  7
KANJI3
  0
TEXT
  8
0
  6
CONTINUOUS
 62
     2
 10
68.951
 20
73.762
 30
0.3
 40
3.0
  1
Ｖ
 50
0.0
 41
0.9
 51
0.0
  7
KANJI3
  0
TEXT
  8
0
  6
CONTINUOUS
 62
     2
 10
78.951
 20
73.762
 30
0.3
 40
3.0
  1
Ｗ
 50
0.0
 41
0.9
 51
0.0
  7
KANJI3
  0
TEXT
  8
0
  6
CONTINUOUS
 62
     2
 10
36.186903769
 20
56.15
 30
0.0
 40
2.2
  1
ｕ
 50
0.0
 41
0.909090909
 51
0.0
  7
KANJI8
  0
TEXT
  8
0
  6
CONTINUOUS
 62
     2
 10
81.919248397
 20
56.15
 30
0.0
 40
2.2
  1
ｗ
 50
0.0
 41
0.909090909
 51
0.0
  7
KANJI8
  0
TEXT
  8
0
  6
CONTINUOUS
 62
     2
 10
66.686903769
 20
56.15
 30
0.0
 40
2.2
  1
ｖ
 50
0.0
 41
0.909090909
 51
0.0
  7
KANJI8
  0
LINE
  8
0
  6
CONTINUOUS
 62
     2
 10
38.0
 20
110.0
 30
0.0
 11
82.0
 21
110.0
 31
0.0
  0
LINE
  8
0
  6
CONTINUOUS
 62
     2
 10
35.0
 20
118.0
 30
0.0
 11
35.0
 21
111.0
 31
0.0
  0
LINE
  8
0
  6
CONTINUOUS
 62
     2
 10
85.0
 20
111.0
 30
0.0
 11
85.0
 21
118.0
 31
0.0
  0
LINE
  8
0
  6
CONTINUOUS
 62
     2
 10
82.0
 20
118.0
 30
0.0
 11
85.0
 21
118.0
 31
0.0
  0
LINE
  8
0
  6
CONTINUOUS
 62
     2
 10
35.0
 20
118.0
 30
0.0
 11
38.0
 21
118.0
 31
0.0
  0
LINE
  8
0
  6
CONTINUOUS
 62
     2
 10
82.0
 20
111.0
 30
0.0
 11
85.0
 21
111.0
 31
0.0
  0
LINE
  8
0
  6
CONTINUOUS
 62
     2
 10
35.0
 20
111.0
 30
0.0
 11
38.0
 21
111.0
 31
0.0
  0
CIRCLE
  8
0
  6
CONTINUOUS
 62
     2
 10
40.0
 20
112.0
 30
0.0
 40
1.5
  0
LINE
  8
0
  6
CONTINUOUS
 62
     2
 10
38.5
 20
111.133974596
 30
0.0
 11
40.0
 21
110.267949192
 31
0.0
  0
LINE
  8
0
  6
CONTINUOUS
 62
     2
 10
41.5
 20
111.133974596
 30
0.0
 11
40.0
 21
110.267949192
 31
0.0
  0
LINE
  8
0
  6
CONTINUOUS
 62
     2
 10
41.5
 20
112.866025404
 30
0.0
 11
41.5
 21
111.133974596
 31
0.0
  0
LINE
  8
0
  6
CONTINUOUS
 62
     2
 10
40.0
 20
113.732050808
 30
0.0
 11
41.5
 21
112.866025404
 31
0.0
  0
POLYLINE
  8
0
  6
CONTINUOUS
 62
     2
 66
     1
  0
VERTEX
  8
0
  6
CONTINUOUS
 62
     2
 10
40.0
 20
113.732050808
 30
0.0
  0
VERTEX
  8
0
  6
CONTINUOUS
 62
     2
 10
38.5
 20
112.866025404
 30
0.0
  0
VERTEX
  8
0
  6
CONTINUOUS
 62
     2
 10
38.5
 20
111.133974596
 30
0.0
  0
SEQEND
  0
LINE
  8
0
  6
LTYPE1
 62
     2
 10
40.0
 20
115.0
 30
0.0
 11
40.0
 21
109.0
 31
0.0
  0
LINE
  8
0
  6
LTYPE1
 62
     2
 10
43.0
 20
112.0
 30
0.0
 11
37.0
 21
112.0
 31
0.0
  0
LINE
  8
0
  6
LTYPE1
 62
     2
 10
45.0
 20
118.0
 30
0.0
 11
45.0
 21
112.0
 31
0.0
  0
LINE
  8
0
  6
LTYPE1
 62
     2
 10
48.0
 20
115.0
 30
0.0
 11
42.0
 21
115.0
 31
0.0
  0
LINE
  8
0
  6
LTYPE2
 62
     2
 10
45.500000674
 20
116.5
 30
0.0
 11
44.500000954
 21
116.5
 31
0.0
  0
ARC
  8
0
  6
LTYPE2
 62
     2
 10
44.5
 20
115.0
 30
0.0
 40
1.5
 50
89.999963572
 51
270.000036428
  0
LINE
  8
0
  6
LTYPE2
 62
     2
 10
45.500000674
 20
113.5
 30
0.0
 11
44.500000954
 21
113.5
 31
0.0
  0
ARC
  8
0
  6
LTYPE2
 62
     2
 10
45.5
 20
115.0
 30
0.0
 40
1.5
 50
270.000025758
 51
89.999974242
  0
CIRCLE
  8
0
  6
CONTINUOUS
 62
     2
 10
80.0
 20
112.0
 30
0.0
 40
1.5
  0
LINE
  8
0
  6
CONTINUOUS
 62
     2
 10
81.5
 20
111.133974596
 30
0.0
 11
80.0
 21
110.267949192
 31
0.0
  0
LINE
  8
0
  6
CONTINUOUS
 62
     2
 10
78.5
 20
111.133974596
 30
0.0
 11
80.0
 21
110.267949192
 31
0.0
  0
LINE
  8
0
  6
CONTINUOUS
 62
     2
 10
78.5
 20
112.866025404
 30
0.0
 11
78.5
 21
111.133974596
 31
0.0
  0
LINE
  8
0
  6
CONTINUOUS
 62
     2
 10
80.0
 20
113.732050808
 30
0.0
 11
78.5
 21
112.866025404
 31
0.0
  0
POLYLINE
  8
0
  6
CONTINUOUS
 62
     2
 66
     1
  0
VERTEX
  8
0
  6
CONTINUOUS
 62
     2
 10
80.0
 20
113.732050808
 30
0.0
  0
VERTEX
  8
0
  6
CONTINUOUS
 62
     2
 10
81.5
 20
112.866025404
 30
0.0
  0
VERTEX
  8
0
  6
CONTINUOUS
 62
     2
 10
81.5
 20
111.133974596
 30
0.0
  0
SEQEND
  0
LINE
  8
0
  6
LTYPE1
 62
     2
 10
80.0
 20
115.0
 30
0.0
 11
80.0
 21
109.0
 31
0.0
  0
LINE
  8
0
  6
LTYPE1
 62
     2
 10
77.0
 20
112.0
 30
0.0
 11
83.0
 21
112.0
 31
0.0
  0
LINE
  8
0
  6
LTYPE1
 62
     2
 10
75.0
 20
118.0
 30
0.0
 11
75.0
 21
112.0
 31
0.0
  0
LINE
  8
0
  6
LTYPE1
 62
     2
 10
72.0
 20
115.0
 30
0.0
 11
78.0
 21
115.0
 31
0.0
  0
LINE
  8
0
  6
LTYPE2
 62
     2
 10
74.499999326
 20
116.5
 30
0.0
 11
75.499999046
 21
116.5
 31
0.0
  0
ARC
  8
0
  6
LTYPE2
 62
     2
 10
75.5
 20
115.0
 30
0.0
 40
1.5
 50
269.999963572
 51
90.000036428
  0
LINE
  8
0
  6
LTYPE2
 62
     2
 10
74.499999326
 20
113.5
 30
0.0
 11
75.499999046
 21
113.5
 31
0.0
  0
ARC
  8
0
  6
LTYPE2
 62
     2
 10
74.5
 20
115.0
 30
0.0
 40
1.5
 50
90.000025758
 51
269.999974242
  0
LINE
  8
0
  6
CONTINUOUS
 62
     2
 10
38.0
 20
150.0
 30
0.0
 11
82.0
 21
150.0
 31
0.0
  0
LINE
  8
0
  6
CONTINUOUS
 62
     2
 10
82.0
 20
141.0
 30
0.0
 11
82.0
 21
150.0
 31
0.0
  0
LINE
  8
0
  6
CONTINUOUS
 62
     2
 10
38.0
 20
141.0
 30
0.0
 11
38.0
 21
150.0
 31
0.0
  0
LINE
  8
0
  6
CONTINUOUS
 62
     2
 10
35.0
 20
142.0
 30
0.0
 11
35.0
 21
149.0
 31
0.0
  0
LINE
  8
0
  6
CONTINUOUS
 62
     2
 10
85.0
 20
149.0
 30
0.0
 11
85.0
 21
142.0
 31
0.0
  0
LINE
  8
0
  6
CONTINUOUS
 62
     2
 10
82.0
 20
142.0
 30
0.0
 11
85.0
 21
142.0
 31
0.0
  0
LINE
  8
0
  6
CONTINUOUS
 62
     2
 10
35.0
 20
142.0
 30
0.0
 11
38.0
 21
142.0
 31
0.0
  0
LINE
  8
0
  6
CONTINUOUS
 62
     2
 10
82.0
 20
149.0
 30
0.0
 11
85.0
 21
149.0
 31
0.0
  0
LINE
  8
0
  6
CONTINUOUS
 62
     2
 10
35.0
 20
149.0
 30
0.0
 11
38.0
 21
149.0
 31
0.0
  0
CIRCLE
  8
0
  6
CONTINUOUS
 62
     2
 10
40.0
 20
148.0
 30
0.0
 40
1.5
  0
LINE
  8
0
  6
CONTINUOUS
 62
     2
 10
38.5
 20
148.866025404
 30
0.0
 11
40.0
 21
149.732050808
 31
0.0
  0
LINE
  8
0
  6
CONTINUOUS
 62
     2
 10
41.5
 20
148.866025404
 30
0.0
 11
40.0
 21
149.732050808
 31
0.0
  0
LINE
  8
0
  6
CONTINUOUS
 62
     2
 10
41.5
 20
147.133974596
 30
0.0
 11
41.5
 21
148.866025404
 31
0.0
  0
LINE
  8
0
  6
CONTINUOUS
 62
     2
 10
40.0
 20
146.267949192
 30
0.0
 11
41.5
 21
147.133974596
 31
0.0
  0
POLYLINE
  8
0
  6
CONTINUOUS
 62
     2
 66
     1
  0
VERTEX
  8
0
  6
CONTINUOUS
 62
     2
 10
40.0
 20
146.267949192
 30
0.0
  0
VERTEX
  8
0
  6
CONTINUOUS
 62
     2
 10
38.5
 20
147.133974596
 30
0.0
  0
VERTEX
  8
0
  6
CONTINUOUS
 62
     2
 10
38.5
 20
148.866025404
 30
0.0
  0
SEQEND
  0
LINE
  8
0
  6
LTYPE1
 62
     2
 10
40.0
 20
145.0
 30
0.0
 11
40.0
 21
151.0
 31
0.0
  0
LINE
  8
0
  6
LTYPE1
 62
     2
 10
43.0
 20
148.0
 30
0.0
 11
37.0
 21
148.0
 31
0.0
  0
LINE
  8
0
  6
LTYPE1
 62
     2
 10
45.0
 20
142.0
 30
0.0
 11
45.0
 21
148.0
 31
0.0
  0
LINE
  8
0
  6
LTYPE1
 62
     2
 10
48.0
 20
145.0
 30
0.0
 11
42.0
 21
145.0
 31
0.0
  0
LINE
  8
0
  6
LTYPE2
 62
     2
 10
45.500000674
 20
143.5
 30
0.0
 11
44.500000954
 21
143.5
 31
0.0
  0
ARC
  8
0
  6
LTYPE2
 62
     2
 10
44.5
 20
145.0
 30
0.0
 40
1.5
 50
89.999963572
 51
270.000036428
  0
LINE
  8
0
  6
LTYPE2
 62
     2
 10
45.500000674
 20
146.5
 30
0.0
 11
44.500000954
 21
146.5
 31
0.0
  0
ARC
  8
0
  6
LTYPE2
 62
     2
 10
45.5
 20
145.0
 30
0.0
 40
1.5
 50
270.000025758
 51
89.999974242
  0
CIRCLE
  8
0
  6
CONTINUOUS
 62
     2
 10
80.0
 20
148.0
 30
0.0
 40
1.5
  0
LINE
  8
0
  6
CONTINUOUS
 62
     2
 10
81.5
 20
148.866025404
 30
0.0
 11
80.0
 21
149.732050808
 31
0.0
  0
LINE
  8
0
  6
CONTINUOUS
 62
     2
 10
78.5
 20
148.866025404
 30
0.0
 11
80.0
 21
149.732050808
 31
0.0
  0
LINE
  8
0
  6
CONTINUOUS
 62
     2
 10
78.5
 20
147.133974596
 30
0.0
 11
78.5
 21
148.866025404
 31
0.0
  0
LINE
  8
0
  6
CONTINUOUS
 62
     2
 10
80.0
 20
146.267949192
 30
0.0
 11
78.5
 21
147.133974596
 31
0.0
  0
POLYLINE
  8
0
  6
CONTINUOUS
 62
     2
 66
     1
  0
VERTEX
  8
0
  6
CONTINUOUS
 62
     2
 10
80.0
 20
146.267949192
 30
0.0
  0
VERTEX
  8
0
  6
CONTINUOUS
 62
     2
 10
81.5
 20
147.133974596
 30
0.0
  0
VERTEX
  8
0
  6
CONTINUOUS
 62
     2
 10
81.5
 20
148.866025404
 30
0.0
  0
SEQEND
  0
LINE
  8
0
  6
LTYPE1
 62
     2
 10
80.0
 20
145.0
 30
0.0
 11
80.0
 21
151.0
 31
0.0
  0
LINE
  8
0
  6
LTYPE1
 62
     2
 10
77.0
 20
148.0
 30
0.0
 11
83.0
 21
148.0
 31
0.0
  0
LINE
  8
0
  6
LTYPE1
 62
     2
 10
75.0
 20
142.0
 30
0.0
 11
75.0
 21
148.0
 31
0.0
  0
LINE
  8
0
  6
LTYPE1
 62
     2
 10
72.0
 20
145.0
 30
0.0
 11
78.0
 21
145.0
 31
0.0
  0
LINE
  8
0
  6
LTYPE2
 62
     2
 10
74.499999326
 20
143.5
 30
0.0
 11
75.499999046
 21
143.5
 31
0.0
  0
ARC
  8
0
  6
LTYPE2
 62
     2
 10
75.5
 20
145.0
 30
0.0
 40
1.5
 50
269.999963572
 51
90.000036428
  0
LINE
  8
0
  6
LTYPE2
 62
     2
 10
74.499999326
 20
146.5
 30
0.0
 11
75.499999046
 21
146.5
 31
0.0
  0
ARC
  8
0
  6
LTYPE2
 62
     2
 10
74.5
 20
145.0
 30
0.0
 40
1.5
 50
90.000025758
 51
269.999974242
  0
LINE
  8
0
  6
CONTINUOUS
 62
     2
 10
58.0
 20
113.0
 30
0.0
 11
62.0
 21
113.0
 31
0.0
  0
LINE
  8
0
  6
CONTINUOUS
 62
     2
 10
58.0
 20
147.0
 30
0.0
 11
62.0
 21
147.0
 31
0.0
  0
LINE
  8
0
  6
LTYPE1
 62
     2
 10
30.0
 20
130.0
 30
0.0
 11
90.0
 21
130.0
 31
0.0
  0
LINE
  8
0
  6
LTYPE1
 62
     2
 10
60.0
 20
152.0
 30
0.0
 11
60.0
 21
108.0
 31
0.0
  0
LINE
  8
0
  6
CONTINUOUS
 62
     2
 10
82.780011774
 20
140.0
 30
0.0
 11
82.780011774
 21
120.0
 31
0.0
  0
LINE
  8
0
  6
CONTINUOUS
 62
     2
 10
81.5
 20
140.0
 30
0.0
 11
81.5
 21
137.0
 31
0.0
  0
LINE
  8
0
  6
CONTINUOUS
 62
     2
 10
82.0
 20
141.5
 30
0.0
 11
82.0
 21
120.0
 31
0.0
  0
LINE
  8
0
  6
CONTINUOUS
 62
     2
 10
81.5
 20
123.0
 30
0.0
 11
81.5
 21
120.0
 31
0.0
  0
LINE
  8
0
  6
CONTINUOUS
 62
     2
 10
79.0
 20
140.0
 30
0.0
 11
79.0
 21
137.0
 31
0.0
  0
LINE
  8
0
  6
CONTINUOUS
 62
     2
 10
78.5
 20
141.5
 30
0.0
 11
78.5
 21
120.0
 31
0.0
  0
LINE
  8
0
  6
CONTINUOUS
 62
     2
 10
79.0
 20
123.0
 30
0.0
 11
79.0
 21
120.0
 31
0.0
  0
LINE
  8
0
  6
CONTINUOUS
 62
     2
 10
77.719988226
 20
140.0
 30
0.0
 11
77.719988226
 21
120.0
 31
0.0
  0
ARC
  8
0
  6
CONTINUOUS
 62
     2
 10
80.25
 20
141.208333333
 30
0.0
 40
1.041666667
 50
16.260204708
 51
163.739795292
  0
LINE
  8
0
  6
CONTINUOUS
 62
     2
 10
78.5
 20
137.0
 30
0.0
 11
82.0
 21
137.0
 31
0.0
  0
LINE
  8
0
  6
CONTINUOUS
 62
     2
 10
78.5
 20
141.5
 30
0.0
 11
82.0
 21
141.5
 31
0.0
  0
LINE
  8
0
  6
CONTINUOUS
 62
     2
 10
78.5
 20
123.0
 30
0.0
 11
82.0
 21
123.0
 31
0.0
  0
LINE
  8
0
  6
CONTINUOUS
 62
     2
 10
82.0
 20
137.0
 30
0.0
 11
78.5
 21
137.0
 31
0.0
  0
LINE
  8
0
  6
CONTINUOUS
 62
     2
 10
72.780011774
 20
140.0
 30
0.0
 11
72.780011774
 21
120.0
 31
0.0
  0
LINE
  8
0
  6
CONTINUOUS
 62
     2
 10
71.5
 20
140.0
 30
0.0
 11
71.5
 21
137.0
 31
0.0
  0
LINE
  8
0
  6
CONTINUOUS
 62
     2
 10
72.0
 20
141.5
 30
0.0
 11
72.0
 21
120.0
 31
0.0
  0
LINE
  8
0
  6
CONTINUOUS
 62
     2
 10
71.5
 20
123.0
 30
0.0
 11
71.5
 21
120.0
 31
0.0
  0
LINE
  8
0
  6
CONTINUOUS
 62
     2
 10
69.0
 20
140.0
 30
0.0
 11
69.0
 21
137.0
 31
0.0
  0
LINE
  8
0
  6
CONTINUOUS
 62
     2
 10
68.5
 20
141.5
 30
0.0
 11
68.5
 21
120.0
 31
0.0
  0
LINE
  8
0
  6
CONTINUOUS
 62
     2
 10
69.0
 20
123.0
 30
0.0
 11
69.0
 21
120.0
 31
0.0
  0
ARC
  8
0
  6
CONTINUOUS
 62
     2
 10
70.25
 20
141.208333333
 30
0.0
 40
1.041666667
 50
16.260204708
 51
163.739795292
  0
LINE
  8
0
  6
CONTINUOUS
 62
     2
 10
68.5
 20
137.0
 30
0.0
 11
72.0
 21
137.0
 31
0.0
  0
LINE
  8
0
  6
CONTINUOUS
 62
     2
 10
68.5
 20
141.5
 30
0.0
 11
72.0
 21
141.5
 31
0.0
  0
LINE
  8
0
  6
CONTINUOUS
 62
     2
 10
68.5
 20
123.0
 30
0.0
 11
72.0
 21
123.0
 31
0.0
  0
LINE
  8
0
  6
CONTINUOUS
 62
     2
 10
72.0
 20
137.0
 30
0.0
 11
68.5
 21
137.0
 31
0.0
  0
LINE
  8
0
  6
CONTINUOUS
 62
     2
 10
42.280011774
 20
140.0
 30
0.0
 11
42.280011774
 21
120.0
 31
0.0
  0
LINE
  8
0
  6
CONTINUOUS
 62
     2
 10
41.0
 20
140.0
 30
0.0
 11
41.0
 21
137.0
 31
0.0
  0
LINE
  8
0
  6
CONTINUOUS
 62
     2
 10
41.5
 20
141.5
 30
0.0
 11
41.5
 21
120.0
 31
0.0
  0
LINE
  8
0
  6
CONTINUOUS
 62
     2
 10
41.0
 20
123.0
 30
0.0
 11
41.0
 21
120.0
 31
0.0
  0
LINE
  8
0
  6
CONTINUOUS
 62
     2
 10
38.5
 20
140.0
 30
0.0
 11
38.5
 21
137.0
 31
0.0
  0
LINE
  8
0
  6
CONTINUOUS
 62
     2
 10
38.0
 20
141.5
 30
0.0
 11
38.0
 21
120.0
 31
0.0
  0
LINE
  8
0
  6
CONTINUOUS
 62
     2
 10
38.5
 20
123.0
 30
0.0
 11
38.5
 21
120.0
 31
0.0
  0
LINE
  8
0
  6
CONTINUOUS
 62
     2
 10
37.219988226
 20
140.0
 30
0.0
 11
37.219988226
 21
120.0
 31
0.0
  0
ARC
  8
0
  6
CONTINUOUS
 62
     2
 10
39.75
 20
141.208333333
 30
0.0
 40
1.041666667
 50
16.260204708
 51
163.739795292
  0
LINE
  8
0
  6
CONTINUOUS
 62
     2
 10
38.0
 20
137.0
 30
0.0
 11
41.5
 21
137.0
 31
0.0
  0
LINE
  8
0
  6
CONTINUOUS
 62
     2
 10
38.0
 20
141.5
 30
0.0
 11
41.5
 21
141.5
 31
0.0
  0
LINE
  8
0
  6
CONTINUOUS
 62
     2
 10
38.0
 20
123.0
 30
0.0
 11
41.5
 21
123.0
 31
0.0
  0
LINE
  8
0
  6
CONTINUOUS
 62
     2
 10
41.5
 20
137.0
 30
0.0
 11
38.0
 21
137.0
 31
0.0
  0
LINE
  8
0
  6
CONTINUOUS
 62
     2
 10
47.219988226
 20
140.0
 30
0.0
 11
47.219988226
 21
120.0
 31
0.0
  0
CIRCLE
  8
0
  6
CONTINUOUS
 62
     2
 10
49.75
 20
121.5
 30
0.0
 40
1.0
  0
CIRCLE
  8
0
  6
CONTINUOUS
 62
     2
 10
67.206410734
 20
121.5
 30
0.0
 40
1.0
  0
LINE
  8
0
  6
CONTINUOUS
 62
     2
 10
50.616025404
 20
122.0
 30
0.0
 11
66.34038533
 21
122.0
 31
0.0
  0
LINE
  8
0
  6
CONTINUOUS
 62
     2
 10
50.616025404
 20
121.0
 30
0.0
 11
66.34038533
 21
121.0
 31
0.0
  0
LINE
  8
0
  6
CONTINUOUS
 62
     2
 10
52.280011774
 20
121.0
 30
0.0
 11
52.280011774
 21
120.0
 31
0.0
  0
LINE
  8
0
  6
CONTINUOUS
 62
     2
 10
52.280011774
 20
140.0
 30
0.0
 11
52.280011774
 21
122.0
 31
0.0
  0
LINE
  8
0
  6
CONTINUOUS
 62
     2
 10
62.0
 20
122.0
 30
0.0
 11
62.0
 21
147.0
 31
0.0
  0
LINE
  8
0
  6
CONTINUOUS
 62
     2
 10
62.0
 20
113.0
 30
0.0
 11
62.0
 21
121.0
 31
0.0
  0
LINE
  8
0
  6
CONTINUOUS
 62
     2
 10
58.0
 20
121.0
 30
0.0
 11
58.0
 21
113.0
 31
0.0
  0
LINE
  8
0
  6
CONTINUOUS
 62
     2
 10
58.0
 20
147.0
 30
0.0
 11
58.0
 21
122.0
 31
0.0
  0
ARC
  8
0
  6
CONTINUOUS
 62
     2
 10
34.25
 20
138.0
 30
0.0
 40
2.0
 50
90.0
 51
180.0
  0
LINE
  8
0
  6
CONTINUOUS
 62
     2
 10
32.25
 20
138.0
 30
0.0
 11
32.25
 21
122.0
 31
0.0
  0
ARC
  8
0
  6
CONTINUOUS
 62
     2
 10
34.25
 20
122.0
 30
0.0
 40
2.0
 50
180.0
 51
270.0
  0
LINE
  8
0
  6
CONTINUOUS
 62
     2
 10
34.25
 20
120.0
 30
0.0
 11
55.25
 21
120.0
 31
0.0
  0
LINE
  8
0
  6
CONTINUOUS
 62
     2
 10
34.25
 20
140.0
 30
0.0
 11
55.25
 21
140.0
 31
0.0
  0
LINE
  8
0
  6
CONTINUOUS
 62
     2
 10
57.25
 20
122.0
 30
0.0
 11
57.25
 21
138.0
 31
0.0
  0
ARC
  8
0
  6
CONTINUOUS
 62
     2
 10
55.25
 20
138.0
 30
0.0
 40
2.0
 50
0.0
 51
90.0
  0
ARC
  8
0
  6
CONTINUOUS
 62
     2
 10
64.75
 20
138.0
 30
0.0
 40
2.0
 50
90.0
 51
180.0
  0
LINE
  8
0
  6
CONTINUOUS
 62
     2
 10
64.75
 20
140.0
 30
0.0
 11
85.75
 21
140.0
 31
0.0
  0
ARC
  8
0
  6
CONTINUOUS
 62
     2
 10
85.75
 20
138.0
 30
0.0
 40
2.0
 50
0.0
 51
90.0
  0
LINE
  8
0
  6
CONTINUOUS
 62
     2
 10
87.75
 20
122.0
 30
0.0
 11
87.75
 21
138.0
 31
0.0
  0
ARC
  8
0
  6
CONTINUOUS
 62
     2
 10
85.75
 20
122.0
 30
0.0
 40
2.0
 50
270.0
 51
0.0
  0
LINE
  8
0
  6
CONTINUOUS
 62
     2
 10
62.75
 20
138.0
 30
0.0
 11
62.75
 21
122.0
 31
0.0
  0
LINE
  8
0
  6
CONTINUOUS
 62
     2
 10
64.75
 20
120.0
 30
0.0
 11
85.75
 21
120.0
 31
0.0
  0
ARC
  8
0
  6
CONTINUOUS
 62
     2
 10
55.25
 20
122.0
 30
0.0
 40
2.0
 50
270.0
 51
330.0
  0
ARC
  8
0
  6
CONTINUOUS
 62
     2
 10
64.75
 20
122.0
 30
0.0
 40
2.0
 50
210.0
 51
270.0
  0
LINE
  8
0
  6
CONTINUOUS
 62
     2
 10
67.719988226
 20
120.641956784
 30
0.0
 11
67.719988226
 21
120.0
 31
0.0
  0
LINE
  8
0
  6
CONTINUOUS
 62
     2
 10
67.719988226
 20
140.0
 30
0.0
 11
67.719988226
 21
122.358043216
 31
0.0
  0
LINE
  8
0
  6
CONTINUOUS
 62
     2
 10
69.25
 20
116.0
 30
0.0
 11
68.75
 21
120.0
 31
0.0
  0
LINE
  8
0
  6
CONTINUOUS
 62
     2
 10
73.0
 20
116.0
 30
0.0
 11
73.0
 21
115.7
 31
0.0
  0
LINE
  8
0
  6
CONTINUOUS
 62
     2
 10
69.5
 20
116.0
 30
0.0
 11
69.5
 21
115.7
 31
0.0
  0
ARC
  8
0
  6
CONTINUOUS
 62
     2
 10
71.25
 20
116.064285714
 30
0.0
 40
1.064285714
 50
200.015959603
 51
339.984040397
  0
LINE
  8
0
  6
CONTINUOUS
 62
     2
 10
69.5
 20
115.7
 30
0.0
 11
73.0
 21
115.7
 31
0.0
  0
LINE
  8
0
  6
CONTINUOUS
 62
     2
 10
73.25
 20
116.0
 30
0.0
 11
73.75
 21
120.0
 31
0.0
  0
LINE
  8
0
  6
CONTINUOUS
 62
     2
 10
69.25
 20
116.0
 30
0.0
 11
73.25
 21
116.0
 31
0.0
  0
LINE
  8
0
  6
CONTINUOUS
 62
     2
 10
77.25
 20
116.0
 30
0.0
 11
76.75
 21
120.0
 31
0.0
  0
LINE
  8
0
  6
CONTINUOUS
 62
     2
 10
81.0
 20
116.0
 30
0.0
 11
81.0
 21
115.7
 31
0.0
  0
LINE
  8
0
  6
CONTINUOUS
 62
     2
 10
77.5
 20
116.0
 30
0.0
 11
77.5
 21
115.7
 31
0.0
  0
ARC
  8
0
  6
CONTINUOUS
 62
     2
 10
79.25
 20
116.064285714
 30
0.0
 40
1.064285714
 50
200.015959603
 51
339.984040397
  0
LINE
  8
0
  6
CONTINUOUS
 62
     2
 10
77.5
 20
115.7
 30
0.0
 11
81.0
 21
115.7
 31
0.0
  0
LINE
  8
0
  6
CONTINUOUS
 62
     2
 10
81.25
 20
116.0
 30
0.0
 11
81.75
 21
120.0
 31
0.0
  0
LINE
  8
0
  6
CONTINUOUS
 62
     2
 10
77.25
 20
116.0
 30
0.0
 11
81.25
 21
116.0
 31
0.0
  0
LINE
  8
0
  6
CONTINUOUS
 62
     2
 10
46.75
 20
116.0
 30
0.0
 11
46.25
 21
120.0
 31
0.0
  0
LINE
  8
0
  6
CONTINUOUS
 62
     2
 10
50.5
 20
116.0
 30
0.0
 11
50.5
 21
115.7
 31
0.0
  0
LINE
  8
0
  6
CONTINUOUS
 62
     2
 10
47.0
 20
116.0
 30
0.0
 11
47.0
 21
115.7
 31
0.0
  0
ARC
  8
0
  6
CONTINUOUS
 62
     2
 10
48.75
 20
116.064285714
 30
0.0
 40
1.064285714
 50
200.015959603
 51
339.984040397
  0
LINE
  8
0
  6
CONTINUOUS
 62
     2
 10
47.0
 20
115.7
 30
0.0
 11
50.5
 21
115.7
 31
0.0
  0
LINE
  8
0
  6
CONTINUOUS
 62
     2
 10
50.75
 20
116.0
 30
0.0
 11
51.25
 21
120.0
 31
0.0
  0
LINE
  8
0
  6
CONTINUOUS
 62
     2
 10
46.75
 20
116.0
 30
0.0
 11
50.75
 21
116.0
 31
0.0
  0
LINE
  8
0
  6
CONTINUOUS
 62
     2
 10
38.75
 20
116.0
 30
0.0
 11
38.25
 21
120.0
 31
0.0
  0
LINE
  8
0
  6
CONTINUOUS
 62
     2
 10
42.5
 20
116.0
 30
0.0
 11
42.5
 21
115.7
 31
0.0
  0
LINE
  8
0
  6
CONTINUOUS
 62
     2
 10
39.0
 20
116.0
 30
0.0
 11
39.0
 21
115.7
 31
0.0
  0
ARC
  8
0
  6
CONTINUOUS
 62
     2
 10
40.75
 20
116.064285714
 30
0.0
 40
1.064285714
 50
200.015959603
 51
339.984040397
  0
LINE
  8
0
  6
CONTINUOUS
 62
     2
 10
39.0
 20
115.7
 30
0.0
 11
42.5
 21
115.7
 31
0.0
  0
LINE
  8
0
  6
CONTINUOUS
 62
     2
 10
42.75
 20
116.0
 30
0.0
 11
43.25
 21
120.0
 31
0.0
  0
LINE
  8
0
  6
CONTINUOUS
 62
     2
 10
38.75
 20
116.0
 30
0.0
 11
42.75
 21
116.0
 31
0.0
  0
LINE
  8
0
  6
LTYPE1
 62
     2
 10
79.25
 20
120.0
 30
0.0
 11
79.25
 21
114.0
 31
0.0
  0
LINE
  8
0
  6
LTYPE1
 62
     2
 10
71.25
 20
120.0
 30
0.0
 11
71.25
 21
114.0
 31
0.0
  0
LINE
  8
0
  6
LTYPE1
 62
     2
 10
48.75
 20
120.0
 30
0.0
 11
48.75
 21
114.0
 31
0.0
  0
LINE
  8
0
  6
LTYPE1
 62
     2
 10
40.75
 20
120.0
 30
0.0
 11
40.75
 21
114.0
 31
0.0
  0
LINE
  8
0
  6
CONTINUOUS
 62
     2
 10
48.75
 20
115.0
 30
0.0
 11
58.0
 21
115.0
 31
0.0
  0
LINE
  8
0
  6
CONTINUOUS
 62
     2
 10
62.0
 20
115.0
 30
0.0
 11
71.25
 21
115.0
 31
0.0
  0
LINE
  8
0
  6
CONTINUOUS
 62
     2
 10
50.75
 20
116.0
 30
0.0
 11
58.0
 21
116.0
 31
0.0
  0
LINE
  8
0
  6
CONTINUOUS
 62
     2
 10
62.0
 20
116.0
 30
0.0
 11
69.25
 21
116.0
 31
0.0
  0
CIRCLE
  8
0
  6
CONTINUOUS
 62
     2
 10
60.0
 20
115.5
 30
0.0
 40
1.5
  0
LINE
  8
0
  6
CONTINUOUS
 62
     2
 10
61.5
 20
114.633974596
 30
0.0
 11
60.0
 21
113.767949192
 31
0.0
  0
LINE
  8
0
  6
CONTINUOUS
 62
     2
 10
58.5
 20
114.633974596
 30
0.0
 11
60.0
 21
113.767949192
 31
0.0
  0
LINE
  8
0
  6
CONTINUOUS
 62
     2
 10
58.5
 20
116.366025404
 30
0.0
 11
58.5
 21
114.633974596
 31
0.0
  0
LINE
  8
0
  6
CONTINUOUS
 62
     2
 10
60.0
 20
117.232050808
 30
0.0
 11
58.5
 21
116.366025404
 31
0.0
  0
POLYLINE
  8
0
  6
CONTINUOUS
 62
     2
 66
     1
  0
VERTEX
  8
0
  6
CONTINUOUS
 62
     2
 10
60.0
 20
117.232050808
 30
0.0
  0
VERTEX
  8
0
  6
CONTINUOUS
 62
     2
 10
61.5
 20
116.366025404
 30
0.0
  0
VERTEX
  8
0
  6
CONTINUOUS
 62
     2
 10
61.5
 20
114.633974596
 30
0.0
  0
SEQEND
  0
LINE
  8
0
  6
LTYPE1
 62
     2
 10
57.0
 20
115.5
 30
0.0
 11
63.0
 21
115.5
 31
0.0
  0
CIRCLE
  8
0
  6
CONTINUOUS
 62
     2
 10
60.0
 20
144.5
 30
0.0
 40
1.5
  0
LINE
  8
0
  6
CONTINUOUS
 62
     2
 10
61.5
 20
145.366025404
 30
0.0
 11
60.0
 21
146.232050808
 31
0.0
  0
LINE
  8
0
  6
CONTINUOUS
 62
     2
 10
58.5
 20
145.366025404
 30
0.0
 11
60.0
 21
146.232050808
 31
0.0
  0
LINE
  8
0
  6
CONTINUOUS
 62
     2
 10
58.5
 20
143.633974596
 30
0.0
 11
58.5
 21
145.366025404
 31
0.0
  0
LINE
  8
0
  6
CONTINUOUS
 62
     2
 10
60.0
 20
142.767949192
 30
0.0
 11
58.5
 21
143.633974596
 31
0.0
  0
POLYLINE
  8
0
  6
CONTINUOUS
 62
     2
 66
     1
  0
VERTEX
  8
0
  6
CONTINUOUS
 62
     2
 10
60.0
 20
142.767949192
 30
0.0
  0
VERTEX
  8
0
  6
CONTINUOUS
 62
     2
 10
61.5
 20
143.633974596
 30
0.0
  0
VERTEX
  8
0
  6
CONTINUOUS
 62
     2
 10
61.5
 20
145.366025404
 30
0.0
  0
SEQEND
  0
LINE
  8
0
  6
LTYPE1
 62
     2
 10
57.0
 20
144.5
 30
0.0
 11
63.0
 21
144.5
 31
0.0
  0
LINE
  8
0
  6
CONTINUOUS
 62
     2
 10
62.0
 20
141.0
 30
0.0
 11
82.0
 21
141.0
 31
0.0
  0
LINE
  8
0
  6
CONTINUOUS
 62
     2
 10
38.0
 20
141.0
 30
0.0
 11
58.0
 21
141.0
 31
0.0
  0
LINE
  8
0
  6
CONTINUOUS
 62
     2
 10
62.0
 20
119.0
 30
0.0
 11
68.875
 21
119.0
 31
0.0
  0
LINE
  8
0
  6
CONTINUOUS
 62
     2
 10
81.625
 20
119.0
 30
0.0
 11
82.0
 21
119.0
 31
0.0
  0
LINE
  8
0
  6
CONTINUOUS
 62
     2
 10
73.625
 20
119.0
 30
0.0
 11
76.875
 21
119.0
 31
0.0
  0
LINE
  8
0
  6
CONTINUOUS
 62
     2
 10
51.125
 20
119.0
 30
0.0
 11
58.0
 21
119.0
 31
0.0
  0
LINE
  8
0
  6
CONTINUOUS
 62
     2
 10
43.125
 20
119.0
 30
0.0
 11
46.375
 21
119.0
 31
0.0
  0
LINE
  8
0
  6
CONTINUOUS
 62
     2
 10
38.0
 20
119.0
 30
0.0
 11
38.375
 21
119.0
 31
0.0
  0
LINE
  8
0
  6
CONTINUOUS
 62
     2
 10
45.25
 20
109.0
 30
0.0
 11
45.25
 21
103.0
 31
0.0
  0
LINE
  8
0
  6
CONTINUOUS
 62
     2
 10
45.25
 20
104.0
 30
0.0
 11
47.664814566
 21
103.352952387
 31
0.0
  0
LINE
  8
0
  6
CONTINUOUS
 62
     2
 10
45.25
 20
104.0
 30
0.0
 11
47.664814566
 21
104.647047613
 31
0.0
  0
LINE
  8
0
  6
CONTINUOUS
 62
     2
 10
45.25
 20
104.0
 30
0.0
 11
60.0
 21
104.0
 31
0.0
  0
LINE
  8
0
  6
CONTINUOUS
 62
     2
 10
32.25
 20
98.0
 30
0.0
 11
34.664814566
 21
97.352952387
 31
0.0
  0
LINE
  8
0
  6
CONTINUOUS
 62
     2
 10
32.25
 20
98.0
 30
0.0
 11
34.664814566
 21
98.647047613
 31
0.0
  0
POLYLINE
  8
0
  6
CONTINUOUS
 62
     2
 66
     1
  0
VERTEX
  8
0
  6
CONTINUOUS
 62
     2
 10
60.0
 20
104.0
 30
0.0
  0
VERTEX
  8
0
  6
CONTINUOUS
 62
     2
 10
74.75
 20
104.0
 30
0.0
  0
VERTEX
  8
0
  6
CONTINUOUS
 62
     2
 10
72.335185434
 20
104.647047613
 30
0.0
  0
SEQEND
  0
LINE
  8
0
  6
CONTINUOUS
 62
     2
 10
74.75
 20
104.0
 30
0.0
 11
72.335185434
 21
103.352952387
 31
0.0
  0
LINE
  8
0
  6
CONTINUOUS
 62
     2
 10
74.75
 20
109.0
 30
0.0
 11
74.75
 21
103.0
 31
0.0
  0
LINE
  8
0
  6
CONTINUOUS
 62
     2
 10
87.75
 20
98.0
 30
0.0
 11
85.335185434
 21
98.647047613
 31
0.0
  0
LINE
  8
0
  6
CONTINUOUS
 62
     2
 10
87.75
 20
98.0
 30
0.0
 11
85.335185434
 21
97.352952387
 31
0.0
  0
LINE
  8
0
  6
CONTINUOUS
 62
     2
 10
32.25
 20
98.0
 30
0.0
 11
87.75
 21
98.0
 31
0.0
  0
TEXT
  8
0
  6
CONTINUOUS
 62
     2
 10
57.100829072
 20
98.5
 30
0.3
 40
3.0
  1
２２２
 50
0.0
 41
0.6
 51
0.0
  7
KANJI9
  0
TEXT
  8
0
  6
CONTINUOUS
 62
     2
 10
25.75
 20
127.053
 30
0.3
 40
3.0
  1
１２０
 50
90.0
 41
0.6
 51
0.0
  7
KANJI9
  0
TEXT
  8
0
  6
CONTINUOUS
 62
     2
 10
19.75
 20
127.163
 30
0.3
 40
3.0
  1
１６０
 50
90.0
 41
0.6
 51
0.0
  7
KANJI9
  0
LINE
  8
0
  6
CONTINUOUS
 62
     2
 10
87.75
 20
119.0
 30
0.0
 11
87.75
 21
97.0
 31
0.0
  0
LINE
  8
0
  6
CONTINUOUS
 62
     2
 10
32.25
 20
119.0
 30
0.0
 11
32.25
 21
97.0
 31
0.0
  0
TEXT
  8
0
  6
CONTINUOUS
 62
     2
 10
57.100829072
 20
104.5
 30
0.3
 40
3.0
  1
１２０
 50
0.0
 41
0.6
 51
0.0
  7
KANJI9
  0
LINE
  8
0
  6
CONTINUOUS
 62
     2
 10
93.75
 20
30.0
 30
0.0
 11
94.397047613
 21
32.414814566
 31
0.0
  0
LINE
  8
0
  6
CONTINUOUS
 62
     2
 10
93.75
 20
30.0
 30
0.0
 11
93.102952387
 21
32.414814566
 31
0.0
  0
LINE
  8
0
  6
CONTINUOUS
 62
     2
 10
88.75
 20
30.0
 30
0.0
 11
94.75
 21
30.0
 31
0.0
  0
LINE
  8
0
  6
CONTINUOUS
 62
     2
 10
93.75
 20
30.0
 30
0.0
 11
93.75
 21
47.5
 31
0.0
  0
LINE
  8
0
  6
CONTINUOUS
 62
     2
 10
93.75
 20
47.5
 30
0.0
 11
93.102952387
 21
45.085185434
 31
0.0
  0
LINE
  8
0
  6
CONTINUOUS
 62
     2
 10
93.75
 20
47.5
 30
0.0
 11
94.397047613
 21
45.085185434
 31
0.0
  0
LINE
  8
0
  6
CONTINUOUS
 62
     2
 10
88.75
 20
47.5
 30
0.0
 11
94.75
 21
47.5
 31
0.0
  0
LINE
  8
0
  6
CONTINUOUS
 62
     2
 10
99.75
 20
30.0
 30
0.0
 11
100.397047613
 21
32.414814566
 31
0.0
  0
LINE
  8
0
  6
CONTINUOUS
 62
     2
 10
99.75
 20
30.0
 30
0.0
 11
99.102952387
 21
32.414814566
 31
0.0
  0
LINE
  8
0
  6
CONTINUOUS
 62
     2
 10
88.75
 20
30.0
 30
0.0
 11
100.75
 21
30.0
 31
0.0
  0
LINE
  8
0
  6
CONTINUOUS
 62
     2
 10
99.75
 20
30.0
 30
0.0
 11
99.75
 21
72.0
 31
0.0
  0
LINE
  8
0
  6
CONTINUOUS
 62
     2
 10
99.75
 20
72.0
 30
0.0
 11
99.102952387
 21
69.585185434
 31
0.0
  0
LINE
  8
0
  6
CONTINUOUS
 62
     2
 10
99.75
 20
72.0
 30
0.0
 11
100.397047613
 21
69.585185434
 31
0.0
  0
LINE
  8
0
  6
CONTINUOUS
 62
     2
 10
85.0
 20
72.0
 30
0.0
 11
100.75
 21
72.0
 31
0.0
  0
LINE
  8
0
  6
CONTINUOUS
 62
     2
 10
75.0
 20
146.5
 30
0.0
 11
76.767766953
 21
148.267766953
 31
0.0
  0
LINE
  8
0
  6
CONTINUOUS
 62
     2
 10
75.0
 20
146.5
 30
0.0
 11
75.647047613
 21
148.914814566
 31
0.0
  0
LINE
  8
0
  6
CONTINUOUS
 62
     2
 10
75.0
 20
146.5
 30
0.0
 11
83.948929172
 21
162.0
 31
0.0
  0
TEXT
  8
0
  6
CONTINUOUS
 62
     2
 10
84.769248654
 20
162.5
 30
0.3
 40
3.0
  1
４－φ９長穴
 50
0.0
 41
0.9
 51
0.0
  7
KANJI3
  0
LINE
  8
0
  6
CONTINUOUS
 62
     2
 10
103.513929172
 20
162.0
 30
0.0
 11
83.948929172
 21
162.0
 31
0.0
  0
LINE
  8
0
  6
CONTINUOUS
 62
     2
 10
117.800116303
 20
108.31677761
 30
0.0
 11
92.038116303
 21
108.31677761
 31
0.0
  0
TEXT
  8
0
  6
CONTINUOUS
 62
     2
 10
93.006232607
 20
108.81677761
 30
0.3
 40
3.0
  1
３－Ｍ５二次端子
 50
0.0
 41
0.9
 51
0.0
  7
KANJI3
  0
LINE
  8
0
  6
CONTINUOUS
 62
     2
 10
125.0
 20
148.443
 30
0.0
 11
126.25
 21
145.943
 31
0.0
  0
LINE
  8
0
  6
CONTINUOUS
 62
     2
 10
126.25
 20
145.943
 30
0.0
 11
127.5
 21
148.443
 31
0.0
  0
LINE
  8
0
  6
CONTINUOUS
 62
     2
 10
127.5
 20
148.443
 30
0.0
 11
128.75
 21
145.943
 31
0.0
  0
LINE
  8
0
  6
CONTINUOUS
 62
     2
 10
128.75
 20
145.943
 30
0.0
 11
130.0
 21
148.443
 31
0.0
  0
LINE
  8
0
  6
CONTINUOUS
 62
     2
 10
130.0
 20
148.443
 30
0.0
 11
131.25
 21
145.943
 31
0.0
  0
LINE
  8
0
  6
CONTINUOUS
 62
     2
 10
131.25
 20
145.943
 30
0.0
 11
132.5
 21
148.443
 31
0.0
  0
LINE
  8
0
  6
CONTINUOUS
 62
     2
 10
132.5
 20
148.443
 30
0.0
 11
133.75
 21
145.943
 31
0.0
  0
LINE
  8
0
  6
CONTINUOUS
 62
     2
 10
133.75
 20
145.943
 30
0.0
 11
135.0
 21
148.443
 31
0.0
  0
LINE
  8
0
  6
CONTINUOUS
 62
     2
 10
139.0
 20
157.943
 30
0.0
 11
141.0
 21
157.943
 31
0.0
  0
LINE
  8
0
  6
CONTINUOUS
 62
     2
 10
141.0
 20
154.443
 30
0.0
 11
141.0
 21
157.943
 31
0.0
  0
LINE
  8
0
  6
CONTINUOUS
 62
     2
 10
139.0
 20
154.443
 30
0.0
 11
141.0
 21
154.443
 31
0.0
  0
LINE
  8
0
  6
CONTINUOUS
 62
     2
 10
139.0
 20
154.443
 30
0.0
 11
139.0
 21
157.943
 31
0.0
  0
LINE
  8
0
  6
CONTINUOUS
 62
     2
 10
141.0
 20
157.943
 30
0.0
 11
139.0
 21
154.443
 31
0.0
  0
LINE
  8
0
  6
CONTINUOUS
 62
     2
 10
140.0
 20
148.443
 30
0.0
 11
140.0
 21
154.443
 31
0.0
  0
CIRCLE
  8
0
  6
CONTINUOUS
 62
     2
 10
140.0
 20
161.943
 30
0.0
 40
0.75
  0
LINE
  8
0
  6
CONTINUOUS
 62
     2
 10
140.0
 20
161.193
 30
0.0
 11
140.0
 21
157.943
 31
0.0
  0
LINE
  8
0
  6
CONTINUOUS
 62
     2
 10
154.0
 20
157.943
 30
0.0
 11
156.0
 21
157.943
 31
0.0
  0
LINE
  8
0
  6
CONTINUOUS
 62
     2
 10
156.0
 20
154.443
 30
0.0
 11
156.0
 21
157.943
 31
0.0
  0
LINE
  8
0
  6
CONTINUOUS
 62
     2
 10
154.0
 20
154.443
 30
0.0
 11
156.0
 21
154.443
 31
0.0
  0
LINE
  8
0
  6
CONTINUOUS
 62
     2
 10
154.0
 20
154.443
 30
0.0
 11
154.0
 21
157.943
 31
0.0
  0
LINE
  8
0
  6
CONTINUOUS
 62
     2
 10
156.0
 20
157.943
 30
0.0
 11
154.0
 21
154.443
 31
0.0
  0
LINE
  8
0
  6
CONTINUOUS
 62
     2
 10
155.0
 20
148.443
 30
0.0
 11
155.0
 21
154.443
 31
0.0
  0
CIRCLE
  8
0
  6
CONTINUOUS
 62
     2
 10
155.0
 20
161.943
 30
0.0
 40
0.75
  0
LINE
  8
0
  6
CONTINUOUS
 62
     2
 10
155.0
 20
161.193
 30
0.0
 11
155.0
 21
157.943
 31
0.0
  0
LINE
  8
0
  6
CONTINUOUS
 62
     2
 10
124.0
 20
157.943
 30
0.0
 11
126.0
 21
157.943
 31
0.0
  0
LINE
  8
0
  6
CONTINUOUS
 62
     2
 10
126.0
 20
154.443
 30
0.0
 11
126.0
 21
157.943
 31
0.0
  0
LINE
  8
0
  6
CONTINUOUS
 62
     2
 10
124.0
 20
154.443
 30
0.0
 11
126.0
 21
154.443
 31
0.0
  0
LINE
  8
0
  6
CONTINUOUS
 62
     2
 10
124.0
 20
154.443
 30
0.0
 11
124.0
 21
157.943
 31
0.0
  0
LINE
  8
0
  6
CONTINUOUS
 62
     2
 10
126.0
 20
157.943
 30
0.0
 11
124.0
 21
154.443
 31
0.0
  0
LINE
  8
0
  6
CONTINUOUS
 62
     2
 10
125.0
 20
148.443
 30
0.0
 11
125.0
 21
154.443
 31
0.0
  0
CIRCLE
  8
0
  6
CONTINUOUS
 62
     2
 10
125.0
 20
161.943
 30
0.0
 40
0.75
  0
LINE
  8
0
  6
CONTINUOUS
 62
     2
 10
125.0
 20
161.193
 30
0.0
 11
125.0
 21
157.943
 31
0.0
  0
TEXT
  8
0
  6
CONTINUOUS
 62
     2
 10
123.651
 20
163.448
 30
0.3
 40
3.0
  1
Ｕ
 50
0.0
 41
0.9
 51
0.0
  7
KANJI3
  0
TEXT
  8
0
  6
CONTINUOUS
 62
     2
 10
138.651
 20
163.448
 30
0.3
 40
3.0
  1
Ｖ
 50
0.0
 41
0.9
 51
0.0
  7
KANJI3
  0
TEXT
  8
0
  6
CONTINUOUS
 62
     2
 10
153.651
 20
163.448
 30
0.3
 40
3.0
  1
Ｗ
 50
0.0
 41
0.9
 51
0.0
  7
KANJI3
  0
LINE
  8
0
  6
CONTINUOUS
 62
     2
 10
135.0
 20
148.443
 30
0.0
 11
136.25
 21
145.943
 31
0.0
  0
LINE
  8
0
  6
CONTINUOUS
 62
     2
 10
136.25
 20
145.943
 30
0.0
 11
137.5
 21
148.443
 31
0.0
  0
LINE
  8
0
  6
CONTINUOUS
 62
     2
 10
137.5
 20
148.443
 30
0.0
 11
138.75
 21
145.943
 31
0.0
  0
LINE
  8
0
  6
CONTINUOUS
 62
     2
 10
138.75
 20
145.943
 30
0.0
 11
140.0
 21
148.443
 31
0.0
  0
LINE
  8
0
  6
CONTINUOUS
 62
     2
 10
140.0
 20
148.443
 30
0.0
 11
141.25
 21
145.943
 31
0.0
  0
LINE
  8
0
  6
CONTINUOUS
 62
     2
 10
141.25
 20
145.943
 30
0.0
 11
142.5
 21
148.443
 31
0.0
  0
LINE
  8
0
  6
CONTINUOUS
 62
     2
 10
142.5
 20
148.443
 30
0.0
 11
143.75
 21
145.943
 31
0.0
  0
LINE
  8
0
  6
CONTINUOUS
 62
     2
 10
143.75
 20
145.943
 30
0.0
 11
145.0
 21
148.443
 31
0.0
  0
LINE
  8
0
  6
CONTINUOUS
 62
     2
 10
145.0
 20
148.443
 30
0.0
 11
146.25
 21
145.943
 31
0.0
  0
LINE
  8
0
  6
CONTINUOUS
 62
     2
 10
146.25
 20
145.943
 30
0.0
 11
147.5
 21
148.443
 31
0.0
  0
LINE
  8
0
  6
CONTINUOUS
 62
     2
 10
147.5
 20
148.443
 30
0.0
 11
148.75
 21
145.943
 31
0.0
  0
LINE
  8
0
  6
CONTINUOUS
 62
     2
 10
148.75
 20
145.943
 30
0.0
 11
150.0
 21
148.443
 31
0.0
  0
LINE
  8
0
  6
CONTINUOUS
 62
     2
 10
150.0
 20
148.443
 30
0.0
 11
151.25
 21
145.943
 31
0.0
  0
LINE
  8
0
  6
CONTINUOUS
 62
     2
 10
151.25
 20
145.943
 30
0.0
 11
152.5
 21
148.443
 31
0.0
  0
LINE
  8
0
  6
CONTINUOUS
 62
     2
 10
152.5
 20
148.443
 30
0.0
 11
153.75
 21
145.943
 31
0.0
  0
LINE
  8
0
  6
CONTINUOUS
 62
     2
 10
153.75
 20
145.943
 30
0.0
 11
155.0
 21
148.443
 31
0.0
  0
LINE
  8
0
  6
CONTINUOUS
 62
     2
 10
126.25
 20
139.943
 30
0.0
 11
127.5
 21
137.443
 31
0.0
  0
LINE
  8
0
  6
CONTINUOUS
 62
     2
 10
127.5
 20
137.443
 30
0.0
 11
128.75
 21
139.943
 31
0.0
  0
LINE
  8
0
  6
CONTINUOUS
 62
     2
 10
128.75
 20
139.943
 30
0.0
 11
130.0
 21
137.443
 31
0.0
  0
LINE
  8
0
  6
CONTINUOUS
 62
     2
 10
130.0
 20
137.443
 30
0.0
 11
131.25
 21
139.943
 31
0.0
  0
LINE
  8
0
  6
CONTINUOUS
 62
     2
 10
131.25
 20
139.943
 30
0.0
 11
132.5
 21
137.443
 31
0.0
  0
LINE
  8
0
  6
CONTINUOUS
 62
     2
 10
132.5
 20
137.443
 30
0.0
 11
133.75
 21
139.943
 31
0.0
  0
LINE
  8
0
  6
CONTINUOUS
 62
     2
 10
133.75
 20
139.943
 30
0.0
 11
135.0
 21
137.443
 31
0.0
  0
LINE
  8
0
  6
CONTINUOUS
 62
     2
 10
135.0
 20
137.443
 30
0.0
 11
136.25
 21
139.943
 31
0.0
  0
LINE
  8
0
  6
CONTINUOUS
 62
     2
 10
136.25
 20
139.943
 30
0.0
 11
137.5
 21
137.443
 31
0.0
  0
LINE
  8
0
  6
CONTINUOUS
 62
     2
 10
137.5
 20
137.443
 30
0.0
 11
138.75
 21
139.943
 31
0.0
  0
LINE
  8
0
  6
CONTINUOUS
 62
     2
 10
140.0
 20
137.443
 30
0.0
 11
141.25
 21
139.943
 31
0.0
  0
LINE
  8
0
  6
CONTINUOUS
 62
     2
 10
141.25
 20
139.943
 30
0.0
 11
142.5
 21
137.443
 31
0.0
  0
LINE
  8
0
  6
CONTINUOUS
 62
     2
 10
142.5
 20
137.443
 30
0.0
 11
143.75
 21
139.943
 31
0.0
  0
LINE
  8
0
  6
CONTINUOUS
 62
     2
 10
143.75
 20
139.943
 30
0.0
 11
145.0
 21
137.443
 31
0.0
  0
LINE
  8
0
  6
CONTINUOUS
 62
     2
 10
145.0
 20
137.443
 30
0.0
 11
146.25
 21
139.943
 31
0.0
  0
LINE
  8
0
  6
CONTINUOUS
 62
     2
 10
146.25
 20
139.943
 30
0.0
 11
147.5
 21
137.443
 31
0.0
  0
LINE
  8
0
  6
CONTINUOUS
 62
     2
 10
147.5
 20
137.443
 30
0.0
 11
148.75
 21
139.943
 31
0.0
  0
LINE
  8
0
  6
CONTINUOUS
 62
     2
 10
148.75
 20
139.943
 30
0.0
 11
150.0
 21
137.443
 31
0.0
  0
LINE
  8
0
  6
CONTINUOUS
 62
     2
 10
150.0
 20
137.443
 30
0.0
 11
151.25
 21
139.943
 31
0.0
  0
LINE
  8
0
  6
CONTINUOUS
 62
     2
 10
151.25
 20
139.943
 30
0.0
 11
152.5
 21
137.443
 31
0.0
  0
LINE
  8
0
  6
CONTINUOUS
 62
     2
 10
152.5
 20
137.443
 30
0.0
 11
153.75
 21
139.943
 31
0.0
  0
CIRCLE
  8
0
  6
CONTINUOUS
 62
     2
 10
125.0
 20
130.0
 30
0.0
 40
0.75
  0
CIRCLE
  8
0
  6
CONTINUOUS
 62
     2
 10
140.0
 20
130.0
 30
0.0
 40
0.75
  0
CIRCLE
  8
0
  6
CONTINUOUS
 62
     2
 10
155.0
 20
130.0
 30
0.0
 40
0.75
  0
TEXT
  8
0
  6
CONTINUOUS
 62
     2
 10
123.418
 20
125.601
 30
0.35
 40
3.5
  1
ｕ
 50
0.0
 41
0.9
 51
0.0
  7
KANJI10
  0
TEXT
  8
0
  6
CONTINUOUS
 62
     2
 10
138.418
 20
125.601
 30
0.35
 40
3.5
  1
ｖ
 50
0.0
 41
0.9
 51
0.0
  7
KANJI10
  0
TEXT
  8
0
  6
CONTINUOUS
 62
     2
 10
153.418
 20
125.601
 30
0.35
 40
3.5
  1
ｗ
 50
0.0
 41
0.9
 51
0.0
  7
KANJI10
  0
LINE
  8
0
  6
CONTINUOUS
 62
     2
 10
125.0
 20
137.443
 30
0.0
 11
126.25
 21
139.943
 31
0.0
  0
LINE
  8
0
  6
CONTINUOUS
 62
     2
 10
125.0
 20
137.443
 30
0.0
 11
125.0
 21
130.75
 31
0.0
  0
LINE
  8
0
  6
CONTINUOUS
 62
     2
 10
140.0
 20
137.443
 30
0.0
 11
140.0
 21
130.75
 31
0.0
  0
LINE
  8
0
  6
CONTINUOUS
 62
     2
 10
138.75
 20
139.943
 30
0.0
 11
140.0
 21
137.443
 31
0.0
  0
LINE
  8
0
  6
CONTINUOUS
 62
     2
 10
155.0
 20
137.443
 30
0.0
 11
155.0
 21
130.75
 31
0.0
  0
LINE
  8
0
  6
CONTINUOUS
 62
     2
 10
153.75
 20
139.943
 30
0.0
 11
155.0
 21
137.443
 31
0.0
  0
TEXT
  8
0
  6
CONTINUOUS
 62
     2
 10
113.577664315
 20
154.819
 30
0.3
 40
3.0
  1
ヒューズ
 50
0.0
 41
0.733333333
 51
0.0
  7
KANJI11
  0
TEXT
  8
0
  6
CONTINUOUS
 62
     2
 10
130.455
 20
171.984
 30
0.35
 40
3.5
  1
内部結線図
 50
0.0
 41
0.9
 51
0.0
  7
KANJI10
  0
LINE
  8
0
  6
CONTINUOUS
 62
     2
 10
129.099
 20
171.328
 30
0.0
 11
149.285
 21
171.328
 31
0.0
  0
LINE
  8
0
  6
CONTINUOUS
 62
     2
 10
79.972533488
 20
115.282845096
 30
0.0
 11
81.740300441
 21
113.515078143
 31
0.0
  0
LINE
  8
0
  6
CONTINUOUS
 62
     2
 10
79.972533488
 20
115.282845096
 30
0.0
 11
82.387348054
 21
114.635797483
 31
0.0
  0
LINE
  8
0
  6
CONTINUOUS
 62
     2
 10
79.972533488
 20
115.282845096
 30
0.0
 11
92.038116303
 21
108.31677761
 31
0.0
  0
LINE
  8
0
  6
CONTINUOUS
 62
     2
 10
37.0
 20
150.0
 30
0.0
 11
19.25
 21
150.0
 31
0.0
  0
LINE
  8
0
  6
CONTINUOUS
 62
     2
 10
20.25
 20
150.0
 30
0.0
 11
19.602952387
 21
147.585185434
 31
0.0
  0
LINE
  8
0
  6
CONTINUOUS
 62
     2
 10
20.25
 20
150.0
 30
0.0
 11
20.897047613
 21
147.585185434
 31
0.0
  0
LINE
  8
0
  6
CONTINUOUS
 62
     2
 10
41.0
 20
145.0
 30
0.0
 11
25.25
 21
145.0
 31
0.0
  0
LINE
  8
0
  6
CONTINUOUS
 62
     2
 10
26.25
 20
145.0
 30
0.0
 11
25.602952387
 21
142.585185434
 31
0.0
  0
LINE
  8
0
  6
CONTINUOUS
 62
     2
 10
26.25
 20
145.0
 30
0.0
 11
26.897047613
 21
142.585185434
 31
0.0
  0
LINE
  8
0
  6
CONTINUOUS
 62
     2
 10
20.25
 20
110.0
 30
0.0
 11
20.897047613
 21
112.414814566
 31
0.0
  0
LINE
  8
0
  6
CONTINUOUS
 62
     2
 10
20.25
 20
110.0
 30
0.0
 11
19.602952387
 21
112.414814566
 31
0.0
  0
LINE
  8
0
  6
CONTINUOUS
 62
     2
 10
37.0
 20
110.0
 30
0.0
 11
19.25
 21
110.0
 31
0.0
  0
LINE
  8
0
  6
CONTINUOUS
 62
     2
 10
26.25
 20
115.0
 30
0.0
 11
26.897047613
 21
117.414814566
 31
0.0
  0
LINE
  8
0
  6
CONTINUOUS
 62
     2
 10
26.25
 20
115.0
 30
0.0
 11
25.602952387
 21
117.414814566
 31
0.0
  0
LINE
  8
0
  6
CONTINUOUS
 62
     2
 10
41.0
 20
115.0
 30
0.0
 11
25.25
 21
115.0
 31
0.0
  0
LINE
  8
0
  6
CONTINUOUS
 62
     2
 10
20.25
 20
150.0
 30
0.0
 11
20.25
 21
110.0
 31
0.0
  0
LINE
  8
0
  6
CONTINUOUS
 62
     2
 10
26.25
 20
145.0
 30
0.0
 11
26.25
 21
115.0
 31
0.0
  0
LINE
  8
0
  6
CONTINUOUS
 62
     2
 10
40.5
 20
52.5
 30
0.0
 11
40.5
 21
43.0
 31
0.0
  0
LINE
  8
0
  6
CONTINUOUS
 62
     2
 10
39.5
 20
52.5
 30
0.0
 11
39.5
 21
43.0
 31
0.0
  0
LINE
  8
0
  6
CONTINUOUS
 62
     2
 10
80.5
 20
52.5
 30
0.0
 11
80.5
 21
43.0
 31
0.0
  0
LINE
  8
0
  6
CONTINUOUS
 62
     2
 10
79.5
 20
52.5
 30
0.0
 11
79.5
 21
43.0
 31
0.0
  0
LINE
  8
0
  6
LTYPE1
 62
     2
 10
150.0
 20
30.0
 30
0.0
 11
150.0
 21
71.691
 31
0.0
  0
ARC
  8
0
  6
CONTINUOUS
 62
     2
 10
141.5
 20
34.0
 30
0.0
 40
1.5
 50
180.0
 51
270.0
  0
ARC
  8
0
  6
CONTINUOUS
 62
     2
 10
158.5
 20
34.0
 30
0.0
 40
1.5
 50
270.0
 51
0.0
  0
LINE
  8
0
  6
CONTINUOUS
 62
     2
 10
141.5
 20
32.5
 30
0.0
 11
158.5
 21
32.5
 31
0.0
  0
LINE
  8
0
  6
CONTINUOUS
 62
     2
 10
169.2
 20
43.0
 30
0.0
 11
170.0
 21
43.0
 31
0.0
  0
LINE
  8
0
  6
CONTINUOUS
 62
     2
 10
170.0
 20
52.5
 30
0.0
 11
169.2
 21
52.5
 31
0.0
  0
LINE
  8
0
  6
CONTINUOUS
 62
     2
 10
169.2
 20
40.8
 30
0.0
 11
169.2
 21
54.7
 31
0.0
  0
LINE
  8
0
  6
CONTINUOUS
 62
     2
 10
170.0
 20
52.5
 30
0.0
 11
170.0
 21
55.5
 31
0.0
  0
LINE
  8
0
  6
CONTINUOUS
 62
     2
 10
130.0
 20
43.0
 30
0.0
 11
130.8
 21
43.0
 31
0.0
  0
LINE
  8
0
  6
CONTINUOUS
 62
     2
 10
130.8
 20
52.5
 30
0.0
 11
130.0
 21
52.5
 31
0.0
  0
LINE
  8
0
  6
CONTINUOUS
 62
     2
 10
130.8
 20
40.8
 30
0.0
 11
130.8
 21
54.7
 31
0.0
  0
LINE
  8
0
  6
CONTINUOUS
 62
     2
 10
130.0
 20
52.5
 30
0.0
 11
130.0
 21
55.5
 31
0.0
  0
LINE
  8
0
  6
LTYPE1
 62
     2
 10
127.2
 20
47.5
 30
0.0
 11
172.8
 21
47.5
 31
0.0
  0
LINE
  8
0
  6
CONTINUOUS
 62
     2
 10
170.0
 20
40.0
 30
0.0
 11
170.0
 21
43.0
 31
0.0
  0
LINE
  8
0
  6
CONTINUOUS
 62
     2
 10
130.0
 20
40.0
 30
0.0
 11
130.0
 21
43.0
 31
0.0
  0
LINE
  8
0
  6
CONTINUOUS
 62
     2
 10
169.5
 20
56.5
 30
0.0
 11
166.5
 21
56.5
 31
0.0
  0
LINE
  8
0
  6
CONTINUOUS
 62
     2
 10
166.5
 20
55.5
 30
0.0
 11
166.5
 21
56.5
 31
0.0
  0
LINE
  8
0
  6
CONTINUOUS
 62
     2
 10
167.5
 20
55.5
 30
0.0
 11
167.5
 21
56.5
 31
0.0
  0
LINE
  8
0
  6
CONTINUOUS
 62
     2
 10
169.5
 20
55.5
 30
0.0
 11
169.5
 21
56.5
 31
0.0
  0
LINE
  8
0
  6
CONTINUOUS
 62
     2
 10
168.5
 20
55.5
 30
0.0
 11
168.5
 21
56.5
 31
0.0
  0
LINE
  8
0
  6
CONTINUOUS
 62
     2
 10
133.5
 20
55.5
 30
0.0
 11
133.5
 21
56.5
 31
0.0
  0
LINE
  8
0
  6
CONTINUOUS
 62
     2
 10
133.5
 20
56.5
 30
0.0
 11
130.5
 21
56.5
 31
0.0
  0
LINE
  8
0
  6
CONTINUOUS
 62
     2
 10
132.5
 20
55.5
 30
0.0
 11
132.5
 21
56.5
 31
0.0
  0
LINE
  8
0
  6
CONTINUOUS
 62
     2
 10
130.5
 20
55.5
 30
0.0
 11
130.5
 21
56.5
 31
0.0
  0
LINE
  8
0
  6
CONTINUOUS
 62
     2
 10
131.5
 20
55.5
 30
0.0
 11
131.5
 21
56.5
 31
0.0
  0
LINE
  8
0
  6
CONTINUOUS
 62
     2
 10
160.0
 20
40.0
 30
0.0
 11
170.0
 21
40.0
 31
0.0
  0
LINE
  8
0
  6
CONTINUOUS
 62
     2
 10
130.0
 20
40.0
 30
0.0
 11
140.0
 21
40.0
 31
0.0
  0
LINE
  8
0
  6
CONTINUOUS
 62
     2
 10
160.0
 20
54.7
 30
0.0
 11
169.2
 21
54.7
 31
0.0
  0
LINE
  8
0
  6
CONTINUOUS
 62
     2
 10
130.8
 20
54.7
 30
0.0
 11
140.0
 21
54.7
 31
0.0
  0
LINE
  8
0
  6
CONTINUOUS
 62
     2
 10
160.0
 20
40.8
 30
0.0
 11
169.2
 21
40.8
 31
0.0
  0
LINE
  8
0
  6
CONTINUOUS
 62
     2
 10
130.8
 20
40.8
 30
0.0
 11
140.0
 21
40.8
 31
0.0
  0
LINE
  8
0
  6
CONTINUOUS
 62
     2
 10
130.0
 20
55.5
 30
0.0
 11
140.0
 21
55.5
 31
0.0
  0
LINE
  8
0
  6
CONTINUOUS
 62
     2
 10
160.0
 20
55.5
 30
0.0
 11
170.0
 21
55.5
 31
0.0
  0
LINE
  8
0
  6
CONTINUOUS
 62
     2
 10
136.0
 20
60.5
 30
0.0
 11
140.0
 21
61.0
 31
0.0
  0
LINE
  8
0
  6
CONTINUOUS
 62
     2
 10
136.0
 20
56.75
 30
0.0
 11
135.7
 21
56.75
 31
0.0
  0
LINE
  8
0
  6
CONTINUOUS
 62
     2
 10
136.0
 20
60.25
 30
0.0
 11
135.7
 21
60.25
 31
0.0
  0
ARC
  8
0
  6
CONTINUOUS
 62
     2
 10
136.064285714
 20
58.5
 30
0.0
 40
1.064285714
 50
110.015959603
 51
249.984040397
  0
LINE
  8
0
  6
CONTINUOUS
 62
     2
 10
135.7
 20
60.25
 30
0.0
 11
135.7
 21
56.75
 31
0.0
  0
LINE
  8
0
  6
CONTINUOUS
 62
     2
 10
136.0
 20
56.5
 30
0.0
 11
140.0
 21
56.0
 31
0.0
  0
LINE
  8
0
  6
CONTINUOUS
 62
     2
 10
136.0
 20
60.5
 30
0.0
 11
136.0
 21
56.5
 31
0.0
  0
LINE
  8
0
  6
LTYPE1
 62
     2
 10
140.0
 20
58.5
 30
0.0
 11
134.0
 21
58.5
 31
0.0
  0
LINE
  8
0
  6
CONTINUOUS
 62
     2
 10
140.0
 20
70.298726699
 30
0.0
 11
160.0
 21
70.298726699
 31
0.0
  0
LINE
  8
0
  6
CONTINUOUS
 62
     2
 10
160.0
 20
67.25
 30
0.0
 11
140.0
 21
67.25
 31
0.0
  0
LINE
  8
0
  6
CONTINUOUS
 62
     2
 10
160.0
 20
34.0
 30
0.0
 11
160.0
 21
61.0
 31
0.0
  0
ARC
  8
0
  6
CONTINUOUS
 62
     2
 10
158.5
 20
61.0
 30
0.0
 40
1.5
 50
0.0
 51
90.0
  0
LINE
  8
0
  6
CONTINUOUS
 62
     2
 10
140.0
 20
61.0
 30
0.0
 11
140.0
 21
34.0
 31
0.0
  0
LINE
  8
0
  6
CONTINUOUS
 62
     2
 10
158.5
 20
62.5
 30
0.0
 11
141.5
 21
62.5
 31
0.0
  0
ARC
  8
0
  6
CONTINUOUS
 62
     2
 10
141.5
 20
61.0
 30
0.0
 40
1.5
 50
90.0
 51
180.0
  0
LINE
  8
0
  6
CONTINUOUS
 62
     2
 10
140.0
 20
61.0
 30
0.0
 11
140.0
 21
72.0
 31
0.0
  0
LINE
  8
0
  6
CONTINUOUS
 62
     2
 10
160.0
 20
72.0
 30
0.0
 11
160.0
 21
61.0
 31
0.0
  0
LINE
  8
0
  6
CONTINUOUS
 62
     2
 10
160.0
 20
72.0
 30
0.0
 11
157.0
 21
72.0
 31
0.0
  0
LINE
  8
0
  6
CONTINUOUS
 62
     2
 10
143.0
 20
72.0
 30
0.0
 11
140.0
 21
72.0
 31
0.0
  0
LINE
  8
0
  6
CONTINUOUS
 62
     2
 10
143.0
 20
65.0
 30
0.0
 11
143.0
 21
72.0
 31
0.0
  0
LINE
  8
0
  6
CONTINUOUS
 62
     2
 10
157.0
 20
72.0
 30
0.0
 11
157.0
 21
65.0
 31
0.0
  0
LINE
  8
0
  6
CONTINUOUS
 62
     2
 10
140.0
 20
65.0
 30
0.0
 11
161.5
 21
65.0
 31
0.0
  0
ARC
  8
0
  6
CONTINUOUS
 62
     2
 10
161.208333333
 20
68.75
 30
0.0
 40
1.041666667
 50
286.260204708
 51
73.739795292
  0
POLYLINE
  8
0
  6
CONTINUOUS
 62
     2
 66
     1
  0
VERTEX
  8
0
  6
CONTINUOUS
 62
     2
 10
161.0
 20
70.5
 30
0.0
  0
VERTEX
  8
0
  6
CONTINUOUS
 62
     2
 10
161.5
 20
70.5
 30
0.0
  0
VERTEX
  8
0
  6
CONTINUOUS
 62
     2
 10
161.5
 20
65.0
 30
0.0
  0
SEQEND
  0
LINE
  8
0
  6
LTYPE1
 62
     2
 10
132.0
 20
52.5
 30
0.0
 11
132.0
 21
58.1
 31
0.0
  0
LINE
  8
0
  6
LTYPE1
 62
     2
 10
168.0
 20
52.5
 30
0.0
 11
168.0
 21
58.1
 31
0.0
  0
LINE
  8
0
  6
LTYPE1
 62
     2
 10
136.0
 20
68.75
 30
0.0
 11
164.0
 21
68.75
 31
0.0
  0
LINE
  8
0
  6
CONTINUOUS
 62
     2
 10
160.0
 20
65.5
 30
0.0
 11
161.0
 21
65.5
 31
0.0
  0
LINE
  8
0
  6
CONTINUOUS
 62
     2
 10
161.0
 20
70.5
 30
0.0
 11
161.0
 21
65.5
 31
0.0
  0
LINE
  8
0
  6
CONTINUOUS
 62
     2
 10
162.038
 20
69.551
 30
0.0
 11
163.805766953
 21
71.318766953
 31
0.0
  0
LINE
  8
0
  6
CONTINUOUS
 62
     2
 10
162.038
 20
69.551
 30
0.0
 11
162.685047613
 21
71.965814566
 31
0.0
  0
TEXT
  8
0
  6
CONTINUOUS
 62
     2
 10
169.514108636
 20
83.0
 30
0.3
 40
3.0
  1
３－Ｍ６一次端子
 50
0.0
 41
0.9
 51
0.0
  7
KANJI3
  0
LINE
  8
0
  6
CONTINUOUS
 62
     2
 10
169.514108636
 20
82.5
 30
0.0
 11
193.514108636
 21
82.5
 31
0.0
  0
LINE
  8
0
  6
CONTINUOUS
 62
     2
 10
162.038
 20
69.551
 30
0.0
 11
169.514108636
 21
82.5
 31
0.0
  0
TEXT
  8
0
  6
CONTINUOUS
 62
     2
 10
99.25
 20
47.649
 30
0.3
 40
3.0
  1
１６８
 50
90.0
 41
0.6
 51
0.0
  7
KANJI9
  0
TEXT
  8
0
  6
CONTINUOUS
 62
     2
 10
93.25
 20
36.838
 30
0.3
 40
3.0
  1
７０
 50
90.0
 41
0.6
 51
0.0
  7
KANJI9
  0
LINE
  8
0
  6
LTYPE1
 62
     2
 10
49.75
 20
143.0
 30
0.0
 11
49.75
 21
119.0
 31
0.0
  0
LINE
  8
0
  6
LTYPE1
 62
     2
 10
70.25
 20
143.0
 30
0.0
 11
70.25
 21
119.0
 31
0.0
  0
LINE
  8
0
  6
LTYPE1
 62
     2
 10
80.25
 20
143.0
 30
0.0
 11
80.25
 21
119.0
 31
0.0
  0
LINE
  8
0
  6
LTYPE1
 62
     2
 10
39.75
 20
143.0
 30
0.0
 11
39.75
 21
119.0
 31
0.0
  0
LINE
  8
0
  6
LTYPE1
 62
     2
 10
51.75
 20
121.5
 30
0.0
 11
47.75
 21
121.5
 31
0.0
  0
LINE
  8
0
  6
LTYPE1
 62
     2
 10
69.206410734
 20
121.5
 30
0.0
 11
65.206410734
 21
121.5
 31
0.0
  0
LINE
  8
0
  6
LTYPE1
 62
     2
 10
67.206410734
 20
123.5
 30
0.0
 11
67.206410734
 21
119.5
 31
0.0
  0
CIRCLE
  8
0
  6
CONTINUOUS
 62
     2
 10
39.75
 20
68.75
 30
0.0
 40
1.5
  0
CIRCLE
  8
0
  6
CONTINUOUS
 62
     2
 10
70.25
 20
68.75
 30
0.0
 40
1.5
  0
CIRCLE
  8
0
  6
CONTINUOUS
 62
     2
 10
80.25
 20
68.75
 30
0.0
 40
1.5
  0
LINE
  8
0
  6
LTYPE1
 62
     2
 10
135.0
 20
33.0
 30
0.0
 11
135.0
 21
27.0
 31
0.0
  0
LINE
  8
0
  6
LTYPE1
 62
     2
 10
165.0
 20
33.0
 30
0.0
 11
165.0
 21
27.0
 31
0.0
  0
LINE
  8
0
  6
LTYPE2
 62
     2
 10
162.0
 20
31.0
 30
0.0
 11
169.0
 21
31.0
 31
0.0
  0
LINE
  8
0
  6
CONTINUOUS
 62
     2
 10
162.0
 20
30.0
 30
0.0
 11
169.0
 21
30.0
 31
0.0
  0
LINE
  8
0
  6
CONTINUOUS
 62
     2
 10
169.0
 20
40.0
 30
0.0
 11
169.0
 21
30.0
 31
0.0
  0
LINE
  8
0
  6
CONTINUOUS
 62
     2
 10
162.0
 20
40.0
 30
0.0
 11
162.0
 21
30.0
 31
0.0
  0
LINE
  8
0
  6
CONTINUOUS
 62
     2
 10
138.0
 20
30.0
 30
0.0
 11
131.0
 21
30.0
 31
0.0
  0
LINE
  8
0
  6
LTYPE2
 62
     2
 10
138.0
 20
31.0
 30
0.0
 11
131.0
 21
31.0
 31
0.0
  0
LINE
  8
0
  6
CONTINUOUS
 62
     2
 10
131.0
 20
40.0
 30
0.0
 11
131.0
 21
30.0
 31
0.0
  0
LINE
  8
0
  6
CONTINUOUS
 62
     2
 10
138.0
 20
40.0
 30
0.0
 11
138.0
 21
30.0
 31
0.0
  0
LINE
  8
0
  6
CONTINUOUS
 62
     2
 10
157.0
 20
67.95
 30
0.0
 11
160.0
 21
67.95
 31
0.0
  0
LINE
  8
0
  6
CONTINUOUS
 62
     2
 10
140.0
 20
67.95
 30
0.0
 11
143.0
 21
67.95
 31
0.0
  0
LINE
  8
0
  6
LTYPE1
 62
     2
 10
60.0
 20
30.0
 30
0.0
 11
60.0
 21
68.437746109
 31
0.0
  0
LINE
  8
0
  6
CONTINUOUS
 62
     2
 10
66.206410734
 20
65.5
 30
0.0
 11
66.206410734
 21
65.0
 31
0.0
  0
LINE
  8
0
  6
CONTINUOUS
 62
     2
 10
82.0
 20
120.0
 30
0.0
 11
82.0
 21
110.0
 31
0.0
  0
LINE
  8
0
  6
CONTINUOUS
 62
     2
 10
38.0
 20
120.0
 30
0.0
 11
38.0
 21
110.0
 31
0.0
  0
TEXT
  8
0
  6
CONTINUOUS
 62
     2
 10
180.0
 20
134.0
 30
0.3
 40
3.0
  1
ＪＩＳ　Ｃ　１７３１
 50
0.0
 41
0.45
 51
0.0
  7
KANJI4
  0
TEXT
  8
0
  6
CONTINUOUS
 62
     1
 10
189.0
 20
52.0
 30
0.35
 40
3.5
  1
エホ゜キシモールト゛計器用変圧器　外形図
 50
0.0
 41
0.9
 51
0.0
  7
KANJI10
  0
TEXT
  8
0
  6
CONTINUOUS
 62
     1
 10
192.0
 20
62.0
 30
0.4
 40
4.0
  1
ＰＭｅ－１ＥＶａ
 50
0.0
 41
0.9
 51
0.0
  7
KANJI12
  0
TEXT
  8
0
  6
CONTINUOUS
 62
     3
 10
189.0
 20
39.0
 30
0.2
 40
5.8
  1
ＭＳ－９４４５　　Ａ
 50
0.0
 41
0.827586207
 51
0.0
  7
KANJI13
  0
ENDSEC
  0
EOF
