  0
SECTION
  2
HEADER
  9
$ACADVER
  1
AC1009
  9
$DWGCODEPAGE
  3
dos932
  9
$EXTMIN
 10
0.0
 20
0.0
 30
0.0
  9
$EXTMAX
 10
297.0
 20
210.0
 30
0.0
  9
$LIMMIN
 10
0.0
 20
0.0
  9
$LIMMAX
 10
297.0
 20
210.0
  9
$LTSCALE
 40
1.0
  9
$PDMODE
 70
     0
  0
ENDSEC
  0
SECTION
  2
TABLES
  0
TABLE
  2
VPORT
 70
     1
  0
VPORT
  2
*ACTIVE
 70
     0
 10
0.0
 20
0.0
 11
1.0
 21
1.0
 12
148.5
 22
105.0
 13
0.0
 23
0.0
 14
10.0
 24
10.0
 15
10.0
 25
10.0
 16
0.0
 26
0.0
 36
1.0
 17
0.0
 27
0.0
 37
0.0
 40
297.0
 41
1.414285714
 42
50.0
 43
0.0
 44
0.0
 50
0.0
 51
0.0
 71
     0
 72
  1000
 73
     1
 74
     3
 75
     0
 76
     0
 77
     0
 78
     0
  0
ENDTAB
  0
TABLE
  2
LTYPE
 70
     3
  0
LTYPE
  2
CONTINUOUS
 70
    64
  3
Solid line
 72
    65
 73
     0
 40
0.0
  0
LTYPE
  2
LTYPE1
 70
    64
  3
HIDDEN
 72
    65
 73
     2
 40
1.5
 49
0.9
 49
-0.6
  0
LTYPE
  2
LTYPE2
 70
    64
  3
CENTER
 72
    65
 73
     4
 40
8.0
 49
5.6
 49
-0.8
 49
0.8
 49
-0.8
  0
ENDTAB
  0
TABLE
  2
LAYER
 70
   128
  0
LAYER
  2
0
 70
     0
 62
     7
  6
CONTINUOUS
  0
LAYER
  2
2
 70
     0
 62
     7
  6
CONTINUOUS
  0
LAYER
  2
3
 70
     0
 62
     7
  6
CONTINUOUS
  0
LAYER
  2
4
 70
     0
 62
     7
  6
CONTINUOUS
  0
LAYER
  2
5
 70
     0
 62
     7
  6
CONTINUOUS
  0
LAYER
  2
6
 70
     0
 62
     7
  6
CONTINUOUS
  0
LAYER
  2
7
 70
     0
 62
     7
  6
CONTINUOUS
  0
LAYER
  2
8
 70
     0
 62
     7
  6
CONTINUOUS
  0
LAYER
  2
9
 70
     0
 62
     7
  6
CONTINUOUS
  0
LAYER
  2
10
 70
     0
 62
     7
  6
CONTINUOUS
  0
LAYER
  2
11
 70
     0
 62
     7
  6
CONTINUOUS
  0
LAYER
  2
12
 70
     0
 62
     7
  6
CONTINUOUS
  0
LAYER
  2
13
 70
     0
 62
     7
  6
CONTINUOUS
  0
LAYER
  2
14
 70
     0
 62
     7
  6
CONTINUOUS
  0
LAYER
  2
15
 70
     0
 62
     7
  6
CONTINUOUS
  0
LAYER
  2
16
 70
     0
 62
     7
  6
CONTINUOUS
  0
LAYER
  2
17
 70
     0
 62
     7
  6
CONTINUOUS
  0
LAYER
  2
18
 70
     0
 62
     7
  6
CONTINUOUS
  0
LAYER
  2
19
 70
     0
 62
     7
  6
CONTINUOUS
  0
LAYER
  2
20
 70
     0
 62
     7
  6
CONTINUOUS
  0
LAYER
  2
21
 70
     0
 62
     7
  6
CONTINUOUS
  0
LAYER
  2
22
 70
     0
 62
     7
  6
CONTINUOUS
  0
LAYER
  2
23
 70
     0
 62
     7
  6
CONTINUOUS
  0
LAYER
  2
24
 70
     0
 62
     7
  6
CONTINUOUS
  0
LAYER
  2
25
 70
     0
 62
     7
  6
CONTINUOUS
  0
LAYER
  2
26
 70
     0
 62
     7
  6
CONTINUOUS
  0
LAYER
  2
27
 70
     0
 62
     7
  6
CONTINUOUS
  0
LAYER
  2
28
 70
     0
 62
     7
  6
CONTINUOUS
  0
LAYER
  2
29
 70
     0
 62
     7
  6
CONTINUOUS
  0
LAYER
  2
30
 70
     0
 62
     7
  6
CONTINUOUS
  0
LAYER
  2
31
 70
     0
 62
     7
  6
CONTINUOUS
  0
LAYER
  2
32
 70
     0
 62
     7
  6
CONTINUOUS
  0
LAYER
  2
33
 70
     0
 62
     7
  6
CONTINUOUS
  0
LAYER
  2
34
 70
     0
 62
     7
  6
CONTINUOUS
  0
LAYER
  2
35
 70
     0
 62
     7
  6
CONTINUOUS
  0
LAYER
  2
36
 70
     0
 62
     7
  6
CONTINUOUS
  0
LAYER
  2
37
 70
     0
 62
     7
  6
CONTINUOUS
  0
LAYER
  2
38
 70
     0
 62
     7
  6
CONTINUOUS
  0
LAYER
  2
39
 70
     0
 62
     7
  6
CONTINUOUS
  0
LAYER
  2
40
 70
     0
 62
     7
  6
CONTINUOUS
  0
LAYER
  2
41
 70
     0
 62
     7
  6
CONTINUOUS
  0
LAYER
  2
42
 70
     0
 62
     7
  6
CONTINUOUS
  0
LAYER
  2
43
 70
     0
 62
     7
  6
CONTINUOUS
  0
LAYER
  2
44
 70
     0
 62
     7
  6
CONTINUOUS
  0
LAYER
  2
45
 70
     0
 62
     7
  6
CONTINUOUS
  0
LAYER
  2
46
 70
     0
 62
     7
  6
CONTINUOUS
  0
LAYER
  2
47
 70
     0
 62
     7
  6
CONTINUOUS
  0
LAYER
  2
48
 70
     0
 62
     7
  6
CONTINUOUS
  0
LAYER
  2
49
 70
     0
 62
     7
  6
CONTINUOUS
  0
LAYER
  2
50
 70
     0
 62
     7
  6
CONTINUOUS
  0
LAYER
  2
51
 70
     0
 62
     7
  6
CONTINUOUS
  0
LAYER
  2
52
 70
     0
 62
     7
  6
CONTINUOUS
  0
LAYER
  2
53
 70
     0
 62
     7
  6
CONTINUOUS
  0
LAYER
  2
54
 70
     0
 62
     7
  6
CONTINUOUS
  0
LAYER
  2
55
 70
     0
 62
     7
  6
CONTINUOUS
  0
LAYER
  2
56
 70
     0
 62
     7
  6
CONTINUOUS
  0
LAYER
  2
57
 70
     0
 62
     7
  6
CONTINUOUS
  0
LAYER
  2
58
 70
     0
 62
     7
  6
CONTINUOUS
  0
LAYER
  2
59
 70
     0
 62
     7
  6
CONTINUOUS
  0
LAYER
  2
60
 70
     0
 62
     7
  6
CONTINUOUS
  0
LAYER
  2
61
 70
     0
 62
     7
  6
CONTINUOUS
  0
LAYER
  2
62
 70
     0
 62
     7
  6
CONTINUOUS
  0
LAYER
  2
63
 70
     0
 62
     7
  6
CONTINUOUS
  0
LAYER
  2
64
 70
     0
 62
     7
  6
CONTINUOUS
  0
LAYER
  2
65
 70
     0
 62
     7
  6
CONTINUOUS
  0
LAYER
  2
66
 70
     0
 62
     7
  6
CONTINUOUS
  0
LAYER
  2
67
 70
     0
 62
     7
  6
CONTINUOUS
  0
LAYER
  2
68
 70
     0
 62
     7
  6
CONTINUOUS
  0
LAYER
  2
69
 70
     0
 62
     7
  6
CONTINUOUS
  0
LAYER
  2
70
 70
     0
 62
     7
  6
CONTINUOUS
  0
LAYER
  2
71
 70
     0
 62
     7
  6
CONTINUOUS
  0
LAYER
  2
72
 70
     0
 62
     7
  6
CONTINUOUS
  0
LAYER
  2
73
 70
     0
 62
     7
  6
CONTINUOUS
  0
LAYER
  2
74
 70
     0
 62
     7
  6
CONTINUOUS
  0
LAYER
  2
75
 70
     0
 62
     7
  6
CONTINUOUS
  0
LAYER
  2
76
 70
     0
 62
     7
  6
CONTINUOUS
  0
LAYER
  2
77
 70
     0
 62
     7
  6
CONTINUOUS
  0
LAYER
  2
78
 70
     0
 62
     7
  6
CONTINUOUS
  0
LAYER
  2
79
 70
     0
 62
     7
  6
CONTINUOUS
  0
LAYER
  2
80
 70
     0
 62
     7
  6
CONTINUOUS
  0
LAYER
  2
81
 70
     0
 62
     7
  6
CONTINUOUS
  0
LAYER
  2
82
 70
     0
 62
     7
  6
CONTINUOUS
  0
LAYER
  2
83
 70
     0
 62
     7
  6
CONTINUOUS
  0
LAYER
  2
84
 70
     0
 62
     7
  6
CONTINUOUS
  0
LAYER
  2
85
 70
     0
 62
     7
  6
CONTINUOUS
  0
LAYER
  2
86
 70
     0
 62
     7
  6
CONTINUOUS
  0
LAYER
  2
87
 70
     0
 62
     7
  6
CONTINUOUS
  0
LAYER
  2
88
 70
     0
 62
     7
  6
CONTINUOUS
  0
LAYER
  2
89
 70
     0
 62
     7
  6
CONTINUOUS
  0
LAYER
  2
90
 70
     0
 62
     7
  6
CONTINUOUS
  0
LAYER
  2
91
 70
     0
 62
     7
  6
CONTINUOUS
  0
LAYER
  2
92
 70
     0
 62
     7
  6
CONTINUOUS
  0
LAYER
  2
93
 70
     0
 62
     7
  6
CONTINUOUS
  0
LAYER
  2
94
 70
     0
 62
     7
  6
CONTINUOUS
  0
LAYER
  2
95
 70
     0
 62
     7
  6
CONTINUOUS
  0
LAYER
  2
96
 70
     0
 62
     7
  6
CONTINUOUS
  0
LAYER
  2
97
 70
     0
 62
     7
  6
CONTINUOUS
  0
LAYER
  2
98
 70
     0
 62
     7
  6
CONTINUOUS
  0
LAYER
  2
99
 70
     0
 62
     7
  6
CONTINUOUS
  0
LAYER
  2
100
 70
     0
 62
     7
  6
CONTINUOUS
  0
LAYER
  2
101
 70
     0
 62
     7
  6
CONTINUOUS
  0
LAYER
  2
102
 70
     0
 62
     7
  6
CONTINUOUS
  0
LAYER
  2
103
 70
     0
 62
     7
  6
CONTINUOUS
  0
LAYER
  2
104
 70
     0
 62
     7
  6
CONTINUOUS
  0
LAYER
  2
105
 70
     0
 62
     7
  6
CONTINUOUS
  0
LAYER
  2
106
 70
     0
 62
     7
  6
CONTINUOUS
  0
LAYER
  2
107
 70
     0
 62
     7
  6
CONTINUOUS
  0
LAYER
  2
108
 70
     0
 62
     7
  6
CONTINUOUS
  0
LAYER
  2
109
 70
     0
 62
     7
  6
CONTINUOUS
  0
LAYER
  2
110
 70
     0
 62
     7
  6
CONTINUOUS
  0
LAYER
  2
111
 70
     0
 62
     7
  6
CONTINUOUS
  0
LAYER
  2
112
 70
     0
 62
     7
  6
CONTINUOUS
  0
LAYER
  2
113
 70
     0
 62
     7
  6
CONTINUOUS
  0
LAYER
  2
114
 70
     0
 62
     7
  6
CONTINUOUS
  0
LAYER
  2
115
 70
     0
 62
     7
  6
CONTINUOUS
  0
LAYER
  2
116
 70
     0
 62
     7
  6
CONTINUOUS
  0
LAYER
  2
117
 70
     0
 62
     7
  6
CONTINUOUS
  0
LAYER
  2
118
 70
     0
 62
     7
  6
CONTINUOUS
  0
LAYER
  2
119
 70
     0
 62
     7
  6
CONTINUOUS
  0
LAYER
  2
120
 70
     0
 62
     7
  6
CONTINUOUS
  0
LAYER
  2
121
 70
     0
 62
     7
  6
CONTINUOUS
  0
LAYER
  2
122
 70
     0
 62
     7
  6
CONTINUOUS
  0
LAYER
  2
123
 70
     0
 62
     7
  6
CONTINUOUS
  0
LAYER
  2
124
 70
     0
 62
     7
  6
CONTINUOUS
  0
LAYER
  2
125
 70
     0
 62
     7
  6
CONTINUOUS
  0
LAYER
  2
126
 70
     0
 62
     7
  6
CONTINUOUS
  0
LAYER
  2
127
 70
     0
 62
     7
  6
CONTINUOUS
  0
LAYER
  2
128
 70
     0
 62
     7
  6
CONTINUOUS
  0
ENDTAB
  0
TABLE
  2
STYLE
 70
    23
  0
STYLE
  2
STANDARD
 70
     0
 40
0.0
 41
1.0
 50
0.0
 71
     0
 42
0.2
  3
txt.shx
  4
extfont.shx
  0
STYLE
  2
KANJI0
 70
     0
 40
3.5
 41
0.9
 50
0.0
 71
     0
 42
3.5
  3
txt.shx
  4
extfont.shx
  0
STYLE
  2
KANJI1
 70
     0
 40
3.5
 41
0.9
 50
0.0
 71
     0
 42
3.5
  3
txt.shx
  4
extfont.shx
  0
STYLE
  2
KANJI2
 70
     0
 40
4.0
 41
0.9
 50
0.0
 71
     0
 42
4.0
  3
txt.shx
  4
extfont.shx
  0
STYLE
  2
KANJI3
 70
     0
 40
3.5
 41
0.914285714
 50
0.0
 71
     0
 42
3.5
  3
txt.shx
  4
extfont.shx
  0
STYLE
  2
KANJI4
 70
     0
 40
5.0
 41
1.0
 50
0.0
 71
     0
 42
5.0
  3
txt.shx
  4
extfont.shx
  0
STYLE
  2
KANJI5
 70
     0
 40
3.5
 41
0.771428571
 50
0.0
 71
     0
 42
3.5
  3
txt.shx
  4
extfont.shx
  0
STYLE
  2
KANJI6
 70
     0
 40
3.5
 41
0.571428571
 50
0.0
 71
     0
 42
3.5
  3
txt.shx
  4
extfont.shx
  0
STYLE
  2
KANJI7
 70
     0
 40
3.5
 41
0.571428571
 50
0.0
 71
     0
 42
3.5
  3
txt.shx
  4
extfont.shx
  0
STYLE
  2
KANJI8
 70
     0
 40
2.5
 41
0.9
 50
0.0
 71
     0
 42
2.5
  3
txt.shx
  4
extfont.shx
  0
STYLE
  2
KANJI9
 70
     0
 40
3.0
 41
0.6
 50
0.0
 71
     0
 42
3.0
  3
txt.shx
  4
extfont.shx
  0
STYLE
  2
KANJI10
 70
     0
 40
3.0
 41
0.9
 50
0.0
 71
     0
 42
3.0
  3
txt.shx
  4
extfont.shx
  0
STYLE
  2
KANJI11
 70
     0
 40
3.0
 41
0.9
 50
0.0
 71
     0
 42
3.0
  3
txt.shx
  4
extfont.shx
  0
STYLE
  2
KANJI12
 70
     0
 40
6.0
 41
0.9
 50
0.0
 71
     0
 42
6.0
  3
txt.shx
  4
extfont.shx
  0
STYLE
  2
KANJI13
 70
     0
 40
4.0
 41
0.9
 50
0.0
 71
     0
 42
4.0
  3
txt.shx
  4
extfont.shx
  0
STYLE
  2
KANJI14
 70
     0
 40
1.8
 41
0.6
 50
0.0
 71
     0
 42
1.8
  3
txt.shx
  4
extfont.shx
  0
STYLE
  2
KANJI15
 70
     0
 40
4.0
 41
0.9
 50
0.0
 71
     0
 42
4.0
  3
txt.shx
  4
extfont.shx
  0
STYLE
  2
KANJI16
 70
     0
 40
3.0
 41
0.9
 50
0.0
 71
     0
 42
3.0
  3
txt.shx
  4
extfont.shx
  0
STYLE
  2
KANJI17
 70
     0
 40
2.0
 41
0.8
 50
0.0
 71
     0
 42
2.0
  3
txt.shx
  4
extfont.shx
  0
STYLE
  2
KANJI18
 70
     0
 40
2.0
 41
0.9
 50
0.0
 71
     0
 42
2.0
  3
txt.shx
  4
extfont.shx
  0
STYLE
  2
KANJI19
 70
     0
 40
2.4
 41
0.666666667
 50
0.0
 71
     0
 42
2.4
  3
txt.shx
  4
extfont.shx
  0
STYLE
  2
KANJI20
 70
     0
 40
2.0
 41
0.65
 50
0.0
 71
     0
 42
2.0
  3
txt.shx
  4
extfont.shx
  0
STYLE
  2
KANJI21
 70
     0
 40
2.0
 41
0.5
 50
0.0
 71
     0
 42
2.0
  3
txt.shx
  4
extfont.shx
  0
ENDTAB
  0
TABLE
  2
VIEW
 70
     0
  0
ENDTAB
  0
ENDSEC
  0
SECTION
  2
BLOCKS
  0
ENDSEC
  0
SECTION
  2
ENTITIES
  0
TEXT
  8
0
  6
CONTINUOUS
 62
     2
 10
226.7
 20
186.3
 30
0.35
 40
3.5
  1
一般公差
 50
0.0
 41
0.9
 51
0.0
  7
KANJI0
  0
TEXT
  8
0
  6
CONTINUOUS
 62
     2
 10
121.0
 20
11.0
 30
2.0
 40
3.5
  1
部番
 50
0.0
 41
0.9
 51
0.0
  7
KANJI1
  0
TEXT
  8
0
  6
CONTINUOUS
 62
     2
 10
135.0
 20
11.0
 30
0.35
 40
3.5
  1
形　式
 50
0.0
 41
0.9
 51
0.0
  7
KANJI0
  0
TEXT
  8
0
  6
CONTINUOUS
 62
     2
 10
155.75
 20
11.0
 30
0.35
 40
3.5
  1
名　　称
 50
0.0
 41
0.9
 51
0.0
  7
KANJI0
  0
TEXT
  8
0
  6
CONTINUOUS
 62
     2
 10
176.0
 20
11.0
 30
2.0
 40
3.5
  1
個数
 50
0.0
 41
0.9
 51
0.0
  7
KANJI1
  0
TEXT
  8
0
  6
CONTINUOUS
 62
     2
 10
186.5
 20
11.0
 30
0.35
 40
3.5
  1
部品図図番
 50
0.0
 41
0.9
 51
0.0
  7
KANJI0
  0
TEXT
  8
0
  6
CONTINUOUS
 62
     2
 10
210.5
 20
11.0
 30
0.35
 40
3.5
  1
備　考
 50
0.0
 41
0.9
 51
0.0
  7
KANJI0
  0
TEXT
  8
0
  6
CONTINUOUS
 62
     2
 10
69.0
 20
193.5
 30
0.35
 40
3.5
  1
番
 50
180.0
 41
0.9
 51
0.0
  7
KANJI0
  0
TEXT
  8
0
  6
CONTINUOUS
 62
     2
 10
69.0
 20
190.0
 30
0.35
 40
3.5
  1
図
 50
180.0
 41
0.9
 51
0.0
  7
KANJI0
  0
TEXT
  8
0
  6
CONTINUOUS
 62
     2
 10
243.0
 20
186.0
 30
0.32
 40
4.0
  1
±３％　最小０．３ｍｍ
 50
0.0
 41
0.9
 51
0.0
  7
KANJI2
  0
LINE
  8
0
  6
CONTINUOUS
 62
     6
 10
70.0
 20
185.0
 30
0.0
 11
70.0
 21
195.0
 31
0.0
  0
LINE
  8
0
  6
CONTINUOUS
 62
     6
 10
65.0
 20
195.0
 30
0.0
 11
65.0
 21
185.0
 31
0.0
  0
LINE
  8
0
  6
CONTINUOUS
 62
     6
 10
10.0
 20
195.0
 30
0.0
 11
70.0
 21
195.0
 31
0.0
  0
LINE
  8
0
  6
CONTINUOUS
 62
     6
 10
10.0
 20
10.0
 30
0.0
 11
10.0
 21
195.0
 31
0.0
  0
LINE
  8
0
  6
CONTINUOUS
 62
     6
 10
120.0
 20
15.0
 30
0.0
 11
226.0
 21
15.0
 31
0.0
  0
LINE
  8
0
  6
CONTINUOUS
 62
     6
 10
130.0
 20
10.0
 30
0.0
 11
130.0
 21
15.0
 31
0.0
  0
LINE
  8
0
  6
CONTINUOUS
 62
     6
 10
150.0
 20
10.0
 30
0.0
 11
150.0
 21
15.0
 31
0.0
  0
LINE
  8
0
  6
CONTINUOUS
 62
     6
 10
175.0
 20
10.0
 30
0.0
 11
175.0
 21
15.0
 31
0.0
  0
LINE
  8
0
  6
CONTINUOUS
 62
     6
 10
185.0
 20
10.0
 30
0.0
 11
185.0
 21
15.0
 31
0.0
  0
LINE
  8
0
  6
CONTINUOUS
 62
     6
 10
205.0
 20
10.0
 30
0.0
 11
205.0
 21
15.0
 31
0.0
  0
LINE
  8
0
  6
CONTINUOUS
 62
     6
 10
120.0
 20
10.0
 30
0.0
 11
120.0
 21
15.0
 31
0.0
  0
LINE
  8
0
  6
CONTINUOUS
 62
     6
 10
226.0
 20
185.0
 30
0.0
 11
226.0
 21
191.0
 31
0.0
  0
LINE
  8
0
  6
CONTINUOUS
 62
     6
 10
241.0
 20
185.0
 30
0.0
 11
241.0
 21
191.0
 31
0.0
  0
LINE
  8
0
  6
CONTINUOUS
 62
     6
 10
286.0
 20
191.0
 30
0.0
 11
226.0
 21
191.0
 31
0.0
  0
LINE
  8
0
  6
CONTINUOUS
 62
     6
 10
286.0
 20
10.0
 30
0.0
 11
286.0
 21
191.0
 31
0.0
  0
LINE
  8
0
  6
CONTINUOUS
 62
     6
 10
286.0
 20
10.0
 30
0.0
 11
10.0
 21
10.0
 31
0.0
  0
LINE
  8
0
  6
CONTINUOUS
 62
     6
 10
286.0
 20
185.0
 30
0.0
 11
10.0
 21
185.0
 31
0.0
  0
TEXT
  8
0
  6
CONTINUOUS
 62
     2
 10
227.0
 20
114.0
 30
0.35
 40
3.5
  1
部品記号
 50
0.0
 41
0.9
 51
0.0
  7
KANJI0
  0
TEXT
  8
0
  6
CONTINUOUS
 62
     2
 10
226.9
 20
108.5
 30
0.35
 40
3.5
  1
分
 50
0.0
 41
0.9
 51
0.0
  7
KANJI0
  0
TEXT
  8
0
  6
CONTINUOUS
 62
     2
 10
226.9
 20
105.0
 30
0.35
 40
3.5
  1
類
 50
0.0
 41
0.9
 51
0.0
  7
KANJI0
  0
TEXT
  8
0
  6
CONTINUOUS
 62
     2
 10
226.9
 20
98.5
 30
0.35
 40
3.5
  1
形
 50
0.0
 41
0.9
 51
0.0
  7
KANJI0
  0
TEXT
  8
0
  6
CONTINUOUS
 62
     2
 10
226.9
 20
95.0
 30
0.35
 40
3.5
  1
式
 50
0.0
 41
0.9
 51
0.0
  7
KANJI0
  0
TEXT
  8
0
  6
CONTINUOUS
 62
     2
 10
227.0
 20
88.5
 30
0.35
 40
3.5
  1
名
 50
0.0
 41
0.9
 51
0.0
  7
KANJI0
  0
TEXT
  8
0
  6
CONTINUOUS
 62
     2
 10
227.0
 20
85.0
 30
0.35
 40
3.5
  1
称
 50
0.0
 41
0.9
 51
0.0
  7
KANJI0
  0
TEXT
  8
0
  6
CONTINUOUS
 62
     2
 10
271.0
 20
78.0
 30
0.4
 40
3.5
  1
個
 50
0.0
 41
0.914285714
 51
0.0
  7
KANJI3
  0
TEXT
  8
0
  6
CONTINUOUS
 62
     2
 10
271.0
 20
74.5
 30
0.4
 40
3.5
  1
数
 50
0.0
 41
0.914285714
 51
0.0
  7
KANJI3
  0
TEXT
  8
0
  6
CONTINUOUS
 62
     2
 10
227.0
 20
15.0
 30
0.35
 40
3.5
  1
図
 50
0.0
 41
0.9
 51
0.0
  7
KANJI0
  0
TEXT
  8
0
  6
CONTINUOUS
 62
     2
 10
227.0
 20
11.5
 30
0.35
 40
3.5
  1
番
 50
0.0
 41
0.9
 51
0.0
  7
KANJI0
  0
TEXT
  8
0
  6
CONTINUOUS
 62
     2
 10
230.25
 20
48.8
 30
0.35
 40
3.5
  1
承認　
 50
0.0
 41
0.9
 51
0.0
  7
KANJI0
  0
TEXT
  8
0
  6
CONTINUOUS
 62
     2
 10
245.25
 20
48.8
 30
0.35
 40
3.5
  1
検図　
 50
0.0
 41
0.9
 51
0.0
  7
KANJI0
  0
TEXT
  8
0
  6
CONTINUOUS
 62
     2
 10
260.25
 20
48.8
 30
0.35
 40
3.5
  1
製図　
 50
0.0
 41
0.9
 51
0.0
  7
KANJI0
  0
TEXT
  8
0
  6
CONTINUOUS
 62
     2
 10
275.25
 20
48.8
 30
0.35
 40
3.5
  1
設計　
 50
0.0
 41
0.9
 51
0.0
  7
KANJI0
  0
TEXT
  8
0
  6
CONTINUOUS
 62
     2
 10
228.4
 20
76.0
 30
0.4
 40
3.5
  1
工　程
 50
0.0
 41
0.914285714
 51
0.0
  7
KANJI3
  0
TEXT
  8
0
  6
CONTINUOUS
 62
     2
 10
228.4
 20
65.5
 30
0.4
 40
3.5
  1
材　質
 50
0.0
 41
0.914285714
 51
0.0
  7
KANJI3
  0
TEXT
  8
0
  6
CONTINUOUS
 62
     2
 10
228.4
 20
56.5
 30
0.4
 40
3.5
  1
処　理
 50
0.0
 41
0.914285714
 51
0.0
  7
KANJI3
  0
TEXT
  8
0
  6
CONTINUOUS
 62
     2
 10
228.4
 20
29.0
 30
0.35
 40
3.5
  1
年月日
 50
0.0
 41
0.9
 51
0.0
  7
KANJI0
  0
LINE
  8
0
  6
CONTINUOUS
 62
     6
 10
286.0
 20
28.0
 30
0.0
 11
226.0
 21
28.0
 31
0.0
  0
LINE
  8
0
  6
CONTINUOUS
 62
     6
 10
226.0
 20
33.0
 30
0.0
 11
286.0
 21
33.0
 31
0.0
  0
LINE
  8
0
  6
CONTINUOUS
 62
     6
 10
286.0
 20
48.0
 30
0.0
 11
226.0
 21
48.0
 31
0.0
  0
LINE
  8
0
  6
CONTINUOUS
 62
     6
 10
226.0
 20
53.0
 30
0.0
 11
286.0
 21
53.0
 31
0.0
  0
LINE
  8
0
  6
CONTINUOUS
 62
     6
 10
226.0
 20
40.0
 30
0.0
 11
226.0
 21
10.0
 31
0.0
  0
LINE
  8
0
  6
CONTINUOUS
 62
     6
 10
226.0
 20
63.0
 30
0.0
 11
286.0
 21
63.0
 31
0.0
  0
LINE
  8
0
  6
CONTINUOUS
 62
     6
 10
286.0
 20
73.0
 30
0.0
 11
226.0
 21
73.0
 31
0.0
  0
LINE
  8
0
  6
CONTINUOUS
 62
     6
 10
226.0
 20
83.0
 30
0.0
 11
286.0
 21
83.0
 31
0.0
  0
LINE
  8
0
  6
CONTINUOUS
 62
     6
 10
286.0
 20
93.0
 30
0.0
 11
226.0
 21
93.0
 31
0.0
  0
LINE
  8
0
  6
CONTINUOUS
 62
     6
 10
226.0
 20
103.0
 30
0.0
 11
286.0
 21
103.0
 31
0.0
  0
LINE
  8
0
  6
CONTINUOUS
 62
     6
 10
286.0
 20
113.0
 30
0.0
 11
226.0
 21
113.0
 31
0.0
  0
LINE
  8
0
  6
CONTINUOUS
 62
     6
 10
226.0
 20
40.0
 30
0.0
 11
226.0
 21
159.0
 31
0.0
  0
LINE
  8
0
  6
CONTINUOUS
 62
     6
 10
231.0
 20
113.0
 30
0.0
 11
231.0
 21
83.0
 31
0.0
  0
LINE
  8
0
  6
CONTINUOUS
 62
     6
 10
260.0
 20
103.0
 30
0.0
 11
260.0
 21
113.0
 31
0.0
  0
LINE
  8
0
  6
CONTINUOUS
 62
     6
 10
231.0
 20
20.0
 30
0.0
 11
231.0
 21
10.0
 31
0.0
  0
LINE
  8
0
  6
CONTINUOUS
 62
     6
 10
270.0
 20
83.0
 30
0.0
 11
270.0
 21
73.0
 31
0.0
  0
LINE
  8
0
  6
CONTINUOUS
 62
     6
 10
275.0
 20
73.0
 30
0.0
 11
275.0
 21
83.0
 31
0.0
  0
LINE
  8
0
  6
CONTINUOUS
 62
     6
 10
276.0
 20
78.0
 30
0.0
 11
285.0
 21
78.0
 31
0.0
  0
TEXT
  8
0
  6
CONTINUOUS
 62
     6
 10
230.0
 20
21.5
 30
1.5
 40
5.0
  1
東洋計器株式会社
 50
0.0
 41
1.0
 51
0.0
  7
KANJI4
  0
LINE
  8
0
  6
CONTINUOUS
 62
     6
 10
226.0
 20
20.0
 30
0.0
 11
286.0
 21
20.0
 31
0.0
  0
LINE
  8
0
  6
CONTINUOUS
 62
     6
 10
241.0
 20
83.0
 30
0.0
 11
241.0
 21
28.0
 31
0.0
  0
LINE
  8
0
  6
CONTINUOUS
 62
     6
 10
256.0
 20
33.0
 30
0.0
 11
256.0
 21
53.0
 31
0.0
  0
LINE
  8
0
  6
CONTINUOUS
 62
     6
 10
271.0
 20
33.0
 30
0.0
 11
271.0
 21
53.0
 31
0.0
  0
LINE
  8
0
  6
CONTINUOUS
 62
     6
 10
243.0
 20
78.0
 30
0.0
 11
268.0
 21
78.0
 31
0.0
  0
LINE
  8
0
  6
CONTINUOUS
 62
     6
 10
284.0
 20
58.0
 30
0.0
 11
243.0
 21
58.0
 31
0.0
  0
LINE
  8
0
  6
CONTINUOUS
 62
     6
 10
284.0
 20
68.0
 30
0.0
 11
243.0
 21
68.0
 31
0.0
  0
LINE
  8
0
  6
CONTINUOUS
 62
     6
 10
242.0
 20
113.0
 30
0.0
 11
242.0
 21
118.0
 31
0.0
  0
TEXT
  8
0
  6
CONTINUOUS
 62
     2
 10
238.0
 20
118.9
 30
0.35
 40
3.5
  1
図　面　来　歴　欄
 50
0.0
 41
0.9
 51
0.0
  7
KANJI0
  0
LINE
  8
0
  6
CONTINUOUS
 62
     6
 10
226.0
 20
118.0
 30
0.0
 11
286.0
 21
118.0
 31
0.0
  0
LINE
  8
0
  6
CONTINUOUS
 62
     6
 10
286.0
 20
123.0
 30
0.0
 11
226.0
 21
123.0
 31
0.0
  0
LINE
  8
0
  6
CONTINUOUS
 62
     6
 10
226.0
 20
153.0
 30
0.0
 11
286.0
 21
153.0
 31
0.0
  0
LINE
  8
0
  6
CONTINUOUS
 62
     6
 10
226.0
 20
147.0
 30
0.0
 11
286.0
 21
147.0
 31
0.0
  0
LINE
  8
0
  6
CONTINUOUS
 62
     6
 10
226.0
 20
141.0
 30
0.0
 11
286.0
 21
141.0
 31
0.0
  0
LINE
  8
0
  6
CONTINUOUS
 62
     6
 10
226.0
 20
135.0
 30
0.0
 11
286.0
 21
135.0
 31
0.0
  0
LINE
  8
0
  6
CONTINUOUS
 62
     6
 10
226.0
 20
129.0
 30
0.0
 11
286.0
 21
129.0
 31
0.0
  0
LINE
  8
0
  6
CONTINUOUS
 62
     6
 10
226.0
 20
159.0
 30
0.0
 11
286.0
 21
159.0
 31
0.0
  0
LINE
  8
0
  6
CONTINUOUS
 62
     6
 10
286.0
 20
118.0
 30
0.0
 11
286.0
 21
159.0
 31
0.0
  0
TEXT
  8
0
  6
CONTINUOUS
 62
     2
 10
226.8
 20
124.3
 30
0.0
 40
3.5
  1
符号
 50
0.0
 41
0.771428571
 51
0.0
  7
KANJI5
  0
TEXT
  8
0
  6
CONTINUOUS
 62
     2
 10
233.3
 20
124.2
 30
0.35
 40
3.5
  1
数
 50
0.0
 41
0.9
 51
0.0
  7
KANJI0
  0
TEXT
  8
0
  6
CONTINUOUS
 62
     2
 10
238.4
 20
124.1
 30
0.35
 40
3.5
  1
年月日
 50
0.0
 41
0.571428571
 51
0.0
  7
KANJI6
  0
LINE
  8
0
  6
CONTINUOUS
 62
     6
 10
237.5
 20
159.0
 30
0.0
 11
237.5
 21
123.0
 31
0.0
  0
LINE
  8
0
  6
CONTINUOUS
 62
     6
 10
232.5
 20
123.0
 30
0.0
 11
232.5
 21
159.0
 31
0.0
  0
LINE
  8
0
  6
CONTINUOUS
 62
     6
 10
245.5
 20
123.0
 30
0.0
 11
245.5
 21
159.0
 31
0.0
  0
LINE
  8
0
  6
CONTINUOUS
 62
     6
 10
238.5
 20
132.0
 30
0.0
 11
244.5
 21
132.0
 31
0.0
  0
LINE
  8
0
  6
CONTINUOUS
 62
     6
 10
238.5
 20
138.0
 30
0.0
 11
244.5
 21
138.0
 31
0.0
  0
LINE
  8
0
  6
CONTINUOUS
 62
     6
 10
244.5
 20
144.0
 30
0.0
 11
238.5
 21
144.0
 31
0.0
  0
LINE
  8
0
  6
CONTINUOUS
 62
     6
 10
238.5
 20
150.0
 30
0.0
 11
244.5
 21
150.0
 31
0.0
  0
LINE
  8
0
  6
CONTINUOUS
 62
     6
 10
244.5
 20
156.0
 30
0.0
 11
238.5
 21
156.0
 31
0.0
  0
TEXT
  8
0
  6
CONTINUOUS
 62
     6
 10
240.5
 20
153.5
 30
0.4
 40
3.5
  1
．
 50
0.0
 41
0.914285714
 51
0.0
  7
KANJI3
  0
TEXT
  8
0
  6
CONTINUOUS
 62
     6
 10
240.5
 20
147.5
 30
0.4
 40
3.5
  1
．
 50
0.0
 41
0.914285714
 51
0.0
  7
KANJI3
  0
TEXT
  8
0
  6
CONTINUOUS
 62
     6
 10
240.5
 20
141.5
 30
0.4
 40
3.5
  1
．
 50
0.0
 41
0.914285714
 51
0.0
  7
KANJI3
  0
TEXT
  8
0
  6
CONTINUOUS
 62
     6
 10
240.5
 20
135.5
 30
0.4
 40
3.5
  1
．
 50
0.0
 41
0.914285714
 51
0.0
  7
KANJI3
  0
TEXT
  8
0
  6
CONTINUOUS
 62
     6
 10
240.5
 20
129.5
 30
0.4
 40
3.5
  1
．
 50
0.0
 41
0.914285714
 51
0.0
  7
KANJI3
  0
TEXT
  8
0
  6
CONTINUOUS
 62
     2
 10
250.5
 20
124.1
 30
0.35
 40
3.5
  1
記　　　事
 50
0.0
 41
0.9
 51
0.0
  7
KANJI0
  0
LINE
  8
0
  6
CONTINUOUS
 62
     6
 10
271.0
 20
123.0
 30
0.0
 11
271.0
 21
159.0
 31
0.0
  0
LINE
  8
0
  6
CONTINUOUS
 62
     6
 10
276.0
 20
159.0
 30
0.0
 11
276.0
 21
123.0
 31
0.0
  0
LINE
  8
0
  6
CONTINUOUS
 62
     6
 10
281.0
 20
123.0
 30
0.0
 11
281.0
 21
159.0
 31
0.0
  0
LINE
  8
0
  6
CONTINUOUS
 62
     6
 10
246.5
 20
132.0
 30
0.0
 11
270.0
 21
132.0
 31
0.0
  0
LINE
  8
0
  6
CONTINUOUS
 62
     6
 10
270.0
 20
138.0
 30
0.0
 11
246.5
 21
138.0
 31
0.0
  0
LINE
  8
0
  6
CONTINUOUS
 62
     6
 10
246.5
 20
144.0
 30
0.0
 11
270.0
 21
144.0
 31
0.0
  0
LINE
  8
0
  6
CONTINUOUS
 62
     6
 10
270.0
 20
150.0
 30
0.0
 11
246.5
 21
150.0
 31
0.0
  0
LINE
  8
0
  6
CONTINUOUS
 62
     6
 10
246.5
 20
156.0
 30
0.0
 11
270.0
 21
156.0
 31
0.0
  0
TEXT
  8
0
  6
CONTINUOUS
 62
     2
 10
271.5
 20
124.1
 30
0.0
 40
3.5
  1
承認
 50
0.0
 41
0.571428571
 51
0.0
  7
KANJI7
  0
TEXT
  8
0
  6
CONTINUOUS
 62
     2
 10
276.5
 20
124.1
 30
0.0
 40
3.5
  1
審査
 50
0.0
 41
0.571428571
 51
0.0
  7
KANJI7
  0
TEXT
  8
0
  6
CONTINUOUS
 62
     2
 10
281.5
 20
124.1
 30
0.0
 40
3.5
  1
担当
 50
0.0
 41
0.571428571
 51
0.0
  7
KANJI7
  0
TEXT
  8
0
  6
CONTINUOUS
 62
     2
 10
271.5
 20
114.0
 30
0.35
 40
3.5
  1
第三角法
 50
0.0
 41
0.9
 51
0.0
  7
KANJI0
  0
LINE
  8
0
  6
CONTINUOUS
 62
     6
 10
270.0
 20
118.0
 30
0.0
 11
270.0
 21
103.0
 31
0.0
  0
TEXT
  8
0
  6
CONTINUOUS
 62
     2
 10
273.0
 20
108.5
 30
0.35
 40
3.5
  1
尺　度
 50
0.0
 41
0.9
 51
0.0
  7
KANJI0
  0
LINE
  8
0
  6
CONTINUOUS
 62
     6
 10
286.0
 20
103.0
 30
0.0
 11
286.0
 21
118.0
 31
0.0
  0
LINE
  8
0
  6
CONTINUOUS
 62
     6
 10
286.0
 20
118.0
 30
0.0
 11
270.0
 21
118.0
 31
0.0
  0
LINE
  8
0
  6
CONTINUOUS
 62
     6
 10
286.0
 20
113.0
 30
0.0
 11
270.0
 21
113.0
 31
0.0
  0
LINE
  8
0
  6
CONTINUOUS
 62
     6
 10
270.0
 20
103.0
 30
0.0
 11
286.0
 21
103.0
 31
0.0
  0
LINE
  8
0
  6
CONTINUOUS
 62
     1
 10
76.3
 20
135.1
 30
0.0
 11
76.3
 21
168.1
 31
0.0
  0
LINE
  8
0
  6
CONTINUOUS
 62
     1
 10
76.3
 20
168.1
 30
0.0
 11
28.8
 21
168.1
 31
0.0
  0
LINE
  8
0
  6
CONTINUOUS
 62
     1
 10
28.8
 20
168.1
 30
0.0
 11
28.8
 21
135.1
 31
0.0
  0
LINE
  8
0
  6
CONTINUOUS
 62
     5
 10
33.8
 20
144.1
 30
0.0
 11
71.3
 21
144.1
 31
0.0
  0
LINE
  8
0
  6
CONTINUOUS
 62
     5
 10
71.3
 20
144.1
 30
0.0
 11
71.3
 21
159.1
 31
0.0
  0
LINE
  8
0
  6
CONTINUOUS
 62
     5
 10
71.3
 20
159.1
 30
0.0
 11
33.8
 21
159.1
 31
0.0
  0
LINE
  8
0
  6
CONTINUOUS
 62
     5
 10
33.8
 20
159.1
 30
0.0
 11
33.8
 21
144.1
 31
0.0
  0
LINE
  8
0
  6
CONTINUOUS
 62
     1
 10
43.8
 20
171.6
 30
0.0
 11
61.3
 21
171.6
 31
0.0
  0
ARC
  8
0
  6
CONTINUOUS
 62
     1
 10
43.8
 20
166.6
 30
0.0
 40
5.0
 50
90.0
 51
163.300755766
  0
ARC
  8
0
  6
CONTINUOUS
 62
     1
 10
61.3
 20
166.6
 30
0.0
 40
5.0
 50
16.699244234
 51
90.0
  0
LINE
  8
0
  6
CONTINUOUS
 62
     1
 10
43.8
 20
131.6
 30
0.0
 11
61.3
 21
131.6
 31
0.0
  0
ARC
  8
0
  6
CONTINUOUS
 62
     1
 10
43.8
 20
136.6
 30
0.0
 40
5.0
 50
196.699244234
 51
270.0
  0
ARC
  8
0
  6
CONTINUOUS
 62
     1
 10
61.3
 20
136.6
 30
0.0
 40
5.0
 50
270.0
 51
343.300755766
  0
LINE
  8
0
  6
CONTINUOUS
 62
     1
 10
75.05
 20
169.85
 30
0.0
 11
75.05
 21
168.1
 31
0.0
  0
ARC
  8
0
  6
CONTINUOUS
 62
     1
 10
74.55
 20
169.85
 30
0.0
 40
0.5
 50
0.0
 51
90.0
  0
LINE
  8
0
  6
CONTINUOUS
 62
     1
 10
30.05
 20
168.1
 30
0.0
 11
30.05
 21
169.85
 31
0.0
  0
ARC
  8
0
  6
CONTINUOUS
 62
     1
 10
30.55
 20
169.85
 30
0.0
 40
0.5
 50
90.0
 51
180.0
  0
LINE
  8
0
  6
CONTINUOUS
 62
     1
 10
64.607189139
 20
170.35
 30
0.0
 11
74.55
 21
170.35
 31
0.0
  0
LINE
  8
0
  6
CONTINUOUS
 62
     1
 10
30.55
 20
170.35
 30
0.0
 11
40.492810861
 21
170.35
 31
0.0
  0
LINE
  8
0
  6
CONTINUOUS
 62
     1
 10
30.05
 20
135.1
 30
0.0
 11
30.05
 21
133.35
 31
0.0
  0
ARC
  8
0
  6
CONTINUOUS
 62
     1
 10
30.55
 20
133.35
 30
0.0
 40
0.5
 50
180.0
 51
270.0
  0
LINE
  8
0
  6
CONTINUOUS
 62
     1
 10
30.55
 20
132.85
 30
0.0
 11
40.492810861
 21
132.85
 31
0.0
  0
LINE
  8
0
  6
CONTINUOUS
 62
     1
 10
75.05
 20
133.35
 30
0.0
 11
75.05
 21
135.1
 31
0.0
  0
ARC
  8
0
  6
CONTINUOUS
 62
     1
 10
74.55
 20
133.35
 30
0.0
 40
0.5
 50
270.0
 51
0.0
  0
LINE
  8
0
  6
CONTINUOUS
 62
     1
 10
64.607189139
 20
132.85
 30
0.0
 11
74.55
 21
132.85
 31
0.0
  0
CIRCLE
  8
0
  6
CONTINUOUS
 62
     2
 10
36.3
 20
139.1
 30
0.0
 40
1.9995
  0
LINE
  8
0
  6
CONTINUOUS
 62
     2
 10
35.133625
 20
139.3666
 30
0.0
 11
35.7668
 21
139.3666
 31
0.0
  0
ARC
  8
0
  6
CONTINUOUS
 62
     2
 10
35.7668
 20
139.6332
 30
0.0
 40
0.2666
 50
270.0
 51
0.0
  0
LINE
  8
0
  6
CONTINUOUS
 62
     2
 10
36.0334
 20
139.6332
 30
0.0
 11
36.0334
 21
140.266375
 31
0.0
  0
LINE
  8
0
  6
CONTINUOUS
 62
     2
 10
36.0334
 20
140.266375
 30
0.0
 11
36.5666
 21
140.266375
 31
0.0
  0
LINE
  8
0
  6
CONTINUOUS
 62
     2
 10
36.5666
 20
140.266375
 30
0.0
 11
36.5666
 21
139.6332
 31
0.0
  0
ARC
  8
0
  6
CONTINUOUS
 62
     2
 10
36.8332
 20
139.6332
 30
0.0
 40
0.2666
 50
180.0
 51
270.0
  0
LINE
  8
0
  6
CONTINUOUS
 62
     2
 10
36.8332
 20
139.3666
 30
0.0
 11
37.466375
 21
139.3666
 31
0.0
  0
LINE
  8
0
  6
CONTINUOUS
 62
     2
 10
37.466375
 20
139.3666
 30
0.0
 11
37.466375
 21
138.8334
 31
0.0
  0
LINE
  8
0
  6
CONTINUOUS
 62
     2
 10
37.466375
 20
138.8334
 30
0.0
 11
36.8332
 21
138.8334
 31
0.0
  0
ARC
  8
0
  6
CONTINUOUS
 62
     2
 10
36.8332
 20
138.5668
 30
0.0
 40
0.2666
 50
90.0
 51
180.0
  0
LINE
  8
0
  6
CONTINUOUS
 62
     2
 10
36.5666
 20
138.5668
 30
0.0
 11
36.5666
 21
137.933625
 31
0.0
  0
LINE
  8
0
  6
CONTINUOUS
 62
     2
 10
36.5666
 20
137.933625
 30
0.0
 11
36.0334
 21
137.933625
 31
0.0
  0
LINE
  8
0
  6
CONTINUOUS
 62
     2
 10
36.0334
 20
137.933625
 30
0.0
 11
36.0334
 21
138.5668
 31
0.0
  0
ARC
  8
0
  6
CONTINUOUS
 62
     2
 10
35.7668
 20
138.5668
 30
0.0
 40
0.2666
 50
0.0
 51
90.0
  0
LINE
  8
0
  6
CONTINUOUS
 62
     2
 10
35.7668
 20
138.8334
 30
0.0
 11
35.133625
 21
138.8334
 31
0.0
  0
LINE
  8
0
  6
CONTINUOUS
 62
     2
 10
35.133625
 20
138.8334
 30
0.0
 11
35.133625
 21
139.3666
 31
0.0
  0
CIRCLE
  8
0
  6
CONTINUOUS
 62
     2
 10
68.8
 20
139.1
 30
0.0
 40
1.9995
  0
LINE
  8
0
  6
CONTINUOUS
 62
     2
 10
69.966375
 20
139.3666
 30
0.0
 11
69.3332
 21
139.3666
 31
0.0
  0
ARC
  8
0
  6
CONTINUOUS
 62
     2
 10
69.3332
 20
139.6332
 30
0.0
 40
0.2666
 50
180.0
 51
270.0
  0
LINE
  8
0
  6
CONTINUOUS
 62
     2
 10
69.0666
 20
139.6332
 30
0.0
 11
69.0666
 21
140.266375
 31
0.0
  0
LINE
  8
0
  6
CONTINUOUS
 62
     2
 10
69.0666
 20
140.266375
 30
0.0
 11
68.5334
 21
140.266375
 31
0.0
  0
LINE
  8
0
  6
CONTINUOUS
 62
     2
 10
68.5334
 20
140.266375
 30
0.0
 11
68.5334
 21
139.6332
 31
0.0
  0
ARC
  8
0
  6
CONTINUOUS
 62
     2
 10
68.2668
 20
139.6332
 30
0.0
 40
0.2666
 50
270.0
 51
0.0
  0
LINE
  8
0
  6
CONTINUOUS
 62
     2
 10
68.2668
 20
139.3666
 30
0.0
 11
67.633625
 21
139.3666
 31
0.0
  0
LINE
  8
0
  6
CONTINUOUS
 62
     2
 10
67.633625
 20
139.3666
 30
0.0
 11
67.633625
 21
138.8334
 31
0.0
  0
LINE
  8
0
  6
CONTINUOUS
 62
     2
 10
67.633625
 20
138.8334
 30
0.0
 11
68.2668
 21
138.8334
 31
0.0
  0
ARC
  8
0
  6
CONTINUOUS
 62
     2
 10
68.2668
 20
138.5668
 30
0.0
 40
0.2666
 50
0.0
 51
90.0
  0
LINE
  8
0
  6
CONTINUOUS
 62
     2
 10
68.5334
 20
138.5668
 30
0.0
 11
68.5334
 21
137.933625
 31
0.0
  0
LINE
  8
0
  6
CONTINUOUS
 62
     2
 10
68.5334
 20
137.933625
 30
0.0
 11
69.0666
 21
137.933625
 31
0.0
  0
LINE
  8
0
  6
CONTINUOUS
 62
     2
 10
69.0666
 20
137.933625
 30
0.0
 11
69.0666
 21
138.5668
 31
0.0
  0
ARC
  8
0
  6
CONTINUOUS
 62
     2
 10
69.3332
 20
138.5668
 30
0.0
 40
0.2666
 50
90.0
 51
180.0
  0
LINE
  8
0
  6
CONTINUOUS
 62
     2
 10
69.3332
 20
138.8334
 30
0.0
 11
69.966375
 21
138.8334
 31
0.0
  0
LINE
  8
0
  6
CONTINUOUS
 62
     2
 10
69.966375
 20
138.8334
 30
0.0
 11
69.966375
 21
139.3666
 31
0.0
  0
LINE
  8
0
  6
CONTINUOUS
 62
     2
 10
32.925
 20
153.85
 30
0.0
 11
32.925
 21
149.35
 31
0.0
  0
LINE
  8
0
  6
CONTINUOUS
 62
     2
 10
32.925
 20
149.35
 30
0.0
 11
35.05
 21
149.35
 31
0.0
  0
LINE
  8
0
  6
CONTINUOUS
 62
     2
 10
32.925
 20
153.85
 30
0.0
 11
35.05
 21
153.85
 31
0.0
  0
LINE
  8
0
  6
CONTINUOUS
 62
     2
 10
35.8
 20
153.1
 30
0.0
 11
35.8
 21
160.1
 31
0.0
  0
LINE
  8
0
  6
CONTINUOUS
 62
     2
 10
35.8
 20
150.1
 30
0.0
 11
35.8
 21
143.1
 31
0.0
  0
LINE
  8
0
  6
CONTINUOUS
 62
     2
 10
35.05
 20
149.35
 30
0.0
 11
35.05
 21
143.1
 31
0.0
  0
LINE
  8
0
  6
CONTINUOUS
 62
     2
 10
35.05
 20
160.1
 30
0.0
 11
35.05
 21
153.85
 31
0.0
  0
LINE
  8
0
  6
CONTINUOUS
 62
     2
 10
35.05
 20
150.1
 30
0.0
 11
35.05
 21
150.6
 31
0.0
  0
LINE
  8
0
  6
CONTINUOUS
 62
     2
 10
35.05
 20
150.1
 30
0.0
 11
35.8
 21
150.1
 31
0.0
  0
LINE
  8
0
  6
CONTINUOUS
 62
     2
 10
35.05
 20
150.6
 30
0.0
 11
34.55
 21
150.6
 31
0.0
  0
LINE
  8
0
  6
CONTINUOUS
 62
     2
 10
35.05
 20
153.1
 30
0.0
 11
35.05
 21
152.6
 31
0.0
  0
LINE
  8
0
  6
CONTINUOUS
 62
     2
 10
35.05
 20
153.1
 30
0.0
 11
35.8
 21
153.1
 31
0.0
  0
LINE
  8
0
  6
CONTINUOUS
 62
     2
 10
34.55
 20
150.6
 30
0.0
 11
34.55
 21
152.6
 31
0.0
  0
LINE
  8
0
  6
CONTINUOUS
 62
     2
 10
72.175
 20
153.85
 30
0.0
 11
72.175
 21
149.35
 31
0.0
  0
LINE
  8
0
  6
CONTINUOUS
 62
     2
 10
72.175
 20
149.35
 30
0.0
 11
70.05
 21
149.35
 31
0.0
  0
LINE
  8
0
  6
CONTINUOUS
 62
     2
 10
72.175
 20
153.85
 30
0.0
 11
70.05
 21
153.85
 31
0.0
  0
LINE
  8
0
  6
CONTINUOUS
 62
     2
 10
69.3
 20
153.1
 30
0.0
 11
69.3
 21
160.1
 31
0.0
  0
LINE
  8
0
  6
CONTINUOUS
 62
     2
 10
69.3
 20
150.1
 30
0.0
 11
69.3
 21
143.1
 31
0.0
  0
LINE
  8
0
  6
CONTINUOUS
 62
     2
 10
70.05
 20
149.35
 30
0.0
 11
70.05
 21
143.1
 31
0.0
  0
LINE
  8
0
  6
CONTINUOUS
 62
     2
 10
70.05
 20
160.1
 30
0.0
 11
70.05
 21
153.85
 31
0.0
  0
LINE
  8
0
  6
CONTINUOUS
 62
     2
 10
70.05
 20
150.1
 30
0.0
 11
70.05
 21
150.6
 31
0.0
  0
LINE
  8
0
  6
CONTINUOUS
 62
     2
 10
70.05
 20
150.1
 30
0.0
 11
69.3
 21
150.1
 31
0.0
  0
LINE
  8
0
  6
CONTINUOUS
 62
     2
 10
70.05
 20
150.6
 30
0.0
 11
70.55
 21
150.6
 31
0.0
  0
LINE
  8
0
  6
CONTINUOUS
 62
     2
 10
70.05
 20
153.1
 30
0.0
 11
70.05
 21
152.6
 31
0.0
  0
LINE
  8
0
  6
CONTINUOUS
 62
     2
 10
70.05
 20
153.1
 30
0.0
 11
69.3
 21
153.1
 31
0.0
  0
LINE
  8
0
  6
CONTINUOUS
 62
     2
 10
70.55
 20
150.6
 30
0.0
 11
70.55
 21
152.6
 31
0.0
  0
LINE
  8
0
  6
CONTINUOUS
 62
     2
 10
35.05
 20
153.1
 30
0.0
 11
70.05
 21
153.1
 31
0.0
  0
LINE
  8
0
  6
CONTINUOUS
 62
     2
 10
35.05
 20
150.1
 30
0.0
 11
70.05
 21
150.1
 31
0.0
  0
LINE
  8
0
  6
CONTINUOUS
 62
     2
 10
35.8
 20
160.1
 30
0.0
 11
35.05
 21
160.1
 31
0.0
  0
LINE
  8
0
  6
CONTINUOUS
 62
     2
 10
41.5085
 20
153.1
 30
0.0
 11
41.5085
 21
160.1
 31
0.0
  0
LINE
  8
0
  6
CONTINUOUS
 62
     2
 10
40.7585
 20
160.1
 30
0.0
 11
40.7585
 21
153.1
 31
0.0
  0
LINE
  8
0
  6
CONTINUOUS
 62
     2
 10
40.5085
 20
159.1
 30
0.0
 11
40.5085
 21
160.1
 31
0.0
  0
LINE
  8
0
  6
CONTINUOUS
 62
     2
 10
40.7585
 20
159.1
 30
0.0
 11
40.5085
 21
159.1
 31
0.0
  0
LINE
  8
0
  6
CONTINUOUS
 62
     2
 10
41.7585
 20
159.1
 30
0.0
 11
41.7585
 21
160.1
 31
0.0
  0
LINE
  8
0
  6
CONTINUOUS
 62
     2
 10
41.5085
 20
159.1
 30
0.0
 11
41.7585
 21
159.1
 31
0.0
  0
LINE
  8
0
  6
CONTINUOUS
 62
     2
 10
41.7585
 20
160.1
 30
0.0
 11
40.5085
 21
160.1
 31
0.0
  0
LINE
  8
0
  6
CONTINUOUS
 62
     2
 10
35.8
 20
157.85
 30
0.0
 11
40.7585
 21
157.85
 31
0.0
  0
LINE
  8
0
  6
CONTINUOUS
 62
     2
 10
37.844995372
 20
153.379875202
 30
0.0
 11
37.888573244
 21
153.877972551
 31
0.0
  0
LINE
  8
0
  6
CONTINUOUS
 62
     2
 10
38.386670593
 20
153.83439468
 30
0.0
 11
38.343092721
 21
153.336297331
 31
0.0
  0
LINE
  8
0
  6
CONTINUOUS
 62
     2
 10
38.215407279
 20
157.613702669
 30
0.0
 11
38.171829407
 21
157.11560532
 31
0.0
  0
LINE
  8
0
  6
CONTINUOUS
 62
     2
 10
38.669926756
 20
157.072027449
 30
0.0
 11
38.713504628
 21
157.570124798
 31
0.0
  0
CIRCLE
  8
0
  6
CONTINUOUS
 62
     2
 10
38.27925
 20
155.475
 30
0.0
 40
1.75
  0
LINE
  8
0
  6
CONTINUOUS
 62
     2
 10
38.1811595
 20
157.222248767
 30
0.0
 11
38.073779197
 21
155.994886285
 31
0.0
  0
ARC
  8
0
  6
CONTINUOUS
 62
     2
 10
37.824730522
 20
156.01667522
 30
0.0
 40
0.25
 50
265.0
 51
355.0
  0
LINE
  8
0
  6
CONTINUOUS
 62
     2
 10
37.802941587
 20
155.767626546
 30
0.0
 11
37.27993937
 21
155.813383311
 31
0.0
  0
LINE
  8
0
  6
CONTINUOUS
 62
     2
 10
37.27993937
 20
155.813383311
 30
0.0
 11
37.236361499
 21
155.315285962
 31
0.0
  0
LINE
  8
0
  6
CONTINUOUS
 62
     2
 10
37.236361499
 20
155.315285962
 30
0.0
 11
37.759363715
 21
155.269529197
 31
0.0
  0
ARC
  8
0
  6
CONTINUOUS
 62
     2
 10
37.73757478
 20
155.020480522
 30
0.0
 40
0.25
 50
355.0
 51
85.0
  0
LINE
  8
0
  6
CONTINUOUS
 62
     2
 10
37.986623454
 20
154.998691587
 30
0.0
 11
37.879243151
 21
153.771329104
 31
0.0
  0
LINE
  8
0
  6
CONTINUOUS
 62
     2
 10
38.484720803
 20
154.955113715
 30
0.0
 11
38.3773405
 21
153.727751233
 31
0.0
  0
ARC
  8
0
  6
CONTINUOUS
 62
     2
 10
38.733769478
 20
154.93332478
 30
0.0
 40
0.25
 50
85.0
 51
175.0
  0
LINE
  8
0
  6
CONTINUOUS
 62
     2
 10
39.27856063
 20
155.136616689
 30
0.0
 11
38.755558413
 21
155.182373454
 31
0.0
  0
LINE
  8
0
  6
CONTINUOUS
 62
     2
 10
39.322138501
 20
155.634714038
 30
0.0
 11
39.27856063
 21
155.136616689
 31
0.0
  0
LINE
  8
0
  6
CONTINUOUS
 62
     2
 10
38.799136285
 20
155.680470803
 30
0.0
 11
39.322138501
 21
155.634714038
 31
0.0
  0
ARC
  8
0
  6
CONTINUOUS
 62
     2
 10
38.82092522
 20
155.929519478
 30
0.0
 40
0.25
 50
175.0
 51
265.0
  0
LINE
  8
0
  6
CONTINUOUS
 62
     2
 10
38.679256849
 20
157.178670896
 30
0.0
 11
38.571876546
 21
155.951308413
 31
0.0
  0
LINE
  8
0
  6
CONTINUOUS
 62
     2
 10
40.417952669
 20
155.538842721
 30
0.0
 11
40.026498767
 21
155.5730905
 31
0.0
  0
LINE
  8
0
  6
CONTINUOUS
 62
     2
 10
39.982920896
 20
155.074993151
 30
0.0
 11
40.374374798
 21
155.040745372
 31
0.0
  0
LINE
  8
0
  6
CONTINUOUS
 62
     2
 10
36.575579104
 20
155.875006849
 30
0.0
 11
36.184125202
 21
155.909254628
 31
0.0
  0
LINE
  8
0
  6
CONTINUOUS
 62
     2
 10
36.140547331
 20
155.411157279
 30
0.0
 11
36.532001233
 21
155.3769095
 31
0.0
  0
ARC
  8
0
  6
CONTINUOUS
 62
     2
 10
36.574801959
 20
157.506282077
 30
0.0
 40
0.25
 50
85.0
 51
175.0
  0
LINE
  8
0
  6
CONTINUOUS
 62
     2
 10
36.325753284
 20
157.528071012
 30
0.0
 11
35.998919249
 21
153.792340894
 31
0.0
  0
ARC
  8
0
  6
CONTINUOUS
 62
     2
 10
36.247967923
 20
153.770551959
 30
0.0
 40
0.25
 50
175.0
 51
265.0
  0
LINE
  8
0
  6
CONTINUOUS
 62
     2
 10
40.332321012
 20
157.428496716
 30
0.0
 11
36.596590894
 21
157.755330751
 31
0.0
  0
ARC
  8
0
  6
CONTINUOUS
 62
     2
 10
40.310532077
 20
157.179448041
 30
0.0
 40
0.25
 50
355.0
 51
85.0
  0
LINE
  8
0
  6
CONTINUOUS
 62
     2
 10
36.226178988
 20
153.521503284
 30
0.0
 11
39.961909106
 21
153.194669249
 31
0.0
  0
LINE
  8
0
  6
CONTINUOUS
 62
     2
 10
40.232746716
 20
153.421928988
 30
0.0
 11
40.559580751
 21
157.157659106
 31
0.0
  0
ARC
  8
0
  6
CONTINUOUS
 62
     2
 10
39.983698041
 20
153.443717923
 30
0.0
 40
0.25
 50
265.0
 51
355.0
  0
LINE
  8
0
  6
CONTINUOUS
 62
     2
 10
41.5085
 20
157.85
 30
0.0
 11
46.467
 21
157.85
 31
0.0
  0
LINE
  8
0
  6
CONTINUOUS
 62
     2
 10
43.553495372
 20
153.379875202
 30
0.0
 11
43.597073244
 21
153.877972551
 31
0.0
  0
LINE
  8
0
  6
CONTINUOUS
 62
     2
 10
44.095170593
 20
153.83439468
 30
0.0
 11
44.051592721
 21
153.336297331
 31
0.0
  0
LINE
  8
0
  6
CONTINUOUS
 62
     2
 10
43.923907279
 20
157.613702669
 30
0.0
 11
43.880329407
 21
157.11560532
 31
0.0
  0
LINE
  8
0
  6
CONTINUOUS
 62
     2
 10
44.378426756
 20
157.072027449
 30
0.0
 11
44.422004628
 21
157.570124798
 31
0.0
  0
CIRCLE
  8
0
  6
CONTINUOUS
 62
     2
 10
43.98775
 20
155.475
 30
0.0
 40
1.75
  0
LINE
  8
0
  6
CONTINUOUS
 62
     2
 10
43.8896595
 20
157.222248767
 30
0.0
 11
43.782279197
 21
155.994886285
 31
0.0
  0
ARC
  8
0
  6
CONTINUOUS
 62
     2
 10
43.533230522
 20
156.01667522
 30
0.0
 40
0.25
 50
265.0
 51
355.0
  0
LINE
  8
0
  6
CONTINUOUS
 62
     2
 10
43.511441587
 20
155.767626546
 30
0.0
 11
42.98843937
 21
155.813383311
 31
0.0
  0
LINE
  8
0
  6
CONTINUOUS
 62
     2
 10
42.98843937
 20
155.813383311
 30
0.0
 11
42.944861499
 21
155.315285962
 31
0.0
  0
LINE
  8
0
  6
CONTINUOUS
 62
     2
 10
42.944861499
 20
155.315285962
 30
0.0
 11
43.467863715
 21
155.269529197
 31
0.0
  0
ARC
  8
0
  6
CONTINUOUS
 62
     2
 10
43.44607478
 20
155.020480522
 30
0.0
 40
0.25
 50
355.0
 51
85.0
  0
LINE
  8
0
  6
CONTINUOUS
 62
     2
 10
43.695123454
 20
154.998691587
 30
0.0
 11
43.587743151
 21
153.771329104
 31
0.0
  0
LINE
  8
0
  6
CONTINUOUS
 62
     2
 10
44.193220803
 20
154.955113715
 30
0.0
 11
44.0858405
 21
153.727751233
 31
0.0
  0
ARC
  8
0
  6
CONTINUOUS
 62
     2
 10
44.442269478
 20
154.93332478
 30
0.0
 40
0.25
 50
85.0
 51
175.0
  0
LINE
  8
0
  6
CONTINUOUS
 62
     2
 10
44.98706063
 20
155.136616689
 30
0.0
 11
44.464058413
 21
155.182373454
 31
0.0
  0
LINE
  8
0
  6
CONTINUOUS
 62
     2
 10
45.030638501
 20
155.634714038
 30
0.0
 11
44.98706063
 21
155.136616689
 31
0.0
  0
LINE
  8
0
  6
CONTINUOUS
 62
     2
 10
44.507636285
 20
155.680470803
 30
0.0
 11
45.030638501
 21
155.634714038
 31
0.0
  0
ARC
  8
0
  6
CONTINUOUS
 62
     2
 10
44.52942522
 20
155.929519478
 30
0.0
 40
0.25
 50
175.0
 51
265.0
  0
LINE
  8
0
  6
CONTINUOUS
 62
     2
 10
44.387756849
 20
157.178670896
 30
0.0
 11
44.280376546
 21
155.951308413
 31
0.0
  0
LINE
  8
0
  6
CONTINUOUS
 62
     2
 10
46.126452669
 20
155.538842721
 30
0.0
 11
45.734998767
 21
155.5730905
 31
0.0
  0
LINE
  8
0
  6
CONTINUOUS
 62
     2
 10
45.691420896
 20
155.074993151
 30
0.0
 11
46.082874798
 21
155.040745372
 31
0.0
  0
LINE
  8
0
  6
CONTINUOUS
 62
     2
 10
42.284079104
 20
155.875006849
 30
0.0
 11
41.892625202
 21
155.909254628
 31
0.0
  0
LINE
  8
0
  6
CONTINUOUS
 62
     2
 10
41.849047331
 20
155.411157279
 30
0.0
 11
42.240501233
 21
155.3769095
 31
0.0
  0
ARC
  8
0
  6
CONTINUOUS
 62
     2
 10
42.283301959
 20
157.506282077
 30
0.0
 40
0.25
 50
85.0
 51
175.0
  0
LINE
  8
0
  6
CONTINUOUS
 62
     2
 10
42.034253284
 20
157.528071012
 30
0.0
 11
41.707419249
 21
153.792340894
 31
0.0
  0
ARC
  8
0
  6
CONTINUOUS
 62
     2
 10
41.956467923
 20
153.770551959
 30
0.0
 40
0.25
 50
175.0
 51
265.0
  0
LINE
  8
0
  6
CONTINUOUS
 62
     2
 10
46.040821012
 20
157.428496716
 30
0.0
 11
42.305090894
 21
157.755330751
 31
0.0
  0
ARC
  8
0
  6
CONTINUOUS
 62
     2
 10
46.019032077
 20
157.179448041
 30
0.0
 40
0.25
 50
355.0
 51
85.0
  0
LINE
  8
0
  6
CONTINUOUS
 62
     2
 10
41.934678988
 20
153.521503284
 30
0.0
 11
45.670409106
 21
153.194669249
 31
0.0
  0
LINE
  8
0
  6
CONTINUOUS
 62
     2
 10
45.941246716
 20
153.421928988
 30
0.0
 11
46.268080751
 21
157.157659106
 31
0.0
  0
ARC
  8
0
  6
CONTINUOUS
 62
     2
 10
45.692198041
 20
153.443717923
 30
0.0
 40
0.25
 50
265.0
 51
355.0
  0
LINE
  8
0
  6
CONTINUOUS
 62
     2
 10
47.217
 20
157.85
 30
0.0
 11
52.1755
 21
157.85
 31
0.0
  0
LINE
  8
0
  6
CONTINUOUS
 62
     2
 10
49.261995372
 20
153.379875202
 30
0.0
 11
49.305573244
 21
153.877972551
 31
0.0
  0
LINE
  8
0
  6
CONTINUOUS
 62
     2
 10
49.803670593
 20
153.83439468
 30
0.0
 11
49.760092721
 21
153.336297331
 31
0.0
  0
LINE
  8
0
  6
CONTINUOUS
 62
     2
 10
49.632407279
 20
157.613702669
 30
0.0
 11
49.588829407
 21
157.11560532
 31
0.0
  0
LINE
  8
0
  6
CONTINUOUS
 62
     2
 10
50.086926756
 20
157.072027449
 30
0.0
 11
50.130504628
 21
157.570124798
 31
0.0
  0
CIRCLE
  8
0
  6
CONTINUOUS
 62
     2
 10
49.69625
 20
155.475
 30
0.0
 40
1.75
  0
LINE
  8
0
  6
CONTINUOUS
 62
     2
 10
49.5981595
 20
157.222248767
 30
0.0
 11
49.490779197
 21
155.994886285
 31
0.0
  0
ARC
  8
0
  6
CONTINUOUS
 62
     2
 10
49.241730522
 20
156.01667522
 30
0.0
 40
0.25
 50
265.0
 51
355.0
  0
LINE
  8
0
  6
CONTINUOUS
 62
     2
 10
49.219941587
 20
155.767626546
 30
0.0
 11
48.69693937
 21
155.813383311
 31
0.0
  0
LINE
  8
0
  6
CONTINUOUS
 62
     2
 10
48.69693937
 20
155.813383311
 30
0.0
 11
48.653361499
 21
155.315285962
 31
0.0
  0
LINE
  8
0
  6
CONTINUOUS
 62
     2
 10
48.653361499
 20
155.315285962
 30
0.0
 11
49.176363715
 21
155.269529197
 31
0.0
  0
ARC
  8
0
  6
CONTINUOUS
 62
     2
 10
49.15457478
 20
155.020480522
 30
0.0
 40
0.25
 50
355.0
 51
85.0
  0
LINE
  8
0
  6
CONTINUOUS
 62
     2
 10
49.403623454
 20
154.998691587
 30
0.0
 11
49.296243151
 21
153.771329104
 31
0.0
  0
LINE
  8
0
  6
CONTINUOUS
 62
     2
 10
49.901720803
 20
154.955113715
 30
0.0
 11
49.7943405
 21
153.727751233
 31
0.0
  0
ARC
  8
0
  6
CONTINUOUS
 62
     2
 10
50.150769478
 20
154.93332478
 30
0.0
 40
0.25
 50
85.0
 51
175.0
  0
LINE
  8
0
  6
CONTINUOUS
 62
     2
 10
50.69556063
 20
155.136616689
 30
0.0
 11
50.172558413
 21
155.182373454
 31
0.0
  0
LINE
  8
0
  6
CONTINUOUS
 62
     2
 10
50.739138501
 20
155.634714038
 30
0.0
 11
50.69556063
 21
155.136616689
 31
0.0
  0
LINE
  8
0
  6
CONTINUOUS
 62
     2
 10
50.216136285
 20
155.680470803
 30
0.0
 11
50.739138501
 21
155.634714038
 31
0.0
  0
ARC
  8
0
  6
CONTINUOUS
 62
     2
 10
50.23792522
 20
155.929519478
 30
0.0
 40
0.25
 50
175.0
 51
265.0
  0
LINE
  8
0
  6
CONTINUOUS
 62
     2
 10
50.096256849
 20
157.178670896
 30
0.0
 11
49.988876546
 21
155.951308413
 31
0.0
  0
LINE
  8
0
  6
CONTINUOUS
 62
     2
 10
51.834952669
 20
155.538842721
 30
0.0
 11
51.443498767
 21
155.5730905
 31
0.0
  0
LINE
  8
0
  6
CONTINUOUS
 62
     2
 10
51.399920896
 20
155.074993151
 30
0.0
 11
51.791374798
 21
155.040745372
 31
0.0
  0
LINE
  8
0
  6
CONTINUOUS
 62
     2
 10
47.992579104
 20
155.875006849
 30
0.0
 11
47.601125202
 21
155.909254628
 31
0.0
  0
LINE
  8
0
  6
CONTINUOUS
 62
     2
 10
47.557547331
 20
155.411157279
 30
0.0
 11
47.949001233
 21
155.3769095
 31
0.0
  0
ARC
  8
0
  6
CONTINUOUS
 62
     2
 10
47.991801959
 20
157.506282077
 30
0.0
 40
0.25
 50
85.0
 51
175.0
  0
LINE
  8
0
  6
CONTINUOUS
 62
     2
 10
47.742753284
 20
157.528071012
 30
0.0
 11
47.415919249
 21
153.792340894
 31
0.0
  0
ARC
  8
0
  6
CONTINUOUS
 62
     2
 10
47.664967923
 20
153.770551959
 30
0.0
 40
0.25
 50
175.0
 51
265.0
  0
LINE
  8
0
  6
CONTINUOUS
 62
     2
 10
51.749321012
 20
157.428496716
 30
0.0
 11
48.013590894
 21
157.755330751
 31
0.0
  0
ARC
  8
0
  6
CONTINUOUS
 62
     2
 10
51.727532077
 20
157.179448041
 30
0.0
 40
0.25
 50
355.0
 51
85.0
  0
LINE
  8
0
  6
CONTINUOUS
 62
     2
 10
47.643178988
 20
153.521503284
 30
0.0
 11
51.378909106
 21
153.194669249
 31
0.0
  0
LINE
  8
0
  6
CONTINUOUS
 62
     2
 10
51.649746716
 20
153.421928988
 30
0.0
 11
51.976580751
 21
157.157659106
 31
0.0
  0
ARC
  8
0
  6
CONTINUOUS
 62
     2
 10
51.400698041
 20
153.443717923
 30
0.0
 40
0.25
 50
265.0
 51
355.0
  0
LINE
  8
0
  6
CONTINUOUS
 62
     2
 10
52.9255
 20
157.85
 30
0.0
 11
57.884
 21
157.85
 31
0.0
  0
LINE
  8
0
  6
CONTINUOUS
 62
     2
 10
54.970495372
 20
153.379875202
 30
0.0
 11
55.014073244
 21
153.877972551
 31
0.0
  0
LINE
  8
0
  6
CONTINUOUS
 62
     2
 10
55.512170593
 20
153.83439468
 30
0.0
 11
55.468592721
 21
153.336297331
 31
0.0
  0
LINE
  8
0
  6
CONTINUOUS
 62
     2
 10
55.340907279
 20
157.613702669
 30
0.0
 11
55.297329407
 21
157.11560532
 31
0.0
  0
LINE
  8
0
  6
CONTINUOUS
 62
     2
 10
55.795426756
 20
157.072027449
 30
0.0
 11
55.839004628
 21
157.570124798
 31
0.0
  0
CIRCLE
  8
0
  6
CONTINUOUS
 62
     2
 10
55.40475
 20
155.475
 30
0.0
 40
1.75
  0
LINE
  8
0
  6
CONTINUOUS
 62
     2
 10
55.3066595
 20
157.222248767
 30
0.0
 11
55.199279197
 21
155.994886285
 31
0.0
  0
ARC
  8
0
  6
CONTINUOUS
 62
     2
 10
54.950230522
 20
156.01667522
 30
0.0
 40
0.25
 50
265.0
 51
355.0
  0
LINE
  8
0
  6
CONTINUOUS
 62
     2
 10
54.928441587
 20
155.767626546
 30
0.0
 11
54.40543937
 21
155.813383311
 31
0.0
  0
LINE
  8
0
  6
CONTINUOUS
 62
     2
 10
54.40543937
 20
155.813383311
 30
0.0
 11
54.361861499
 21
155.315285962
 31
0.0
  0
LINE
  8
0
  6
CONTINUOUS
 62
     2
 10
54.361861499
 20
155.315285962
 30
0.0
 11
54.884863715
 21
155.269529197
 31
0.0
  0
ARC
  8
0
  6
CONTINUOUS
 62
     2
 10
54.86307478
 20
155.020480522
 30
0.0
 40
0.25
 50
355.0
 51
85.0
  0
LINE
  8
0
  6
CONTINUOUS
 62
     2
 10
55.112123454
 20
154.998691587
 30
0.0
 11
55.004743151
 21
153.771329104
 31
0.0
  0
LINE
  8
0
  6
CONTINUOUS
 62
     2
 10
55.610220803
 20
154.955113715
 30
0.0
 11
55.5028405
 21
153.727751233
 31
0.0
  0
ARC
  8
0
  6
CONTINUOUS
 62
     2
 10
55.859269478
 20
154.93332478
 30
0.0
 40
0.25
 50
85.0
 51
175.0
  0
LINE
  8
0
  6
CONTINUOUS
 62
     2
 10
56.40406063
 20
155.136616689
 30
0.0
 11
55.881058413
 21
155.182373454
 31
0.0
  0
LINE
  8
0
  6
CONTINUOUS
 62
     2
 10
56.447638501
 20
155.634714038
 30
0.0
 11
56.40406063
 21
155.136616689
 31
0.0
  0
LINE
  8
0
  6
CONTINUOUS
 62
     2
 10
55.924636285
 20
155.680470803
 30
0.0
 11
56.447638501
 21
155.634714038
 31
0.0
  0
ARC
  8
0
  6
CONTINUOUS
 62
     2
 10
55.94642522
 20
155.929519478
 30
0.0
 40
0.25
 50
175.0
 51
265.0
  0
LINE
  8
0
  6
CONTINUOUS
 62
     2
 10
55.804756849
 20
157.178670896
 30
0.0
 11
55.697376546
 21
155.951308413
 31
0.0
  0
LINE
  8
0
  6
CONTINUOUS
 62
     2
 10
57.543452669
 20
155.538842721
 30
0.0
 11
57.151998767
 21
155.5730905
 31
0.0
  0
LINE
  8
0
  6
CONTINUOUS
 62
     2
 10
57.108420896
 20
155.074993151
 30
0.0
 11
57.499874798
 21
155.040745372
 31
0.0
  0
LINE
  8
0
  6
CONTINUOUS
 62
     2
 10
53.701079104
 20
155.875006849
 30
0.0
 11
53.309625202
 21
155.909254628
 31
0.0
  0
LINE
  8
0
  6
CONTINUOUS
 62
     2
 10
53.266047331
 20
155.411157279
 30
0.0
 11
53.657501233
 21
155.3769095
 31
0.0
  0
ARC
  8
0
  6
CONTINUOUS
 62
     2
 10
53.700301959
 20
157.506282077
 30
0.0
 40
0.25
 50
85.0
 51
175.0
  0
LINE
  8
0
  6
CONTINUOUS
 62
     2
 10
53.451253284
 20
157.528071012
 30
0.0
 11
53.124419249
 21
153.792340894
 31
0.0
  0
ARC
  8
0
  6
CONTINUOUS
 62
     2
 10
53.373467923
 20
153.770551959
 30
0.0
 40
0.25
 50
175.0
 51
265.0
  0
LINE
  8
0
  6
CONTINUOUS
 62
     2
 10
57.457821012
 20
157.428496716
 30
0.0
 11
53.722090894
 21
157.755330751
 31
0.0
  0
ARC
  8
0
  6
CONTINUOUS
 62
     2
 10
57.436032077
 20
157.179448041
 30
0.0
 40
0.25
 50
355.0
 51
85.0
  0
LINE
  8
0
  6
CONTINUOUS
 62
     2
 10
53.351678988
 20
153.521503284
 30
0.0
 11
57.087409106
 21
153.194669249
 31
0.0
  0
LINE
  8
0
  6
CONTINUOUS
 62
     2
 10
57.358246716
 20
153.421928988
 30
0.0
 11
57.685080751
 21
157.157659106
 31
0.0
  0
ARC
  8
0
  6
CONTINUOUS
 62
     2
 10
57.109198041
 20
153.443717923
 30
0.0
 40
0.25
 50
265.0
 51
355.0
  0
LINE
  8
0
  6
CONTINUOUS
 62
     2
 10
58.634
 20
157.85
 30
0.0
 11
63.5925
 21
157.85
 31
0.0
  0
LINE
  8
0
  6
CONTINUOUS
 62
     2
 10
60.678995372
 20
153.379875202
 30
0.0
 11
60.722573244
 21
153.877972551
 31
0.0
  0
LINE
  8
0
  6
CONTINUOUS
 62
     2
 10
61.220670593
 20
153.83439468
 30
0.0
 11
61.177092721
 21
153.336297331
 31
0.0
  0
LINE
  8
0
  6
CONTINUOUS
 62
     2
 10
61.049407279
 20
157.613702669
 30
0.0
 11
61.005829407
 21
157.11560532
 31
0.0
  0
LINE
  8
0
  6
CONTINUOUS
 62
     2
 10
61.503926756
 20
157.072027449
 30
0.0
 11
61.547504628
 21
157.570124798
 31
0.0
  0
CIRCLE
  8
0
  6
CONTINUOUS
 62
     2
 10
61.11325
 20
155.475
 30
0.0
 40
1.75
  0
LINE
  8
0
  6
CONTINUOUS
 62
     2
 10
61.0151595
 20
157.222248767
 30
0.0
 11
60.907779197
 21
155.994886285
 31
0.0
  0
ARC
  8
0
  6
CONTINUOUS
 62
     2
 10
60.658730522
 20
156.01667522
 30
0.0
 40
0.25
 50
265.0
 51
355.0
  0
LINE
  8
0
  6
CONTINUOUS
 62
     2
 10
60.636941587
 20
155.767626546
 30
0.0
 11
60.11393937
 21
155.813383311
 31
0.0
  0
LINE
  8
0
  6
CONTINUOUS
 62
     2
 10
60.11393937
 20
155.813383311
 30
0.0
 11
60.070361499
 21
155.315285962
 31
0.0
  0
LINE
  8
0
  6
CONTINUOUS
 62
     2
 10
60.070361499
 20
155.315285962
 30
0.0
 11
60.593363715
 21
155.269529197
 31
0.0
  0
ARC
  8
0
  6
CONTINUOUS
 62
     2
 10
60.57157478
 20
155.020480522
 30
0.0
 40
0.25
 50
355.0
 51
85.0
  0
LINE
  8
0
  6
CONTINUOUS
 62
     2
 10
60.820623454
 20
154.998691587
 30
0.0
 11
60.713243151
 21
153.771329104
 31
0.0
  0
LINE
  8
0
  6
CONTINUOUS
 62
     2
 10
61.318720803
 20
154.955113715
 30
0.0
 11
61.2113405
 21
153.727751233
 31
0.0
  0
ARC
  8
0
  6
CONTINUOUS
 62
     2
 10
61.567769478
 20
154.93332478
 30
0.0
 40
0.25
 50
85.0
 51
175.0
  0
LINE
  8
0
  6
CONTINUOUS
 62
     2
 10
62.11256063
 20
155.136616689
 30
0.0
 11
61.589558413
 21
155.182373454
 31
0.0
  0
LINE
  8
0
  6
CONTINUOUS
 62
     2
 10
62.156138501
 20
155.634714038
 30
0.0
 11
62.11256063
 21
155.136616689
 31
0.0
  0
LINE
  8
0
  6
CONTINUOUS
 62
     2
 10
61.633136285
 20
155.680470803
 30
0.0
 11
62.156138501
 21
155.634714038
 31
0.0
  0
ARC
  8
0
  6
CONTINUOUS
 62
     2
 10
61.65492522
 20
155.929519478
 30
0.0
 40
0.25
 50
175.0
 51
265.0
  0
LINE
  8
0
  6
CONTINUOUS
 62
     2
 10
61.513256849
 20
157.178670896
 30
0.0
 11
61.405876546
 21
155.951308413
 31
0.0
  0
LINE
  8
0
  6
CONTINUOUS
 62
     2
 10
63.251952669
 20
155.538842721
 30
0.0
 11
62.860498767
 21
155.5730905
 31
0.0
  0
LINE
  8
0
  6
CONTINUOUS
 62
     2
 10
62.816920896
 20
155.074993151
 30
0.0
 11
63.208374798
 21
155.040745372
 31
0.0
  0
LINE
  8
0
  6
CONTINUOUS
 62
     2
 10
59.409579104
 20
155.875006849
 30
0.0
 11
59.018125202
 21
155.909254628
 31
0.0
  0
LINE
  8
0
  6
CONTINUOUS
 62
     2
 10
58.974547331
 20
155.411157279
 30
0.0
 11
59.366001233
 21
155.3769095
 31
0.0
  0
ARC
  8
0
  6
CONTINUOUS
 62
     2
 10
59.408801959
 20
157.506282077
 30
0.0
 40
0.25
 50
85.0
 51
175.0
  0
LINE
  8
0
  6
CONTINUOUS
 62
     2
 10
59.159753284
 20
157.528071012
 30
0.0
 11
58.832919249
 21
153.792340894
 31
0.0
  0
ARC
  8
0
  6
CONTINUOUS
 62
     2
 10
59.081967923
 20
153.770551959
 30
0.0
 40
0.25
 50
175.0
 51
265.0
  0
LINE
  8
0
  6
CONTINUOUS
 62
     2
 10
63.166321012
 20
157.428496716
 30
0.0
 11
59.430590894
 21
157.755330751
 31
0.0
  0
ARC
  8
0
  6
CONTINUOUS
 62
     2
 10
63.144532077
 20
157.179448041
 30
0.0
 40
0.25
 50
355.0
 51
85.0
  0
LINE
  8
0
  6
CONTINUOUS
 62
     2
 10
59.060178988
 20
153.521503284
 30
0.0
 11
62.795909106
 21
153.194669249
 31
0.0
  0
LINE
  8
0
  6
CONTINUOUS
 62
     2
 10
63.066746716
 20
153.421928988
 30
0.0
 11
63.393580751
 21
157.157659106
 31
0.0
  0
ARC
  8
0
  6
CONTINUOUS
 62
     2
 10
62.817698041
 20
153.443717923
 30
0.0
 40
0.25
 50
265.0
 51
355.0
  0
LINE
  8
0
  6
CONTINUOUS
 62
     2
 10
64.3425
 20
157.85
 30
0.0
 11
69.301
 21
157.85
 31
0.0
  0
LINE
  8
0
  6
CONTINUOUS
 62
     2
 10
66.387495372
 20
153.379875202
 30
0.0
 11
66.431073244
 21
153.877972551
 31
0.0
  0
LINE
  8
0
  6
CONTINUOUS
 62
     2
 10
66.929170593
 20
153.83439468
 30
0.0
 11
66.885592721
 21
153.336297331
 31
0.0
  0
LINE
  8
0
  6
CONTINUOUS
 62
     2
 10
66.757907279
 20
157.613702669
 30
0.0
 11
66.714329407
 21
157.11560532
 31
0.0
  0
LINE
  8
0
  6
CONTINUOUS
 62
     2
 10
67.212426756
 20
157.072027449
 30
0.0
 11
67.256004628
 21
157.570124798
 31
0.0
  0
CIRCLE
  8
0
  6
CONTINUOUS
 62
     2
 10
66.82175
 20
155.475
 30
0.0
 40
1.75
  0
LINE
  8
0
  6
CONTINUOUS
 62
     2
 10
66.7236595
 20
157.222248767
 30
0.0
 11
66.616279197
 21
155.994886285
 31
0.0
  0
ARC
  8
0
  6
CONTINUOUS
 62
     2
 10
66.367230522
 20
156.01667522
 30
0.0
 40
0.25
 50
265.0
 51
355.0
  0
LINE
  8
0
  6
CONTINUOUS
 62
     2
 10
66.345441587
 20
155.767626546
 30
0.0
 11
65.82243937
 21
155.813383311
 31
0.0
  0
LINE
  8
0
  6
CONTINUOUS
 62
     2
 10
65.82243937
 20
155.813383311
 30
0.0
 11
65.778861499
 21
155.315285962
 31
0.0
  0
LINE
  8
0
  6
CONTINUOUS
 62
     2
 10
65.778861499
 20
155.315285962
 30
0.0
 11
66.301863715
 21
155.269529197
 31
0.0
  0
ARC
  8
0
  6
CONTINUOUS
 62
     2
 10
66.28007478
 20
155.020480522
 30
0.0
 40
0.25
 50
355.0
 51
85.0
  0
LINE
  8
0
  6
CONTINUOUS
 62
     2
 10
66.529123454
 20
154.998691587
 30
0.0
 11
66.421743151
 21
153.771329104
 31
0.0
  0
LINE
  8
0
  6
CONTINUOUS
 62
     2
 10
67.027220803
 20
154.955113715
 30
0.0
 11
66.9198405
 21
153.727751233
 31
0.0
  0
ARC
  8
0
  6
CONTINUOUS
 62
     2
 10
67.276269478
 20
154.93332478
 30
0.0
 40
0.25
 50
85.0
 51
175.0
  0
LINE
  8
0
  6
CONTINUOUS
 62
     2
 10
67.82106063
 20
155.136616689
 30
0.0
 11
67.298058413
 21
155.182373454
 31
0.0
  0
LINE
  8
0
  6
CONTINUOUS
 62
     2
 10
67.864638501
 20
155.634714038
 30
0.0
 11
67.82106063
 21
155.136616689
 31
0.0
  0
LINE
  8
0
  6
CONTINUOUS
 62
     2
 10
67.341636285
 20
155.680470803
 30
0.0
 11
67.864638501
 21
155.634714038
 31
0.0
  0
ARC
  8
0
  6
CONTINUOUS
 62
     2
 10
67.36342522
 20
155.929519478
 30
0.0
 40
0.25
 50
175.0
 51
265.0
  0
LINE
  8
0
  6
CONTINUOUS
 62
     2
 10
67.221756849
 20
157.178670896
 30
0.0
 11
67.114376546
 21
155.951308413
 31
0.0
  0
LINE
  8
0
  6
CONTINUOUS
 62
     2
 10
68.960452669
 20
155.538842721
 30
0.0
 11
68.568998767
 21
155.5730905
 31
0.0
  0
LINE
  8
0
  6
CONTINUOUS
 62
     2
 10
68.525420896
 20
155.074993151
 30
0.0
 11
68.916874798
 21
155.040745372
 31
0.0
  0
LINE
  8
0
  6
CONTINUOUS
 62
     2
 10
65.118079104
 20
155.875006849
 30
0.0
 11
64.726625202
 21
155.909254628
 31
0.0
  0
LINE
  8
0
  6
CONTINUOUS
 62
     2
 10
64.683047331
 20
155.411157279
 30
0.0
 11
65.074501233
 21
155.3769095
 31
0.0
  0
ARC
  8
0
  6
CONTINUOUS
 62
     2
 10
65.117301959
 20
157.506282077
 30
0.0
 40
0.25
 50
85.0
 51
175.0
  0
LINE
  8
0
  6
CONTINUOUS
 62
     2
 10
64.868253284
 20
157.528071012
 30
0.0
 11
64.541419249
 21
153.792340894
 31
0.0
  0
ARC
  8
0
  6
CONTINUOUS
 62
     2
 10
64.790467923
 20
153.770551959
 30
0.0
 40
0.25
 50
175.0
 51
265.0
  0
LINE
  8
0
  6
CONTINUOUS
 62
     2
 10
68.874821012
 20
157.428496716
 30
0.0
 11
65.139090894
 21
157.755330751
 31
0.0
  0
ARC
  8
0
  6
CONTINUOUS
 62
     2
 10
68.853032077
 20
157.179448041
 30
0.0
 40
0.25
 50
355.0
 51
85.0
  0
LINE
  8
0
  6
CONTINUOUS
 62
     2
 10
64.768678988
 20
153.521503284
 30
0.0
 11
68.504409106
 21
153.194669249
 31
0.0
  0
LINE
  8
0
  6
CONTINUOUS
 62
     2
 10
68.775246716
 20
153.421928988
 30
0.0
 11
69.102080751
 21
157.157659106
 31
0.0
  0
ARC
  8
0
  6
CONTINUOUS
 62
     2
 10
68.526198041
 20
153.443717923
 30
0.0
 40
0.25
 50
265.0
 51
355.0
  0
LINE
  8
0
  6
CONTINUOUS
 62
     2
 10
47.217
 20
153.1
 30
0.0
 11
47.217
 21
160.1
 31
0.0
  0
LINE
  8
0
  6
CONTINUOUS
 62
     2
 10
46.467
 20
160.1
 30
0.0
 11
46.467
 21
153.1
 31
0.0
  0
LINE
  8
0
  6
CONTINUOUS
 62
     2
 10
46.217
 20
159.1
 30
0.0
 11
46.217
 21
160.1
 31
0.0
  0
LINE
  8
0
  6
CONTINUOUS
 62
     2
 10
46.467
 20
159.1
 30
0.0
 11
46.217
 21
159.1
 31
0.0
  0
LINE
  8
0
  6
CONTINUOUS
 62
     2
 10
47.467
 20
159.1
 30
0.0
 11
47.467
 21
160.1
 31
0.0
  0
LINE
  8
0
  6
CONTINUOUS
 62
     2
 10
47.217
 20
159.1
 30
0.0
 11
47.467
 21
159.1
 31
0.0
  0
LINE
  8
0
  6
CONTINUOUS
 62
     2
 10
47.467
 20
160.1
 30
0.0
 11
46.217
 21
160.1
 31
0.0
  0
LINE
  8
0
  6
CONTINUOUS
 62
     2
 10
52.9255
 20
153.1
 30
0.0
 11
52.9255
 21
160.1
 31
0.0
  0
LINE
  8
0
  6
CONTINUOUS
 62
     2
 10
52.1755
 20
160.1
 30
0.0
 11
52.1755
 21
153.1
 31
0.0
  0
LINE
  8
0
  6
CONTINUOUS
 62
     2
 10
51.9255
 20
159.1
 30
0.0
 11
51.9255
 21
160.1
 31
0.0
  0
LINE
  8
0
  6
CONTINUOUS
 62
     2
 10
52.1755
 20
159.1
 30
0.0
 11
51.9255
 21
159.1
 31
0.0
  0
LINE
  8
0
  6
CONTINUOUS
 62
     2
 10
53.1755
 20
159.1
 30
0.0
 11
53.1755
 21
160.1
 31
0.0
  0
LINE
  8
0
  6
CONTINUOUS
 62
     2
 10
52.9255
 20
159.1
 30
0.0
 11
53.1755
 21
159.1
 31
0.0
  0
LINE
  8
0
  6
CONTINUOUS
 62
     2
 10
53.1755
 20
160.1
 30
0.0
 11
51.9255
 21
160.1
 31
0.0
  0
LINE
  8
0
  6
CONTINUOUS
 62
     2
 10
58.634
 20
153.1
 30
0.0
 11
58.634
 21
160.1
 31
0.0
  0
LINE
  8
0
  6
CONTINUOUS
 62
     2
 10
57.884
 20
160.1
 30
0.0
 11
57.884
 21
153.1
 31
0.0
  0
LINE
  8
0
  6
CONTINUOUS
 62
     2
 10
57.634
 20
159.1
 30
0.0
 11
57.634
 21
160.1
 31
0.0
  0
LINE
  8
0
  6
CONTINUOUS
 62
     2
 10
57.884
 20
159.1
 30
0.0
 11
57.634
 21
159.1
 31
0.0
  0
LINE
  8
0
  6
CONTINUOUS
 62
     2
 10
58.884
 20
159.1
 30
0.0
 11
58.884
 21
160.1
 31
0.0
  0
LINE
  8
0
  6
CONTINUOUS
 62
     2
 10
58.634
 20
159.1
 30
0.0
 11
58.884
 21
159.1
 31
0.0
  0
LINE
  8
0
  6
CONTINUOUS
 62
     2
 10
58.884
 20
160.1
 30
0.0
 11
57.634
 21
160.1
 31
0.0
  0
LINE
  8
0
  6
CONTINUOUS
 62
     2
 10
64.3425
 20
153.1
 30
0.0
 11
64.3425
 21
160.1
 31
0.0
  0
LINE
  8
0
  6
CONTINUOUS
 62
     2
 10
63.5925
 20
160.1
 30
0.0
 11
63.5925
 21
153.1
 31
0.0
  0
LINE
  8
0
  6
CONTINUOUS
 62
     2
 10
63.3425
 20
159.1
 30
0.0
 11
63.3425
 21
160.1
 31
0.0
  0
LINE
  8
0
  6
CONTINUOUS
 62
     2
 10
63.5925
 20
159.1
 30
0.0
 11
63.3425
 21
159.1
 31
0.0
  0
LINE
  8
0
  6
CONTINUOUS
 62
     2
 10
64.5925
 20
159.1
 30
0.0
 11
64.5925
 21
160.1
 31
0.0
  0
LINE
  8
0
  6
CONTINUOUS
 62
     2
 10
64.3425
 20
159.1
 30
0.0
 11
64.5925
 21
159.1
 31
0.0
  0
LINE
  8
0
  6
CONTINUOUS
 62
     2
 10
64.5925
 20
160.1
 30
0.0
 11
63.3425
 21
160.1
 31
0.0
  0
LINE
  8
0
  6
CONTINUOUS
 62
     2
 10
69.3
 20
160.1
 30
0.0
 11
70.05
 21
160.1
 31
0.0
  0
LINE
  8
0
  6
CONTINUOUS
 62
     2
 10
41.5085
 20
150.1
 30
0.0
 11
41.5085
 21
143.1
 31
0.0
  0
LINE
  8
0
  6
CONTINUOUS
 62
     2
 10
40.7585
 20
143.1
 30
0.0
 11
40.7585
 21
150.1
 31
0.0
  0
LINE
  8
0
  6
CONTINUOUS
 62
     2
 10
40.5085
 20
144.1
 30
0.0
 11
40.5085
 21
143.1
 31
0.0
  0
LINE
  8
0
  6
CONTINUOUS
 62
     2
 10
40.7585
 20
144.1
 30
0.0
 11
40.5085
 21
144.1
 31
0.0
  0
LINE
  8
0
  6
CONTINUOUS
 62
     2
 10
41.7585
 20
144.1
 30
0.0
 11
41.7585
 21
143.1
 31
0.0
  0
LINE
  8
0
  6
CONTINUOUS
 62
     2
 10
41.5085
 20
144.1
 30
0.0
 11
41.7585
 21
144.1
 31
0.0
  0
LINE
  8
0
  6
CONTINUOUS
 62
     2
 10
41.7585
 20
143.1
 30
0.0
 11
40.5085
 21
143.1
 31
0.0
  0
LINE
  8
0
  6
CONTINUOUS
 62
     2
 10
47.217
 20
150.1
 30
0.0
 11
47.217
 21
143.1
 31
0.0
  0
LINE
  8
0
  6
CONTINUOUS
 62
     2
 10
46.467
 20
143.1
 30
0.0
 11
46.467
 21
150.1
 31
0.0
  0
LINE
  8
0
  6
CONTINUOUS
 62
     2
 10
46.217
 20
144.1
 30
0.0
 11
46.217
 21
143.1
 31
0.0
  0
LINE
  8
0
  6
CONTINUOUS
 62
     2
 10
46.467
 20
144.1
 30
0.0
 11
46.217
 21
144.1
 31
0.0
  0
LINE
  8
0
  6
CONTINUOUS
 62
     2
 10
47.467
 20
144.1
 30
0.0
 11
47.467
 21
143.1
 31
0.0
  0
LINE
  8
0
  6
CONTINUOUS
 62
     2
 10
47.217
 20
144.1
 30
0.0
 11
47.467
 21
144.1
 31
0.0
  0
LINE
  8
0
  6
CONTINUOUS
 62
     2
 10
47.467
 20
143.1
 30
0.0
 11
46.217
 21
143.1
 31
0.0
  0
LINE
  8
0
  6
CONTINUOUS
 62
     2
 10
52.9255
 20
150.1
 30
0.0
 11
52.9255
 21
143.1
 31
0.0
  0
LINE
  8
0
  6
CONTINUOUS
 62
     2
 10
52.1755
 20
143.1
 30
0.0
 11
52.1755
 21
150.1
 31
0.0
  0
LINE
  8
0
  6
CONTINUOUS
 62
     2
 10
51.9255
 20
144.1
 30
0.0
 11
51.9255
 21
143.1
 31
0.0
  0
LINE
  8
0
  6
CONTINUOUS
 62
     2
 10
52.1755
 20
144.1
 30
0.0
 11
51.9255
 21
144.1
 31
0.0
  0
LINE
  8
0
  6
CONTINUOUS
 62
     2
 10
53.1755
 20
144.1
 30
0.0
 11
53.1755
 21
143.1
 31
0.0
  0
LINE
  8
0
  6
CONTINUOUS
 62
     2
 10
52.9255
 20
144.1
 30
0.0
 11
53.1755
 21
144.1
 31
0.0
  0
LINE
  8
0
  6
CONTINUOUS
 62
     2
 10
53.1755
 20
143.1
 30
0.0
 11
51.9255
 21
143.1
 31
0.0
  0
LINE
  8
0
  6
CONTINUOUS
 62
     2
 10
58.634
 20
150.1
 30
0.0
 11
58.634
 21
143.1
 31
0.0
  0
LINE
  8
0
  6
CONTINUOUS
 62
     2
 10
57.884
 20
143.1
 30
0.0
 11
57.884
 21
150.1
 31
0.0
  0
LINE
  8
0
  6
CONTINUOUS
 62
     2
 10
57.634
 20
144.1
 30
0.0
 11
57.634
 21
143.1
 31
0.0
  0
LINE
  8
0
  6
CONTINUOUS
 62
     2
 10
57.884
 20
144.1
 30
0.0
 11
57.634
 21
144.1
 31
0.0
  0
LINE
  8
0
  6
CONTINUOUS
 62
     2
 10
58.884
 20
144.1
 30
0.0
 11
58.884
 21
143.1
 31
0.0
  0
LINE
  8
0
  6
CONTINUOUS
 62
     2
 10
58.634
 20
144.1
 30
0.0
 11
58.884
 21
144.1
 31
0.0
  0
LINE
  8
0
  6
CONTINUOUS
 62
     2
 10
58.884
 20
143.1
 30
0.0
 11
57.634
 21
143.1
 31
0.0
  0
LINE
  8
0
  6
CONTINUOUS
 62
     2
 10
64.3425
 20
150.1
 30
0.0
 11
64.3425
 21
143.1
 31
0.0
  0
LINE
  8
0
  6
CONTINUOUS
 62
     2
 10
63.5925
 20
143.1
 30
0.0
 11
63.5925
 21
150.1
 31
0.0
  0
LINE
  8
0
  6
CONTINUOUS
 62
     2
 10
63.3425
 20
144.1
 30
0.0
 11
63.3425
 21
143.1
 31
0.0
  0
LINE
  8
0
  6
CONTINUOUS
 62
     2
 10
63.5925
 20
144.1
 30
0.0
 11
63.3425
 21
144.1
 31
0.0
  0
LINE
  8
0
  6
CONTINUOUS
 62
     2
 10
64.5925
 20
144.1
 30
0.0
 11
64.5925
 21
143.1
 31
0.0
  0
LINE
  8
0
  6
CONTINUOUS
 62
     2
 10
64.3425
 20
144.1
 30
0.0
 11
64.5925
 21
144.1
 31
0.0
  0
LINE
  8
0
  6
CONTINUOUS
 62
     2
 10
64.5925
 20
143.1
 30
0.0
 11
63.3425
 21
143.1
 31
0.0
  0
LINE
  8
0
  6
CONTINUOUS
 62
     2
 10
69.3
 20
143.1
 30
0.0
 11
70.05
 21
143.1
 31
0.0
  0
LINE
  8
0
  6
CONTINUOUS
 62
     2
 10
35.05
 20
143.1
 30
0.0
 11
35.8
 21
143.1
 31
0.0
  0
LINE
  8
0
  6
CONTINUOUS
 62
     2
 10
37.888164756
 20
145.629875202
 30
0.0
 11
37.931742627
 21
146.127972551
 31
0.0
  0
LINE
  8
0
  6
CONTINUOUS
 62
     2
 10
38.429839976
 20
146.08439468
 30
0.0
 11
38.386262105
 21
145.586297331
 31
0.0
  0
LINE
  8
0
  6
CONTINUOUS
 62
     2
 10
38.258576662
 20
149.863702669
 30
0.0
 11
38.214998791
 21
149.36560532
 31
0.0
  0
LINE
  8
0
  6
CONTINUOUS
 62
     2
 10
38.71309614
 20
149.322027449
 30
0.0
 11
38.756674011
 21
149.820124798
 31
0.0
  0
CIRCLE
  8
0
  6
CONTINUOUS
 62
     2
 10
38.322419384
 20
147.725
 30
0.0
 40
1.75
  0
LINE
  8
0
  6
CONTINUOUS
 62
     2
 10
38.224328884
 20
149.472248767
 30
0.0
 11
38.11694858
 21
148.244886285
 31
0.0
  0
ARC
  8
0
  6
CONTINUOUS
 62
     2
 10
37.867899906
 20
148.26667522
 30
0.0
 40
0.25
 50
265.0
 51
355.0
  0
LINE
  8
0
  6
CONTINUOUS
 62
     2
 10
37.84611097
 20
148.017626546
 30
0.0
 11
37.323108754
 21
148.063383311
 31
0.0
  0
LINE
  8
0
  6
CONTINUOUS
 62
     2
 10
37.323108754
 20
148.063383311
 30
0.0
 11
37.279530882
 21
147.565285962
 31
0.0
  0
LINE
  8
0
  6
CONTINUOUS
 62
     2
 10
37.279530882
 20
147.565285962
 30
0.0
 11
37.802533099
 21
147.519529197
 31
0.0
  0
ARC
  8
0
  6
CONTINUOUS
 62
     2
 10
37.780744163
 20
147.270480522
 30
0.0
 40
0.25
 50
355.0
 51
85.0
  0
LINE
  8
0
  6
CONTINUOUS
 62
     2
 10
38.029792838
 20
147.248691587
 30
0.0
 11
37.922412534
 21
146.021329104
 31
0.0
  0
LINE
  8
0
  6
CONTINUOUS
 62
     2
 10
38.527890187
 20
147.205113715
 30
0.0
 11
38.420509883
 21
145.977751233
 31
0.0
  0
ARC
  8
0
  6
CONTINUOUS
 62
     2
 10
38.776938861
 20
147.18332478
 30
0.0
 40
0.25
 50
85.0
 51
175.0
  0
LINE
  8
0
  6
CONTINUOUS
 62
     2
 10
39.321730013
 20
147.386616689
 30
0.0
 11
38.798727797
 21
147.432373454
 31
0.0
  0
LINE
  8
0
  6
CONTINUOUS
 62
     2
 10
39.365307885
 20
147.884714038
 30
0.0
 11
39.321730013
 21
147.386616689
 31
0.0
  0
LINE
  8
0
  6
CONTINUOUS
 62
     2
 10
38.842305668
 20
147.930470803
 30
0.0
 11
39.365307885
 21
147.884714038
 31
0.0
  0
ARC
  8
0
  6
CONTINUOUS
 62
     2
 10
38.864094604
 20
148.179519478
 30
0.0
 40
0.25
 50
175.0
 51
265.0
  0
LINE
  8
0
  6
CONTINUOUS
 62
     2
 10
38.722426233
 20
149.428670896
 30
0.0
 11
38.615045929
 21
148.201308413
 31
0.0
  0
LINE
  8
0
  6
CONTINUOUS
 62
     2
 10
40.461122053
 20
147.788842721
 30
0.0
 11
40.069668151
 21
147.8230905
 31
0.0
  0
LINE
  8
0
  6
CONTINUOUS
 62
     2
 10
40.026090279
 20
147.324993151
 30
0.0
 11
40.417544181
 21
147.290745372
 31
0.0
  0
LINE
  8
0
  6
CONTINUOUS
 62
     2
 10
36.618748488
 20
148.125006849
 30
0.0
 11
36.227294586
 21
148.159254628
 31
0.0
  0
LINE
  8
0
  6
CONTINUOUS
 62
     2
 10
36.183716714
 20
147.661157279
 30
0.0
 11
36.575170616
 21
147.6269095
 31
0.0
  0
ARC
  8
0
  6
CONTINUOUS
 62
     2
 10
36.617971342
 20
149.756282077
 30
0.0
 40
0.25
 50
85.0
 51
175.0
  0
LINE
  8
0
  6
CONTINUOUS
 62
     2
 10
36.368922668
 20
149.778071012
 30
0.0
 11
36.042088632
 21
146.042340894
 31
0.0
  0
ARC
  8
0
  6
CONTINUOUS
 62
     2
 10
36.291137307
 20
146.020551959
 30
0.0
 40
0.25
 50
175.0
 51
265.0
  0
LINE
  8
0
  6
CONTINUOUS
 62
     2
 10
40.375490396
 20
149.678496716
 30
0.0
 11
36.639760278
 21
150.005330751
 31
0.0
  0
ARC
  8
0
  6
CONTINUOUS
 62
     2
 10
40.35370146
 20
149.429448041
 30
0.0
 40
0.25
 50
355.0
 51
85.0
  0
LINE
  8
0
  6
CONTINUOUS
 62
     2
 10
36.269348371
 20
145.771503284
 30
0.0
 11
40.005078489
 21
145.444669249
 31
0.0
  0
LINE
  8
0
  6
CONTINUOUS
 62
     2
 10
40.275916099
 20
145.671928988
 30
0.0
 11
40.602750135
 21
149.407659106
 31
0.0
  0
ARC
  8
0
  6
CONTINUOUS
 62
     2
 10
40.026867425
 20
145.693717923
 30
0.0
 40
0.25
 50
265.0
 51
355.0
  0
LINE
  8
0
  6
CONTINUOUS
 62
     2
 10
43.596664756
 20
145.629875202
 30
0.0
 11
43.640242627
 21
146.127972551
 31
0.0
  0
LINE
  8
0
  6
CONTINUOUS
 62
     2
 10
44.138339976
 20
146.08439468
 30
0.0
 11
44.094762105
 21
145.586297331
 31
0.0
  0
LINE
  8
0
  6
CONTINUOUS
 62
     2
 10
43.967076662
 20
149.863702669
 30
0.0
 11
43.923498791
 21
149.36560532
 31
0.0
  0
LINE
  8
0
  6
CONTINUOUS
 62
     2
 10
44.42159614
 20
149.322027449
 30
0.0
 11
44.465174011
 21
149.820124798
 31
0.0
  0
CIRCLE
  8
0
  6
CONTINUOUS
 62
     2
 10
44.030919384
 20
147.725
 30
0.0
 40
1.75
  0
LINE
  8
0
  6
CONTINUOUS
 62
     2
 10
43.932828884
 20
149.472248767
 30
0.0
 11
43.82544858
 21
148.244886285
 31
0.0
  0
ARC
  8
0
  6
CONTINUOUS
 62
     2
 10
43.576399906
 20
148.26667522
 30
0.0
 40
0.25
 50
265.0
 51
355.0
  0
LINE
  8
0
  6
CONTINUOUS
 62
     2
 10
43.55461097
 20
148.017626546
 30
0.0
 11
43.031608754
 21
148.063383311
 31
0.0
  0
LINE
  8
0
  6
CONTINUOUS
 62
     2
 10
43.031608754
 20
148.063383311
 30
0.0
 11
42.988030882
 21
147.565285962
 31
0.0
  0
LINE
  8
0
  6
CONTINUOUS
 62
     2
 10
42.988030882
 20
147.565285962
 30
0.0
 11
43.511033099
 21
147.519529197
 31
0.0
  0
ARC
  8
0
  6
CONTINUOUS
 62
     2
 10
43.489244163
 20
147.270480522
 30
0.0
 40
0.25
 50
355.0
 51
85.0
  0
LINE
  8
0
  6
CONTINUOUS
 62
     2
 10
43.738292838
 20
147.248691587
 30
0.0
 11
43.630912534
 21
146.021329104
 31
0.0
  0
LINE
  8
0
  6
CONTINUOUS
 62
     2
 10
44.236390187
 20
147.205113715
 30
0.0
 11
44.129009883
 21
145.977751233
 31
0.0
  0
ARC
  8
0
  6
CONTINUOUS
 62
     2
 10
44.485438861
 20
147.18332478
 30
0.0
 40
0.25
 50
85.0
 51
175.0
  0
LINE
  8
0
  6
CONTINUOUS
 62
     2
 10
45.030230013
 20
147.386616689
 30
0.0
 11
44.507227797
 21
147.432373454
 31
0.0
  0
LINE
  8
0
  6
CONTINUOUS
 62
     2
 10
45.073807885
 20
147.884714038
 30
0.0
 11
45.030230013
 21
147.386616689
 31
0.0
  0
LINE
  8
0
  6
CONTINUOUS
 62
     2
 10
44.550805668
 20
147.930470803
 30
0.0
 11
45.073807885
 21
147.884714038
 31
0.0
  0
ARC
  8
0
  6
CONTINUOUS
 62
     2
 10
44.572594604
 20
148.179519478
 30
0.0
 40
0.25
 50
175.0
 51
265.0
  0
LINE
  8
0
  6
CONTINUOUS
 62
     2
 10
44.430926233
 20
149.428670896
 30
0.0
 11
44.323545929
 21
148.201308413
 31
0.0
  0
LINE
  8
0
  6
CONTINUOUS
 62
     2
 10
46.169622053
 20
147.788842721
 30
0.0
 11
45.778168151
 21
147.8230905
 31
0.0
  0
LINE
  8
0
  6
CONTINUOUS
 62
     2
 10
45.734590279
 20
147.324993151
 30
0.0
 11
46.126044181
 21
147.290745372
 31
0.0
  0
LINE
  8
0
  6
CONTINUOUS
 62
     2
 10
42.327248488
 20
148.125006849
 30
0.0
 11
41.935794586
 21
148.159254628
 31
0.0
  0
LINE
  8
0
  6
CONTINUOUS
 62
     2
 10
41.892216714
 20
147.661157279
 30
0.0
 11
42.283670616
 21
147.6269095
 31
0.0
  0
ARC
  8
0
  6
CONTINUOUS
 62
     2
 10
42.326471342
 20
149.756282077
 30
0.0
 40
0.25
 50
85.0
 51
175.0
  0
LINE
  8
0
  6
CONTINUOUS
 62
     2
 10
42.077422668
 20
149.778071012
 30
0.0
 11
41.750588632
 21
146.042340894
 31
0.0
  0
ARC
  8
0
  6
CONTINUOUS
 62
     2
 10
41.999637307
 20
146.020551959
 30
0.0
 40
0.25
 50
175.0
 51
265.0
  0
LINE
  8
0
  6
CONTINUOUS
 62
     2
 10
46.083990396
 20
149.678496716
 30
0.0
 11
42.348260278
 21
150.005330751
 31
0.0
  0
ARC
  8
0
  6
CONTINUOUS
 62
     2
 10
46.06220146
 20
149.429448041
 30
0.0
 40
0.25
 50
355.0
 51
85.0
  0
LINE
  8
0
  6
CONTINUOUS
 62
     2
 10
41.977848371
 20
145.771503284
 30
0.0
 11
45.713578489
 21
145.444669249
 31
0.0
  0
LINE
  8
0
  6
CONTINUOUS
 62
     2
 10
45.984416099
 20
145.671928988
 30
0.0
 11
46.311250135
 21
149.407659106
 31
0.0
  0
ARC
  8
0
  6
CONTINUOUS
 62
     2
 10
45.735367425
 20
145.693717923
 30
0.0
 40
0.25
 50
265.0
 51
355.0
  0
LINE
  8
0
  6
CONTINUOUS
 62
     2
 10
49.305164756
 20
145.629875202
 30
0.0
 11
49.348742627
 21
146.127972551
 31
0.0
  0
LINE
  8
0
  6
CONTINUOUS
 62
     2
 10
49.846839976
 20
146.08439468
 30
0.0
 11
49.803262105
 21
145.586297331
 31
0.0
  0
LINE
  8
0
  6
CONTINUOUS
 62
     2
 10
49.675576662
 20
149.863702669
 30
0.0
 11
49.631998791
 21
149.36560532
 31
0.0
  0
LINE
  8
0
  6
CONTINUOUS
 62
     2
 10
50.13009614
 20
149.322027449
 30
0.0
 11
50.173674011
 21
149.820124798
 31
0.0
  0
CIRCLE
  8
0
  6
CONTINUOUS
 62
     2
 10
49.739419384
 20
147.725
 30
0.0
 40
1.75
  0
LINE
  8
0
  6
CONTINUOUS
 62
     2
 10
49.641328884
 20
149.472248767
 30
0.0
 11
49.53394858
 21
148.244886285
 31
0.0
  0
ARC
  8
0
  6
CONTINUOUS
 62
     2
 10
49.284899906
 20
148.26667522
 30
0.0
 40
0.25
 50
265.0
 51
355.0
  0
LINE
  8
0
  6
CONTINUOUS
 62
     2
 10
49.26311097
 20
148.017626546
 30
0.0
 11
48.740108754
 21
148.063383311
 31
0.0
  0
LINE
  8
0
  6
CONTINUOUS
 62
     2
 10
48.740108754
 20
148.063383311
 30
0.0
 11
48.696530882
 21
147.565285962
 31
0.0
  0
LINE
  8
0
  6
CONTINUOUS
 62
     2
 10
48.696530882
 20
147.565285962
 30
0.0
 11
49.219533099
 21
147.519529197
 31
0.0
  0
ARC
  8
0
  6
CONTINUOUS
 62
     2
 10
49.197744163
 20
147.270480522
 30
0.0
 40
0.25
 50
355.0
 51
85.0
  0
LINE
  8
0
  6
CONTINUOUS
 62
     2
 10
49.446792838
 20
147.248691587
 30
0.0
 11
49.339412534
 21
146.021329104
 31
0.0
  0
LINE
  8
0
  6
CONTINUOUS
 62
     2
 10
49.944890187
 20
147.205113715
 30
0.0
 11
49.837509883
 21
145.977751233
 31
0.0
  0
ARC
  8
0
  6
CONTINUOUS
 62
     2
 10
50.193938861
 20
147.18332478
 30
0.0
 40
0.25
 50
85.0
 51
175.0
  0
LINE
  8
0
  6
CONTINUOUS
 62
     2
 10
50.738730013
 20
147.386616689
 30
0.0
 11
50.215727797
 21
147.432373454
 31
0.0
  0
LINE
  8
0
  6
CONTINUOUS
 62
     2
 10
50.782307885
 20
147.884714038
 30
0.0
 11
50.738730013
 21
147.386616689
 31
0.0
  0
LINE
  8
0
  6
CONTINUOUS
 62
     2
 10
50.259305668
 20
147.930470803
 30
0.0
 11
50.782307885
 21
147.884714038
 31
0.0
  0
ARC
  8
0
  6
CONTINUOUS
 62
     2
 10
50.281094604
 20
148.179519478
 30
0.0
 40
0.25
 50
175.0
 51
265.0
  0
LINE
  8
0
  6
CONTINUOUS
 62
     2
 10
50.139426233
 20
149.428670896
 30
0.0
 11
50.032045929
 21
148.201308413
 31
0.0
  0
LINE
  8
0
  6
CONTINUOUS
 62
     2
 10
51.878122053
 20
147.788842721
 30
0.0
 11
51.486668151
 21
147.8230905
 31
0.0
  0
LINE
  8
0
  6
CONTINUOUS
 62
     2
 10
51.443090279
 20
147.324993151
 30
0.0
 11
51.834544181
 21
147.290745372
 31
0.0
  0
LINE
  8
0
  6
CONTINUOUS
 62
     2
 10
48.035748488
 20
148.125006849
 30
0.0
 11
47.644294586
 21
148.159254628
 31
0.0
  0
LINE
  8
0
  6
CONTINUOUS
 62
     2
 10
47.600716714
 20
147.661157279
 30
0.0
 11
47.992170616
 21
147.6269095
 31
0.0
  0
ARC
  8
0
  6
CONTINUOUS
 62
     2
 10
48.034971342
 20
149.756282077
 30
0.0
 40
0.25
 50
85.0
 51
175.0
  0
LINE
  8
0
  6
CONTINUOUS
 62
     2
 10
47.785922668
 20
149.778071012
 30
0.0
 11
47.459088632
 21
146.042340894
 31
0.0
  0
ARC
  8
0
  6
CONTINUOUS
 62
     2
 10
47.708137307
 20
146.020551959
 30
0.0
 40
0.25
 50
175.0
 51
265.0
  0
LINE
  8
0
  6
CONTINUOUS
 62
     2
 10
51.792490396
 20
149.678496716
 30
0.0
 11
48.056760278
 21
150.005330751
 31
0.0
  0
ARC
  8
0
  6
CONTINUOUS
 62
     2
 10
51.77070146
 20
149.429448041
 30
0.0
 40
0.25
 50
355.0
 51
85.0
  0
LINE
  8
0
  6
CONTINUOUS
 62
     2
 10
47.686348371
 20
145.771503284
 30
0.0
 11
51.422078489
 21
145.444669249
 31
0.0
  0
LINE
  8
0
  6
CONTINUOUS
 62
     2
 10
51.692916099
 20
145.671928988
 30
0.0
 11
52.019750135
 21
149.407659106
 31
0.0
  0
ARC
  8
0
  6
CONTINUOUS
 62
     2
 10
51.443867425
 20
145.693717923
 30
0.0
 40
0.25
 50
265.0
 51
355.0
  0
LINE
  8
0
  6
CONTINUOUS
 62
     2
 10
55.013664756
 20
145.629875202
 30
0.0
 11
55.057242627
 21
146.127972551
 31
0.0
  0
LINE
  8
0
  6
CONTINUOUS
 62
     2
 10
55.555339976
 20
146.08439468
 30
0.0
 11
55.511762105
 21
145.586297331
 31
0.0
  0
LINE
  8
0
  6
CONTINUOUS
 62
     2
 10
55.384076662
 20
149.863702669
 30
0.0
 11
55.340498791
 21
149.36560532
 31
0.0
  0
LINE
  8
0
  6
CONTINUOUS
 62
     2
 10
55.83859614
 20
149.322027449
 30
0.0
 11
55.882174011
 21
149.820124798
 31
0.0
  0
CIRCLE
  8
0
  6
CONTINUOUS
 62
     2
 10
55.447919384
 20
147.725
 30
0.0
 40
1.75
  0
LINE
  8
0
  6
CONTINUOUS
 62
     2
 10
55.349828884
 20
149.472248767
 30
0.0
 11
55.24244858
 21
148.244886285
 31
0.0
  0
ARC
  8
0
  6
CONTINUOUS
 62
     2
 10
54.993399906
 20
148.26667522
 30
0.0
 40
0.25
 50
265.0
 51
355.0
  0
LINE
  8
0
  6
CONTINUOUS
 62
     2
 10
54.97161097
 20
148.017626546
 30
0.0
 11
54.448608754
 21
148.063383311
 31
0.0
  0
LINE
  8
0
  6
CONTINUOUS
 62
     2
 10
54.448608754
 20
148.063383311
 30
0.0
 11
54.405030882
 21
147.565285962
 31
0.0
  0
LINE
  8
0
  6
CONTINUOUS
 62
     2
 10
54.405030882
 20
147.565285962
 30
0.0
 11
54.928033099
 21
147.519529197
 31
0.0
  0
ARC
  8
0
  6
CONTINUOUS
 62
     2
 10
54.906244163
 20
147.270480522
 30
0.0
 40
0.25
 50
355.0
 51
85.0
  0
LINE
  8
0
  6
CONTINUOUS
 62
     2
 10
55.155292838
 20
147.248691587
 30
0.0
 11
55.047912534
 21
146.021329104
 31
0.0
  0
LINE
  8
0
  6
CONTINUOUS
 62
     2
 10
55.653390187
 20
147.205113715
 30
0.0
 11
55.546009883
 21
145.977751233
 31
0.0
  0
ARC
  8
0
  6
CONTINUOUS
 62
     2
 10
55.902438861
 20
147.18332478
 30
0.0
 40
0.25
 50
85.0
 51
175.0
  0
LINE
  8
0
  6
CONTINUOUS
 62
     2
 10
56.447230013
 20
147.386616689
 30
0.0
 11
55.924227797
 21
147.432373454
 31
0.0
  0
LINE
  8
0
  6
CONTINUOUS
 62
     2
 10
56.490807885
 20
147.884714038
 30
0.0
 11
56.447230013
 21
147.386616689
 31
0.0
  0
LINE
  8
0
  6
CONTINUOUS
 62
     2
 10
55.967805668
 20
147.930470803
 30
0.0
 11
56.490807885
 21
147.884714038
 31
0.0
  0
ARC
  8
0
  6
CONTINUOUS
 62
     2
 10
55.989594604
 20
148.179519478
 30
0.0
 40
0.25
 50
175.0
 51
265.0
  0
LINE
  8
0
  6
CONTINUOUS
 62
     2
 10
55.847926233
 20
149.428670896
 30
0.0
 11
55.740545929
 21
148.201308413
 31
0.0
  0
LINE
  8
0
  6
CONTINUOUS
 62
     2
 10
57.586622053
 20
147.788842721
 30
0.0
 11
57.195168151
 21
147.8230905
 31
0.0
  0
LINE
  8
0
  6
CONTINUOUS
 62
     2
 10
57.151590279
 20
147.324993151
 30
0.0
 11
57.543044181
 21
147.290745372
 31
0.0
  0
LINE
  8
0
  6
CONTINUOUS
 62
     2
 10
53.744248488
 20
148.125006849
 30
0.0
 11
53.352794586
 21
148.159254628
 31
0.0
  0
LINE
  8
0
  6
CONTINUOUS
 62
     2
 10
53.309216714
 20
147.661157279
 30
0.0
 11
53.700670616
 21
147.6269095
 31
0.0
  0
ARC
  8
0
  6
CONTINUOUS
 62
     2
 10
53.743471342
 20
149.756282077
 30
0.0
 40
0.25
 50
85.0
 51
175.0
  0
LINE
  8
0
  6
CONTINUOUS
 62
     2
 10
53.494422668
 20
149.778071012
 30
0.0
 11
53.167588632
 21
146.042340894
 31
0.0
  0
ARC
  8
0
  6
CONTINUOUS
 62
     2
 10
53.416637307
 20
146.020551959
 30
0.0
 40
0.25
 50
175.0
 51
265.0
  0
LINE
  8
0
  6
CONTINUOUS
 62
     2
 10
57.500990396
 20
149.678496716
 30
0.0
 11
53.765260278
 21
150.005330751
 31
0.0
  0
ARC
  8
0
  6
CONTINUOUS
 62
     2
 10
57.47920146
 20
149.429448041
 30
0.0
 40
0.25
 50
355.0
 51
85.0
  0
LINE
  8
0
  6
CONTINUOUS
 62
     2
 10
53.394848371
 20
145.771503284
 30
0.0
 11
57.130578489
 21
145.444669249
 31
0.0
  0
LINE
  8
0
  6
CONTINUOUS
 62
     2
 10
57.401416099
 20
145.671928988
 30
0.0
 11
57.728250135
 21
149.407659106
 31
0.0
  0
ARC
  8
0
  6
CONTINUOUS
 62
     2
 10
57.152367425
 20
145.693717923
 30
0.0
 40
0.25
 50
265.0
 51
355.0
  0
LINE
  8
0
  6
CONTINUOUS
 62
     2
 10
60.722164756
 20
145.629875202
 30
0.0
 11
60.765742627
 21
146.127972551
 31
0.0
  0
LINE
  8
0
  6
CONTINUOUS
 62
     2
 10
61.263839976
 20
146.08439468
 30
0.0
 11
61.220262105
 21
145.586297331
 31
0.0
  0
LINE
  8
0
  6
CONTINUOUS
 62
     2
 10
61.092576662
 20
149.863702669
 30
0.0
 11
61.048998791
 21
149.36560532
 31
0.0
  0
LINE
  8
0
  6
CONTINUOUS
 62
     2
 10
61.54709614
 20
149.322027449
 30
0.0
 11
61.590674011
 21
149.820124798
 31
0.0
  0
CIRCLE
  8
0
  6
CONTINUOUS
 62
     2
 10
61.156419384
 20
147.725
 30
0.0
 40
1.75
  0
LINE
  8
0
  6
CONTINUOUS
 62
     2
 10
61.058328884
 20
149.472248767
 30
0.0
 11
60.95094858
 21
148.244886285
 31
0.0
  0
ARC
  8
0
  6
CONTINUOUS
 62
     2
 10
60.701899906
 20
148.26667522
 30
0.0
 40
0.25
 50
265.0
 51
355.0
  0
LINE
  8
0
  6
CONTINUOUS
 62
     2
 10
60.68011097
 20
148.017626546
 30
0.0
 11
60.157108754
 21
148.063383311
 31
0.0
  0
LINE
  8
0
  6
CONTINUOUS
 62
     2
 10
60.157108754
 20
148.063383311
 30
0.0
 11
60.113530882
 21
147.565285962
 31
0.0
  0
LINE
  8
0
  6
CONTINUOUS
 62
     2
 10
60.113530882
 20
147.565285962
 30
0.0
 11
60.636533099
 21
147.519529197
 31
0.0
  0
ARC
  8
0
  6
CONTINUOUS
 62
     2
 10
60.614744163
 20
147.270480522
 30
0.0
 40
0.25
 50
355.0
 51
85.0
  0
LINE
  8
0
  6
CONTINUOUS
 62
     2
 10
60.863792838
 20
147.248691587
 30
0.0
 11
60.756412534
 21
146.021329104
 31
0.0
  0
LINE
  8
0
  6
CONTINUOUS
 62
     2
 10
61.361890187
 20
147.205113715
 30
0.0
 11
61.254509883
 21
145.977751233
 31
0.0
  0
ARC
  8
0
  6
CONTINUOUS
 62
     2
 10
61.610938861
 20
147.18332478
 30
0.0
 40
0.25
 50
85.0
 51
175.0
  0
LINE
  8
0
  6
CONTINUOUS
 62
     2
 10
62.155730013
 20
147.386616689
 30
0.0
 11
61.632727797
 21
147.432373454
 31
0.0
  0
LINE
  8
0
  6
CONTINUOUS
 62
     2
 10
62.199307885
 20
147.884714038
 30
0.0
 11
62.155730013
 21
147.386616689
 31
0.0
  0
LINE
  8
0
  6
CONTINUOUS
 62
     2
 10
61.676305668
 20
147.930470803
 30
0.0
 11
62.199307885
 21
147.884714038
 31
0.0
  0
ARC
  8
0
  6
CONTINUOUS
 62
     2
 10
61.698094604
 20
148.179519478
 30
0.0
 40
0.25
 50
175.0
 51
265.0
  0
LINE
  8
0
  6
CONTINUOUS
 62
     2
 10
61.556426233
 20
149.428670896
 30
0.0
 11
61.449045929
 21
148.201308413
 31
0.0
  0
LINE
  8
0
  6
CONTINUOUS
 62
     2
 10
63.295122053
 20
147.788842721
 30
0.0
 11
62.903668151
 21
147.8230905
 31
0.0
  0
LINE
  8
0
  6
CONTINUOUS
 62
     2
 10
62.860090279
 20
147.324993151
 30
0.0
 11
63.251544181
 21
147.290745372
 31
0.0
  0
LINE
  8
0
  6
CONTINUOUS
 62
     2
 10
59.452748488
 20
148.125006849
 30
0.0
 11
59.061294586
 21
148.159254628
 31
0.0
  0
LINE
  8
0
  6
CONTINUOUS
 62
     2
 10
59.017716714
 20
147.661157279
 30
0.0
 11
59.409170616
 21
147.6269095
 31
0.0
  0
ARC
  8
0
  6
CONTINUOUS
 62
     2
 10
59.451971342
 20
149.756282077
 30
0.0
 40
0.25
 50
85.0
 51
175.0
  0
LINE
  8
0
  6
CONTINUOUS
 62
     2
 10
59.202922668
 20
149.778071012
 30
0.0
 11
58.876088632
 21
146.042340894
 31
0.0
  0
ARC
  8
0
  6
CONTINUOUS
 62
     2
 10
59.125137307
 20
146.020551959
 30
0.0
 40
0.25
 50
175.0
 51
265.0
  0
LINE
  8
0
  6
CONTINUOUS
 62
     2
 10
63.209490396
 20
149.678496716
 30
0.0
 11
59.473760278
 21
150.005330751
 31
0.0
  0
ARC
  8
0
  6
CONTINUOUS
 62
     2
 10
63.18770146
 20
149.429448041
 30
0.0
 40
0.25
 50
355.0
 51
85.0
  0
LINE
  8
0
  6
CONTINUOUS
 62
     2
 10
59.103348371
 20
145.771503284
 30
0.0
 11
62.839078489
 21
145.444669249
 31
0.0
  0
LINE
  8
0
  6
CONTINUOUS
 62
     2
 10
63.109916099
 20
145.671928988
 30
0.0
 11
63.436750135
 21
149.407659106
 31
0.0
  0
ARC
  8
0
  6
CONTINUOUS
 62
     2
 10
62.860867425
 20
145.693717923
 30
0.0
 40
0.25
 50
265.0
 51
355.0
  0
LINE
  8
0
  6
CONTINUOUS
 62
     2
 10
66.430664756
 20
145.629875202
 30
0.0
 11
66.474242627
 21
146.127972551
 31
0.0
  0
LINE
  8
0
  6
CONTINUOUS
 62
     2
 10
66.972339976
 20
146.08439468
 30
0.0
 11
66.928762105
 21
145.586297331
 31
0.0
  0
LINE
  8
0
  6
CONTINUOUS
 62
     2
 10
66.801076662
 20
149.863702669
 30
0.0
 11
66.757498791
 21
149.36560532
 31
0.0
  0
LINE
  8
0
  6
CONTINUOUS
 62
     2
 10
67.25559614
 20
149.322027449
 30
0.0
 11
67.299174011
 21
149.820124798
 31
0.0
  0
CIRCLE
  8
0
  6
CONTINUOUS
 62
     2
 10
66.864919384
 20
147.725
 30
0.0
 40
1.75
  0
LINE
  8
0
  6
CONTINUOUS
 62
     2
 10
66.766828884
 20
149.472248767
 30
0.0
 11
66.65944858
 21
148.244886285
 31
0.0
  0
ARC
  8
0
  6
CONTINUOUS
 62
     2
 10
66.410399906
 20
148.26667522
 30
0.0
 40
0.25
 50
265.0
 51
355.0
  0
LINE
  8
0
  6
CONTINUOUS
 62
     2
 10
66.38861097
 20
148.017626546
 30
0.0
 11
65.865608754
 21
148.063383311
 31
0.0
  0
LINE
  8
0
  6
CONTINUOUS
 62
     2
 10
65.865608754
 20
148.063383311
 30
0.0
 11
65.822030882
 21
147.565285962
 31
0.0
  0
LINE
  8
0
  6
CONTINUOUS
 62
     2
 10
65.822030882
 20
147.565285962
 30
0.0
 11
66.345033099
 21
147.519529197
 31
0.0
  0
ARC
  8
0
  6
CONTINUOUS
 62
     2
 10
66.323244163
 20
147.270480522
 30
0.0
 40
0.25
 50
355.0
 51
85.0
  0
LINE
  8
0
  6
CONTINUOUS
 62
     2
 10
66.572292838
 20
147.248691587
 30
0.0
 11
66.464912534
 21
146.021329104
 31
0.0
  0
LINE
  8
0
  6
CONTINUOUS
 62
     2
 10
67.070390187
 20
147.205113715
 30
0.0
 11
66.963009883
 21
145.977751233
 31
0.0
  0
ARC
  8
0
  6
CONTINUOUS
 62
     2
 10
67.319438861
 20
147.18332478
 30
0.0
 40
0.25
 50
85.0
 51
175.0
  0
LINE
  8
0
  6
CONTINUOUS
 62
     2
 10
67.864230013
 20
147.386616689
 30
0.0
 11
67.341227797
 21
147.432373454
 31
0.0
  0
LINE
  8
0
  6
CONTINUOUS
 62
     2
 10
67.907807885
 20
147.884714038
 30
0.0
 11
67.864230013
 21
147.386616689
 31
0.0
  0
LINE
  8
0
  6
CONTINUOUS
 62
     2
 10
67.384805668
 20
147.930470803
 30
0.0
 11
67.907807885
 21
147.884714038
 31
0.0
  0
ARC
  8
0
  6
CONTINUOUS
 62
     2
 10
67.406594604
 20
148.179519478
 30
0.0
 40
0.25
 50
175.0
 51
265.0
  0
LINE
  8
0
  6
CONTINUOUS
 62
     2
 10
67.264926233
 20
149.428670896
 30
0.0
 11
67.157545929
 21
148.201308413
 31
0.0
  0
LINE
  8
0
  6
CONTINUOUS
 62
     2
 10
69.003622053
 20
147.788842721
 30
0.0
 11
68.612168151
 21
147.8230905
 31
0.0
  0
LINE
  8
0
  6
CONTINUOUS
 62
     2
 10
68.568590279
 20
147.324993151
 30
0.0
 11
68.960044181
 21
147.290745372
 31
0.0
  0
LINE
  8
0
  6
CONTINUOUS
 62
     2
 10
65.161248488
 20
148.125006849
 30
0.0
 11
64.769794586
 21
148.159254628
 31
0.0
  0
LINE
  8
0
  6
CONTINUOUS
 62
     2
 10
64.726216714
 20
147.661157279
 30
0.0
 11
65.117670616
 21
147.6269095
 31
0.0
  0
ARC
  8
0
  6
CONTINUOUS
 62
     2
 10
65.160471342
 20
149.756282077
 30
0.0
 40
0.25
 50
85.0
 51
175.0
  0
LINE
  8
0
  6
CONTINUOUS
 62
     2
 10
64.911422668
 20
149.778071012
 30
0.0
 11
64.584588632
 21
146.042340894
 31
0.0
  0
ARC
  8
0
  6
CONTINUOUS
 62
     2
 10
64.833637307
 20
146.020551959
 30
0.0
 40
0.25
 50
175.0
 51
265.0
  0
LINE
  8
0
  6
CONTINUOUS
 62
     2
 10
68.917990396
 20
149.678496716
 30
0.0
 11
65.182260278
 21
150.005330751
 31
0.0
  0
ARC
  8
0
  6
CONTINUOUS
 62
     2
 10
68.89620146
 20
149.429448041
 30
0.0
 40
0.25
 50
355.0
 51
85.0
  0
LINE
  8
0
  6
CONTINUOUS
 62
     2
 10
64.811848371
 20
145.771503284
 30
0.0
 11
68.547578489
 21
145.444669249
 31
0.0
  0
LINE
  8
0
  6
CONTINUOUS
 62
     2
 10
68.818416099
 20
145.671928988
 30
0.0
 11
69.145250135
 21
149.407659106
 31
0.0
  0
ARC
  8
0
  6
CONTINUOUS
 62
     2
 10
68.569367425
 20
145.693717923
 30
0.0
 40
0.25
 50
265.0
 51
355.0
  0
LINE
  8
0
  6
CONTINUOUS
 62
     2
 10
35.8
 20
145.35
 30
0.0
 11
40.7585
 21
145.35
 31
0.0
  0
LINE
  8
0
  6
CONTINUOUS
 62
     2
 10
41.5085
 20
145.35
 30
0.0
 11
46.467
 21
145.35
 31
0.0
  0
LINE
  8
0
  6
CONTINUOUS
 62
     2
 10
47.217
 20
145.35
 30
0.0
 11
52.1755
 21
145.35
 31
0.0
  0
LINE
  8
0
  6
CONTINUOUS
 62
     2
 10
52.9255
 20
145.35
 30
0.0
 11
57.884
 21
145.35
 31
0.0
  0
LINE
  8
0
  6
CONTINUOUS
 62
     2
 10
58.634
 20
145.35
 30
0.0
 11
63.5925
 21
145.35
 31
0.0
  0
LINE
  8
0
  6
CONTINUOUS
 62
     2
 10
64.3425
 20
145.35
 30
0.0
 11
69.301
 21
145.35
 31
0.0
  0
LINE
  8
0
  6
CONTINUOUS
 62
     2
 10
33.675
 20
153.85
 30
0.0
 11
33.675
 21
149.35
 31
0.0
  0
LINE
  8
0
  6
CONTINUOUS
 62
     2
 10
33.675
 20
150.6
 30
0.0
 11
34.55
 21
150.6
 31
0.0
  0
LINE
  8
0
  6
CONTINUOUS
 62
     2
 10
35.05
 20
152.6
 30
0.0
 11
33.675
 21
152.6
 31
0.0
  0
LINE
  8
0
  6
CONTINUOUS
 62
     2
 10
71.425
 20
153.85
 30
0.0
 11
71.425
 21
149.35
 31
0.0
  0
LINE
  8
0
  6
CONTINUOUS
 62
     2
 10
71.425
 20
150.6
 30
0.0
 11
70.55
 21
150.6
 31
0.0
  0
LINE
  8
0
  6
CONTINUOUS
 62
     2
 10
70.05
 20
152.6
 30
0.0
 11
71.425
 21
152.6
 31
0.0
  0
CIRCLE
  8
0
  6
CONTINUOUS
 62
     2
 10
72.11275
 20
156.1
 30
0.0
 40
1.75
  0
ARC
  8
0
  6
CONTINUOUS
 62
     2
 10
71.61275
 20
156.6
 30
0.0
 40
0.25
 50
270.0
 51
0.0
  0
LINE
  8
0
  6
CONTINUOUS
 62
     2
 10
71.61275
 20
156.35
 30
0.0
 11
71.08775
 21
156.35
 31
0.0
  0
LINE
  8
0
  6
CONTINUOUS
 62
     2
 10
71.08775
 20
156.35
 30
0.0
 11
71.08775
 21
155.85
 31
0.0
  0
LINE
  8
0
  6
CONTINUOUS
 62
     2
 10
71.08775
 20
155.85
 30
0.0
 11
71.61275
 21
155.85
 31
0.0
  0
ARC
  8
0
  6
CONTINUOUS
 62
     2
 10
71.61275
 20
155.6
 30
0.0
 40
0.25
 50
0.0
 51
90.0
  0
ARC
  8
0
  6
CONTINUOUS
 62
     2
 10
72.61275
 20
155.6
 30
0.0
 40
0.25
 50
90.0
 51
180.0
  0
LINE
  8
0
  6
CONTINUOUS
 62
     2
 10
73.13775
 20
155.85
 30
0.0
 11
72.61275
 21
155.85
 31
0.0
  0
LINE
  8
0
  6
CONTINUOUS
 62
     2
 10
73.13775
 20
156.35
 30
0.0
 11
73.13775
 21
155.85
 31
0.0
  0
LINE
  8
0
  6
CONTINUOUS
 62
     2
 10
72.61275
 20
156.35
 30
0.0
 11
73.13775
 21
156.35
 31
0.0
  0
ARC
  8
0
  6
CONTINUOUS
 62
     2
 10
72.61275
 20
156.6
 30
0.0
 40
0.25
 50
180.0
 51
270.0
  0
LINE
  8
0
  6
CONTINUOUS
 62
     2
 10
72.36275
 20
157.125
 30
0.0
 11
72.36275
 21
156.6
 31
0.0
  0
LINE
  8
0
  6
CONTINUOUS
 62
     2
 10
71.86275
 20
157.125
 30
0.0
 11
72.36275
 21
157.125
 31
0.0
  0
LINE
  8
0
  6
CONTINUOUS
 62
     2
 10
71.86275
 20
156.6
 30
0.0
 11
71.86275
 21
157.125
 31
0.0
  0
LINE
  8
0
  6
CONTINUOUS
 62
     2
 10
72.36275
 20
155.075
 30
0.0
 11
72.36275
 21
155.6
 31
0.0
  0
LINE
  8
0
  6
CONTINUOUS
 62
     2
 10
71.86275
 20
155.075
 30
0.0
 11
72.36275
 21
155.075
 31
0.0
  0
LINE
  8
0
  6
CONTINUOUS
 62
     2
 10
71.86275
 20
155.6
 30
0.0
 11
71.86275
 21
155.075
 31
0.0
  0
CIRCLE
  8
0
  6
CONTINUOUS
 62
     2
 10
32.98825
 20
147.1
 30
0.0
 40
1.75
  0
ARC
  8
0
  6
CONTINUOUS
 62
     2
 10
33.48825
 20
146.6
 30
0.0
 40
0.25
 50
90.0
 51
180.0
  0
LINE
  8
0
  6
CONTINUOUS
 62
     2
 10
33.48825
 20
146.85
 30
0.0
 11
34.01325
 21
146.85
 31
0.0
  0
LINE
  8
0
  6
CONTINUOUS
 62
     2
 10
34.01325
 20
146.85
 30
0.0
 11
34.01325
 21
147.35
 31
0.0
  0
LINE
  8
0
  6
CONTINUOUS
 62
     2
 10
34.01325
 20
147.35
 30
0.0
 11
33.48825
 21
147.35
 31
0.0
  0
ARC
  8
0
  6
CONTINUOUS
 62
     2
 10
33.48825
 20
147.6
 30
0.0
 40
0.25
 50
180.0
 51
270.0
  0
ARC
  8
0
  6
CONTINUOUS
 62
     2
 10
32.48825
 20
147.6
 30
0.0
 40
0.25
 50
270.0
 51
0.0
  0
LINE
  8
0
  6
CONTINUOUS
 62
     2
 10
31.96325
 20
147.35
 30
0.0
 11
32.48825
 21
147.35
 31
0.0
  0
LINE
  8
0
  6
CONTINUOUS
 62
     2
 10
31.96325
 20
146.85
 30
0.0
 11
31.96325
 21
147.35
 31
0.0
  0
LINE
  8
0
  6
CONTINUOUS
 62
     2
 10
32.48825
 20
146.85
 30
0.0
 11
31.96325
 21
146.85
 31
0.0
  0
ARC
  8
0
  6
CONTINUOUS
 62
     2
 10
32.48825
 20
146.6
 30
0.0
 40
0.25
 50
0.0
 51
90.0
  0
LINE
  8
0
  6
CONTINUOUS
 62
     2
 10
32.73825
 20
146.075
 30
0.0
 11
32.73825
 21
146.6
 31
0.0
  0
LINE
  8
0
  6
CONTINUOUS
 62
     2
 10
33.23825
 20
146.075
 30
0.0
 11
32.73825
 21
146.075
 31
0.0
  0
LINE
  8
0
  6
CONTINUOUS
 62
     2
 10
33.23825
 20
146.6
 30
0.0
 11
33.23825
 21
146.075
 31
0.0
  0
LINE
  8
0
  6
CONTINUOUS
 62
     2
 10
32.73825
 20
148.125
 30
0.0
 11
32.73825
 21
147.6
 31
0.0
  0
LINE
  8
0
  6
CONTINUOUS
 62
     2
 10
33.23825
 20
148.125
 30
0.0
 11
32.73825
 21
148.125
 31
0.0
  0
LINE
  8
0
  6
CONTINUOUS
 62
     2
 10
33.23825
 20
147.6
 30
0.0
 11
33.23825
 21
148.125
 31
0.0
  0
LINE
  8
0
  6
CONTINUOUS
 62
     2
 10
31.1755
 20
149.1
 30
0.0
 11
35.051
 21
149.1
 31
0.0
  0
ARC
  8
0
  6
CONTINUOUS
 62
     2
 10
31.1755
 20
148.85
 30
0.0
 40
0.25
 50
90.0
 51
180.0
  0
LINE
  8
0
  6
CONTINUOUS
 62
     2
 10
35.051
 20
145.1
 30
0.0
 11
31.1755
 21
145.1
 31
0.0
  0
LINE
  8
0
  6
CONTINUOUS
 62
     2
 10
30.9255
 20
145.35
 30
0.0
 11
30.9255
 21
148.85
 31
0.0
  0
ARC
  8
0
  6
CONTINUOUS
 62
     2
 10
31.1755
 20
145.35
 30
0.0
 40
0.25
 50
180.0
 51
270.0
  0
LINE
  8
0
  6
CONTINUOUS
 62
     2
 10
70.05
 20
158.1
 30
0.0
 11
73.9255
 21
158.1
 31
0.0
  0
ARC
  8
0
  6
CONTINUOUS
 62
     2
 10
73.9255
 20
157.85
 30
0.0
 40
0.25
 50
0.0
 51
90.0
  0
LINE
  8
0
  6
CONTINUOUS
 62
     2
 10
73.9255
 20
154.1
 30
0.0
 11
70.05
 21
154.1
 31
0.0
  0
LINE
  8
0
  6
CONTINUOUS
 62
     2
 10
74.1755
 20
157.85
 30
0.0
 11
74.1755
 21
154.35
 31
0.0
  0
ARC
  8
0
  6
CONTINUOUS
 62
     2
 10
73.9255
 20
154.35
 30
0.0
 40
0.25
 50
270.0
 51
0.0
  0
LINE
  8
0
  6
CONTINUOUS
 62
     2
 10
57.884
 20
157.6
 30
0.0
 11
58.634
 21
157.6
 31
0.0
  0
LINE
  8
0
  6
CONTINUOUS
 62
     2
 10
63.5925
 20
157.6
 30
0.0
 11
64.3425
 21
157.6
 31
0.0
  0
LINE
  8
0
  6
CONTINUOUS
 62
     2
 10
69.301
 20
157.6
 30
0.0
 11
70.051
 21
157.6
 31
0.0
  0
LINE
  8
0
  6
CONTINUOUS
 62
     2
 10
52.1755
 20
157.6
 30
0.0
 11
52.9255
 21
157.6
 31
0.0
  0
LINE
  8
0
  6
CONTINUOUS
 62
     2
 10
46.467
 20
157.6
 30
0.0
 11
47.217
 21
157.6
 31
0.0
  0
LINE
  8
0
  6
CONTINUOUS
 62
     2
 10
40.7585
 20
157.6
 30
0.0
 11
41.5085
 21
157.6
 31
0.0
  0
LINE
  8
0
  6
CONTINUOUS
 62
     2
 10
35.05
 20
157.6
 30
0.0
 11
35.8
 21
157.6
 31
0.0
  0
LINE
  8
0
  6
CONTINUOUS
 62
     2
 10
69.301
 20
145.6
 30
0.0
 11
70.051
 21
145.6
 31
0.0
  0
LINE
  8
0
  6
CONTINUOUS
 62
     2
 10
63.5925
 20
145.6
 30
0.0
 11
64.3425
 21
145.6
 31
0.0
  0
LINE
  8
0
  6
CONTINUOUS
 62
     2
 10
57.884
 20
145.6
 30
0.0
 11
58.634
 21
145.6
 31
0.0
  0
LINE
  8
0
  6
CONTINUOUS
 62
     2
 10
52.1755
 20
145.6
 30
0.0
 11
52.9255
 21
145.6
 31
0.0
  0
LINE
  8
0
  6
CONTINUOUS
 62
     2
 10
46.467
 20
145.6
 30
0.0
 11
47.217
 21
145.6
 31
0.0
  0
LINE
  8
0
  6
CONTINUOUS
 62
     2
 10
40.7585
 20
145.6
 30
0.0
 11
41.5085
 21
145.6
 31
0.0
  0
LINE
  8
0
  6
CONTINUOUS
 62
     2
 10
35.05
 20
145.6
 30
0.0
 11
35.8
 21
145.6
 31
0.0
  0
ARC
  8
0
  6
CONTINUOUS
 62
     2
 10
38.8
 20
135.35
 30
0.0
 40
1.2
 50
192.024699181
 51
298.084423867
  0
ARC
  8
0
  6
CONTINUOUS
 62
     2
 10
66.3
 20
135.35
 30
0.0
 40
1.2
 50
241.915576133
 51
347.975300819
  0
ARC
  8
0
  6
CONTINUOUS
 62
     2
 10
66.3
 20
167.85
 30
0.0
 40
1.2
 50
12.024699181
 51
118.084423867
  0
ARC
  8
0
  6
CONTINUOUS
 62
     2
 10
38.8
 20
167.85
 30
0.0
 40
1.2
 50
61.915576133
 51
167.975300819
  0
TEXT
  8
0
  6
CONTINUOUS
 62
     2
 10
37.15
 20
150.3
 30
0.25
 40
2.5
  1
Ｕ
 50
0.0
 41
0.9
 51
0.0
  7
KANJI8
  0
TEXT
  8
0
  6
CONTINUOUS
 62
     2
 10
48.567
 20
150.3
 30
0.25
 40
2.5
  1
Ｖ
 50
0.0
 41
0.9
 51
0.0
  7
KANJI8
  0
TEXT
  8
0
  6
CONTINUOUS
 62
     2
 10
59.984
 20
150.5
 30
0.25
 40
2.5
  1
ｕ
 50
0.0
 41
0.9
 51
0.0
  7
KANJI8
  0
TEXT
  8
0
  6
CONTINUOUS
 62
     2
 10
65.6925
 20
150.5
 30
0.25
 40
2.5
  1
ｖ
 50
0.0
 41
0.9
 51
0.0
  7
KANJI8
  0
LINE
  8
0
  6
LTYPE1
 62
     2
 10
63.9675
 20
152.6
 30
0.0
 11
63.9675
 21
150.6
 31
0.0
  0
LINE
  8
0
  6
LTYPE1
 62
     2
 10
58.259
 20
152.6
 30
0.0
 11
58.259
 21
150.6
 31
0.0
  0
LINE
  8
0
  6
LTYPE1
 62
     2
 10
52.5505
 20
152.6
 30
0.0
 11
52.5505
 21
150.6
 31
0.0
  0
LINE
  8
0
  6
LTYPE1
 62
     2
 10
46.842
 20
152.6
 30
0.0
 11
46.842
 21
150.6
 31
0.0
  0
LINE
  8
0
  6
LTYPE1
 62
     2
 10
41.1335
 20
152.6
 30
0.0
 11
41.1335
 21
150.6
 31
0.0
  0
ARC
  8
2
  6
CONTINUOUS
 62
     2
 10
48.122779992
 20
145.615638795
 30
0.0
 40
13.993185714
 50
302.026681939
 51
358.828536539
  0
ARC
  8
2
  6
CONTINUOUS
 62
     2
 10
41.717178931
 20
133.058056558
 30
0.0
 40
1.023456452
 50
216.849031177
 51
27.253614508
  0
ARC
  8
2
  6
CONTINUOUS
 62
     2
 10
51.835847919
 20
142.494656535
 30
0.0
 40
14.85403672
 50
168.105988435
 51
222.579226902
  0
ARC
  8
2
  6
CONTINUOUS
 62
     2
 10
51.835847919
 20
142.494656535
 30
0.0
 40
12.85403672
 50
168.105988435
 51
224.240693722
  0
ARC
  8
2
  6
CONTINUOUS
 62
     2
 10
49.15121243
 20
135.345600534
 30
0.0
 40
1.034186243
 50
193.737968745
 51
31.684898895
  0
ARC
  8
2
  6
CONTINUOUS
 62
     2
 10
55.256994542
 20
134.770268422
 30
0.0
 40
1.057633179
 50
103.32428899
 51
285.721023567
  0
ARC
  8
2
  6
CONTINUOUS
 62
     2
 10
58.887425647
 20
135.049549148
 30
0.0
 40
1.003135621
 50
124.326456845
 51
304.981438825
  0
LINE
  8
0
  6
CONTINUOUS
 62
     1
 10
28.8
 20
135.1
 30
0.0
 11
39.030303993
 21
135.1
 31
0.0
  0
LINE
  8
0
  6
CONTINUOUS
 62
     1
 10
41.321794718
 20
135.1
 30
0.0
 11
48.146612229
 21
135.1
 31
0.0
  0
LINE
  8
0
  6
CONTINUOUS
 62
     1
 10
50.15581263
 20
135.1
 30
0.0
 11
53.889741436
 21
135.1
 31
0.0
  0
LINE
  8
0
  6
CONTINUOUS
 62
     1
 10
60.490070476
 20
135.1
 30
0.0
 11
76.3
 21
135.1
 31
0.0
  0
LINE
  8
0
  6
CONTINUOUS
 62
     1
 10
57.354821324
 20
135.1
 30
0.0
 11
57.885559496
 21
135.1
 31
0.0
  0
LINE
  8
3
  6
CONTINUOUS
 62
     5
 10
28.8
 20
169.1
 30
0.0
 11
28.8
 21
181.6
 31
0.0
  0
LINE
  8
3
  6
CONTINUOUS
 62
     5
 10
28.8
 20
179.6
 30
0.0
 11
31.214814566
 21
178.952952387
 31
0.0
  0
LINE
  8
3
  6
CONTINUOUS
 62
     5
 10
28.8
 20
179.6
 30
0.0
 11
31.214814566
 21
180.247047613
 31
0.0
  0
LINE
  8
3
  6
CONTINUOUS
 62
     5
 10
28.8
 20
179.6
 30
0.0
 11
76.3
 21
179.6
 31
0.0
  0
LINE
  8
3
  6
CONTINUOUS
 62
     5
 10
76.3
 20
179.6
 30
0.0
 11
73.885185434
 21
180.247047613
 31
0.0
  0
LINE
  8
3
  6
CONTINUOUS
 62
     5
 10
76.3
 20
179.6
 30
0.0
 11
73.885185434
 21
178.952952387
 31
0.0
  0
LINE
  8
3
  6
CONTINUOUS
 62
     5
 10
76.3
 20
169.1
 30
0.0
 11
76.3
 21
181.6
 31
0.0
  0
TEXT
  8
3
  6
CONTINUOUS
 62
     2
 10
51.65
 20
180.6
 30
0.3
 40
3.0
  1
Ａ
 50
0.0
 41
0.6
 51
0.0
  7
KANJI9
  0
LINE
  8
3
  6
CONTINUOUS
 62
     5
 10
42.800000731
 20
171.6
 30
0.0
 11
20.8
 21
171.6
 31
0.0
  0
LINE
  8
3
  6
CONTINUOUS
 62
     5
 10
22.8
 20
171.6
 30
0.0
 11
22.152952387
 21
169.185185434
 31
0.0
  0
LINE
  8
3
  6
CONTINUOUS
 62
     5
 10
22.8
 20
171.6
 30
0.0
 11
23.447047613
 21
169.185185434
 31
0.0
  0
LINE
  8
3
  6
CONTINUOUS
 62
     5
 10
22.8
 20
171.6
 30
0.0
 11
22.8
 21
131.6
 31
0.0
  0
LINE
  8
3
  6
CONTINUOUS
 62
     5
 10
22.8
 20
131.6
 30
0.0
 11
23.447047613
 21
134.014814566
 31
0.0
  0
LINE
  8
3
  6
CONTINUOUS
 62
     5
 10
22.8
 20
131.6
 30
0.0
 11
22.152952387
 21
134.014814566
 31
0.0
  0
LINE
  8
3
  6
CONTINUOUS
 62
     5
 10
42.800001133
 20
131.6
 30
0.0
 11
20.8
 21
131.6
 31
0.0
  0
TEXT
  8
3
  6
CONTINUOUS
 62
     2
 10
21.8
 20
150.7
 30
0.3
 40
3.0
  1
Ｂ
 50
90.0
 41
0.6
 51
0.0
  7
KANJI9
  0
LINE
  8
3
  6
LTYPE2
 62
     5
 10
23.8
 20
151.6
 30
0.0
 11
83.8
 21
151.6
 31
0.0
  0
LINE
  8
3
  6
LTYPE2
 62
     5
 10
38.27925
 20
158.475
 30
0.0
 11
38.27925
 21
152.475
 31
0.0
  0
LINE
  8
3
  6
LTYPE2
 62
     5
 10
43.98775
 20
158.475
 30
0.0
 11
43.98775
 21
152.475
 31
0.0
  0
LINE
  8
3
  6
LTYPE2
 62
     5
 10
49.69625
 20
158.475
 30
0.0
 11
49.69625
 21
152.475
 31
0.0
  0
LINE
  8
3
  6
LTYPE2
 62
     5
 10
55.40475
 20
158.475
 30
0.0
 11
55.40475
 21
152.475
 31
0.0
  0
LINE
  8
3
  6
LTYPE2
 62
     5
 10
61.11325
 20
158.475
 30
0.0
 11
61.11325
 21
152.475
 31
0.0
  0
LINE
  8
3
  6
LTYPE2
 62
     5
 10
66.82175
 20
158.475
 30
0.0
 11
66.82175
 21
152.475
 31
0.0
  0
LINE
  8
3
  6
LTYPE2
 62
     5
 10
35.37925
 20
155.475
 30
0.0
 11
69.78775
 21
155.475
 31
0.0
  0
LINE
  8
3
  6
LTYPE2
 62
     5
 10
38.27925
 20
144.725
 30
0.0
 11
38.27925
 21
150.725
 31
0.0
  0
LINE
  8
3
  6
LTYPE2
 62
     5
 10
43.98775
 20
144.725
 30
0.0
 11
43.98775
 21
150.725
 31
0.0
  0
LINE
  8
3
  6
LTYPE2
 62
     5
 10
49.69625
 20
144.725
 30
0.0
 11
49.69625
 21
150.725
 31
0.0
  0
LINE
  8
3
  6
LTYPE2
 62
     5
 10
55.40475
 20
144.725
 30
0.0
 11
55.40475
 21
150.725
 31
0.0
  0
LINE
  8
3
  6
LTYPE2
 62
     5
 10
61.11325
 20
144.725
 30
0.0
 11
61.11325
 21
150.725
 31
0.0
  0
LINE
  8
3
  6
LTYPE2
 62
     5
 10
66.82175
 20
144.725
 30
0.0
 11
66.82175
 21
150.725
 31
0.0
  0
LINE
  8
3
  6
LTYPE2
 62
     5
 10
35.37925
 20
147.725
 30
0.0
 11
69.78775
 21
147.725
 31
0.0
  0
LINE
  8
3
  6
LTYPE2
 62
     5
 10
69.81275
 20
156.1
 30
0.0
 11
74.41275
 21
156.1
 31
0.0
  0
LINE
  8
3
  6
LTYPE2
 62
     5
 10
72.11275
 20
158.8
 30
0.0
 11
72.11275
 21
153.4
 31
0.0
  0
LINE
  8
3
  6
LTYPE2
 62
     5
 10
30.38825
 20
147.1
 30
0.0
 11
35.58825
 21
147.1
 31
0.0
  0
LINE
  8
3
  6
LTYPE2
 62
     5
 10
32.98825
 20
149.7
 30
0.0
 11
32.98825
 21
144.5
 31
0.0
  0
LINE
  8
3
  6
LTYPE2
 62
     5
 10
33.5
 20
139.1
 30
0.0
 11
39.1
 21
139.1
 31
0.0
  0
LINE
  8
3
  6
LTYPE2
 62
     5
 10
36.3
 20
142.2
 30
0.0
 11
36.3
 21
136.0
 31
0.0
  0
LINE
  8
3
  6
LTYPE2
 62
     5
 10
65.5
 20
139.1
 30
0.0
 11
72.1
 21
139.1
 31
0.0
  0
LINE
  8
3
  6
LTYPE2
 62
     5
 10
68.8
 20
142.2
 30
0.0
 11
68.8
 21
136.0
 31
0.0
  0
CIRCLE
  8
3
  6
CONTINUOUS
 62
     2
 10
117.8
 20
164.65
 30
0.0
 40
1.0
  0
LINE
  8
3
  6
CONTINUOUS
 62
     2
 10
117.8
 20
158.65
 30
0.0
 11
117.8
 21
163.65
 31
0.0
  0
CIRCLE
  8
3
  6
CONTINUOUS
 62
     2
 10
117.8
 20
148.65
 30
0.0
 40
1.0
  0
LINE
  8
3
  6
CONTINUOUS
 62
     2
 10
117.8
 20
154.65
 30
0.0
 11
117.8
 21
149.65
 31
0.0
  0
CIRCLE
  8
3
  6
CONTINUOUS
 62
     2
 10
142.8
 20
164.65
 30
0.0
 40
1.0
  0
LINE
  8
3
  6
CONTINUOUS
 62
     2
 10
142.8
 20
163.65
 30
0.0
 11
142.8
 21
158.65
 31
0.0
  0
CIRCLE
  8
3
  6
CONTINUOUS
 62
     2
 10
142.8
 20
148.65
 30
0.0
 40
1.0
  0
LINE
  8
3
  6
CONTINUOUS
 62
     2
 10
142.8
 20
149.65
 30
0.0
 11
142.8
 21
154.65
 31
0.0
  0
LINE
  8
3
  6
CONTINUOUS
 62
     2
 10
142.8
 20
158.65
 30
0.0
 11
117.8
 21
158.65
 31
0.0
  0
LINE
  8
3
  6
CONTINUOUS
 62
     2
 10
142.8
 20
159.65
 30
0.0
 11
117.8
 21
159.65
 31
0.0
  0
LINE
  8
3
  6
CONTINUOUS
 62
     2
 10
142.8
 20
154.65
 30
0.0
 11
117.8
 21
154.65
 31
0.0
  0
LINE
  8
3
  6
CONTINUOUS
 62
     2
 10
142.8
 20
153.65
 30
0.0
 11
117.8
 21
153.65
 31
0.0
  0
TEXT
  8
3
  6
CONTINUOUS
 62
     2
 10
116.3
 20
166.65
 30
0.3
 40
3.0
  1
Ｕ
 50
0.0
 41
0.9
 51
0.0
  7
KANJI10
  0
TEXT
  8
3
  6
CONTINUOUS
 62
     2
 10
141.3
 20
166.65
 30
0.3
 40
3.0
  1
Ｖ
 50
0.0
 41
0.9
 51
0.0
  7
KANJI10
  0
TEXT
  8
3
  6
CONTINUOUS
 62
     2
 10
116.3
 20
144.65
 30
0.3
 40
3.0
  1
ｕ
 50
0.0
 41
0.9
 51
0.0
  7
KANJI10
  0
TEXT
  8
3
  6
CONTINUOUS
 62
     2
 10
141.3
 20
144.65
 30
0.3
 40
3.0
  1
ｖ
 50
0.0
 41
0.9
 51
0.0
  7
KANJI10
  0
LINE
  8
0
  6
CONTINUOUS
 62
     2
 10
216.0
 20
180.0
 30
0.0
 11
157.0
 21
180.0
 31
0.0
  0
LINE
  8
0
  6
CONTINUOUS
 62
     2
 10
216.0
 20
175.0
 30
0.0
 11
157.0
 21
175.0
 31
0.0
  0
LINE
  8
0
  6
CONTINUOUS
 62
     2
 10
216.0
 20
170.0
 30
0.0
 11
157.0
 21
170.0
 31
0.0
  0
LINE
  8
0
  6
CONTINUOUS
 62
     2
 10
216.0
 20
165.0
 30
0.0
 11
157.0
 21
165.0
 31
0.0
  0
LINE
  8
0
  6
CONTINUOUS
 62
     2
 10
216.0
 20
160.0
 30
0.0
 11
157.0
 21
160.0
 31
0.0
  0
LINE
  8
0
  6
CONTINUOUS
 62
     2
 10
216.0
 20
155.0
 30
0.0
 11
157.0
 21
155.0
 31
0.0
  0
LINE
  8
0
  6
CONTINUOUS
 62
     2
 10
216.0
 20
150.0
 30
0.0
 11
157.0
 21
150.0
 31
0.0
  0
LINE
  8
0
  6
CONTINUOUS
 62
     2
 10
216.0
 20
145.0
 30
0.0
 11
157.0
 21
145.0
 31
0.0
  0
LINE
  8
0
  6
CONTINUOUS
 62
     2
 10
216.0
 20
140.0
 30
0.0
 11
157.0
 21
140.0
 31
0.0
  0
TEXT
  8
0
  6
CONTINUOUS
 62
     2
 10
161.0
 20
176.0
 30
0.3
 40
3.0
  1
構　　　造
 50
0.0
 41
0.9
 51
0.0
  7
KANJI10
  0
TEXT
  8
0
  6
CONTINUOUS
 62
     2
 10
161.0
 20
171.0
 30
0.3
 40
3.0
  1
規　　　格
 50
0.0
 41
0.9
 51
0.0
  7
KANJI10
  0
TEXT
  8
0
  6
CONTINUOUS
 62
     2
 10
161.0
 20
146.0
 30
0.3
 40
3.0
  1
周　　波　　数
 50
0.0
 41
0.9
 51
0.0
  7
KANJI10
  0
TEXT
  8
0
  6
CONTINUOUS
 62
     2
 10
161.0
 20
166.0
 30
1.4
 40
3.0
  1
確度階級
 50
0.0
 41
0.9
 51
0.0
  7
KANJI11
  0
TEXT
  8
0
  6
CONTINUOUS
 62
     2
 10
182.0
 20
171.0
 30
0.3
 40
3.0
  1
ＪＩＳ　Ｃ　１７３１
 50
0.0
 41
0.9
 51
0.0
  7
KANJI10
  0
TEXT
  8
0
  6
CONTINUOUS
 62
     2
 10
182.0
 20
166.0
 30
0.3
 40
3.0
  1
１．０
 50
0.0
 41
0.9
 51
0.0
  7
KANJI10
  0
TEXT
  8
0
  6
CONTINUOUS
 62
     2
 10
182.0
 20
161.0
 30
0.3
 40
3.0
  1
６６０～１１０　Ｖ
 50
0.0
 41
0.9
 51
0.0
  7
KANJI10
  0
TEXT
  8
0
  6
CONTINUOUS
 62
     2
 10
182.0
 20
156.0
 30
0.3
 40
3.0
  1
１１０　Ｖ
 50
0.0
 41
0.9
 51
0.0
  7
KANJI10
  0
TEXT
  8
0
  6
CONTINUOUS
 62
     2
 10
161.0
 20
151.0
 30
1.4
 40
3.0
  1
相　　数
 50
0.0
 41
0.9
 51
0.0
  7
KANJI11
  0
TEXT
  8
0
  6
CONTINUOUS
 62
     2
 10
161.0
 20
161.0
 30
1.4
 40
3.0
  1
一次電圧
 50
0.0
 41
0.9
 51
0.0
  7
KANJI11
  0
TEXT
  8
0
  6
CONTINUOUS
 62
     2
 10
161.0
 20
156.0
 30
1.4
 40
3.0
  1
二次電圧
 50
0.0
 41
0.9
 51
0.0
  7
KANJI11
  0
TEXT
  8
0
  6
CONTINUOUS
 62
     2
 10
182.0
 20
151.0
 30
0.3
 40
3.0
  1
１
 50
0.0
 41
0.9
 51
0.0
  7
KANJI10
  0
TEXT
  8
0
  6
CONTINUOUS
 62
     2
 10
182.0
 20
146.0
 30
0.3
 40
3.0
  1
５０／６０　Ｈｚ
 50
0.0
 41
0.9
 51
0.0
  7
KANJI10
  0
TEXT
  8
0
  6
CONTINUOUS
 62
     2
 10
161.0
 20
141.0
 30
1.4
 40
3.0
  1
絶縁種別
 50
0.0
 41
0.9
 51
0.0
  7
KANJI11
  0
TEXT
  8
0
  6
CONTINUOUS
 62
     2
 10
182.0
 20
141.0
 30
0.3
 40
3.0
  1
Ａ種
 50
0.0
 41
0.9
 51
0.0
  7
KANJI10
  0
LINE
  8
0
  6
CONTINUOUS
 62
     2
 10
216.0
 20
130.0
 30
0.0
 11
157.0
 21
130.0
 31
0.0
  0
LINE
  8
0
  6
CONTINUOUS
 62
     2
 10
216.0
 20
130.0
 30
0.0
 11
216.0
 21
180.0
 31
0.0
  0
LINE
  8
0
  6
CONTINUOUS
 62
     2
 10
180.0
 20
180.0
 30
0.0
 11
180.0
 21
130.0
 31
0.0
  0
LINE
  8
0
  6
CONTINUOUS
 62
     2
 10
157.0
 20
180.0
 30
0.0
 11
157.0
 21
130.0
 31
0.0
  0
LINE
  8
0
  6
CONTINUOUS
 62
     2
 10
216.0
 20
135.0
 30
0.0
 11
180.0
 21
135.0
 31
0.0
  0
TEXT
  8
0
  6
CONTINUOUS
 62
     2
 10
161.0
 20
133.5
 30
0.3
 40
3.0
  1
備　　　考
 50
0.0
 41
0.9
 51
0.0
  7
KANJI10
  0
TEXT
  8
0
  6
CONTINUOUS
 62
     2
 10
181.0
 20
136.0
 30
0.3
 40
3.0
  1
端子カバー付
 50
0.0
 41
0.9
 51
0.0
  7
KANJI10
  0
TEXT
  8
0
  6
CONTINUOUS
 62
     2
 10
157.0
 20
125.0
 30
0.3
 40
3.0
  1
※上記仕様以外は外形寸法、端子構造が異なる
 50
0.0
 41
0.9
 51
0.0
  7
KANJI10
  0
TEXT
  8
0
  6
CONTINUOUS
 62
     2
 10
160.0
 20
120.0
 30
0.3
 40
3.0
  1
場合があります。
 50
0.0
 41
0.9
 51
0.0
  7
KANJI10
  0
LINE
  8
0
  6
CONTINUOUS
 62
     2
 10
216.0
 20
118.0
 30
0.0
 11
157.0
 21
118.0
 31
0.0
  0
LINE
  8
0
  6
CONTINUOUS
 62
     2
 10
216.0
 20
113.0
 30
0.0
 11
157.0
 21
113.0
 31
0.0
  0
LINE
  8
0
  6
CONTINUOUS
 62
     2
 10
216.0
 20
108.0
 30
0.0
 11
157.0
 21
108.0
 31
0.0
  0
TEXT
  8
0
  6
CONTINUOUS
 62
     2
 10
161.0
 20
109.0
 30
0.3
 40
3.0
  1
端　子　台
 50
0.0
 41
0.9
 51
0.0
  7
KANJI10
  0
TEXT
  8
0
  6
CONTINUOUS
 62
     2
 10
182.0
 20
114.0
 30
0.3
 40
3.0
  1
端子ビス
 50
0.0
 41
0.9
 51
0.0
  7
KANJI10
  0
LINE
  8
0
  6
CONTINUOUS
 62
     2
 10
216.0
 20
108.0
 30
0.0
 11
216.0
 21
118.0
 31
0.0
  0
LINE
  8
0
  6
CONTINUOUS
 62
     2
 10
180.0
 20
118.0
 30
0.0
 11
180.0
 21
108.0
 31
0.0
  0
LINE
  8
0
  6
CONTINUOUS
 62
     2
 10
157.0
 20
118.0
 30
0.0
 11
157.0
 21
108.0
 31
0.0
  0
TEXT
  8
0
  6
CONTINUOUS
 62
     2
 10
182.0
 20
109.0
 30
0.3
 40
3.0
  1
Ｍ４
 50
0.0
 41
0.9
 51
0.0
  7
KANJI10
  0
LINE
  8
0
  6
CONTINUOUS
 62
     2
 10
194.0
 20
118.0
 30
0.0
 11
194.0
 21
108.0
 31
0.0
  0
TEXT
  8
0
  6
CONTINUOUS
 62
     2
 10
196.5
 20
114.0
 30
0.3
 40
3.0
  1
適合圧着端子
 50
0.0
 41
0.9
 51
0.0
  7
KANJI10
  0
LINE
  8
0
  6
CONTINUOUS
 62
     2
 10
157.0
 20
118.0
 30
0.0
 11
180.0
 21
113.0
 31
0.0
  0
TEXT
  8
0
  6
CONTINUOUS
 62
     3
 10
234.0
 20
105.0
 30
0.6
 40
6.0
  1
１５００
 50
0.0
 41
0.9
 51
0.0
  7
KANJI12
  0
TEXT
  8
0
  6
CONTINUOUS
 62
     2
 10
273.0
 20
104.0
 30
0.35
 40
3.5
  1
　：
 50
0.0
 41
0.9
 51
0.0
  7
KANJI0
  0
TEXT
  8
0
  6
CONTINUOUS
 62
     1
 10
235.0
 20
95.0
 30
0.4
 40
4.0
  1
ＰＤ－１□Ｎｂ
 50
0.0
 41
0.9
 51
0.0
  7
KANJI13
  0
TEXT
  8
0
  6
CONTINUOUS
 62
     1
 10
235.0
 20
85.0
 30
0.4
 40
4.0
  1
計器用変圧器　外形図
 50
0.0
 41
0.9
 51
0.0
  7
KANJI13
  0
CIRCLE
  8
0
  6
CONTINUOUS
 62
     5
 10
72.11275
 20
156.1
 30
0.0
 40
2.0
  0
CIRCLE
  8
0
  6
CONTINUOUS
 62
     5
 10
32.98825
 20
147.1
 30
0.0
 40
2.0
  0
ARC
  8
2
  6
CONTINUOUS
 62
     2
 10
55.713210352
 20
140.030506608
 30
0.0
 40
7.031240367
 50
130.838903902
 51
214.960382824
  0
ARC
  8
3
  6
CONTINUOUS
 62
     2
 10
58.576738465
 20
139.955573777
 30
0.0
 40
11.504961104
 50
152.03849298
 51
204.963558191
  0
ARC
  8
2
  6
CONTINUOUS
 62
     2
 10
40.958592105
 20
157.064473684
 30
0.0
 40
29.392460795
 50
309.016725858
 51
336.512206306
  0
ARC
  8
2
  6
CONTINUOUS
 62
     2
 10
40.958592105
 20
157.064473684
 30
0.0
 40
27.392460795
 50
309.335951017
 51
334.681281352
  0
ARC
  8
2
  6
CONTINUOUS
 62
     2
 10
48.122779992
 20
145.615638795
 30
0.0
 40
11.993185714
 50
302.026681939
 51
358.730843754
  0
LINE
  8
0
  6
CONTINUOUS
 62
     2
 10
20.0
 20
47.0
 30
0.0
 11
20.0
 21
17.0
 31
0.0
  0
TEXT
  8
0
  6
CONTINUOUS
 62
     2
 10
21.0
 20
43.0
 30
0.3
 40
3.0
  1
定格負担
 50
0.0
 41
0.9
 51
0.0
  7
KANJI10
  0
LINE
  8
0
  6
CONTINUOUS
 62
     2
 10
34.0
 20
47.0
 30
0.0
 11
34.0
 21
17.0
 31
0.0
  0
TEXT
  8
0
  6
CONTINUOUS
 62
     2
 10
35.0
 20
33.0
 30
0.3
 40
3.0
  1
ＰＤ－１ＢＮｂ
 50
0.0
 41
0.9
 51
0.0
  7
KANJI10
  0
LINE
  8
0
  6
CONTINUOUS
 62
     2
 10
57.0
 20
47.0
 30
0.0
 11
57.0
 21
17.0
 31
0.0
  0
LINE
  8
0
  6
CONTINUOUS
 62
     2
 10
123.0
 20
47.0
 30
0.0
 11
123.0
 21
17.0
 31
0.0
  0
LINE
  8
0
  6
CONTINUOUS
 62
     2
 10
134.0
 20
47.0
 30
0.0
 11
134.0
 21
17.0
 31
0.0
  0
TEXT
  8
0
  6
CONTINUOUS
 62
     2
 10
102.0
 20
33.0
 30
0.3
 40
3.0
  1
１１７
 50
0.0
 41
0.9
 51
0.0
  7
KANJI10
  0
TEXT
  8
0
  6
CONTINUOUS
 62
     2
 10
114.0
 20
33.0
 30
0.3
 40
3.0
  1
４．８
 50
0.0
 41
0.9
 51
0.0
  7
KANJI10
  0
TEXT
  8
0
  6
CONTINUOUS
 62
     2
 10
125.0
 20
33.0
 30
0.3
 40
3.0
  1
２．２
 50
0.0
 41
0.9
 51
0.0
  7
KANJI10
  0
LINE
  8
0
  6
CONTINUOUS
 62
     2
 10
20.0
 20
17.0
 30
0.0
 11
134.0
 21
17.0
 31
0.0
  0
LINE
  8
0
  6
CONTINUOUS
 62
     2
 10
134.0
 20
47.0
 30
0.0
 11
20.0
 21
47.0
 31
0.0
  0
LINE
  8
0
  6
CONTINUOUS
 62
     2
 10
134.0
 20
37.0
 30
0.0
 11
20.0
 21
37.0
 31
0.0
  0
LINE
  8
0
  6
CONTINUOUS
 62
     2
 10
134.0
 20
32.0
 30
0.0
 11
20.0
 21
32.0
 31
0.0
  0
LINE
  8
0
  6
CONTINUOUS
 62
     2
 10
134.0
 20
27.0
 30
0.0
 11
20.0
 21
27.0
 31
0.0
  0
LINE
  8
0
  6
CONTINUOUS
 62
     2
 10
134.0
 20
22.0
 30
0.0
 11
20.0
 21
22.0
 31
0.0
  0
TEXT
  8
0
  6
CONTINUOUS
 62
     2
 10
124.0
 20
43.0
 30
0.3
 40
3.0
  1
質　量
 50
0.0
 41
0.9
 51
0.0
  7
KANJI10
  0
TEXT
  8
0
  6
CONTINUOUS
 62
     2
 10
124.0
 20
38.0
 30
0.3
 40
3.0
  1
（ｋｇ）
 50
0.0
 41
0.9
 51
0.0
  7
KANJI10
  0
LINE
  8
0
  6
CONTINUOUS
 62
     2
 10
123.0
 20
42.0
 30
0.0
 11
57.0
 21
42.0
 31
0.0
  0
TEXT
  8
0
  6
CONTINUOUS
 62
     2
 10
39.5
 20
40.5
 30
0.3
 40
3.0
  1
形　　名
 50
0.0
 41
0.9
 51
0.0
  7
KANJI10
  0
LINE
  8
0
  6
CONTINUOUS
 62
     2
 10
68.0
 20
42.0
 30
0.0
 11
68.0
 21
17.0
 31
0.0
  0
LINE
  8
0
  6
CONTINUOUS
 62
     2
 10
79.0
 20
42.0
 30
0.0
 11
79.0
 21
17.0
 31
0.0
  0
LINE
  8
0
  6
CONTINUOUS
 62
     2
 10
90.0
 20
42.0
 30
0.0
 11
90.0
 21
17.0
 31
0.0
  0
LINE
  8
0
  6
CONTINUOUS
 62
     2
 10
101.0
 20
42.0
 30
0.0
 11
101.0
 21
17.0
 31
0.0
  0
LINE
  8
0
  6
CONTINUOUS
 62
     2
 10
112.0
 20
42.0
 30
0.0
 11
112.0
 21
17.0
 31
0.0
  0
TEXT
  8
0
  6
CONTINUOUS
 62
     2
 10
61.0
 20
38.0
 30
0.3
 40
3.0
  1
Ａ
 50
0.0
 41
0.9
 51
0.0
  7
KANJI10
  0
TEXT
  8
0
  6
CONTINUOUS
 62
     2
 10
72.0
 20
38.0
 30
0.3
 40
3.0
  1
Ｂ
 50
0.0
 41
0.9
 51
0.0
  7
KANJI10
  0
TEXT
  8
0
  6
CONTINUOUS
 62
     2
 10
83.0
 20
38.0
 30
0.3
 40
3.0
  1
Ｃ
 50
0.0
 41
0.9
 51
0.0
  7
KANJI10
  0
TEXT
  8
0
  6
CONTINUOUS
 62
     2
 10
94.0
 20
38.0
 30
0.3
 40
3.0
  1
Ｄ
 50
0.0
 41
0.9
 51
0.0
  7
KANJI10
  0
TEXT
  8
0
  6
CONTINUOUS
 62
     2
 10
105.0
 20
38.0
 30
0.3
 40
3.0
  1
Ｈ
 50
0.0
 41
0.9
 51
0.0
  7
KANJI10
  0
TEXT
  8
0
  6
CONTINUOUS
 62
     2
 10
116.0
 20
38.0
 30
0.3
 40
3.0
  1
ｄ
 50
0.0
 41
0.9
 51
0.0
  7
KANJI10
  0
TEXT
  8
0
  6
CONTINUOUS
 62
     2
 10
22.5
 20
23.0
 30
0.3
 40
3.0
  1
１００
 50
0.0
 41
0.9
 51
0.0
  7
KANJI10
  0
TEXT
  8
0
  6
CONTINUOUS
 62
     2
 10
22.5
 20
18.0
 30
0.3
 40
3.0
  1
２００
 50
0.0
 41
0.9
 51
0.0
  7
KANJI10
  0
TEXT
  8
0
  6
CONTINUOUS
 62
     2
 10
25.5
 20
33.0
 30
0.3
 40
3.0
  1
１５
 50
0.0
 41
0.9
 51
0.0
  7
KANJI10
  0
TEXT
  8
0
  6
CONTINUOUS
 62
     2
 10
25.5
 20
28.0
 30
0.3
 40
3.0
  1
５０
 50
0.0
 41
0.9
 51
0.0
  7
KANJI10
  0
TEXT
  8
0
  6
CONTINUOUS
 62
     2
 10
22.5
 20
38.0
 30
0.3
 40
3.0
  1
（ＶＡ）
 50
0.0
 41
0.9
 51
0.0
  7
KANJI10
  0
TEXT
  8
0
  6
CONTINUOUS
 62
     2
 10
35.0
 20
28.0
 30
0.3
 40
3.0
  1
ＰＤ－１ＣＮｂ
 50
0.0
 41
0.9
 51
0.0
  7
KANJI10
  0
TEXT
  8
0
  6
CONTINUOUS
 62
     2
 10
35.0
 20
23.0
 30
0.3
 40
3.0
  1
ＰＤ－１ＤＮｂ
 50
0.0
 41
0.9
 51
0.0
  7
KANJI10
  0
TEXT
  8
0
  6
CONTINUOUS
 62
     2
 10
35.0
 20
18.0
 30
0.3
 40
3.0
  1
ＰＤ－１ＥＮｂ
 50
0.0
 41
0.9
 51
0.0
  7
KANJI10
  0
TEXT
  8
0
  6
CONTINUOUS
 62
     2
 10
81.5
 20
33.0
 30
0.3
 40
3.0
  1
５５
 50
0.0
 41
0.9
 51
0.0
  7
KANJI10
  0
TEXT
  8
0
  6
CONTINUOUS
 62
     2
 10
81.5
 20
28.0
 30
0.3
 40
3.0
  1
８０
 50
0.0
 41
0.9
 51
0.0
  7
KANJI10
  0
TEXT
  8
0
  6
CONTINUOUS
 62
     2
 10
81.5
 20
23.0
 30
0.3
 40
3.0
  1
８５
 50
0.0
 41
0.9
 51
0.0
  7
KANJI10
  0
TEXT
  8
0
  6
CONTINUOUS
 62
     2
 10
81.5
 20
18.0
 30
0.3
 40
3.0
  1
９５
 50
0.0
 41
0.9
 51
0.0
  7
KANJI10
  0
TEXT
  8
0
  6
CONTINUOUS
 62
     2
 10
92.5
 20
33.0
 30
0.3
 40
3.0
  1
５８
 50
0.0
 41
0.9
 51
0.0
  7
KANJI10
  0
TEXT
  8
0
  6
CONTINUOUS
 62
     2
 10
92.5
 20
28.0
 30
0.3
 40
3.0
  1
７０
 50
0.0
 41
0.9
 51
0.0
  7
KANJI10
  0
TEXT
  8
0
  6
CONTINUOUS
 62
     2
 10
92.5
 20
23.0
 30
0.3
 40
3.0
  1
８２
 50
0.0
 41
0.9
 51
0.0
  7
KANJI10
  0
TEXT
  8
0
  6
CONTINUOUS
 62
     2
 10
92.5
 20
18.0
 30
0.3
 40
3.0
  1
９８
 50
0.0
 41
0.9
 51
0.0
  7
KANJI10
  0
TEXT
  8
0
  6
CONTINUOUS
 62
     2
 10
102.0
 20
28.0
 30
0.3
 40
3.0
  1
１３８
 50
0.0
 41
0.9
 51
0.0
  7
KANJI10
  0
TEXT
  8
0
  6
CONTINUOUS
 62
     2
 10
102.0
 20
23.0
 30
0.3
 40
3.0
  1
１４３
 50
0.0
 41
0.9
 51
0.0
  7
KANJI10
  0
TEXT
  8
0
  6
CONTINUOUS
 62
     2
 10
102.0
 20
18.0
 30
0.3
 40
3.0
  1
１５６
 50
0.0
 41
0.9
 51
0.0
  7
KANJI10
  0
TEXT
  8
0
  6
CONTINUOUS
 62
     2
 10
114.0
 20
28.0
 30
0.3
 40
3.0
  1
６．８
 50
0.0
 41
0.9
 51
0.0
  7
KANJI10
  0
TEXT
  8
0
  6
CONTINUOUS
 62
     2
 10
114.0
 20
23.0
 30
0.3
 40
3.0
  1
６．８
 50
0.0
 41
0.9
 51
0.0
  7
KANJI10
  0
TEXT
  8
0
  6
CONTINUOUS
 62
     2
 10
114.0
 20
18.0
 30
0.3
 40
3.0
  1
６．８
 50
0.0
 41
0.9
 51
0.0
  7
KANJI10
  0
TEXT
  8
0
  6
CONTINUOUS
 62
     2
 10
125.0
 20
28.0
 30
0.3
 40
3.0
  1
４．５
 50
0.0
 41
0.9
 51
0.0
  7
KANJI10
  0
TEXT
  8
0
  6
CONTINUOUS
 62
     2
 10
125.0
 20
23.0
 30
0.3
 40
3.0
  1
６．６
 50
0.0
 41
0.9
 51
0.0
  7
KANJI10
  0
LINE
  8
0
  6
CONTINUOUS
 62
     1
 10
30.05
 20
62.1
 30
0.0
 11
75.05
 21
62.1
 31
0.0
  0
LINE
  8
0
  6
CONTINUOUS
 62
     1
 10
75.05
 20
62.1
 30
0.0
 11
75.05
 21
104.6
 31
0.0
  0
LINE
  8
0
  6
CONTINUOUS
 62
     1
 10
30.05
 20
104.6
 30
0.0
 11
30.05
 21
62.1
 31
0.0
  0
LINE
  8
0
  6
CONTINUOUS
 62
     1
 10
30.05
 20
62.85
 30
0.0
 11
75.05
 21
62.85
 31
0.0
  0
LINE
  8
0
  6
CONTINUOUS
 62
     1
 10
36.55
 20
70.35
 30
0.0
 11
68.55
 21
70.35
 31
0.0
  0
LINE
  8
0
  6
CONTINUOUS
 62
     1
 10
68.55
 20
70.35
 30
0.0
 11
68.55
 21
95.85
 31
0.0
  0
LINE
  8
0
  6
CONTINUOUS
 62
     1
 10
36.55
 20
95.85
 30
0.0
 11
36.55
 21
70.35
 31
0.0
  0
LINE
  8
0
  6
CONTINUOUS
 62
     1
 10
38.8
 20
71.1
 30
0.0
 11
66.3
 21
71.1
 31
0.0
  0
LINE
  8
0
  6
CONTINUOUS
 62
     1
 10
66.3
 20
71.1
 30
0.0
 11
66.3
 21
94.6
 31
0.0
  0
LINE
  8
0
  6
CONTINUOUS
 62
     1
 10
66.3
 20
94.6
 30
0.0
 11
38.8
 21
94.6
 31
0.0
  0
LINE
  8
0
  6
CONTINUOUS
 62
     1
 10
38.8
 20
94.6
 30
0.0
 11
38.8
 21
71.1
 31
0.0
  0
LINE
  8
0
  6
CONTINUOUS
 62
     1
 10
76.3
 20
104.6
 30
0.0
 11
76.3
 21
107.1
 31
0.0
  0
LINE
  8
0
  6
CONTINUOUS
 62
     1
 10
28.8
 20
107.1
 30
0.0
 11
28.8
 21
104.6
 31
0.0
  0
LINE
  8
0
  6
CONTINUOUS
 62
     5
 10
33.8
 20
118.35
 30
0.0
 11
71.3
 21
118.35
 31
0.0
  0
LINE
  8
0
  6
CONTINUOUS
 62
     5
 10
71.3
 20
118.35
 30
0.0
 11
71.3
 21
119.35
 31
0.0
  0
LINE
  8
0
  6
CONTINUOUS
 62
     5
 10
71.3
 20
119.35
 30
0.0
 11
33.8
 21
119.35
 31
0.0
  0
LINE
  8
0
  6
CONTINUOUS
 62
     5
 10
33.8
 20
119.35
 30
0.0
 11
33.8
 21
118.35
 31
0.0
  0
CIRCLE
  8
0
  6
CONTINUOUS
 62
     2
 10
33.55
 20
68.1
 30
0.0
 40
2.5
  0
CIRCLE
  8
0
  6
CONTINUOUS
 62
     2
 10
33.55
 20
68.1
 30
0.0
 40
1.75
  0
ARC
  8
0
  6
CONTINUOUS
 62
     2
 10
34.05
 20
67.6
 30
0.0
 40
0.25
 50
90.0
 51
180.0
  0
LINE
  8
0
  6
CONTINUOUS
 62
     2
 10
34.05
 20
67.85
 30
0.0
 11
34.575
 21
67.85
 31
0.0
  0
LINE
  8
0
  6
CONTINUOUS
 62
     2
 10
34.575
 20
67.85
 30
0.0
 11
34.575
 21
68.35
 31
0.0
  0
LINE
  8
0
  6
CONTINUOUS
 62
     2
 10
34.575
 20
68.35
 30
0.0
 11
34.05
 21
68.35
 31
0.0
  0
ARC
  8
0
  6
CONTINUOUS
 62
     2
 10
34.05
 20
68.6
 30
0.0
 40
0.25
 50
180.0
 51
270.0
  0
ARC
  8
0
  6
CONTINUOUS
 62
     2
 10
33.05
 20
68.6
 30
0.0
 40
0.25
 50
270.0
 51
0.0
  0
LINE
  8
0
  6
CONTINUOUS
 62
     2
 10
32.525
 20
68.35
 30
0.0
 11
33.05
 21
68.35
 31
0.0
  0
LINE
  8
0
  6
CONTINUOUS
 62
     2
 10
32.525
 20
67.85
 30
0.0
 11
32.525
 21
68.35
 31
0.0
  0
LINE
  8
0
  6
CONTINUOUS
 62
     2
 10
33.05
 20
67.85
 30
0.0
 11
32.525
 21
67.85
 31
0.0
  0
ARC
  8
0
  6
CONTINUOUS
 62
     2
 10
33.05
 20
67.6
 30
0.0
 40
0.25
 50
0.0
 51
90.0
  0
LINE
  8
0
  6
CONTINUOUS
 62
     2
 10
33.3
 20
67.075
 30
0.0
 11
33.3
 21
67.6
 31
0.0
  0
LINE
  8
0
  6
CONTINUOUS
 62
     2
 10
33.8
 20
67.075
 30
0.0
 11
33.3
 21
67.075
 31
0.0
  0
LINE
  8
0
  6
CONTINUOUS
 62
     2
 10
33.8
 20
67.6
 30
0.0
 11
33.8
 21
67.075
 31
0.0
  0
LINE
  8
0
  6
CONTINUOUS
 62
     2
 10
33.3
 20
69.125
 30
0.0
 11
33.3
 21
68.6
 31
0.0
  0
LINE
  8
0
  6
CONTINUOUS
 62
     2
 10
33.8
 20
69.125
 30
0.0
 11
33.3
 21
69.125
 31
0.0
  0
LINE
  8
0
  6
CONTINUOUS
 62
     2
 10
33.8
 20
68.6
 30
0.0
 11
33.8
 21
69.125
 31
0.0
  0
CIRCLE
  8
0
  6
CONTINUOUS
 62
     2
 10
71.55
 20
68.1
 30
0.0
 40
2.5
  0
CIRCLE
  8
0
  6
CONTINUOUS
 62
     2
 10
71.55
 20
68.1
 30
0.0
 40
1.75
  0
ARC
  8
0
  6
CONTINUOUS
 62
     2
 10
71.05
 20
67.6
 30
0.0
 40
0.25
 50
0.0
 51
90.0
  0
LINE
  8
0
  6
CONTINUOUS
 62
     2
 10
71.05
 20
67.85
 30
0.0
 11
70.525
 21
67.85
 31
0.0
  0
LINE
  8
0
  6
CONTINUOUS
 62
     2
 10
70.525
 20
67.85
 30
0.0
 11
70.525
 21
68.35
 31
0.0
  0
LINE
  8
0
  6
CONTINUOUS
 62
     2
 10
70.525
 20
68.35
 30
0.0
 11
71.05
 21
68.35
 31
0.0
  0
ARC
  8
0
  6
CONTINUOUS
 62
     2
 10
71.05
 20
68.6
 30
0.0
 40
0.25
 50
270.0
 51
0.0
  0
ARC
  8
0
  6
CONTINUOUS
 62
     2
 10
72.05
 20
68.6
 30
0.0
 40
0.25
 50
180.0
 51
270.0
  0
LINE
  8
0
  6
CONTINUOUS
 62
     2
 10
72.575
 20
68.35
 30
0.0
 11
72.05
 21
68.35
 31
0.0
  0
LINE
  8
0
  6
CONTINUOUS
 62
     2
 10
72.575
 20
67.85
 30
0.0
 11
72.575
 21
68.35
 31
0.0
  0
LINE
  8
0
  6
CONTINUOUS
 62
     2
 10
72.05
 20
67.85
 30
0.0
 11
72.575
 21
67.85
 31
0.0
  0
ARC
  8
0
  6
CONTINUOUS
 62
     2
 10
72.05
 20
67.6
 30
0.0
 40
0.25
 50
90.0
 51
180.0
  0
LINE
  8
0
  6
CONTINUOUS
 62
     2
 10
71.8
 20
67.075
 30
0.0
 11
71.8
 21
67.6
 31
0.0
  0
LINE
  8
0
  6
CONTINUOUS
 62
     2
 10
71.3
 20
67.075
 30
0.0
 11
71.8
 21
67.075
 31
0.0
  0
LINE
  8
0
  6
CONTINUOUS
 62
     2
 10
71.3
 20
67.6
 30
0.0
 11
71.3
 21
67.075
 31
0.0
  0
LINE
  8
0
  6
CONTINUOUS
 62
     2
 10
71.8
 20
69.125
 30
0.0
 11
71.8
 21
68.6
 31
0.0
  0
LINE
  8
0
  6
CONTINUOUS
 62
     2
 10
71.3
 20
69.125
 30
0.0
 11
71.8
 21
69.125
 31
0.0
  0
LINE
  8
0
  6
CONTINUOUS
 62
     2
 10
71.3
 20
68.6
 30
0.0
 11
71.3
 21
69.125
 31
0.0
  0
CIRCLE
  8
0
  6
CONTINUOUS
 62
     2
 10
33.55
 20
98.1
 30
0.0
 40
2.5
  0
CIRCLE
  8
0
  6
CONTINUOUS
 62
     2
 10
33.55
 20
98.1
 30
0.0
 40
1.75
  0
ARC
  8
0
  6
CONTINUOUS
 62
     2
 10
34.05
 20
98.6
 30
0.0
 40
0.25
 50
180.0
 51
270.0
  0
LINE
  8
0
  6
CONTINUOUS
 62
     2
 10
34.05
 20
98.35
 30
0.0
 11
34.575
 21
98.35
 31
0.0
  0
LINE
  8
0
  6
CONTINUOUS
 62
     2
 10
34.575
 20
98.35
 30
0.0
 11
34.575
 21
97.85
 31
0.0
  0
LINE
  8
0
  6
CONTINUOUS
 62
     2
 10
34.575
 20
97.85
 30
0.0
 11
34.05
 21
97.85
 31
0.0
  0
ARC
  8
0
  6
CONTINUOUS
 62
     2
 10
34.05
 20
97.6
 30
0.0
 40
0.25
 50
90.0
 51
180.0
  0
ARC
  8
0
  6
CONTINUOUS
 62
     2
 10
33.05
 20
97.6
 30
0.0
 40
0.25
 50
0.0
 51
90.0
  0
LINE
  8
0
  6
CONTINUOUS
 62
     2
 10
32.525
 20
97.85
 30
0.0
 11
33.05
 21
97.85
 31
0.0
  0
LINE
  8
0
  6
CONTINUOUS
 62
     2
 10
32.525
 20
98.35
 30
0.0
 11
32.525
 21
97.85
 31
0.0
  0
LINE
  8
0
  6
CONTINUOUS
 62
     2
 10
33.05
 20
98.35
 30
0.0
 11
32.525
 21
98.35
 31
0.0
  0
ARC
  8
0
  6
CONTINUOUS
 62
     2
 10
33.05
 20
98.6
 30
0.0
 40
0.25
 50
270.0
 51
0.0
  0
LINE
  8
0
  6
CONTINUOUS
 62
     2
 10
33.3
 20
99.125
 30
0.0
 11
33.3
 21
98.6
 31
0.0
  0
LINE
  8
0
  6
CONTINUOUS
 62
     2
 10
33.8
 20
99.125
 30
0.0
 11
33.3
 21
99.125
 31
0.0
  0
LINE
  8
0
  6
CONTINUOUS
 62
     2
 10
33.8
 20
98.6
 30
0.0
 11
33.8
 21
99.125
 31
0.0
  0
LINE
  8
0
  6
CONTINUOUS
 62
     2
 10
33.3
 20
97.075
 30
0.0
 11
33.3
 21
97.6
 31
0.0
  0
LINE
  8
0
  6
CONTINUOUS
 62
     2
 10
33.8
 20
97.075
 30
0.0
 11
33.3
 21
97.075
 31
0.0
  0
LINE
  8
0
  6
CONTINUOUS
 62
     2
 10
33.8
 20
97.6
 30
0.0
 11
33.8
 21
97.075
 31
0.0
  0
CIRCLE
  8
0
  6
CONTINUOUS
 62
     2
 10
71.55
 20
98.1
 30
0.0
 40
2.5
  0
CIRCLE
  8
0
  6
CONTINUOUS
 62
     2
 10
71.55
 20
98.1
 30
0.0
 40
1.75
  0
ARC
  8
0
  6
CONTINUOUS
 62
     2
 10
71.05
 20
98.6
 30
0.0
 40
0.25
 50
270.0
 51
0.0
  0
LINE
  8
0
  6
CONTINUOUS
 62
     2
 10
71.05
 20
98.35
 30
0.0
 11
70.525
 21
98.35
 31
0.0
  0
LINE
  8
0
  6
CONTINUOUS
 62
     2
 10
70.525
 20
98.35
 30
0.0
 11
70.525
 21
97.85
 31
0.0
  0
LINE
  8
0
  6
CONTINUOUS
 62
     2
 10
70.525
 20
97.85
 30
0.0
 11
71.05
 21
97.85
 31
0.0
  0
ARC
  8
0
  6
CONTINUOUS
 62
     2
 10
71.05
 20
97.6
 30
0.0
 40
0.25
 50
0.0
 51
90.0
  0
ARC
  8
0
  6
CONTINUOUS
 62
     2
 10
72.05
 20
97.6
 30
0.0
 40
0.25
 50
90.0
 51
180.0
  0
LINE
  8
0
  6
CONTINUOUS
 62
     2
 10
72.575
 20
97.85
 30
0.0
 11
72.05
 21
97.85
 31
0.0
  0
LINE
  8
0
  6
CONTINUOUS
 62
     2
 10
72.575
 20
98.35
 30
0.0
 11
72.575
 21
97.85
 31
0.0
  0
LINE
  8
0
  6
CONTINUOUS
 62
     2
 10
72.05
 20
98.35
 30
0.0
 11
72.575
 21
98.35
 31
0.0
  0
ARC
  8
0
  6
CONTINUOUS
 62
     2
 10
72.05
 20
98.6
 30
0.0
 40
0.25
 50
180.0
 51
270.0
  0
LINE
  8
0
  6
CONTINUOUS
 62
     2
 10
71.8
 20
99.125
 30
0.0
 11
71.8
 21
98.6
 31
0.0
  0
LINE
  8
0
  6
CONTINUOUS
 62
     2
 10
71.3
 20
99.125
 30
0.0
 11
71.8
 21
99.125
 31
0.0
  0
LINE
  8
0
  6
CONTINUOUS
 62
     2
 10
71.3
 20
98.6
 30
0.0
 11
71.3
 21
99.125
 31
0.0
  0
LINE
  8
0
  6
CONTINUOUS
 62
     2
 10
71.8
 20
97.075
 30
0.0
 11
71.8
 21
97.6
 31
0.0
  0
LINE
  8
0
  6
CONTINUOUS
 62
     2
 10
71.3
 20
97.075
 30
0.0
 11
71.8
 21
97.075
 31
0.0
  0
LINE
  8
0
  6
CONTINUOUS
 62
     2
 10
71.3
 20
97.6
 30
0.0
 11
71.3
 21
97.075
 31
0.0
  0
LINE
  8
0
  6
CONTINUOUS
 62
     1
 10
109.4
 20
64.1
 30
0.0
 11
129.9
 21
64.1
 31
0.0
  0
LINE
  8
0
  6
CONTINUOUS
 62
     1
 10
129.9
 20
102.1
 30
0.0
 11
109.4
 21
102.1
 31
0.0
  0
LINE
  8
0
  6
CONTINUOUS
 62
     1
 10
109.4
 20
102.1
 30
0.0
 11
109.4
 21
64.1
 31
0.0
  0
LINE
  8
0
  6
CONTINUOUS
 62
     1
 10
109.4
 20
62.1
 30
0.0
 11
109.4
 21
104.6
 31
0.0
  0
LINE
  8
0
  6
CONTINUOUS
 62
     1
 10
109.4
 20
62.1
 30
0.0
 11
101.07617579
 21
62.1
 31
0.0
  0
LINE
  8
0
  6
CONTINUOUS
 62
     1
 10
101.07617579
 20
62.1
 30
0.0
 11
101.07617579
 21
62.85
 31
0.0
  0
LINE
  8
0
  6
CONTINUOUS
 62
     1
 10
101.07617579
 20
62.85
 30
0.0
 11
108.65
 21
62.85
 31
0.0
  0
LINE
  8
0
  6
CONTINUOUS
 62
     1
 10
108.65
 20
62.85
 30
0.0
 11
108.65
 21
103.85
 31
0.0
  0
LINE
  8
0
  6
CONTINUOUS
 62
     1
 10
109.4
 20
104.6
 30
0.0
 11
104.4
 21
104.6
 31
0.0
  0
LINE
  8
0
  6
CONTINUOUS
 62
     1
 10
104.4
 20
104.6
 30
0.0
 11
104.4
 21
103.85
 31
0.0
  0
LINE
  8
0
  6
CONTINUOUS
 62
     1
 10
104.4
 20
103.85
 30
0.0
 11
108.65
 21
103.85
 31
0.0
  0
LINE
  8
0
  6
CONTINUOUS
 62
     1
 10
103.15
 20
104.6
 30
0.0
 11
136.15
 21
104.6
 31
0.0
  0
LINE
  8
0
  6
CONTINUOUS
 62
     1
 10
136.15
 20
104.6
 30
0.0
 11
136.15
 21
107.1
 31
0.0
  0
LINE
  8
0
  6
CONTINUOUS
 62
     1
 10
136.15
 20
107.1
 30
0.0
 11
103.15
 21
107.1
 31
0.0
  0
LINE
  8
0
  6
CONTINUOUS
 62
     1
 10
103.15
 20
107.1
 30
0.0
 11
103.15
 21
104.6
 31
0.0
  0
LINE
  8
0
  6
CONTINUOUS
 62
     5
 10
127.15
 20
118.35
 30
0.0
 11
127.15
 21
119.35
 31
0.0
  0
LINE
  8
0
  6
CONTINUOUS
 62
     5
 10
112.15
 20
119.35
 30
0.0
 11
112.15
 21
118.35
 31
0.0
  0
LINE
  8
0
  6
CONTINUOUS
 62
     5
 10
117.4
 20
119.35
 30
0.0
 11
112.15
 21
119.35
 31
0.0
  0
LINE
  8
0
  6
CONTINUOUS
 62
     5
 10
127.15
 20
119.35
 30
0.0
 11
121.9
 21
119.35
 31
0.0
  0
LINE
  8
0
  6
CONTINUOUS
 62
     5
 10
125.65
 20
118.35
 30
0.0
 11
127.15
 21
118.35
 31
0.0
  0
LINE
  8
0
  6
CONTINUOUS
 62
     5
 10
112.15
 20
118.35
 30
0.0
 11
113.65
 21
118.35
 31
0.0
  0
LINE
  8
0
  6
CONTINUOUS
 62
     1
 10
129.9
 20
102.1
 30
0.0
 11
129.9
 21
64.1
 31
0.0
  0
LINE
  8
0
  6
CONTINUOUS
 62
     1
 10
129.9
 20
62.1
 30
0.0
 11
129.9
 21
104.6
 31
0.0
  0
LINE
  8
0
  6
CONTINUOUS
 62
     1
 10
129.9
 20
62.1
 30
0.0
 11
138.22382421
 21
62.1
 31
0.0
  0
LINE
  8
0
  6
CONTINUOUS
 62
     1
 10
138.22382421
 20
62.1
 30
0.0
 11
138.22382421
 21
62.85
 31
0.0
  0
LINE
  8
0
  6
CONTINUOUS
 62
     1
 10
138.22382421
 20
62.85
 30
0.0
 11
130.65
 21
62.85
 31
0.0
  0
LINE
  8
0
  6
CONTINUOUS
 62
     1
 10
130.65
 20
62.85
 30
0.0
 11
130.65
 21
103.85
 31
0.0
  0
LINE
  8
0
  6
CONTINUOUS
 62
     1
 10
129.9
 20
104.6
 30
0.0
 11
134.9
 21
104.6
 31
0.0
  0
LINE
  8
0
  6
CONTINUOUS
 62
     1
 10
134.9
 20
104.6
 30
0.0
 11
134.9
 21
103.85
 31
0.0
  0
LINE
  8
0
  6
CONTINUOUS
 62
     1
 10
134.9
 20
103.85
 30
0.0
 11
130.65
 21
103.85
 31
0.0
  0
LINE
  8
0
  6
CONTINUOUS
 62
     1
 10
108.65
 20
94.6
 30
0.0
 11
99.65
 21
94.6
 31
0.0
  0
LINE
  8
0
  6
CONTINUOUS
 62
     1
 10
99.65
 20
94.6
 30
0.0
 11
99.65
 21
71.1
 31
0.0
  0
LINE
  8
0
  6
CONTINUOUS
 62
     1
 10
99.65
 20
71.1
 30
0.0
 11
108.65
 21
71.1
 31
0.0
  0
LINE
  8
0
  6
CONTINUOUS
 62
     1
 10
130.65
 20
94.6
 30
0.0
 11
139.65
 21
94.6
 31
0.0
  0
LINE
  8
0
  6
CONTINUOUS
 62
     1
 10
139.65
 20
94.6
 30
0.0
 11
139.65
 21
71.1
 31
0.0
  0
LINE
  8
0
  6
CONTINUOUS
 62
     1
 10
139.65
 20
71.1
 30
0.0
 11
130.65
 21
71.1
 31
0.0
  0
LINE
  8
0
  6
CONTINUOUS
 62
     1
 10
111.65
 20
70.6
 30
0.0
 11
127.65
 21
70.6
 31
0.0
  0
LINE
  8
0
  6
CONTINUOUS
 62
     1
 10
127.65
 20
70.6
 30
0.0
 11
127.65
 21
95.6
 31
0.0
  0
LINE
  8
0
  6
CONTINUOUS
 62
     1
 10
127.65
 20
95.6
 30
0.0
 11
111.65
 21
95.6
 31
0.0
  0
LINE
  8
0
  6
CONTINUOUS
 62
     1
 10
111.65
 20
95.6
 30
0.0
 11
111.65
 21
70.6
 31
0.0
  0
LINE
  8
0
  6
CONTINUOUS
 62
     2
 10
107.65
 20
65.6
 30
0.0
 11
108.65
 21
65.6
 31
0.0
  0
LINE
  8
0
  6
CONTINUOUS
 62
     2
 10
108.65
 20
65.6
 30
0.0
 11
108.65
 21
70.6
 31
0.0
  0
LINE
  8
0
  6
CONTINUOUS
 62
     2
 10
107.65
 20
70.6
 30
0.0
 11
107.65
 21
65.6
 31
0.0
  0
LINE
  8
0
  6
CONTINUOUS
 62
     2
 10
108.15
 20
70.6
 30
0.0
 11
108.15
 21
65.6
 31
0.0
  0
LINE
  8
0
  6
CONTINUOUS
 62
     2
 10
107.65
 20
66.35
 30
0.0
 11
107.0
 21
66.35
 31
0.0
  0
ARC
  8
0
  6
CONTINUOUS
 62
     2
 10
107.0
 20
67.0
 30
0.0
 40
0.65
 50
180.0
 51
270.0
  0
LINE
  8
0
  6
CONTINUOUS
 62
     2
 10
106.35
 20
67.0
 30
0.0
 11
106.35
 21
67.85
 31
0.0
  0
LINE
  8
0
  6
CONTINUOUS
 62
     2
 10
106.35
 20
67.85
 30
0.0
 11
107.05
 21
67.85
 31
0.0
  0
LINE
  8
0
  6
CONTINUOUS
 62
     2
 10
107.05
 20
67.85
 30
0.0
 11
107.05
 21
68.35
 31
0.0
  0
LINE
  8
0
  6
CONTINUOUS
 62
     2
 10
107.05
 20
68.35
 30
0.0
 11
106.35
 21
68.35
 31
0.0
  0
LINE
  8
0
  6
CONTINUOUS
 62
     2
 10
106.35
 20
68.35
 30
0.0
 11
106.35
 21
69.2
 31
0.0
  0
ARC
  8
0
  6
CONTINUOUS
 62
     2
 10
107.0
 20
69.2
 30
0.0
 40
0.65
 50
90.0
 51
180.0
  0
LINE
  8
0
  6
CONTINUOUS
 62
     2
 10
107.65
 20
100.6
 30
0.0
 11
108.65
 21
100.6
 31
0.0
  0
LINE
  8
0
  6
CONTINUOUS
 62
     2
 10
108.65
 20
100.6
 30
0.0
 11
108.65
 21
95.6
 31
0.0
  0
LINE
  8
0
  6
CONTINUOUS
 62
     2
 10
107.65
 20
95.6
 30
0.0
 11
107.65
 21
100.6
 31
0.0
  0
LINE
  8
0
  6
CONTINUOUS
 62
     2
 10
108.15
 20
95.6
 30
0.0
 11
108.15
 21
100.6
 31
0.0
  0
LINE
  8
0
  6
CONTINUOUS
 62
     2
 10
107.65
 20
99.85
 30
0.0
 11
107.0
 21
99.85
 31
0.0
  0
ARC
  8
0
  6
CONTINUOUS
 62
     2
 10
107.0
 20
99.2
 30
0.0
 40
0.65
 50
90.0
 51
180.0
  0
LINE
  8
0
  6
CONTINUOUS
 62
     2
 10
106.35
 20
99.2
 30
0.0
 11
106.35
 21
98.35
 31
0.0
  0
LINE
  8
0
  6
CONTINUOUS
 62
     2
 10
106.35
 20
98.35
 30
0.0
 11
107.05
 21
98.35
 31
0.0
  0
LINE
  8
0
  6
CONTINUOUS
 62
     2
 10
107.05
 20
98.35
 30
0.0
 11
107.05
 21
97.85
 31
0.0
  0
LINE
  8
0
  6
CONTINUOUS
 62
     2
 10
107.05
 20
97.85
 30
0.0
 11
106.35
 21
97.85
 31
0.0
  0
LINE
  8
0
  6
CONTINUOUS
 62
     2
 10
106.35
 20
97.85
 30
0.0
 11
106.35
 21
97.0
 31
0.0
  0
ARC
  8
0
  6
CONTINUOUS
 62
     2
 10
107.0
 20
97.0
 30
0.0
 40
0.65
 50
180.0
 51
270.0
  0
LINE
  8
0
  6
CONTINUOUS
 62
     2
 10
107.0
 20
96.35
 30
0.0
 11
107.65
 21
96.35
 31
0.0
  0
LINE
  8
0
  6
CONTINUOUS
 62
     2
 10
130.65
 20
65.6
 30
0.0
 11
131.15
 21
65.6
 31
0.0
  0
LINE
  8
0
  6
CONTINUOUS
 62
     2
 10
131.15
 20
65.6
 30
0.0
 11
131.15
 21
70.6
 31
0.0
  0
LINE
  8
0
  6
CONTINUOUS
 62
     2
 10
130.65
 20
70.6
 30
0.0
 11
130.65
 21
65.6
 31
0.0
  0
LINE
  8
0
  6
CONTINUOUS
 62
     2
 10
131.675
 20
68.1
 30
0.0
 11
131.15
 21
68.403108891
 31
0.0
  0
ARC
  8
0
  6
CONTINUOUS
 62
     2
 10
131.325
 20
68.975
 30
0.0
 40
1.75
 50
330.0
 51
30.0
  0
LINE
  8
0
  6
CONTINUOUS
 62
     2
 10
131.15
 20
68.1
 30
0.0
 11
131.675
 21
67.796891109
 31
0.0
  0
LINE
  8
0
  6
CONTINUOUS
 62
     2
 10
133.075
 20
66.35
 30
0.0
 11
131.675
 21
66.35
 31
0.0
  0
ARC
  8
0
  6
CONTINUOUS
 62
     2
 10
131.325
 20
67.225
 30
0.0
 40
1.75
 50
330.0
 51
30.0
  0
LINE
  8
0
  6
CONTINUOUS
 62
     2
 10
131.675
 20
65.965
 30
0.0
 11
131.15
 21
65.965
 31
0.0
  0
LINE
  8
0
  6
CONTINUOUS
 62
     2
 10
133.075
 20
69.85
 30
0.0
 11
133.075
 21
66.35
 31
0.0
  0
LINE
  8
0
  6
CONTINUOUS
 62
     2
 10
131.675
 20
70.235
 30
0.0
 11
131.675
 21
65.965
 31
0.0
  0
LINE
  8
0
  6
CONTINUOUS
 62
     2
 10
132.840544457
 20
68.1
 30
0.0
 11
131.675
 21
68.1
 31
0.0
  0
LINE
  8
0
  6
CONTINUOUS
 62
     2
 10
130.65
 20
100.6
 30
0.0
 11
131.15
 21
100.6
 31
0.0
  0
LINE
  8
0
  6
CONTINUOUS
 62
     2
 10
131.15
 20
100.6
 30
0.0
 11
131.15
 21
95.6
 31
0.0
  0
LINE
  8
0
  6
CONTINUOUS
 62
     2
 10
130.65
 20
95.6
 30
0.0
 11
130.65
 21
100.6
 31
0.0
  0
LINE
  8
0
  6
CONTINUOUS
 62
     2
 10
131.675
 20
98.1
 30
0.0
 11
131.15
 21
97.796891109
 31
0.0
  0
LINE
  8
0
  6
CONTINUOUS
 62
     2
 10
131.675
 20
96.35
 30
0.0
 11
133.075
 21
96.35
 31
0.0
  0
ARC
  8
0
  6
CONTINUOUS
 62
     2
 10
131.325
 20
97.225
 30
0.0
 40
1.75
 50
330.0
 51
30.0
  0
LINE
  8
0
  6
CONTINUOUS
 62
     2
 10
131.15
 20
95.965
 30
0.0
 11
131.675
 21
95.965
 31
0.0
  0
LINE
  8
0
  6
CONTINUOUS
 62
     2
 10
131.15
 20
98.1
 30
0.0
 11
131.675
 21
98.403108891
 31
0.0
  0
LINE
  8
0
  6
CONTINUOUS
 62
     2
 10
133.075
 20
99.85
 30
0.0
 11
131.675
 21
99.85
 31
0.0
  0
ARC
  8
0
  6
CONTINUOUS
 62
     2
 10
131.325
 20
98.975
 30
0.0
 40
1.75
 50
330.0
 51
30.0
  0
LINE
  8
0
  6
CONTINUOUS
 62
     2
 10
131.675
 20
100.235
 30
0.0
 11
131.15
 21
100.235
 31
0.0
  0
LINE
  8
0
  6
CONTINUOUS
 62
     2
 10
133.075
 20
96.35
 30
0.0
 11
133.075
 21
99.85
 31
0.0
  0
LINE
  8
0
  6
CONTINUOUS
 62
     2
 10
131.675
 20
95.965
 30
0.0
 11
131.675
 21
100.235
 31
0.0
  0
LINE
  8
0
  6
CONTINUOUS
 62
     2
 10
132.840544457
 20
98.1
 30
0.0
 11
131.675
 21
98.1
 31
0.0
  0
LINE
  8
0
  6
CONTINUOUS
 62
     2
 10
74.1745
 20
107.1
 30
0.0
 11
74.1245
 21
110.85
 31
0.0
  0
LINE
  8
0
  6
CONTINUOUS
 62
     2
 10
35.05
 20
108.1
 30
0.0
 11
35.8
 21
108.1
 31
0.0
  0
LINE
  8
0
  6
CONTINUOUS
 62
     2
 10
40.7585
 20
108.1
 30
0.0
 11
41.5085
 21
108.1
 31
0.0
  0
LINE
  8
0
  6
CONTINUOUS
 62
     2
 10
40.7585
 20
113.6
 30
0.0
 11
40.5085
 21
113.6
 31
0.0
  0
LINE
  8
0
  6
CONTINUOUS
 62
     2
 10
40.5085
 20
113.6
 30
0.0
 11
40.5085
 21
116.6
 31
0.0
  0
LINE
  8
0
  6
CONTINUOUS
 62
     2
 10
40.5085
 20
116.6
 30
0.0
 11
40.7585
 21
117.35
 31
0.0
  0
LINE
  8
0
  6
CONTINUOUS
 62
     2
 10
41.5085
 20
113.6
 30
0.0
 11
41.7585
 21
113.6
 31
0.0
  0
LINE
  8
0
  6
CONTINUOUS
 62
     2
 10
41.7585
 20
113.6
 30
0.0
 11
41.7585
 21
116.6
 31
0.0
  0
LINE
  8
0
  6
CONTINUOUS
 62
     2
 10
41.7585
 20
116.6
 30
0.0
 11
41.5085
 21
117.35
 31
0.0
  0
LINE
  8
0
  6
CONTINUOUS
 62
     2
 10
40.7585
 20
113.6
 30
0.0
 11
40.7585
 21
108.1
 31
0.0
  0
LINE
  8
0
  6
CONTINUOUS
 62
     2
 10
41.5085
 20
113.6
 30
0.0
 11
41.5085
 21
108.1
 31
0.0
  0
LINE
  8
0
  6
CONTINUOUS
 62
     2
 10
40.7585
 20
112.6
 30
0.0
 11
40.7585
 21
113.1
 31
0.0
  0
LINE
  8
0
  6
CONTINUOUS
 62
     2
 10
35.8
 20
113.1
 30
0.0
 11
35.8
 21
112.6
 31
0.0
  0
LINE
  8
0
  6
CONTINUOUS
 62
     2
 10
36.77925
 20
112.6
 30
0.0
 11
36.77925
 21
111.1
 31
0.0
  0
LINE
  8
0
  6
CONTINUOUS
 62
     2
 10
39.77925
 20
112.6
 30
0.0
 11
39.77925
 21
111.1
 31
0.0
  0
ARC
  8
0
  6
CONTINUOUS
 62
     2
 10
39.52925
 20
111.1
 30
0.0
 40
0.25
 50
270.0
 51
0.0
  0
LINE
  8
0
  6
CONTINUOUS
 62
     2
 10
36.37925
 20
114.1
 30
0.0
 11
36.37925
 21
114.6
 31
0.0
  0
LINE
  8
0
  6
CONTINUOUS
 62
     2
 10
36.37925
 20
114.6
 30
0.0
 11
40.17925
 21
114.6
 31
0.0
  0
LINE
  8
0
  6
CONTINUOUS
 62
     2
 10
40.17925
 20
114.6
 30
0.0
 11
40.17925
 21
114.1
 31
0.0
  0
LINE
  8
0
  6
CONTINUOUS
 62
     2
 10
38.27925
 20
114.6
 30
0.0
 11
37.990574865
 21
114.1
 31
0.0
  0
LINE
  8
0
  6
CONTINUOUS
 62
     2
 10
38.27925
 20
114.1
 30
0.0
 11
38.567925135
 21
114.6
 31
0.0
  0
LINE
  8
0
  6
CONTINUOUS
 62
     2
 10
36.52925
 20
114.6
 30
0.0
 11
36.52925
 21
115.25
 31
0.0
  0
ARC
  8
0
  6
CONTINUOUS
 62
     2
 10
37.17925
 20
115.25
 30
0.0
 40
0.65
 50
90.0
 51
180.0
  0
LINE
  8
0
  6
CONTINUOUS
 62
     2
 10
37.17925
 20
115.9
 30
0.0
 11
38.02925
 21
115.9
 31
0.0
  0
LINE
  8
0
  6
CONTINUOUS
 62
     2
 10
38.02925
 20
115.9
 30
0.0
 11
38.02925
 21
115.2
 31
0.0
  0
LINE
  8
0
  6
CONTINUOUS
 62
     2
 10
38.02925
 20
115.2
 30
0.0
 11
38.52925
 21
115.2
 31
0.0
  0
LINE
  8
0
  6
CONTINUOUS
 62
     2
 10
38.52925
 20
115.2
 30
0.0
 11
38.52925
 21
115.9
 31
0.0
  0
LINE
  8
0
  6
CONTINUOUS
 62
     2
 10
38.52925
 20
115.9
 30
0.0
 11
39.37925
 21
115.9
 31
0.0
  0
ARC
  8
0
  6
CONTINUOUS
 62
     2
 10
39.37925
 20
115.25
 30
0.0
 40
0.65
 50
0.0
 51
90.0
  0
LINE
  8
0
  6
CONTINUOUS
 62
     2
 10
40.02925
 20
115.25
 30
0.0
 11
40.02925
 21
114.6
 31
0.0
  0
LINE
  8
0
  6
CONTINUOUS
 62
     2
 10
35.05
 20
118.35
 30
0.0
 11
35.8
 21
118.35
 31
0.0
  0
LINE
  8
0
  6
CONTINUOUS
 62
     2
 10
35.8
 20
117.6
 30
0.0
 11
40.7585
 21
117.6
 31
0.0
  0
LINE
  8
0
  6
CONTINUOUS
 62
     2
 10
32.925
 20
120.1
 30
0.0
 11
32.925
 21
115.6
 31
0.0
  0
LINE
  8
0
  6
CONTINUOUS
 62
     2
 10
32.925
 20
115.6
 30
0.0
 11
35.05
 21
115.6
 31
0.0
  0
LINE
  8
0
  6
CONTINUOUS
 62
     2
 10
32.925
 20
120.1
 30
0.0
 11
35.05
 21
120.1
 31
0.0
  0
LINE
  8
0
  6
CONTINUOUS
 62
     2
 10
72.175
 20
120.1
 30
0.0
 11
72.175
 21
115.6
 31
0.0
  0
LINE
  8
0
  6
CONTINUOUS
 62
     2
 10
72.175
 20
115.6
 30
0.0
 11
70.05
 21
115.6
 31
0.0
  0
LINE
  8
0
  6
CONTINUOUS
 62
     2
 10
72.175
 20
120.1
 30
0.0
 11
70.05
 21
120.1
 31
0.0
  0
LINE
  8
0
  6
CONTINUOUS
 62
     2
 10
37.888164756
 20
114.1
 30
0.0
 11
37.888164756
 21
113.6
 31
0.0
  0
LINE
  8
0
  6
CONTINUOUS
 62
     2
 10
37.888164756
 20
113.6
 30
0.0
 11
38.386262105
 21
113.6
 31
0.0
  0
LINE
  8
0
  6
CONTINUOUS
 62
     2
 10
38.386262105
 20
114.1
 30
0.0
 11
38.386262105
 21
113.6
 31
0.0
  0
LINE
  8
0
  6
CONTINUOUS
 62
     2
 10
36.042088632
 20
113.85
 30
0.0
 11
36.042088632
 21
113.1
 31
0.0
  0
ARC
  8
0
  6
CONTINUOUS
 62
     2
 10
36.292088632
 20
113.85
 30
0.0
 40
0.25
 50
90.0
 51
180.0
  0
LINE
  8
0
  6
CONTINUOUS
 62
     2
 10
40.275916099
 20
113.1
 30
0.0
 11
40.275916099
 21
113.85
 31
0.0
  0
LINE
  8
0
  6
CONTINUOUS
 62
     2
 10
40.025916099
 20
114.1
 30
0.0
 11
36.292088632
 21
114.1
 31
0.0
  0
ARC
  8
0
  6
CONTINUOUS
 62
     2
 10
40.025916099
 20
113.85
 30
0.0
 40
0.25
 50
0.0
 51
90.0
  0
LINE
  8
0
  6
CONTINUOUS
 62
     2
 10
40.7585
 20
118.35
 30
0.0
 11
41.5085
 21
118.35
 31
0.0
  0
LINE
  8
0
  6
CONTINUOUS
 62
     2
 10
46.467
 20
113.6
 30
0.0
 11
46.217
 21
113.6
 31
0.0
  0
LINE
  8
0
  6
CONTINUOUS
 62
     2
 10
46.217
 20
113.6
 30
0.0
 11
46.217
 21
116.6
 31
0.0
  0
LINE
  8
0
  6
CONTINUOUS
 62
     2
 10
46.217
 20
116.6
 30
0.0
 11
46.467
 21
117.35
 31
0.0
  0
LINE
  8
0
  6
CONTINUOUS
 62
     2
 10
47.217
 20
113.6
 30
0.0
 11
47.467
 21
113.6
 31
0.0
  0
LINE
  8
0
  6
CONTINUOUS
 62
     2
 10
47.467
 20
113.6
 30
0.0
 11
47.467
 21
116.6
 31
0.0
  0
LINE
  8
0
  6
CONTINUOUS
 62
     2
 10
47.467
 20
116.6
 30
0.0
 11
47.217
 21
117.35
 31
0.0
  0
LINE
  8
0
  6
CONTINUOUS
 62
     2
 10
41.5085
 20
112.6
 30
0.0
 11
46.467
 21
112.6
 31
0.0
  0
LINE
  8
0
  6
CONTINUOUS
 62
     2
 10
41.5085
 20
112.6
 30
0.0
 11
46.467
 21
112.6
 31
0.0
  0
LINE
  8
0
  6
CONTINUOUS
 62
     2
 10
46.467
 20
112.6
 30
0.0
 11
46.467
 21
113.1
 31
0.0
  0
LINE
  8
0
  6
CONTINUOUS
 62
     2
 10
46.467
 20
113.1
 30
0.0
 11
41.5085
 21
113.1
 31
0.0
  0
LINE
  8
0
  6
CONTINUOUS
 62
     2
 10
41.5085
 20
113.1
 30
0.0
 11
41.5085
 21
112.6
 31
0.0
  0
LINE
  8
0
  6
CONTINUOUS
 62
     2
 10
42.48775
 20
112.6
 30
0.0
 11
42.48775
 21
111.1
 31
0.0
  0
ARC
  8
0
  6
CONTINUOUS
 62
     2
 10
42.73775
 20
111.1
 30
0.0
 40
0.25
 50
180.0
 51
270.0
  0
LINE
  8
0
  6
CONTINUOUS
 62
     2
 10
45.48775
 20
112.6
 30
0.0
 11
45.48775
 21
111.1
 31
0.0
  0
LINE
  8
0
  6
CONTINUOUS
 62
     2
 10
42.73775
 20
110.85
 30
0.0
 11
45.23775
 21
110.85
 31
0.0
  0
ARC
  8
0
  6
CONTINUOUS
 62
     2
 10
45.23775
 20
111.1
 30
0.0
 40
0.25
 50
270.0
 51
0.0
  0
LINE
  8
0
  6
CONTINUOUS
 62
     2
 10
42.08775
 20
114.1
 30
0.0
 11
42.08775
 21
114.6
 31
0.0
  0
LINE
  8
0
  6
CONTINUOUS
 62
     2
 10
42.08775
 20
114.6
 30
0.0
 11
45.88775
 21
114.6
 31
0.0
  0
LINE
  8
0
  6
CONTINUOUS
 62
     2
 10
45.88775
 20
114.6
 30
0.0
 11
45.88775
 21
114.1
 31
0.0
  0
LINE
  8
0
  6
CONTINUOUS
 62
     2
 10
43.98775
 20
114.6
 30
0.0
 11
43.699074865
 21
114.1
 31
0.0
  0
LINE
  8
0
  6
CONTINUOUS
 62
     2
 10
43.98775
 20
114.1
 30
0.0
 11
44.276425135
 21
114.6
 31
0.0
  0
LINE
  8
0
  6
CONTINUOUS
 62
     2
 10
42.23775
 20
114.6
 30
0.0
 11
42.23775
 21
115.25
 31
0.0
  0
ARC
  8
0
  6
CONTINUOUS
 62
     2
 10
42.88775
 20
115.25
 30
0.0
 40
0.65
 50
90.0
 51
180.0
  0
LINE
  8
0
  6
CONTINUOUS
 62
     2
 10
42.88775
 20
115.9
 30
0.0
 11
43.73775
 21
115.9
 31
0.0
  0
LINE
  8
0
  6
CONTINUOUS
 62
     2
 10
43.73775
 20
115.9
 30
0.0
 11
43.73775
 21
115.2
 31
0.0
  0
LINE
  8
0
  6
CONTINUOUS
 62
     2
 10
43.73775
 20
115.2
 30
0.0
 11
44.23775
 21
115.2
 31
0.0
  0
LINE
  8
0
  6
CONTINUOUS
 62
     2
 10
44.23775
 20
115.2
 30
0.0
 11
44.23775
 21
115.9
 31
0.0
  0
LINE
  8
0
  6
CONTINUOUS
 62
     2
 10
44.23775
 20
115.9
 30
0.0
 11
45.08775
 21
115.9
 31
0.0
  0
ARC
  8
0
  6
CONTINUOUS
 62
     2
 10
45.08775
 20
115.25
 30
0.0
 40
0.65
 50
0.0
 51
90.0
  0
LINE
  8
0
  6
CONTINUOUS
 62
     2
 10
45.73775
 20
115.25
 30
0.0
 11
45.73775
 21
114.6
 31
0.0
  0
LINE
  8
0
  6
CONTINUOUS
 62
     2
 10
41.5085
 20
117.6
 30
0.0
 11
46.467
 21
117.6
 31
0.0
  0
LINE
  8
0
  6
CONTINUOUS
 62
     2
 10
41.750588632
 20
113.1
 30
0.0
 11
45.984416099
 21
113.1
 31
0.0
  0
LINE
  8
0
  6
CONTINUOUS
 62
     2
 10
43.596664756
 20
114.1
 30
0.0
 11
43.596664756
 21
113.6
 31
0.0
  0
LINE
  8
0
  6
CONTINUOUS
 62
     2
 10
43.596664756
 20
113.6
 30
0.0
 11
44.094762105
 21
113.6
 31
0.0
  0
LINE
  8
0
  6
CONTINUOUS
 62
     2
 10
44.094762105
 20
114.1
 30
0.0
 11
44.094762105
 21
113.6
 31
0.0
  0
LINE
  8
0
  6
CONTINUOUS
 62
     2
 10
41.750588632
 20
113.85
 30
0.0
 11
41.750588632
 21
113.1
 31
0.0
  0
ARC
  8
0
  6
CONTINUOUS
 62
     2
 10
42.000588632
 20
113.85
 30
0.0
 40
0.25
 50
90.0
 51
180.0
  0
LINE
  8
0
  6
CONTINUOUS
 62
     2
 10
45.984416099
 20
113.1
 30
0.0
 11
45.984416099
 21
113.85
 31
0.0
  0
LINE
  8
0
  6
CONTINUOUS
 62
     2
 10
45.734416099
 20
114.1
 30
0.0
 11
42.000588632
 21
114.1
 31
0.0
  0
ARC
  8
0
  6
CONTINUOUS
 62
     2
 10
45.734416099
 20
113.85
 30
0.0
 40
0.25
 50
0.0
 51
90.0
  0
LINE
  8
0
  6
CONTINUOUS
 62
     2
 10
46.467
 20
118.35
 30
0.0
 11
47.217
 21
118.35
 31
0.0
  0
LINE
  8
0
  6
CONTINUOUS
 62
     2
 10
42.98775
 20
112.6
 30
0.0
 11
43.23775
 21
111.85
 31
0.0
  0
LINE
  8
0
  6
CONTINUOUS
 62
     2
 10
43.23775
 20
111.85
 30
0.0
 11
44.73775
 21
111.85
 31
0.0
  0
LINE
  8
0
  6
CONTINUOUS
 62
     2
 10
44.73775
 20
111.85
 30
0.0
 11
44.98775
 21
112.6
 31
0.0
  0
LINE
  8
0
  6
CONTINUOUS
 62
     2
 10
43.38775
 20
111.85
 30
0.0
 11
43.38775
 21
110.85
 31
0.0
  0
LINE
  8
0
  6
CONTINUOUS
 62
     2
 10
44.58775
 20
111.85
 30
0.0
 11
44.58775
 21
110.85
 31
0.0
  0
LINE
  8
0
  6
CONTINUOUS
 62
     2
 10
52.1755
 20
113.6
 30
0.0
 11
51.9255
 21
113.6
 31
0.0
  0
LINE
  8
0
  6
CONTINUOUS
 62
     2
 10
51.9255
 20
113.6
 30
0.0
 11
51.9255
 21
116.6
 31
0.0
  0
LINE
  8
0
  6
CONTINUOUS
 62
     2
 10
51.9255
 20
116.6
 30
0.0
 11
52.1755
 21
117.35
 31
0.0
  0
LINE
  8
0
  6
CONTINUOUS
 62
     2
 10
52.9255
 20
113.6
 30
0.0
 11
53.1755
 21
113.6
 31
0.0
  0
LINE
  8
0
  6
CONTINUOUS
 62
     2
 10
53.1755
 20
113.6
 30
0.0
 11
53.1755
 21
116.6
 31
0.0
  0
LINE
  8
0
  6
CONTINUOUS
 62
     2
 10
53.1755
 20
116.6
 30
0.0
 11
52.9255
 21
117.35
 31
0.0
  0
LINE
  8
0
  6
CONTINUOUS
 62
     2
 10
52.1755
 20
112.6
 30
0.0
 11
52.1755
 21
113.1
 31
0.0
  0
LINE
  8
0
  6
CONTINUOUS
 62
     2
 10
47.217
 20
113.1
 30
0.0
 11
47.217
 21
112.6
 31
0.0
  0
LINE
  8
0
  6
CONTINUOUS
 62
     2
 10
51.19625
 20
112.6
 30
0.0
 11
51.19625
 21
111.1
 31
0.0
  0
ARC
  8
0
  6
CONTINUOUS
 62
     2
 10
50.94625
 20
111.1
 30
0.0
 40
0.25
 50
270.0
 51
0.0
  0
LINE
  8
0
  6
CONTINUOUS
 62
     2
 10
47.79625
 20
114.1
 30
0.0
 11
47.79625
 21
114.6
 31
0.0
  0
LINE
  8
0
  6
CONTINUOUS
 62
     2
 10
47.79625
 20
114.6
 30
0.0
 11
51.59625
 21
114.6
 31
0.0
  0
LINE
  8
0
  6
CONTINUOUS
 62
     2
 10
51.59625
 20
114.6
 30
0.0
 11
51.59625
 21
114.1
 31
0.0
  0
LINE
  8
0
  6
CONTINUOUS
 62
     2
 10
49.69625
 20
114.6
 30
0.0
 11
49.407574865
 21
114.1
 31
0.0
  0
LINE
  8
0
  6
CONTINUOUS
 62
     2
 10
49.69625
 20
114.1
 30
0.0
 11
49.984925135
 21
114.6
 31
0.0
  0
LINE
  8
0
  6
CONTINUOUS
 62
     2
 10
47.94625
 20
114.6
 30
0.0
 11
47.94625
 21
115.25
 31
0.0
  0
ARC
  8
0
  6
CONTINUOUS
 62
     2
 10
48.59625
 20
115.25
 30
0.0
 40
0.65
 50
90.0
 51
180.0
  0
LINE
  8
0
  6
CONTINUOUS
 62
     2
 10
48.59625
 20
115.9
 30
0.0
 11
49.44625
 21
115.9
 31
0.0
  0
LINE
  8
0
  6
CONTINUOUS
 62
     2
 10
49.44625
 20
115.9
 30
0.0
 11
49.44625
 21
115.2
 31
0.0
  0
LINE
  8
0
  6
CONTINUOUS
 62
     2
 10
49.44625
 20
115.2
 30
0.0
 11
49.94625
 21
115.2
 31
0.0
  0
LINE
  8
0
  6
CONTINUOUS
 62
     2
 10
49.94625
 20
115.2
 30
0.0
 11
49.94625
 21
115.9
 31
0.0
  0
LINE
  8
0
  6
CONTINUOUS
 62
     2
 10
49.94625
 20
115.9
 30
0.0
 11
50.79625
 21
115.9
 31
0.0
  0
ARC
  8
0
  6
CONTINUOUS
 62
     2
 10
50.79625
 20
115.25
 30
0.0
 40
0.65
 50
0.0
 51
90.0
  0
LINE
  8
0
  6
CONTINUOUS
 62
     2
 10
51.44625
 20
115.25
 30
0.0
 11
51.44625
 21
114.6
 31
0.0
  0
LINE
  8
0
  6
CONTINUOUS
 62
     2
 10
47.217
 20
117.6
 30
0.0
 11
52.1755
 21
117.6
 31
0.0
  0
LINE
  8
0
  6
CONTINUOUS
 62
     2
 10
49.305164756
 20
114.1
 30
0.0
 11
49.305164756
 21
113.6
 31
0.0
  0
LINE
  8
0
  6
CONTINUOUS
 62
     2
 10
49.305164756
 20
113.6
 30
0.0
 11
49.803262105
 21
113.6
 31
0.0
  0
LINE
  8
0
  6
CONTINUOUS
 62
     2
 10
49.803262105
 20
114.1
 30
0.0
 11
49.803262105
 21
113.6
 31
0.0
  0
LINE
  8
0
  6
CONTINUOUS
 62
     2
 10
47.459088632
 20
113.85
 30
0.0
 11
47.459088632
 21
113.1
 31
0.0
  0
ARC
  8
0
  6
CONTINUOUS
 62
     2
 10
47.709088632
 20
113.85
 30
0.0
 40
0.25
 50
90.0
 51
180.0
  0
LINE
  8
0
  6
CONTINUOUS
 62
     2
 10
51.692916099
 20
113.1
 30
0.0
 11
51.692916099
 21
113.85
 31
0.0
  0
LINE
  8
0
  6
CONTINUOUS
 62
     2
 10
51.442916099
 20
114.1
 30
0.0
 11
47.709088632
 21
114.1
 31
0.0
  0
ARC
  8
0
  6
CONTINUOUS
 62
     2
 10
51.442916099
 20
113.85
 30
0.0
 40
0.25
 50
0.0
 51
90.0
  0
LINE
  8
0
  6
CONTINUOUS
 62
     2
 10
52.1755
 20
118.35
 30
0.0
 11
52.9255
 21
118.35
 31
0.0
  0
LINE
  8
0
  6
CONTINUOUS
 62
     2
 10
57.884
 20
113.6
 30
0.0
 11
57.634
 21
113.6
 31
0.0
  0
LINE
  8
0
  6
CONTINUOUS
 62
     2
 10
57.634
 20
113.6
 30
0.0
 11
57.634
 21
116.6
 31
0.0
  0
LINE
  8
0
  6
CONTINUOUS
 62
     2
 10
57.634
 20
116.6
 30
0.0
 11
57.884
 21
117.35
 31
0.0
  0
LINE
  8
0
  6
CONTINUOUS
 62
     2
 10
58.634
 20
113.6
 30
0.0
 11
58.884
 21
113.6
 31
0.0
  0
LINE
  8
0
  6
CONTINUOUS
 62
     2
 10
58.884
 20
113.6
 30
0.0
 11
58.884
 21
116.6
 31
0.0
  0
LINE
  8
0
  6
CONTINUOUS
 62
     2
 10
58.884
 20
116.6
 30
0.0
 11
58.634
 21
117.35
 31
0.0
  0
LINE
  8
0
  6
CONTINUOUS
 62
     2
 10
52.9255
 20
112.6
 30
0.0
 11
57.884
 21
112.6
 31
0.0
  0
LINE
  8
0
  6
CONTINUOUS
 62
     2
 10
52.9255
 20
112.6
 30
0.0
 11
57.884
 21
112.6
 31
0.0
  0
LINE
  8
0
  6
CONTINUOUS
 62
     2
 10
57.884
 20
112.6
 30
0.0
 11
57.884
 21
113.1
 31
0.0
  0
LINE
  8
0
  6
CONTINUOUS
 62
     2
 10
57.884
 20
113.1
 30
0.0
 11
52.9255
 21
113.1
 31
0.0
  0
LINE
  8
0
  6
CONTINUOUS
 62
     2
 10
52.9255
 20
113.1
 30
0.0
 11
52.9255
 21
112.6
 31
0.0
  0
LINE
  8
0
  6
CONTINUOUS
 62
     2
 10
53.90475
 20
112.6
 30
0.0
 11
53.90475
 21
111.1
 31
0.0
  0
ARC
  8
0
  6
CONTINUOUS
 62
     2
 10
54.15475
 20
111.1
 30
0.0
 40
0.25
 50
180.0
 51
270.0
  0
LINE
  8
0
  6
CONTINUOUS
 62
     2
 10
56.90475
 20
112.6
 30
0.0
 11
56.90475
 21
111.1
 31
0.0
  0
LINE
  8
0
  6
CONTINUOUS
 62
     2
 10
54.15475
 20
110.85
 30
0.0
 11
56.65475
 21
110.85
 31
0.0
  0
ARC
  8
0
  6
CONTINUOUS
 62
     2
 10
56.65475
 20
111.1
 30
0.0
 40
0.25
 50
270.0
 51
0.0
  0
LINE
  8
0
  6
CONTINUOUS
 62
     2
 10
53.50475
 20
114.1
 30
0.0
 11
53.50475
 21
114.6
 31
0.0
  0
LINE
  8
0
  6
CONTINUOUS
 62
     2
 10
53.50475
 20
114.6
 30
0.0
 11
57.30475
 21
114.6
 31
0.0
  0
LINE
  8
0
  6
CONTINUOUS
 62
     2
 10
57.30475
 20
114.6
 30
0.0
 11
57.30475
 21
114.1
 31
0.0
  0
LINE
  8
0
  6
CONTINUOUS
 62
     2
 10
55.40475
 20
114.6
 30
0.0
 11
55.116074865
 21
114.1
 31
0.0
  0
LINE
  8
0
  6
CONTINUOUS
 62
     2
 10
55.40475
 20
114.1
 30
0.0
 11
55.693425135
 21
114.6
 31
0.0
  0
LINE
  8
0
  6
CONTINUOUS
 62
     2
 10
53.65475
 20
114.6
 30
0.0
 11
53.65475
 21
115.25
 31
0.0
  0
ARC
  8
0
  6
CONTINUOUS
 62
     2
 10
54.30475
 20
115.25
 30
0.0
 40
0.65
 50
90.0
 51
180.0
  0
LINE
  8
0
  6
CONTINUOUS
 62
     2
 10
54.30475
 20
115.9
 30
0.0
 11
55.15475
 21
115.9
 31
0.0
  0
LINE
  8
0
  6
CONTINUOUS
 62
     2
 10
55.15475
 20
115.9
 30
0.0
 11
55.15475
 21
115.2
 31
0.0
  0
LINE
  8
0
  6
CONTINUOUS
 62
     2
 10
55.15475
 20
115.2
 30
0.0
 11
55.65475
 21
115.2
 31
0.0
  0
LINE
  8
0
  6
CONTINUOUS
 62
     2
 10
55.65475
 20
115.2
 30
0.0
 11
55.65475
 21
115.9
 31
0.0
  0
LINE
  8
0
  6
CONTINUOUS
 62
     2
 10
55.65475
 20
115.9
 30
0.0
 11
56.50475
 21
115.9
 31
0.0
  0
ARC
  8
0
  6
CONTINUOUS
 62
     2
 10
56.50475
 20
115.25
 30
0.0
 40
0.65
 50
0.0
 51
90.0
  0
LINE
  8
0
  6
CONTINUOUS
 62
     2
 10
57.15475
 20
115.25
 30
0.0
 11
57.15475
 21
114.6
 31
0.0
  0
LINE
  8
0
  6
CONTINUOUS
 62
     2
 10
52.9255
 20
117.6
 30
0.0
 11
57.884
 21
117.6
 31
0.0
  0
LINE
  8
0
  6
CONTINUOUS
 62
     2
 10
53.167588632
 20
113.1
 30
0.0
 11
57.401416099
 21
113.1
 31
0.0
  0
LINE
  8
0
  6
CONTINUOUS
 62
     2
 10
55.013664756
 20
114.1
 30
0.0
 11
55.013664756
 21
113.6
 31
0.0
  0
LINE
  8
0
  6
CONTINUOUS
 62
     2
 10
55.013664756
 20
113.6
 30
0.0
 11
55.511762105
 21
113.6
 31
0.0
  0
LINE
  8
0
  6
CONTINUOUS
 62
     2
 10
55.511762105
 20
114.1
 30
0.0
 11
55.511762105
 21
113.6
 31
0.0
  0
LINE
  8
0
  6
CONTINUOUS
 62
     2
 10
53.167588632
 20
113.85
 30
0.0
 11
53.167588632
 21
113.1
 31
0.0
  0
ARC
  8
0
  6
CONTINUOUS
 62
     2
 10
53.417588632
 20
113.85
 30
0.0
 40
0.25
 50
90.0
 51
180.0
  0
LINE
  8
0
  6
CONTINUOUS
 62
     2
 10
57.401416099
 20
113.1
 30
0.0
 11
57.401416099
 21
113.85
 31
0.0
  0
LINE
  8
0
  6
CONTINUOUS
 62
     2
 10
57.151416099
 20
114.1
 30
0.0
 11
53.417588632
 21
114.1
 31
0.0
  0
ARC
  8
0
  6
CONTINUOUS
 62
     2
 10
57.151416099
 20
113.85
 30
0.0
 40
0.25
 50
0.0
 51
90.0
  0
LINE
  8
0
  6
CONTINUOUS
 62
     2
 10
57.884
 20
118.35
 30
0.0
 11
58.634
 21
118.35
 31
0.0
  0
LINE
  8
0
  6
CONTINUOUS
 62
     2
 10
54.40475
 20
112.6
 30
0.0
 11
54.65475
 21
111.85
 31
0.0
  0
LINE
  8
0
  6
CONTINUOUS
 62
     2
 10
54.65475
 20
111.85
 30
0.0
 11
56.15475
 21
111.85
 31
0.0
  0
LINE
  8
0
  6
CONTINUOUS
 62
     2
 10
56.15475
 20
111.85
 30
0.0
 11
56.40475
 21
112.6
 31
0.0
  0
LINE
  8
0
  6
CONTINUOUS
 62
     2
 10
54.80475
 20
111.85
 30
0.0
 11
54.80475
 21
110.85
 31
0.0
  0
LINE
  8
0
  6
CONTINUOUS
 62
     2
 10
56.00475
 20
111.85
 30
0.0
 11
56.00475
 21
110.85
 31
0.0
  0
LINE
  8
0
  6
CONTINUOUS
 62
     2
 10
63.5925
 20
113.6
 30
0.0
 11
63.3425
 21
113.6
 31
0.0
  0
LINE
  8
0
  6
CONTINUOUS
 62
     2
 10
63.3425
 20
113.6
 30
0.0
 11
63.3425
 21
116.6
 31
0.0
  0
LINE
  8
0
  6
CONTINUOUS
 62
     2
 10
63.3425
 20
116.6
 30
0.0
 11
63.5925
 21
117.35
 31
0.0
  0
LINE
  8
0
  6
CONTINUOUS
 62
     2
 10
64.3425
 20
113.6
 30
0.0
 11
64.5925
 21
113.6
 31
0.0
  0
LINE
  8
0
  6
CONTINUOUS
 62
     2
 10
64.5925
 20
113.6
 30
0.0
 11
64.5925
 21
116.6
 31
0.0
  0
LINE
  8
0
  6
CONTINUOUS
 62
     2
 10
64.5925
 20
116.6
 30
0.0
 11
64.3425
 21
117.35
 31
0.0
  0
LINE
  8
0
  6
CONTINUOUS
 62
     2
 10
63.5925
 20
112.6
 30
0.0
 11
63.5925
 21
113.1
 31
0.0
  0
LINE
  8
0
  6
CONTINUOUS
 62
     2
 10
58.634
 20
113.1
 30
0.0
 11
58.634
 21
112.6
 31
0.0
  0
LINE
  8
0
  6
CONTINUOUS
 62
     2
 10
62.61325
 20
112.6
 30
0.0
 11
62.61325
 21
111.1
 31
0.0
  0
ARC
  8
0
  6
CONTINUOUS
 62
     2
 10
62.36325
 20
111.1
 30
0.0
 40
0.25
 50
270.0
 51
0.0
  0
LINE
  8
0
  6
CONTINUOUS
 62
     2
 10
59.21325
 20
114.1
 30
0.0
 11
59.21325
 21
114.6
 31
0.0
  0
LINE
  8
0
  6
CONTINUOUS
 62
     2
 10
59.21325
 20
114.6
 30
0.0
 11
63.01325
 21
114.6
 31
0.0
  0
LINE
  8
0
  6
CONTINUOUS
 62
     2
 10
63.01325
 20
114.6
 30
0.0
 11
63.01325
 21
114.1
 31
0.0
  0
LINE
  8
0
  6
CONTINUOUS
 62
     2
 10
61.11325
 20
114.6
 30
0.0
 11
60.824574865
 21
114.1
 31
0.0
  0
LINE
  8
0
  6
CONTINUOUS
 62
     2
 10
61.11325
 20
114.1
 30
0.0
 11
61.401925135
 21
114.6
 31
0.0
  0
LINE
  8
0
  6
CONTINUOUS
 62
     2
 10
59.36325
 20
114.6
 30
0.0
 11
59.36325
 21
115.25
 31
0.0
  0
ARC
  8
0
  6
CONTINUOUS
 62
     2
 10
60.01325
 20
115.25
 30
0.0
 40
0.65
 50
90.0
 51
180.0
  0
LINE
  8
0
  6
CONTINUOUS
 62
     2
 10
60.01325
 20
115.9
 30
0.0
 11
60.86325
 21
115.9
 31
0.0
  0
LINE
  8
0
  6
CONTINUOUS
 62
     2
 10
60.86325
 20
115.9
 30
0.0
 11
60.86325
 21
115.2
 31
0.0
  0
LINE
  8
0
  6
CONTINUOUS
 62
     2
 10
60.86325
 20
115.2
 30
0.0
 11
61.36325
 21
115.2
 31
0.0
  0
LINE
  8
0
  6
CONTINUOUS
 62
     2
 10
61.36325
 20
115.2
 30
0.0
 11
61.36325
 21
115.9
 31
0.0
  0
LINE
  8
0
  6
CONTINUOUS
 62
     2
 10
61.36325
 20
115.9
 30
0.0
 11
62.21325
 21
115.9
 31
0.0
  0
ARC
  8
0
  6
CONTINUOUS
 62
     2
 10
62.21325
 20
115.25
 30
0.0
 40
0.65
 50
0.0
 51
90.0
  0
LINE
  8
0
  6
CONTINUOUS
 62
     2
 10
62.86325
 20
115.25
 30
0.0
 11
62.86325
 21
114.6
 31
0.0
  0
LINE
  8
0
  6
CONTINUOUS
 62
     2
 10
58.634
 20
117.6
 30
0.0
 11
63.5925
 21
117.6
 31
0.0
  0
LINE
  8
0
  6
CONTINUOUS
 62
     2
 10
60.722164756
 20
114.1
 30
0.0
 11
60.722164756
 21
113.6
 31
0.0
  0
LINE
  8
0
  6
CONTINUOUS
 62
     2
 10
60.722164756
 20
113.6
 30
0.0
 11
61.220262105
 21
113.6
 31
0.0
  0
LINE
  8
0
  6
CONTINUOUS
 62
     2
 10
61.220262105
 20
114.1
 30
0.0
 11
61.220262105
 21
113.6
 31
0.0
  0
LINE
  8
0
  6
CONTINUOUS
 62
     2
 10
58.876088632
 20
113.85
 30
0.0
 11
58.876088632
 21
113.1
 31
0.0
  0
ARC
  8
0
  6
CONTINUOUS
 62
     2
 10
59.126088632
 20
113.85
 30
0.0
 40
0.25
 50
90.0
 51
180.0
  0
LINE
  8
0
  6
CONTINUOUS
 62
     2
 10
63.109916099
 20
113.1
 30
0.0
 11
63.109916099
 21
113.85
 31
0.0
  0
LINE
  8
0
  6
CONTINUOUS
 62
     2
 10
62.859916099
 20
114.1
 30
0.0
 11
59.126088632
 21
114.1
 31
0.0
  0
ARC
  8
0
  6
CONTINUOUS
 62
     2
 10
62.859916099
 20
113.85
 30
0.0
 40
0.25
 50
0.0
 51
90.0
  0
LINE
  8
0
  6
CONTINUOUS
 62
     2
 10
63.5925
 20
118.35
 30
0.0
 11
64.3425
 21
118.35
 31
0.0
  0
LINE
  8
0
  6
CONTINUOUS
 62
     2
 10
69.301
 20
112.6
 30
0.0
 11
69.301
 21
113.1
 31
0.0
  0
LINE
  8
0
  6
CONTINUOUS
 62
     2
 10
64.3425
 20
113.1
 30
0.0
 11
64.3425
 21
112.6
 31
0.0
  0
LINE
  8
0
  6
CONTINUOUS
 62
     2
 10
68.32175
 20
112.6
 30
0.0
 11
68.32175
 21
111.1
 31
0.0
  0
ARC
  8
0
  6
CONTINUOUS
 62
     2
 10
68.07175
 20
111.1
 30
0.0
 40
0.25
 50
270.0
 51
0.0
  0
LINE
  8
0
  6
CONTINUOUS
 62
     2
 10
64.92175
 20
114.1
 30
0.0
 11
64.92175
 21
114.6
 31
0.0
  0
LINE
  8
0
  6
CONTINUOUS
 62
     2
 10
64.92175
 20
114.6
 30
0.0
 11
68.72175
 21
114.6
 31
0.0
  0
LINE
  8
0
  6
CONTINUOUS
 62
     2
 10
68.72175
 20
114.6
 30
0.0
 11
68.72175
 21
114.1
 31
0.0
  0
LINE
  8
0
  6
CONTINUOUS
 62
     2
 10
66.82175
 20
114.6
 30
0.0
 11
66.533074865
 21
114.1
 31
0.0
  0
LINE
  8
0
  6
CONTINUOUS
 62
     2
 10
66.82175
 20
114.1
 30
0.0
 11
67.110425135
 21
114.6
 31
0.0
  0
LINE
  8
0
  6
CONTINUOUS
 62
     2
 10
65.07175
 20
114.6
 30
0.0
 11
65.07175
 21
115.25
 31
0.0
  0
ARC
  8
0
  6
CONTINUOUS
 62
     2
 10
65.72175
 20
115.25
 30
0.0
 40
0.65
 50
90.0
 51
180.0
  0
LINE
  8
0
  6
CONTINUOUS
 62
     2
 10
65.72175
 20
115.9
 30
0.0
 11
66.57175
 21
115.9
 31
0.0
  0
LINE
  8
0
  6
CONTINUOUS
 62
     2
 10
66.57175
 20
115.9
 30
0.0
 11
66.57175
 21
115.2
 31
0.0
  0
LINE
  8
0
  6
CONTINUOUS
 62
     2
 10
66.57175
 20
115.2
 30
0.0
 11
67.07175
 21
115.2
 31
0.0
  0
LINE
  8
0
  6
CONTINUOUS
 62
     2
 10
67.07175
 20
115.2
 30
0.0
 11
67.07175
 21
115.9
 31
0.0
  0
LINE
  8
0
  6
CONTINUOUS
 62
     2
 10
67.07175
 20
115.9
 30
0.0
 11
67.92175
 21
115.9
 31
0.0
  0
ARC
  8
0
  6
CONTINUOUS
 62
     2
 10
67.92175
 20
115.25
 30
0.0
 40
0.65
 50
0.0
 51
90.0
  0
LINE
  8
0
  6
CONTINUOUS
 62
     2
 10
68.57175
 20
115.25
 30
0.0
 11
68.57175
 21
114.6
 31
0.0
  0
LINE
  8
0
  6
CONTINUOUS
 62
     2
 10
64.3425
 20
117.6
 30
0.0
 11
69.301
 21
117.6
 31
0.0
  0
LINE
  8
0
  6
CONTINUOUS
 62
     2
 10
66.430664756
 20
114.1
 30
0.0
 11
66.430664756
 21
113.6
 31
0.0
  0
LINE
  8
0
  6
CONTINUOUS
 62
     2
 10
66.430664756
 20
113.6
 30
0.0
 11
66.928762105
 21
113.6
 31
0.0
  0
LINE
  8
0
  6
CONTINUOUS
 62
     2
 10
66.928762105
 20
114.1
 30
0.0
 11
66.928762105
 21
113.6
 31
0.0
  0
LINE
  8
0
  6
CONTINUOUS
 62
     2
 10
64.584588632
 20
113.85
 30
0.0
 11
64.584588632
 21
113.1
 31
0.0
  0
ARC
  8
0
  6
CONTINUOUS
 62
     2
 10
64.834588632
 20
113.85
 30
0.0
 40
0.25
 50
90.0
 51
180.0
  0
LINE
  8
0
  6
CONTINUOUS
 62
     2
 10
68.818416099
 20
113.1
 30
0.0
 11
68.818416099
 21
113.85
 31
0.0
  0
LINE
  8
0
  6
CONTINUOUS
 62
     2
 10
68.568416099
 20
114.1
 30
0.0
 11
64.834588632
 21
114.1
 31
0.0
  0
ARC
  8
0
  6
CONTINUOUS
 62
     2
 10
68.568416099
 20
113.85
 30
0.0
 40
0.25
 50
0.0
 51
90.0
  0
LINE
  8
0
  6
CONTINUOUS
 62
     2
 10
69.301
 20
118.35
 30
0.0
 11
70.051
 21
118.35
 31
0.0
  0
LINE
  8
0
  6
CONTINUOUS
 62
     2
 10
46.467
 20
108.1
 30
0.0
 11
47.217
 21
108.1
 31
0.0
  0
LINE
  8
0
  6
CONTINUOUS
 62
     2
 10
46.467
 20
113.6
 30
0.0
 11
46.467
 21
108.1
 31
0.0
  0
LINE
  8
0
  6
CONTINUOUS
 62
     2
 10
47.217
 20
113.6
 30
0.0
 11
47.217
 21
108.1
 31
0.0
  0
LINE
  8
0
  6
CONTINUOUS
 62
     2
 10
52.1755
 20
108.1
 30
0.0
 11
52.9255
 21
108.1
 31
0.0
  0
LINE
  8
0
  6
CONTINUOUS
 62
     2
 10
52.1755
 20
113.6
 30
0.0
 11
52.1755
 21
108.1
 31
0.0
  0
LINE
  8
0
  6
CONTINUOUS
 62
     2
 10
52.9255
 20
113.6
 30
0.0
 11
52.9255
 21
108.1
 31
0.0
  0
LINE
  8
0
  6
CONTINUOUS
 62
     2
 10
57.884
 20
108.1
 30
0.0
 11
58.634
 21
108.1
 31
0.0
  0
LINE
  8
0
  6
CONTINUOUS
 62
     2
 10
57.884
 20
113.6
 30
0.0
 11
57.884
 21
108.1
 31
0.0
  0
LINE
  8
0
  6
CONTINUOUS
 62
     2
 10
58.634
 20
113.6
 30
0.0
 11
58.634
 21
108.1
 31
0.0
  0
LINE
  8
0
  6
CONTINUOUS
 62
     2
 10
63.5925
 20
108.1
 30
0.0
 11
64.3425
 21
108.1
 31
0.0
  0
LINE
  8
0
  6
CONTINUOUS
 62
     2
 10
63.5925
 20
113.6
 30
0.0
 11
63.5925
 21
108.1
 31
0.0
  0
LINE
  8
0
  6
CONTINUOUS
 62
     2
 10
64.3425
 20
113.6
 30
0.0
 11
64.3425
 21
108.1
 31
0.0
  0
LINE
  8
0
  6
CONTINUOUS
 62
     2
 10
70.05
 20
108.1
 30
0.0
 11
69.3
 21
108.1
 31
0.0
  0
LINE
  8
0
  6
CONTINUOUS
 62
     2
 10
35.8
 20
118.35
 30
0.0
 11
40.7585
 21
118.35
 31
0.0
  0
LINE
  8
0
  6
CONTINUOUS
 62
     2
 10
41.5085
 20
118.35
 30
0.0
 11
46.467
 21
118.35
 31
0.0
  0
LINE
  8
0
  6
CONTINUOUS
 62
     2
 10
47.217
 20
118.35
 30
0.0
 11
52.1755
 21
118.35
 31
0.0
  0
LINE
  8
0
  6
CONTINUOUS
 62
     2
 10
52.9255
 20
118.35
 30
0.0
 11
57.884
 21
118.35
 31
0.0
  0
LINE
  8
0
  6
CONTINUOUS
 62
     2
 10
58.634
 20
118.35
 30
0.0
 11
63.5925
 21
118.35
 31
0.0
  0
LINE
  8
0
  6
CONTINUOUS
 62
     2
 10
64.3425
 20
118.35
 30
0.0
 11
69.301
 21
118.35
 31
0.0
  0
LINE
  8
0
  6
CONTINUOUS
 62
     2
 10
35.05
 20
119.1
 30
0.0
 11
35.05
 21
108.1
 31
0.0
  0
LINE
  8
0
  6
CONTINUOUS
 62
     2
 10
35.8
 20
119.1
 30
0.0
 11
35.8
 21
108.1
 31
0.0
  0
LINE
  8
0
  6
CONTINUOUS
 62
     2
 10
40.7585
 20
119.1
 30
0.0
 11
40.7585
 21
117.35
 31
0.0
  0
LINE
  8
0
  6
CONTINUOUS
 62
     2
 10
41.5085
 20
119.1
 30
0.0
 11
41.5085
 21
117.35
 31
0.0
  0
LINE
  8
0
  6
CONTINUOUS
 62
     2
 10
35.05
 20
120.1
 30
0.0
 11
35.05
 21
119.35
 31
0.0
  0
LINE
  8
0
  6
CONTINUOUS
 62
     2
 10
35.05
 20
119.35
 30
0.0
 11
33.8
 21
119.35
 31
0.0
  0
LINE
  8
0
  6
CONTINUOUS
 62
     2
 10
33.8
 20
120.1
 30
0.0
 11
33.8
 21
119.1
 31
0.0
  0
LINE
  8
0
  6
CONTINUOUS
 62
     2
 10
70.05
 20
120.1
 30
0.0
 11
70.05
 21
119.35
 31
0.0
  0
LINE
  8
0
  6
CONTINUOUS
 62
     2
 10
70.05
 20
119.35
 30
0.0
 11
71.3
 21
119.35
 31
0.0
  0
LINE
  8
0
  6
CONTINUOUS
 62
     2
 10
71.3
 20
120.1
 30
0.0
 11
71.3
 21
119.1
 31
0.0
  0
LINE
  8
0
  6
CONTINUOUS
 62
     2
 10
46.467
 20
119.1
 30
0.0
 11
46.467
 21
117.35
 31
0.0
  0
LINE
  8
0
  6
CONTINUOUS
 62
     2
 10
47.217
 20
119.1
 30
0.0
 11
47.217
 21
117.35
 31
0.0
  0
LINE
  8
0
  6
CONTINUOUS
 62
     2
 10
52.1755
 20
119.1
 30
0.0
 11
52.1755
 21
117.35
 31
0.0
  0
LINE
  8
0
  6
CONTINUOUS
 62
     2
 10
52.9255
 20
119.1
 30
0.0
 11
52.9255
 21
117.35
 31
0.0
  0
LINE
  8
0
  6
CONTINUOUS
 62
     2
 10
57.884
 20
119.1
 30
0.0
 11
57.884
 21
117.35
 31
0.0
  0
LINE
  8
0
  6
CONTINUOUS
 62
     2
 10
58.634
 20
119.1
 30
0.0
 11
58.634
 21
117.35
 31
0.0
  0
LINE
  8
0
  6
CONTINUOUS
 62
     2
 10
63.5925
 20
119.1
 30
0.0
 11
63.5925
 21
117.35
 31
0.0
  0
LINE
  8
0
  6
CONTINUOUS
 62
     2
 10
64.3425
 20
119.1
 30
0.0
 11
64.3425
 21
117.35
 31
0.0
  0
LINE
  8
0
  6
CONTINUOUS
 62
     2
 10
70.051
 20
119.1
 30
0.0
 11
70.051
 21
117.35
 31
0.0
  0
LINE
  8
0
  6
CONTINUOUS
 62
     2
 10
69.301
 20
119.1
 30
0.0
 11
69.301
 21
108.1
 31
0.0
  0
LINE
  8
0
  6
CONTINUOUS
 62
     2
 10
33.8
 20
119.1
 30
0.0
 11
35.8
 21
119.1
 31
0.0
  0
LINE
  8
0
  6
CONTINUOUS
 62
     2
 10
40.7585
 20
119.1
 30
0.0
 11
41.5085
 21
119.1
 31
0.0
  0
LINE
  8
0
  6
CONTINUOUS
 62
     2
 10
46.467
 20
119.1
 30
0.0
 11
47.217
 21
119.1
 31
0.0
  0
LINE
  8
0
  6
CONTINUOUS
 62
     2
 10
52.1755
 20
119.1
 30
0.0
 11
52.9255
 21
119.1
 31
0.0
  0
LINE
  8
0
  6
CONTINUOUS
 62
     2
 10
57.884
 20
119.1
 30
0.0
 11
58.634
 21
119.1
 31
0.0
  0
LINE
  8
0
  6
CONTINUOUS
 62
     2
 10
63.5925
 20
119.1
 30
0.0
 11
64.3425
 21
119.1
 31
0.0
  0
LINE
  8
0
  6
CONTINUOUS
 62
     2
 10
69.301
 20
119.1
 30
0.0
 11
71.3
 21
119.1
 31
0.0
  0
LINE
  8
0
  6
CONTINUOUS
 62
     2
 10
70.05
 20
107.1
 30
0.0
 11
70.05
 21
119.1
 31
0.0
  0
LINE
  8
0
  6
CONTINUOUS
 62
     2
 10
70.05
 20
110.85
 30
0.0
 11
74.1245
 21
110.85
 31
0.0
  0
LINE
  8
0
  6
CONTINUOUS
 62
     2
 10
70.18725
 20
111.35
 30
0.0
 11
70.18725
 21
111.85
 31
0.0
  0
LINE
  8
0
  6
CONTINUOUS
 62
     2
 10
70.18725
 20
111.85
 30
0.0
 11
73.98725
 21
111.85
 31
0.0
  0
LINE
  8
0
  6
CONTINUOUS
 62
     2
 10
73.98725
 20
111.85
 30
0.0
 11
73.98725
 21
111.35
 31
0.0
  0
LINE
  8
0
  6
CONTINUOUS
 62
     2
 10
72.08725
 20
111.85
 30
0.0
 11
71.798574865
 21
111.35
 31
0.0
  0
LINE
  8
0
  6
CONTINUOUS
 62
     2
 10
72.08725
 20
111.35
 30
0.0
 11
72.375925135
 21
111.85
 31
0.0
  0
LINE
  8
0
  6
CONTINUOUS
 62
     2
 10
70.33725
 20
111.85
 30
0.0
 11
70.33725
 21
112.5
 31
0.0
  0
ARC
  8
0
  6
CONTINUOUS
 62
     2
 10
70.98725
 20
112.5
 30
0.0
 40
0.65
 50
90.0
 51
180.0
  0
LINE
  8
0
  6
CONTINUOUS
 62
     2
 10
70.98725
 20
113.15
 30
0.0
 11
71.83725
 21
113.15
 31
0.0
  0
LINE
  8
0
  6
CONTINUOUS
 62
     2
 10
71.83725
 20
113.15
 30
0.0
 11
71.83725
 21
112.45
 31
0.0
  0
LINE
  8
0
  6
CONTINUOUS
 62
     2
 10
71.83725
 20
112.45
 30
0.0
 11
72.33725
 21
112.45
 31
0.0
  0
LINE
  8
0
  6
CONTINUOUS
 62
     2
 10
72.33725
 20
112.45
 30
0.0
 11
72.33725
 21
113.15
 31
0.0
  0
LINE
  8
0
  6
CONTINUOUS
 62
     2
 10
72.33725
 20
113.15
 30
0.0
 11
73.18725
 21
113.15
 31
0.0
  0
ARC
  8
0
  6
CONTINUOUS
 62
     2
 10
73.18725
 20
112.5
 30
0.0
 40
0.65
 50
0.0
 51
90.0
  0
LINE
  8
0
  6
CONTINUOUS
 62
     2
 10
73.83725
 20
112.5
 30
0.0
 11
73.83725
 21
111.85
 31
0.0
  0
LINE
  8
0
  6
CONTINUOUS
 62
     2
 10
74.08725
 20
111.35
 30
0.0
 11
70.08725
 21
111.35
 31
0.0
  0
LINE
  8
0
  6
CONTINUOUS
 62
     2
 10
70.08725
 20
111.35
 30
0.0
 11
70.08725
 21
110.85
 31
0.0
  0
LINE
  8
0
  6
CONTINUOUS
 62
     2
 10
70.08725
 20
110.85
 30
0.0
 11
74.08725
 21
110.85
 31
0.0
  0
LINE
  8
0
  6
CONTINUOUS
 62
     2
 10
74.08725
 20
110.85
 30
0.0
 11
74.08725
 21
111.35
 31
0.0
  0
LINE
  8
0
  6
CONTINUOUS
 62
     2
 10
34.91275
 20
111.35
 30
0.0
 11
34.91275
 21
111.85
 31
0.0
  0
LINE
  8
0
  6
CONTINUOUS
 62
     2
 10
34.76275
 20
111.85
 30
0.0
 11
34.76275
 21
112.5
 31
0.0
  0
ARC
  8
0
  6
CONTINUOUS
 62
     2
 10
34.11275
 20
112.5
 30
0.0
 40
0.65
 50
0.0
 51
90.0
  0
LINE
  8
0
  6
CONTINUOUS
 62
     2
 10
34.11275
 20
113.15
 30
0.0
 11
33.26275
 21
113.15
 31
0.0
  0
LINE
  8
0
  6
CONTINUOUS
 62
     2
 10
33.26275
 20
113.15
 30
0.0
 11
33.26275
 21
112.45
 31
0.0
  0
LINE
  8
0
  6
CONTINUOUS
 62
     2
 10
32.76275
 20
113.15
 30
0.0
 11
31.91275
 21
113.15
 31
0.0
  0
LINE
  8
0
  6
CONTINUOUS
 62
     2
 10
35.01275
 20
111.35
 30
0.0
 11
35.01275
 21
110.85
 31
0.0
  0
LINE
  8
0
  6
CONTINUOUS
 62
     2
 10
30.9255
 20
107.1
 30
0.0
 11
30.9755
 21
110.85
 31
0.0
  0
LINE
  8
0
  6
CONTINUOUS
 62
     2
 10
31.11275
 20
111.85
 30
0.0
 11
31.11275
 21
111.35
 31
0.0
  0
LINE
  8
0
  6
CONTINUOUS
 62
     2
 10
31.26275
 20
112.5
 30
0.0
 11
31.26275
 21
111.85
 31
0.0
  0
LINE
  8
0
  6
CONTINUOUS
 62
     2
 10
31.01275
 20
110.85
 30
0.0
 11
31.01275
 21
111.35
 31
0.0
  0
LINE
  8
0
  6
CONTINUOUS
 62
     2
 10
30.9755
 20
110.85
 30
0.0
 11
35.05
 21
110.85
 31
0.0
  0
LINE
  8
0
  6
CONTINUOUS
 62
     2
 10
34.91275
 20
111.85
 30
0.0
 11
31.11275
 21
111.85
 31
0.0
  0
LINE
  8
0
  6
CONTINUOUS
 62
     2
 10
33.01275
 20
111.85
 30
0.0
 11
33.301425135
 21
111.35
 31
0.0
  0
LINE
  8
0
  6
CONTINUOUS
 62
     2
 10
33.01275
 20
111.35
 30
0.0
 11
32.724074865
 21
111.85
 31
0.0
  0
LINE
  8
0
  6
CONTINUOUS
 62
     2
 10
33.26275
 20
112.45
 30
0.0
 11
32.76275
 21
112.45
 31
0.0
  0
LINE
  8
0
  6
CONTINUOUS
 62
     2
 10
32.76275
 20
112.45
 30
0.0
 11
32.76275
 21
113.15
 31
0.0
  0
ARC
  8
0
  6
CONTINUOUS
 62
     2
 10
31.91275
 20
112.5
 30
0.0
 40
0.65
 50
90.0
 51
180.0
  0
LINE
  8
0
  6
CONTINUOUS
 62
     2
 10
31.01275
 20
111.35
 30
0.0
 11
35.01275
 21
111.35
 31
0.0
  0
LINE
  8
0
  6
CONTINUOUS
 62
     2
 10
35.01275
 20
110.85
 30
0.0
 11
31.01275
 21
110.85
 31
0.0
  0
LINE
  8
0
  6
CONTINUOUS
 62
     2
 10
126.15
 20
107.1
 30
0.0
 11
126.15
 21
110.85
 31
0.0
  0
LINE
  8
0
  6
CONTINUOUS
 62
     2
 10
122.15
 20
107.1
 30
0.0
 11
122.15
 21
110.85
 31
0.0
  0
LINE
  8
0
  6
CONTINUOUS
 62
     2
 10
122.25
 20
111.35
 30
0.0
 11
122.25
 21
111.85
 31
0.0
  0
LINE
  8
0
  6
CONTINUOUS
 62
     2
 10
122.25
 20
111.85
 30
0.0
 11
126.05
 21
111.85
 31
0.0
  0
LINE
  8
0
  6
CONTINUOUS
 62
     2
 10
126.05
 20
111.85
 30
0.0
 11
126.05
 21
111.35
 31
0.0
  0
LINE
  8
0
  6
CONTINUOUS
 62
     2
 10
124.15
 20
111.85
 30
0.0
 11
123.861324865
 21
111.35
 31
0.0
  0
LINE
  8
0
  6
CONTINUOUS
 62
     2
 10
124.15
 20
111.35
 30
0.0
 11
124.438675135
 21
111.85
 31
0.0
  0
LINE
  8
0
  6
CONTINUOUS
 62
     2
 10
122.4
 20
111.85
 30
0.0
 11
122.4
 21
112.5
 31
0.0
  0
ARC
  8
0
  6
CONTINUOUS
 62
     2
 10
123.05
 20
112.5
 30
0.0
 40
0.65
 50
90.0
 51
180.0
  0
LINE
  8
0
  6
CONTINUOUS
 62
     2
 10
123.05
 20
113.15
 30
0.0
 11
123.9
 21
113.15
 31
0.0
  0
LINE
  8
0
  6
CONTINUOUS
 62
     2
 10
123.9
 20
113.15
 30
0.0
 11
123.9
 21
112.45
 31
0.0
  0
LINE
  8
0
  6
CONTINUOUS
 62
     2
 10
123.9
 20
112.45
 30
0.0
 11
124.4
 21
112.45
 31
0.0
  0
LINE
  8
0
  6
CONTINUOUS
 62
     2
 10
124.4
 20
112.45
 30
0.0
 11
124.4
 21
113.15
 31
0.0
  0
LINE
  8
0
  6
CONTINUOUS
 62
     2
 10
124.4
 20
113.15
 30
0.0
 11
125.25
 21
113.15
 31
0.0
  0
ARC
  8
0
  6
CONTINUOUS
 62
     2
 10
125.25
 20
112.5
 30
0.0
 40
0.65
 50
0.0
 51
90.0
  0
LINE
  8
0
  6
CONTINUOUS
 62
     2
 10
125.9
 20
112.5
 30
0.0
 11
125.9
 21
111.85
 31
0.0
  0
LINE
  8
0
  6
CONTINUOUS
 62
     2
 10
126.15
 20
111.35
 30
0.0
 11
122.15
 21
111.35
 31
0.0
  0
LINE
  8
0
  6
CONTINUOUS
 62
     2
 10
122.15
 20
111.35
 30
0.0
 11
122.15
 21
110.85
 31
0.0
  0
LINE
  8
0
  6
CONTINUOUS
 62
     2
 10
122.15
 20
110.85
 30
0.0
 11
126.15
 21
110.85
 31
0.0
  0
LINE
  8
0
  6
CONTINUOUS
 62
     2
 10
126.15
 20
110.85
 30
0.0
 11
126.15
 21
111.35
 31
0.0
  0
LINE
  8
0
  6
CONTINUOUS
 62
     2
 10
113.65
 20
107.1
 30
0.0
 11
113.65
 21
108.6
 31
0.0
  0
LINE
  8
0
  6
CONTINUOUS
 62
     2
 10
113.65
 20
108.6
 30
0.0
 11
111.15
 21
108.6
 31
0.0
  0
LINE
  8
0
  6
CONTINUOUS
 62
     2
 10
111.15
 20
108.6
 30
0.0
 11
111.15
 21
118.35
 31
0.0
  0
LINE
  8
0
  6
CONTINUOUS
 62
     2
 10
111.15
 20
118.35
 30
0.0
 11
113.65
 21
118.35
 31
0.0
  0
LINE
  8
0
  6
CONTINUOUS
 62
     2
 10
117.4
 20
120.1
 30
0.0
 11
117.4
 21
115.6
 31
0.0
  0
LINE
  8
0
  6
CONTINUOUS
 62
     2
 10
117.4
 20
115.6
 30
0.0
 11
118.15
 21
115.6
 31
0.0
  0
LINE
  8
0
  6
CONTINUOUS
 62
     2
 10
118.15
 20
115.6
 30
0.0
 11
118.15
 21
116.35
 31
0.0
  0
LINE
  8
0
  6
CONTINUOUS
 62
     2
 10
117.4
 20
120.1
 30
0.0
 11
121.9
 21
120.1
 31
0.0
  0
LINE
  8
0
  6
CONTINUOUS
 62
     2
 10
121.9
 20
120.1
 30
0.0
 11
121.9
 21
115.6
 31
0.0
  0
LINE
  8
0
  6
CONTINUOUS
 62
     2
 10
121.9
 20
115.6
 30
0.0
 11
121.15
 21
115.6
 31
0.0
  0
LINE
  8
0
  6
CONTINUOUS
 62
     2
 10
121.15
 20
115.6
 30
0.0
 11
121.15
 21
116.35
 31
0.0
  0
LINE
  8
0
  6
CONTINUOUS
 62
     2
 10
121.15
 20
116.35
 30
0.0
 11
118.15
 21
116.35
 31
0.0
  0
LINE
  8
0
  6
CONTINUOUS
 62
     2
 10
113.65
 20
118.35
 30
0.0
 11
113.65
 21
119.1
 31
0.0
  0
LINE
  8
0
  6
CONTINUOUS
 62
     2
 10
113.65
 20
119.1
 30
0.0
 11
117.4
 21
119.1
 31
0.0
  0
LINE
  8
0
  6
CONTINUOUS
 62
     2
 10
128.15
 20
108.6
 30
0.0
 11
128.15
 21
118.35
 31
0.0
  0
LINE
  8
0
  6
CONTINUOUS
 62
     2
 10
128.15
 20
118.35
 30
0.0
 11
125.65
 21
118.35
 31
0.0
  0
LINE
  8
0
  6
CONTINUOUS
 62
     2
 10
125.65
 20
118.35
 30
0.0
 11
125.65
 21
119.1
 31
0.0
  0
LINE
  8
0
  6
CONTINUOUS
 62
     2
 10
125.65
 20
119.1
 30
0.0
 11
121.9
 21
119.1
 31
0.0
  0
LINE
  8
0
  6
CONTINUOUS
 62
     2
 10
128.15
 20
108.6
 30
0.0
 11
126.15
 21
108.6
 31
0.0
  0
LINE
  8
0
  6
CONTINUOUS
 62
     2
 10
128.9
 20
102.1
 30
0.0
 11
128.9
 21
92.1
 31
0.0
  0
LINE
  8
0
  6
CONTINUOUS
 62
     2
 10
127.9
 20
94.6
 30
0.0
 11
127.9
 21
102.1
 31
0.0
  0
LINE
  8
0
  6
CONTINUOUS
 62
     2
 10
126.9
 20
102.1
 30
0.0
 11
126.9
 21
97.1
 31
0.0
  0
LINE
  8
0
  6
CONTINUOUS
 62
     2
 10
35.05
 20
103.85
 30
0.0
 11
35.05
 21
103.35
 31
0.0
  0
LINE
  8
0
  6
CONTINUOUS
 62
     2
 10
35.05
 20
103.35
 30
0.0
 11
37.55
 21
103.35
 31
0.0
  0
LINE
  8
0
  6
CONTINUOUS
 62
     2
 10
37.55
 20
103.35
 30
0.0
 11
37.55
 21
103.85
 31
0.0
  0
LINE
  8
0
  6
CONTINUOUS
 62
     2
 10
37.3
 20
103.35
 30
0.0
 11
37.3
 21
102.35
 31
0.0
  0
LINE
  8
0
  6
CONTINUOUS
 62
     2
 10
37.3
 20
102.35
 30
0.0
 11
35.3
 21
102.35
 31
0.0
  0
LINE
  8
0
  6
CONTINUOUS
 62
     2
 10
35.3
 20
102.35
 30
0.0
 11
35.3
 21
103.35
 31
0.0
  0
LINE
  8
0
  6
CONTINUOUS
 62
     2
 10
70.05
 20
103.85
 30
0.0
 11
70.05
 21
103.35
 31
0.0
  0
LINE
  8
0
  6
CONTINUOUS
 62
     2
 10
70.05
 20
103.35
 30
0.0
 11
67.55
 21
103.35
 31
0.0
  0
LINE
  8
0
  6
CONTINUOUS
 62
     2
 10
67.55
 20
103.35
 30
0.0
 11
67.55
 21
103.85
 31
0.0
  0
LINE
  8
0
  6
CONTINUOUS
 62
     2
 10
67.8
 20
103.35
 30
0.0
 11
67.8
 21
102.35
 31
0.0
  0
LINE
  8
0
  6
CONTINUOUS
 62
     2
 10
67.8
 20
102.35
 30
0.0
 11
69.8
 21
102.35
 31
0.0
  0
LINE
  8
0
  6
CONTINUOUS
 62
     2
 10
69.8
 20
102.35
 30
0.0
 11
69.8
 21
103.35
 31
0.0
  0
LINE
  8
0
  6
CONTINUOUS
 62
     2
 10
108.4
 20
103.85
 30
0.0
 11
108.4
 21
103.35
 31
0.0
  0
LINE
  8
0
  6
CONTINUOUS
 62
     2
 10
108.4
 20
103.35
 30
0.0
 11
105.9
 21
103.35
 31
0.0
  0
LINE
  8
0
  6
CONTINUOUS
 62
     2
 10
105.9
 20
103.35
 30
0.0
 11
105.9
 21
103.85
 31
0.0
  0
LINE
  8
0
  6
CONTINUOUS
 62
     2
 10
106.15
 20
103.35
 30
0.0
 11
106.15
 21
102.35
 31
0.0
  0
LINE
  8
0
  6
CONTINUOUS
 62
     2
 10
106.15
 20
102.35
 30
0.0
 11
108.15
 21
102.35
 31
0.0
  0
LINE
  8
0
  6
CONTINUOUS
 62
     2
 10
108.15
 20
102.35
 30
0.0
 11
108.15
 21
103.35
 31
0.0
  0
LINE
  8
0
  6
CONTINUOUS
 62
     2
 10
130.9
 20
103.85
 30
0.0
 11
130.9
 21
103.35
 31
0.0
  0
LINE
  8
0
  6
CONTINUOUS
 62
     2
 10
130.9
 20
103.35
 30
0.0
 11
133.4
 21
103.35
 31
0.0
  0
LINE
  8
0
  6
CONTINUOUS
 62
     2
 10
133.4
 20
103.35
 30
0.0
 11
133.4
 21
103.85
 31
0.0
  0
LINE
  8
0
  6
CONTINUOUS
 62
     2
 10
37.8
 20
95.1
 30
0.0
 11
37.8
 21
94.6
 31
0.0
  0
LINE
  8
0
  6
CONTINUOUS
 62
     2
 10
37.8
 20
94.6
 30
0.0
 11
45.3
 21
94.6
 31
0.0
  0
LINE
  8
0
  6
CONTINUOUS
 62
     2
 10
45.3
 20
94.6
 30
0.0
 11
45.3
 21
95.1
 31
0.0
  0
LINE
  8
0
  6
CONTINUOUS
 62
     2
 10
67.3
 20
95.1
 30
0.0
 11
67.3
 21
94.6
 31
0.0
  0
LINE
  8
0
  6
CONTINUOUS
 62
     2
 10
67.3
 20
94.6
 30
0.0
 11
59.8
 21
94.6
 31
0.0
  0
LINE
  8
0
  6
CONTINUOUS
 62
     2
 10
108.65
 20
95.1
 30
0.0
 11
104.15
 21
95.1
 31
0.0
  0
LINE
  8
0
  6
CONTINUOUS
 62
     2
 10
104.15
 20
95.1
 30
0.0
 11
104.15
 21
94.6
 31
0.0
  0
LINE
  8
0
  6
CONTINUOUS
 62
     2
 10
108.65
 20
95.6
 30
0.0
 11
107.65
 21
95.6
 31
0.0
  0
LINE
  8
0
  6
CONTINUOUS
 62
     2
 10
130.65
 20
95.1
 30
0.0
 11
135.15
 21
95.1
 31
0.0
  0
LINE
  8
0
  6
CONTINUOUS
 62
     2
 10
135.15
 20
95.1
 30
0.0
 11
135.15
 21
94.6
 31
0.0
  0
LINE
  8
0
  6
CONTINUOUS
 62
     2
 10
131.15
 20
95.6
 30
0.0
 11
130.65
 21
95.6
 31
0.0
  0
LINE
  8
0
  6
CONTINUOUS
 62
     2
 10
130.65
 20
70.6
 30
0.0
 11
135.15
 21
70.6
 31
0.0
  0
LINE
  8
0
  6
CONTINUOUS
 62
     2
 10
135.15
 20
70.6
 30
0.0
 11
135.15
 21
71.1
 31
0.0
  0
LINE
  8
0
  6
CONTINUOUS
 62
     2
 10
131.15
 20
70.6
 30
0.0
 11
130.65
 21
70.6
 31
0.0
  0
LINE
  8
0
  6
CONTINUOUS
 62
     2
 10
131.675
 20
69.85
 30
0.0
 11
133.075
 21
69.85
 31
0.0
  0
LINE
  8
0
  6
CONTINUOUS
 62
     2
 10
131.15
 20
70.235
 30
0.0
 11
131.675
 21
70.235
 31
0.0
  0
LINE
  8
0
  6
CONTINUOUS
 62
     2
 10
108.65
 20
70.6
 30
0.0
 11
104.15
 21
70.6
 31
0.0
  0
LINE
  8
0
  6
CONTINUOUS
 62
     2
 10
104.15
 20
70.6
 30
0.0
 11
104.15
 21
71.1
 31
0.0
  0
LINE
  8
0
  6
CONTINUOUS
 62
     2
 10
108.65
 20
70.6
 30
0.0
 11
107.65
 21
70.6
 31
0.0
  0
LINE
  8
0
  6
CONTINUOUS
 62
     2
 10
107.0
 20
69.85
 30
0.0
 11
107.65
 21
69.85
 31
0.0
  0
LINE
  8
0
  6
CONTINUOUS
 62
     2
 10
110.4
 20
64.1
 30
0.0
 11
110.4
 21
74.1
 31
0.0
  0
LINE
  8
0
  6
CONTINUOUS
 62
     2
 10
111.4
 20
71.6
 30
0.0
 11
111.4
 21
64.1
 31
0.0
  0
LINE
  8
0
  6
CONTINUOUS
 62
     2
 10
112.4
 20
64.1
 30
0.0
 11
112.4
 21
69.1
 31
0.0
  0
LINE
  8
0
  6
CONTINUOUS
 62
     1
 10
40.370499094
 20
95.85
 30
0.0
 11
36.55
 21
95.85
 31
0.0
  0
LINE
  8
0
  6
CONTINUOUS
 62
     2
 10
40.761635768
 20
95.1
 30
0.0
 11
37.8
 21
95.1
 31
0.0
  0
LINE
  8
0
  6
CONTINUOUS
 62
     2
 10
45.3
 20
95.1
 30
0.0
 11
41.907429722
 21
95.1
 31
0.0
  0
ARC
  8
2
  6
CONTINUOUS
 62
     6
 10
69.149226029
 20
110.381562125
 30
0.0
 40
30.989438919
 50
209.280187008
 51
210.61429447
  0
LINE
  8
0
  6
CONTINUOUS
 62
     2
 10
39.492645636
 20
112.6
 30
0.0
 11
40.7585
 21
112.6
 31
0.0
  0
LINE
  8
0
  6
CONTINUOUS
 62
     2
 10
35.8
 20
112.6
 30
0.0
 11
36.986204479
 21
112.6
 31
0.0
  0
ARC
  8
0
  6
CONTINUOUS
 62
     2
 10
37.02925
 20
111.1
 30
0.0
 40
0.25
 50
180.0
 51
242.44884998
  0
LINE
  8
0
  6
CONTINUOUS
 62
     2
 10
37.372913565
 20
113.1
 30
0.0
 11
35.8
 21
113.1
 31
0.0
  0
LINE
  8
0
  6
CONTINUOUS
 62
     2
 10
40.7585
 20
113.1
 30
0.0
 11
39.306375097
 21
113.1
 31
0.0
  0
LINE
  8
0
  6
CONTINUOUS
 62
     2
 10
48.806431973
 20
113.1
 30
0.0
 11
47.217
 21
113.1
 31
0.0
  0
LINE
  8
0
  6
CONTINUOUS
 62
     2
 10
52.1755
 20
113.1
 30
0.0
 11
50.573623213
 21
113.1
 31
0.0
  0
LINE
  8
0
  6
CONTINUOUS
 62
     2
 10
50.876078717
 20
112.6
 30
0.0
 11
52.1755
 21
112.6
 31
0.0
  0
LINE
  8
0
  6
CONTINUOUS
 62
     2
 10
47.217
 20
112.6
 30
0.0
 11
48.338774787
 21
112.6
 31
0.0
  0
LINE
  8
0
  6
CONTINUOUS
 62
     2
 10
50.597589438
 20
110.85
 30
0.0
 11
50.94625
 21
110.85
 31
0.0
  0
LINE
  8
0
  6
CONTINUOUS
 62
     2
 10
48.19625
 20
112.6
 30
0.0
 11
48.19625
 21
111.708426117
 31
0.0
  0
LINE
  8
0
  6
CONTINUOUS
 62
     2
 10
60.368019665
 20
95.1
 30
0.0
 11
67.3
 21
95.1
 31
0.0
  0
LINE
  8
0
  6
CONTINUOUS
 62
     1
 10
48.301731035
 20
95.85
 30
0.0
 11
43.174888663
 21
95.85
 31
0.0
  0
LINE
  8
0
  6
CONTINUOUS
 62
     1
 10
54.250044881
 20
95.85
 30
0.0
 11
50.837065586
 21
95.85
 31
0.0
  0
LINE
  8
0
  6
CONTINUOUS
 62
     1
 10
57.74884018
 20
95.85
 30
0.0
 11
57.036936572
 21
95.85
 31
0.0
  0
LINE
  8
0
  6
CONTINUOUS
 62
     1
 10
68.55
 20
95.85
 30
0.0
 11
60.950008141
 21
95.85
 31
0.0
  0
LINE
  8
0
  6
CONTINUOUS
 62
     2
 10
59.847522599
 20
113.1
 30
0.0
 11
58.634
 21
113.1
 31
0.0
  0
LINE
  8
0
  6
CONTINUOUS
 62
     2
 10
63.5925
 20
113.1
 30
0.0
 11
62.175011473
 21
113.1
 31
0.0
  0
LINE
  8
0
  6
CONTINUOUS
 62
     2
 10
62.299142479
 20
112.6
 30
0.0
 11
63.5925
 21
112.6
 31
0.0
  0
LINE
  8
0
  6
CONTINUOUS
 62
     2
 10
58.634
 20
112.6
 30
0.0
 11
59.764893812
 21
112.6
 31
0.0
  0
LINE
  8
0
  6
CONTINUOUS
 62
     2
 10
61.988593325
 20
110.85
 30
0.0
 11
62.36325
 21
110.85
 31
0.0
  0
LINE
  8
0
  6
CONTINUOUS
 62
     2
 10
59.61325
 20
112.6
 30
0.0
 11
59.61325
 21
111.744495147
 31
0.0
  0
LINE
  8
0
  6
CONTINUOUS
 62
     2
 10
65.558568857
 20
113.1
 30
0.0
 11
64.3425
 21
113.1
 31
0.0
  0
LINE
  8
0
  6
CONTINUOUS
 62
     2
 10
69.301
 20
113.1
 30
0.0
 11
67.882803777
 21
113.1
 31
0.0
  0
LINE
  8
0
  6
CONTINUOUS
 62
     2
 10
68.011515445
 20
112.6
 30
0.0
 11
69.301
 21
112.6
 31
0.0
  0
LINE
  8
0
  6
CONTINUOUS
 62
     2
 10
64.3425
 20
112.6
 30
0.0
 11
65.480680171
 21
112.6
 31
0.0
  0
LINE
  8
0
  6
CONTINUOUS
 62
     2
 10
67.702357052
 20
110.85
 30
0.0
 11
68.07175
 21
110.85
 31
0.0
  0
LINE
  8
0
  6
CONTINUOUS
 62
     2
 10
65.32175
 20
112.6
 30
0.0
 11
65.32175
 21
111.701575274
 31
0.0
  0
LINE
  8
0
  6
CONTINUOUS
 62
     1
 10
37.077232455
 20
107.1
 30
0.0
 11
28.8
 21
107.1
 31
0.0
  0
LINE
  8
0
  6
CONTINUOUS
 62
     1
 10
37.55
 20
103.85
 30
0.0
 11
30.05
 21
103.85
 31
0.0
  0
LINE
  8
0
  6
CONTINUOUS
 62
     1
 10
37.432432982
 20
104.6
 30
0.0
 11
28.8
 21
104.6
 31
0.0
  0
LINE
  8
0
  6
CONTINUOUS
 62
     1
 10
47.629231817
 20
104.6
 30
0.0
 11
39.97718862
 21
104.6
 31
0.0
  0
LINE
  8
0
  6
CONTINUOUS
 62
     1
 10
57.825093644
 20
104.6
 30
0.0
 11
50.129351548
 21
104.6
 31
0.0
  0
LINE
  8
0
  6
CONTINUOUS
 62
     1
 10
63.155335391
 20
104.6
 30
0.0
 11
60.442932907
 21
104.6
 31
0.0
  0
LINE
  8
0
  6
CONTINUOUS
 62
     1
 10
76.3
 20
104.6
 30
0.0
 11
65.857504672
 21
104.6
 31
0.0
  0
ARC
  8
2
  6
CONTINUOUS
 62
     2
 10
38.339644331
 20
110.905893852
 30
0.0
 40
2.397638455
 50
60.386450778
 51
123.729581675
  0
ARC
  8
2
  6
CONTINUOUS
 62
     2
 10
69.149226029
 20
110.381562125
 30
0.0
 40
32.239438919
 50
175.519800802
 51
209.330334821
  0
ARC
  8
2
  6
CONTINUOUS
 62
     2
 10
49.690027593
 20
111.337026258
 30
0.0
 40
1.972008528
 50
51.202160088
 51
131.865163673
  0
ARC
  8
2
  6
CONTINUOUS
 62
     2
 10
98.564373393
 20
104.113881748
 30
0.0
 40
50.937461248
 50
170.175235845
 51
190.764679238
  0
ARC
  8
2
  6
CONTINUOUS
 62
     2
 10
98.564373393
 20
104.113881748
 30
0.0
 40
48.437461248
 50
169.580561011
 51
191.327441416
  0
ARC
  8
2
  6
CONTINUOUS
 62
     2
 10
1.591460117
 20
122.470428016
 30
0.0
 40
59.004861979
 50
331.813622703
 51
351.053437073
  0
ARC
  8
2
  6
CONTINUOUS
 62
     2
 10
1.591460117
 20
122.470428016
 30
0.0
 40
61.504861979
 50
333.054557695
 51
351.053437073
  0
ARC
  8
2
  6
CONTINUOUS
 62
     2
 10
31.423346639
 20
118.161428571
 30
0.0
 40
34.508425856
 50
316.939266885
 51
351.862737859
  0
ARC
  8
2
  6
CONTINUOUS
 62
     2
 10
31.423346639
 20
118.161428571
 30
0.0
 40
37.008425856
 50
320.296800353
 51
351.862737859
  0
ARC
  8
2
  6
CONTINUOUS
 62
     2
 10
60.908325172
 20
111.798299317
 30
0.0
 40
1.816292612
 50
37.564453039
 51
124.542421107
  0
ARC
  8
2
  6
CONTINUOUS
 62
     2
 10
66.61598056
 20
111.660898461
 30
0.0
 40
1.917251757
 50
41.172071869
 51
122.553403848
  0
LINE
  8
2
  6
CONTINUOUS
 62
     2
 10
41.077305377
 20
94.60878625
 30
0.0
 11
43.228842881
 21
95.881926607
 31
0.0
  0
ARC
  8
2
  6
CONTINUOUS
 62
     2
 10
69.149226029
 20
110.381562125
 30
0.0
 40
29.739438919
 50
174.967463933
 51
209.222267352
  0
ARC
  8
2
  6
CONTINUOUS
 62
     2
 10
111.096491228
 20
102.979824561
 30
0.0
 40
8.870316897
 50
89.697060763
 51
152.322765108
  0
ARC
  8
2
  6
CONTINUOUS
 62
     2
 10
111.096491228
 20
102.979824561
 30
0.0
 40
8.870316897
 50
153.618078453
 51
173.070212242
  0
ARC
  8
2
  6
CONTINUOUS
 62
     2
 10
111.096491228
 20
102.979824561
 30
0.0
 40
11.370316897
 50
89.697060763
 51
173.079209213
  0
LINE
  8
3
  6
CONTINUOUS
 62
     5
 10
31.925
 20
120.1
 30
0.0
 11
20.8
 21
120.1
 31
0.0
  0
LINE
  8
3
  6
CONTINUOUS
 62
     5
 10
22.8
 20
120.1
 30
0.0
 11
22.152952387
 21
117.685185434
 31
0.0
  0
LINE
  8
3
  6
CONTINUOUS
 62
     5
 10
22.8
 20
120.1
 30
0.0
 11
23.447047613
 21
117.685185434
 31
0.0
  0
LINE
  8
3
  6
CONTINUOUS
 62
     5
 10
22.8
 20
120.1
 30
0.0
 11
22.8
 21
62.1
 31
0.0
  0
LINE
  8
3
  6
CONTINUOUS
 62
     5
 10
22.8
 20
62.1
 30
0.0
 11
23.447047613
 21
64.514814566
 31
0.0
  0
LINE
  8
3
  6
CONTINUOUS
 62
     5
 10
22.8
 20
62.1
 30
0.0
 11
22.152952387
 21
64.514814566
 31
0.0
  0
LINE
  8
3
  6
CONTINUOUS
 62
     5
 10
29.05
 20
62.1
 30
0.0
 11
20.8
 21
62.1
 31
0.0
  0
TEXT
  8
3
  6
CONTINUOUS
 62
     2
 10
21.8
 20
90.2
 30
0.3
 40
3.0
  1
Ｈ
 50
90.0
 41
0.6
 51
0.0
  7
KANJI9
  0
LINE
  8
3
  6
CONTINUOUS
 62
     5
 10
66.3
 20
61.1
 30
0.0
 11
66.3
 21
52.1
 31
0.0
  0
LINE
  8
3
  6
CONTINUOUS
 62
     5
 10
66.3
 20
54.1
 30
0.0
 11
63.885185434
 21
54.747047613
 31
0.0
  0
LINE
  8
3
  6
CONTINUOUS
 62
     5
 10
66.3
 20
54.1
 30
0.0
 11
63.885185434
 21
53.452952387
 31
0.0
  0
LINE
  8
3
  6
CONTINUOUS
 62
     5
 10
66.3
 20
54.1
 30
0.0
 11
38.8
 21
54.1
 31
0.0
  0
LINE
  8
3
  6
CONTINUOUS
 62
     5
 10
38.8
 20
54.1
 30
0.0
 11
41.214814566
 21
53.452952387
 31
0.0
  0
LINE
  8
3
  6
CONTINUOUS
 62
     5
 10
38.8
 20
54.1
 30
0.0
 11
41.214814566
 21
54.747047613
 31
0.0
  0
LINE
  8
3
  6
CONTINUOUS
 62
     5
 10
38.8
 20
61.1
 30
0.0
 11
38.8
 21
52.1
 31
0.0
  0
TEXT
  8
3
  6
CONTINUOUS
 62
     2
 10
50.48
 20
55.1
 30
0.3
 40
3.0
  1
Ｃ
 50
0.0
 41
0.6
 51
0.0
  7
KANJI9
  0
TEXT
  8
3
  6
CONTINUOUS
 62
     2
 10
52.73
 20
55.1
 30
0.18
 40
1.8
  1
±１
 50
0.0
 41
0.6
 51
0.0
  7
KANJI14
  0
LINE
  8
3
  6
CONTINUOUS
 62
     5
 10
134.15
 20
63.1
 30
0.0
 11
134.15
 21
52.1
 31
0.0
  0
LINE
  8
3
  6
CONTINUOUS
 62
     5
 10
134.15
 20
54.1
 30
0.0
 11
131.735185434
 21
54.747047613
 31
0.0
  0
LINE
  8
3
  6
CONTINUOUS
 62
     5
 10
134.15
 20
54.1
 30
0.0
 11
131.735185434
 21
53.452952387
 31
0.0
  0
LINE
  8
3
  6
CONTINUOUS
 62
     5
 10
134.15
 20
54.1
 30
0.0
 11
105.15
 21
54.1
 31
0.0
  0
LINE
  8
3
  6
CONTINUOUS
 62
     5
 10
105.15
 20
54.1
 30
0.0
 11
107.564814566
 21
53.452952387
 31
0.0
  0
LINE
  8
3
  6
CONTINUOUS
 62
     5
 10
105.15
 20
54.1
 30
0.0
 11
107.564814566
 21
54.747047613
 31
0.0
  0
LINE
  8
3
  6
CONTINUOUS
 62
     5
 10
105.15
 20
63.1
 30
0.0
 11
105.15
 21
52.1
 31
0.0
  0
TEXT
  8
3
  6
CONTINUOUS
 62
     2
 10
117.58
 20
55.1
 30
0.3
 40
3.0
  1
Ｄ
 50
0.0
 41
0.6
 51
0.0
  7
KANJI9
  0
TEXT
  8
3
  6
CONTINUOUS
 62
     2
 10
119.83
 20
55.1
 30
0.18
 40
1.8
  1
±３
 50
0.0
 41
0.6
 51
0.0
  7
KANJI14
  0
LINE
  8
3
  6
LTYPE2
 62
     5
 10
119.65
 20
59.1
 30
0.0
 11
119.65
 21
123.1
 31
0.0
  0
LINE
  8
3
  6
LTYPE2
 62
     5
 10
38.8
 20
61.1
 30
0.0
 11
38.8
 21
65.1
 31
0.0
  0
LINE
  8
3
  6
LTYPE2
 62
     5
 10
66.3
 20
61.1
 30
0.0
 11
66.3
 21
65.1
 31
0.0
  0
LINE
  8
3
  6
LTYPE2
 62
     5
 10
105.15
 20
63.1
 30
0.0
 11
105.15
 21
65.1
 31
0.0
  0
LINE
  8
3
  6
LTYPE2
 62
     5
 10
134.15
 20
63.1
 30
0.0
 11
134.15
 21
65.1
 31
0.0
  0
LINE
  8
3
  6
LTYPE2
 62
     5
 10
135.075
 20
68.1
 30
0.0
 11
128.075
 21
68.1
 31
0.0
  0
LINE
  8
3
  6
LTYPE2
 62
     5
 10
105.05
 20
68.1
 30
0.0
 11
110.05
 21
68.1
 31
0.0
  0
LINE
  8
3
  6
LTYPE2
 62
     5
 10
105.05
 20
98.1
 30
0.0
 11
111.05
 21
98.1
 31
0.0
  0
LINE
  8
3
  6
LTYPE2
 62
     5
 10
134.840544457
 20
98.1
 30
0.0
 11
128.840544457
 21
98.1
 31
0.0
  0
LINE
  8
3
  6
LTYPE2
 62
     5
 10
124.15
 20
114.45
 30
0.0
 11
124.15
 21
109.45
 31
0.0
  0
LINE
  8
3
  6
LTYPE2
 62
     5
 10
38.27925
 20
118.2
 30
0.0
 11
38.27925
 21
112.2
 31
0.0
  0
LINE
  8
3
  6
LTYPE2
 62
     5
 10
43.98775
 20
118.2
 30
0.0
 11
43.98775
 21
112.2
 31
0.0
  0
LINE
  8
3
  6
LTYPE2
 62
     5
 10
49.69625
 20
118.2
 30
0.0
 11
49.69625
 21
112.2
 31
0.0
  0
LINE
  8
3
  6
LTYPE2
 62
     5
 10
55.40475
 20
118.2
 30
0.0
 11
55.40475
 21
112.2
 31
0.0
  0
LINE
  8
3
  6
LTYPE2
 62
     5
 10
61.11325
 20
118.2
 30
0.0
 11
61.11325
 21
112.2
 31
0.0
  0
LINE
  8
3
  6
LTYPE2
 62
     5
 10
66.82175
 20
118.2
 30
0.0
 11
66.82175
 21
112.2
 31
0.0
  0
LINE
  8
3
  6
LTYPE2
 62
     5
 10
33.01275
 20
114.45
 30
0.0
 11
33.01275
 21
109.45
 31
0.0
  0
LINE
  8
3
  6
LTYPE2
 62
     5
 10
72.08725
 20
114.45
 30
0.0
 11
72.08725
 21
109.45
 31
0.0
  0
LINE
  8
3
  6
LTYPE2
 62
     5
 10
30.25
 20
98.1
 30
0.0
 11
36.85
 21
98.1
 31
0.0
  0
LINE
  8
3
  6
LTYPE2
 62
     5
 10
33.55
 20
101.7
 30
0.0
 11
33.55
 21
94.5
 31
0.0
  0
LINE
  8
3
  6
LTYPE2
 62
     5
 10
74.85
 20
98.1
 30
0.0
 11
68.25
 21
98.1
 31
0.0
  0
LINE
  8
3
  6
LTYPE2
 62
     5
 10
71.55
 20
101.7
 30
0.0
 11
71.55
 21
94.5
 31
0.0
  0
LINE
  8
3
  6
LTYPE2
 62
     5
 10
30.35
 20
68.1
 30
0.0
 11
36.75
 21
68.1
 31
0.0
  0
LINE
  8
3
  6
LTYPE2
 62
     5
 10
33.55
 20
71.9
 30
0.0
 11
33.55
 21
64.3
 31
0.0
  0
LINE
  8
3
  6
LTYPE2
 62
     5
 10
68.35
 20
68.1
 30
0.0
 11
74.75
 21
68.1
 31
0.0
  0
LINE
  8
3
  6
LTYPE2
 62
     5
 10
71.55
 20
71.8
 30
0.0
 11
71.55
 21
64.4
 31
0.0
  0
LINE
  8
0
  6
CONTINUOUS
 62
     2
 10
45.3
 20
70.6
 30
0.0
 11
37.8
 21
70.6
 31
0.0
  0
LINE
  8
0
  6
CONTINUOUS
 62
     2
 10
37.8
 20
70.6
 30
0.0
 11
37.8
 21
71.1
 31
0.0
  0
LINE
  8
0
  6
CONTINUOUS
 62
     2
 10
37.8
 20
71.1
 30
0.0
 11
45.3
 21
71.1
 31
0.0
  0
LINE
  8
0
  6
CONTINUOUS
 62
     2
 10
45.3
 20
71.1
 30
0.0
 11
45.3
 21
70.6
 31
0.0
  0
LINE
  8
0
  6
CONTINUOUS
 62
     2
 10
59.8
 20
70.6
 30
0.0
 11
67.3
 21
70.6
 31
0.0
  0
LINE
  8
0
  6
CONTINUOUS
 62
     2
 10
67.3
 20
70.6
 30
0.0
 11
67.3
 21
71.1
 31
0.0
  0
LINE
  8
0
  6
CONTINUOUS
 62
     2
 10
67.3
 20
71.1
 30
0.0
 11
59.8
 21
71.1
 31
0.0
  0
LINE
  8
0
  6
CONTINUOUS
 62
     2
 10
59.8
 20
71.1
 30
0.0
 11
59.8
 21
70.6
 31
0.0
  0
LINE
  8
3
  6
LTYPE2
 62
     5
 10
68.8
 20
108.35
 30
0.0
 11
68.8
 21
100.35
 31
0.0
  0
LINE
  8
3
  6
LTYPE2
 62
     5
 10
36.3
 20
108.35
 30
0.0
 11
36.3
 21
100.35
 31
0.0
  0
LINE
  8
3
  6
LTYPE2
 62
     5
 10
107.15
 20
108.35
 30
0.0
 11
107.15
 21
100.35
 31
0.0
  0
LINE
  8
3
  6
LTYPE2
 62
     5
 10
132.15
 20
108.35
 30
0.0
 11
132.15
 21
100.35
 31
0.0
  0
LINE
  8
3
  6
CONTINUOUS
 62
     5
 10
66.3
 20
62.1
 30
0.0
 11
67.458783568
 21
59.884775261
 31
0.0
  0
LINE
  8
3
  6
CONTINUOUS
 62
     5
 10
66.3
 20
62.1
 30
0.0
 11
68.411148377
 21
60.760950885
 31
0.0
  0
LINE
  8
3
  6
CONTINUOUS
 62
     5
 10
66.3
 20
62.1
 30
0.0
 11
75.5
 21
52.1
 31
0.0
  0
LINE
  8
3
  6
CONTINUOUS
 62
     5
 10
75.5
 20
52.1
 30
0.0
 11
83.6
 21
52.1
 31
0.0
  0
TEXT
  8
3
  6
CONTINUOUS
 62
     2
 10
75.5
 20
53.1
 30
0.3
 40
3.0
  1
４－φｄ
 50
0.0
 41
0.6
 51
0.0
  7
KANJI9
  0
LINE
  8
3
  6
CONTINUOUS
 62
     5
 10
127.0
 20
113.6
 30
0.0
 11
129.204239542
 21
114.779545694
 31
0.0
  0
LINE
  8
3
  6
CONTINUOUS
 62
     5
 10
127.0
 20
113.6
 30
0.0
 11
128.319154592
 21
115.723636306
 31
0.0
  0
LINE
  8
3
  6
CONTINUOUS
 62
     5
 10
127.0
 20
113.6
 30
0.0
 11
133.4
 21
119.6
 31
0.0
  0
LINE
  8
3
  6
CONTINUOUS
 62
     5
 10
133.4
 20
119.6
 30
0.0
 11
139.4
 21
119.6
 31
0.0
  0
TEXT
  8
3
  6
CONTINUOUS
 62
     2
 10
133.4
 20
120.6
 30
0.3
 40
3.0
  1
端子台
 50
0.0
 41
0.6
 51
0.0
  7
KANJI9
  0
LINE
  8
3
  6
CONTINUOUS
 62
     5
 10
67.2
 20
119.35
 30
0.0
 11
69.66370414
 21
119.774454839
 31
0.0
  0
LINE
  8
3
  6
CONTINUOUS
 62
     5
 10
67.2
 20
119.35
 30
0.0
 11
69.121402953
 21
120.949440743
 31
0.0
  0
LINE
  8
3
  6
CONTINUOUS
 62
     5
 10
67.2
 20
119.35
 30
0.0
 11
77.6
 21
124.15
 31
0.0
  0
LINE
  8
3
  6
CONTINUOUS
 62
     5
 10
77.6
 20
124.15
 30
0.0
 11
87.8
 21
124.15
 31
0.0
  0
TEXT
  8
3
  6
CONTINUOUS
 62
     2
 10
77.6
 20
125.15
 30
0.3
 40
3.0
  1
端子カバー
 50
0.0
 41
0.6
 51
0.0
  7
KANJI9
  0
LINE
  8
0
  6
CONTINUOUS
 62
     1
 10
47.627595671
 20
103.85
 30
0.0
 11
40.135902824
 21
103.85
 31
0.0
  0
LINE
  8
0
  6
CONTINUOUS
 62
     1
 10
57.58122166
 20
103.85
 30
0.0
 11
50.12763095
 21
103.85
 31
0.0
  0
LINE
  8
0
  6
CONTINUOUS
 62
     1
 10
62.824213941
 20
103.85
 30
0.0
 11
60.209952997
 21
103.85
 31
0.0
  0
LINE
  8
0
  6
CONTINUOUS
 62
     1
 10
75.05
 20
103.85
 30
0.0
 11
65.552609693
 21
103.85
 31
0.0
  0
LINE
  8
0
  6
CONTINUOUS
 62
     1
 10
47.714515418
 20
107.1
 30
0.0
 11
39.591391581
 21
107.1
 31
0.0
  0
LINE
  8
0
  6
CONTINUOUS
 62
     1
 10
58.559202566
 20
107.1
 30
0.0
 11
50.219045285
 21
107.1
 31
0.0
  0
LINE
  8
0
  6
CONTINUOUS
 62
     1
 10
64.110901656
 20
107.1
 30
0.0
 11
61.144780676
 21
107.1
 31
0.0
  0
LINE
  8
0
  6
CONTINUOUS
 62
     1
 10
76.3
 20
107.1
 30
0.0
 11
66.740033662
 21
107.1
 31
0.0
  0
ARC
  8
2
  6
CONTINUOUS
 62
     2
 10
128.990322581
 20
100.842204301
 30
0.0
 40
29.39136489
 50
173.14570234
 51
192.261995012
  0
ARC
  8
2
  6
CONTINUOUS
 62
     2
 10
128.990322581
 20
100.842204301
 30
0.0
 40
26.89136489
 50
173.148916266
 51
193.422312988
  0
TEXT
  8
3
  6
CONTINUOUS
 62
     2
 10
115.85
 20
81.1
 30
0.4
 40
4.0
  1
ＮＰ
 50
0.0
 41
0.9
 51
0.0
  7
KANJI15
  0
TEXT
  8
3
  6
CONTINUOUS
 62
     2
 10
27.8
 20
125.0
 30
0.3
 40
3.0
  1
端子配列
 50
0.0
 41
0.9
 51
0.0
  7
KANJI10
  0
LINE
  8
3
  6
CONTINUOUS
 62
     2
 10
41.8
 20
124.0
 30
0.0
 11
41.8
 21
129.0
 31
0.0
  0
TEXT
  8
3
  6
CONTINUOUS
 62
     2
 10
42.8
 20
125.0
 30
0.3
 40
3.0
  1
Ｕ
 50
0.0
 41
0.9
 51
0.0
  7
KANJI10
  0
LINE
  8
3
  6
CONTINUOUS
 62
     2
 10
46.8
 20
129.0
 30
0.0
 11
46.8
 21
124.0
 31
0.0
  0
LINE
  8
3
  6
CONTINUOUS
 62
     2
 10
51.8
 20
129.0
 30
0.0
 11
51.8
 21
124.0
 31
0.0
  0
LINE
  8
3
  6
CONTINUOUS
 62
     2
 10
56.8
 20
129.0
 30
0.0
 11
56.8
 21
124.0
 31
0.0
  0
LINE
  8
3
  6
CONTINUOUS
 62
     2
 10
61.8
 20
129.0
 30
0.0
 11
61.8
 21
124.0
 31
0.0
  0
LINE
  8
3
  6
CONTINUOUS
 62
     2
 10
66.8
 20
129.0
 30
0.0
 11
66.8
 21
124.0
 31
0.0
  0
LINE
  8
3
  6
CONTINUOUS
 62
     2
 10
71.8
 20
129.0
 30
0.0
 11
71.8
 21
124.0
 31
0.0
  0
LINE
  8
3
  6
CONTINUOUS
 62
     2
 10
41.8
 20
129.0
 30
0.0
 11
71.8
 21
129.0
 31
0.0
  0
LINE
  8
3
  6
CONTINUOUS
 62
     2
 10
41.8
 20
124.0
 30
0.0
 11
71.8
 21
124.0
 31
0.0
  0
TEXT
  8
3
  6
CONTINUOUS
 62
     2
 10
52.8
 20
125.0
 30
0.3
 40
3.0
  1
Ｖ
 50
0.0
 41
0.9
 51
0.0
  7
KANJI10
  0
TEXT
  8
3
  6
CONTINUOUS
 62
     2
 10
62.8
 20
125.0
 30
0.3
 40
3.0
  1
ｕ
 50
0.0
 41
0.9
 51
0.0
  7
KANJI10
  0
TEXT
  8
3
  6
CONTINUOUS
 62
     2
 10
67.8
 20
125.0
 30
0.3
 40
3.0
  1
ｖ
 50
0.0
 41
0.9
 51
0.0
  7
KANJI10
  0
LINE
  8
3
  6
LTYPE2
 62
     5
 10
52.55
 20
175.6
 30
0.0
 11
52.55
 21
129.6
 31
0.0
  0
LINE
  8
3
  6
LTYPE2
 62
     5
 10
52.55
 20
59.1
 30
0.0
 11
52.55
 21
121.8
 31
0.0
  0
TEXT
  8
0
  6
CONTINUOUS
 62
     2
 10
182.0
 20
176.0
 30
0.3
 40
3.0
  1
乾式自冷
 50
0.0
 41
0.9
 51
0.0
  7
KANJI10
  0
TEXT
  8
0
  6
CONTINUOUS
 62
     2
 10
61.0
 20
33.0
 30
0.3
 40
3.0
  1
９０
 50
0.0
 41
0.9
 51
0.0
  7
KANJI10
  0
TEXT
  8
0
  6
CONTINUOUS
 62
     2
 10
69.0
 20
28.0
 30
0.3
 40
3.0
  1
１２５
 50
0.0
 41
0.9
 51
0.0
  7
KANJI10
  0
TEXT
  8
0
  6
CONTINUOUS
 62
     2
 10
58.0
 20
28.0
 30
0.3
 40
3.0
  1
１２５
 50
0.0
 41
0.9
 51
0.0
  7
KANJI10
  0
TEXT
  8
0
  6
CONTINUOUS
 62
     2
 10
58.0
 20
23.0
 30
0.3
 40
3.0
  1
１３３
 50
0.0
 41
0.9
 51
0.0
  7
KANJI10
  0
TEXT
  8
0
  6
CONTINUOUS
 62
     2
 10
69.0
 20
23.0
 30
0.3
 40
3.0
  1
１３５
 50
0.0
 41
0.9
 51
0.0
  7
KANJI10
  0
TEXT
  8
0
  6
CONTINUOUS
 62
     2
 10
58.0
 20
18.0
 30
0.3
 40
3.0
  1
１５２
 50
0.0
 41
0.9
 51
0.0
  7
KANJI10
  0
TEXT
  8
0
  6
CONTINUOUS
 62
     2
 10
69.0
 20
18.0
 30
0.3
 40
3.0
  1
１５５
 50
0.0
 41
0.9
 51
0.0
  7
KANJI10
  0
TEXT
  8
0
  6
CONTINUOUS
 62
     2
 10
69.0
 20
33.0
 30
0.3
 40
3.0
  1
１００
 50
0.0
 41
0.9
 51
0.0
  7
KANJI10
  0
TEXT
  8
0
  6
CONTINUOUS
 62
     2
 10
125.75
 20
18.0
 30
0.3
 40
3.0
  1
１０
 50
0.0
 41
0.9
 51
0.0
  7
KANJI10
  0
TEXT
  8
0
  6
CONTINUOUS
 62
     2
 10
195.0
 20
109.0
 30
0.25
 40
3.0
  1
１．２５ｓｑ～５．５ｓｑ
 50
0.0
 41
0.9
 51
0.0
  7
KANJI16
  0
TEXT
  8
3
  6
CONTINUOUS
 62
     5
 10
246.5
 20
132.5
 30
0.2
 40
2.0
  1
０１０３１Ｓ，０１０３２Ｓ
 50
0.0
 41
0.8
 51
0.0
  7
KANJI17
  0
TEXT
  8
3
  6
CONTINUOUS
 62
     5
 10
246.5
 20
129.5
 30
0.2
 40
2.0
  1
０１０３３Ｓ，０１０３４Ｓ
 50
0.0
 41
0.8
 51
0.0
  7
KANJI17
  0
TEXT
  8
0
  6
CONTINUOUS
 62
     3
 10
232.0
 20
12.0
 30
0.6
 40
6.0
  1
ＭＳ－１２７７５Ｂ
 50
0.0
 41
0.9
 51
0.0
  7
KANJI12
  0
TEXT
  8
0
  6
CONTINUOUS
 62
     3
 10
64.0
 20
193.0
 30
0.6
 40
6.0
  1
ＭＳ－１２７７５Ｂ
 50
180.0
 41
0.9
 51
0.0
  7
KANJI12
  0
TEXT
  8
0
  6
CONTINUOUS
 62
     2
 10
243.5
 20
28.5
 30
0.4
 40
4.0
  1
２００１．　４．２０
 50
0.0
 41
0.9
 51
0.0
  7
KANJI13
  0
TEXT
  8
3
  6
CONTINUOUS
 62
     2
 10
273.69
 20
39.006
 30
0.4
 40
4.0
  1
沼　野
 50
0.0
 41
0.9
 51
0.0
  7
KANJI15
  0
TEXT
  8
3
  6
CONTINUOUS
 62
     2
 10
243.69
 20
39.006
 30
0.4
 40
4.0
  1
大西
 50
0.0
 41
0.9
 51
0.0
  7
KANJI15
  0
TEXT
  8
3
  6
CONTINUOUS
 62
     2
 10
228.69
 20
39.006
 30
0.4
 40
4.0
  1
横井
 50
0.0
 41
0.9
 51
0.0
  7
KANJI15
  0
TEXT
  8
3
  6
CONTINUOUS
 62
     2
 10
260.025
 20
38.72
 30
0.4
 40
4.0
  1
南山
 50
0.0
 41
0.9
 51
0.0
  7
KANJI15
  0
TEXT
  8
3
  6
CONTINUOUS
 62
     5
 10
246.5
 20
138.5
 30
0.2
 40
2.0
  1
ＯＲ－１３６１
 50
0.0
 41
0.8
 51
0.0
  7
KANJI17
  0
TEXT
  8
3
  6
CONTINUOUS
 62
     5
 10
246.5
 20
144.5
 30
0.2
 40
2.0
  1
形状変更により削除
 50
0.0
 41
0.9
 51
0.0
  7
KANJI18
  0
LINE
  8
0
  6
CONTINUOUS
 62
     2
 10
226.785
 20
142.225359354
 30
0.0
 11
229.185
 21
146.382281292
 31
0.0
  0
LINE
  8
0
  6
CONTINUOUS
 62
     2
 10
231.585
 20
142.225359354
 30
0.0
 11
229.185
 21
146.382281292
 31
0.0
  0
LINE
  8
0
  6
CONTINUOUS
 62
     2
 10
226.785
 20
142.225359354
 30
0.0
 11
231.585
 21
142.225359354
 31
0.0
  0
TEXT
  8
0
  6
CONTINUOUS
 62
     2
 10
228.3242
 20
142.5443
 30
0.32
 40
2.4
  1
１
 50
0.0
 41
0.666666667
 51
0.0
  7
KANJI19
  0
TEXT
  8
3
  6
CONTINUOUS
 62
     5
 10
238.151
 20
144.441
 30
0.2
 40
2.0
  1
２００５
 50
0.0
 41
0.8
 51
0.0
  7
KANJI17
  0
TEXT
  8
3
  6
CONTINUOUS
 62
     5
 10
242.555
 20
141.471
 30
0.2
 40
2.0
  1
８
 50
0.0
 41
0.65
 51
0.0
  7
KANJI20
  0
TEXT
  8
3
  6
CONTINUOUS
 62
     5
 10
238.099
 20
141.47
 30
0.2
 40
2.0
  1
１１
 50
0.0
 41
0.5
 51
0.0
  7
KANJI21
  0
LINE
  8
3
  6
CONTINUOUS
 62
     5
 10
16.8
 20
35.034
 30
0.0
 11
138.19
 21
35.034
 31
0.0
  0
LINE
  8
3
  6
CONTINUOUS
 62
     5
 10
16.8
 20
33.779
 30
0.0
 11
138.19
 21
33.779
 31
0.0
  0
LINE
  8
0
  6
CONTINUOUS
 62
     2
 10
140.126
 20
32.420359354
 30
0.0
 11
142.526
 21
36.577281292
 31
0.0
  0
LINE
  8
0
  6
CONTINUOUS
 62
     2
 10
144.926
 20
32.420359354
 30
0.0
 11
142.526
 21
36.577281292
 31
0.0
  0
LINE
  8
0
  6
CONTINUOUS
 62
     2
 10
140.126
 20
32.420359354
 30
0.0
 11
144.926
 21
32.420359354
 31
0.0
  0
TEXT
  8
0
  6
CONTINUOUS
 62
     2
 10
141.6652
 20
32.7393
 30
0.32
 40
2.4
  1
１
 50
0.0
 41
0.666666667
 51
0.0
  7
KANJI19
  0
TEXT
  8
0
  6
CONTINUOUS
 62
     2
 10
281.5
 20
142.1
 30
0.0
 40
3.5
  1
市原
 50
0.0
 41
0.571428571
 51
0.0
  7
KANJI7
  0
TEXT
  8
3
  6
CONTINUOUS
 62
     5
 10
246.5
 20
141.5
 30
0.2
 40
2.0
  1
ＭＳ－１３１９７へ
 50
0.0
 41
0.9
 51
0.0
  7
KANJI18
  0
ENDSEC
  0
EOF
