  0
SECTION
  2
HEADER
  9
$ACADVER
  1
AC1009
  9
$DWGCODEPAGE
  3
dos932
  9
$EXTMIN
 10
0.0
 20
0.0
 30
0.0
  9
$EXTMAX
 10
297.0
 20
210.0
 30
0.0
  9
$LIMMIN
 10
0.0
 20
0.0
  9
$LIMMAX
 10
297.0
 20
210.0
  9
$LTSCALE
 40
1.0
  9
$PDMODE
 70
     0
  0
ENDSEC
  0
SECTION
  2
TABLES
  0
TABLE
  2
VPORT
 70
     1
  0
VPORT
  2
*ACTIVE
 70
     0
 10
0.0
 20
0.0
 11
1.0
 21
1.0
 12
148.5
 22
105.0
 13
0.0
 23
0.0
 14
10.0
 24
10.0
 15
10.0
 25
10.0
 16
0.0
 26
0.0
 36
1.0
 17
0.0
 27
0.0
 37
0.0
 40
297.0
 41
1.414285714
 42
50.0
 43
0.0
 44
0.0
 50
0.0
 51
0.0
 71
     0
 72
  1000
 73
     1
 74
     3
 75
     0
 76
     0
 77
     0
 78
     0
  0
ENDTAB
  0
TABLE
  2
LTYPE
 70
     3
  0
LTYPE
  2
CONTINUOUS
 70
    64
  3
Solid line
 72
    65
 73
     0
 40
0.0
  0
LTYPE
  2
LTYPE1
 70
    64
  3
CENTER
 72
    65
 73
     4
 40
5.0
 49
3.5
 49
-0.5
 49
0.5
 49
-0.5
  0
LTYPE
  2
LTYPE2
 70
    64
  3
HIDDEN
 72
    65
 73
     2
 40
2.0
 49
1.2
 49
-0.8
  0
ENDTAB
  0
TABLE
  2
LAYER
 70
   128
  0
LAYER
  2
0
 70
     0
 62
     7
  6
CONTINUOUS
  0
LAYER
  2
2
 70
     0
 62
     7
  6
CONTINUOUS
  0
LAYER
  2
3
 70
     0
 62
     7
  6
CONTINUOUS
  0
LAYER
  2
4
 70
     0
 62
     7
  6
CONTINUOUS
  0
LAYER
  2
5
 70
     0
 62
     7
  6
CONTINUOUS
  0
LAYER
  2
6
 70
     0
 62
     7
  6
CONTINUOUS
  0
LAYER
  2
7
 70
     0
 62
     7
  6
CONTINUOUS
  0
LAYER
  2
8
 70
     0
 62
     7
  6
CONTINUOUS
  0
LAYER
  2
9
 70
     0
 62
     7
  6
CONTINUOUS
  0
LAYER
  2
10
 70
     0
 62
     7
  6
CONTINUOUS
  0
LAYER
  2
11
 70
     0
 62
     7
  6
CONTINUOUS
  0
LAYER
  2
12
 70
     0
 62
     7
  6
CONTINUOUS
  0
LAYER
  2
13
 70
     0
 62
     7
  6
CONTINUOUS
  0
LAYER
  2
14
 70
     0
 62
     7
  6
CONTINUOUS
  0
LAYER
  2
15
 70
     0
 62
     7
  6
CONTINUOUS
  0
LAYER
  2
16
 70
     0
 62
     7
  6
CONTINUOUS
  0
LAYER
  2
17
 70
     0
 62
     7
  6
CONTINUOUS
  0
LAYER
  2
18
 70
     0
 62
     7
  6
CONTINUOUS
  0
LAYER
  2
19
 70
     0
 62
     7
  6
CONTINUOUS
  0
LAYER
  2
20
 70
     0
 62
     7
  6
CONTINUOUS
  0
LAYER
  2
21
 70
     0
 62
     7
  6
CONTINUOUS
  0
LAYER
  2
22
 70
     0
 62
     7
  6
CONTINUOUS
  0
LAYER
  2
23
 70
     0
 62
     7
  6
CONTINUOUS
  0
LAYER
  2
24
 70
     0
 62
     7
  6
CONTINUOUS
  0
LAYER
  2
25
 70
     0
 62
     7
  6
CONTINUOUS
  0
LAYER
  2
26
 70
     0
 62
     7
  6
CONTINUOUS
  0
LAYER
  2
27
 70
     0
 62
     7
  6
CONTINUOUS
  0
LAYER
  2
28
 70
     0
 62
     7
  6
CONTINUOUS
  0
LAYER
  2
29
 70
     0
 62
     7
  6
CONTINUOUS
  0
LAYER
  2
30
 70
     0
 62
     7
  6
CONTINUOUS
  0
LAYER
  2
31
 70
     0
 62
     7
  6
CONTINUOUS
  0
LAYER
  2
32
 70
     0
 62
     7
  6
CONTINUOUS
  0
LAYER
  2
33
 70
     0
 62
     7
  6
CONTINUOUS
  0
LAYER
  2
34
 70
     0
 62
     7
  6
CONTINUOUS
  0
LAYER
  2
35
 70
     0
 62
     7
  6
CONTINUOUS
  0
LAYER
  2
36
 70
     0
 62
     7
  6
CONTINUOUS
  0
LAYER
  2
37
 70
     0
 62
     7
  6
CONTINUOUS
  0
LAYER
  2
38
 70
     0
 62
     7
  6
CONTINUOUS
  0
LAYER
  2
39
 70
     0
 62
     7
  6
CONTINUOUS
  0
LAYER
  2
40
 70
     0
 62
     7
  6
CONTINUOUS
  0
LAYER
  2
41
 70
     0
 62
     7
  6
CONTINUOUS
  0
LAYER
  2
42
 70
     0
 62
     7
  6
CONTINUOUS
  0
LAYER
  2
43
 70
     0
 62
     7
  6
CONTINUOUS
  0
LAYER
  2
44
 70
     0
 62
     7
  6
CONTINUOUS
  0
LAYER
  2
45
 70
     0
 62
     7
  6
CONTINUOUS
  0
LAYER
  2
46
 70
     0
 62
     7
  6
CONTINUOUS
  0
LAYER
  2
47
 70
     0
 62
     7
  6
CONTINUOUS
  0
LAYER
  2
48
 70
     0
 62
     7
  6
CONTINUOUS
  0
LAYER
  2
49
 70
     0
 62
     7
  6
CONTINUOUS
  0
LAYER
  2
50
 70
     0
 62
     7
  6
CONTINUOUS
  0
LAYER
  2
51
 70
     0
 62
     7
  6
CONTINUOUS
  0
LAYER
  2
52
 70
     0
 62
     7
  6
CONTINUOUS
  0
LAYER
  2
53
 70
     0
 62
     7
  6
CONTINUOUS
  0
LAYER
  2
54
 70
     0
 62
     7
  6
CONTINUOUS
  0
LAYER
  2
55
 70
     0
 62
     7
  6
CONTINUOUS
  0
LAYER
  2
56
 70
     0
 62
     7
  6
CONTINUOUS
  0
LAYER
  2
57
 70
     0
 62
     7
  6
CONTINUOUS
  0
LAYER
  2
58
 70
     0
 62
     7
  6
CONTINUOUS
  0
LAYER
  2
59
 70
     0
 62
     7
  6
CONTINUOUS
  0
LAYER
  2
60
 70
     0
 62
     7
  6
CONTINUOUS
  0
LAYER
  2
61
 70
     0
 62
     7
  6
CONTINUOUS
  0
LAYER
  2
62
 70
     0
 62
     7
  6
CONTINUOUS
  0
LAYER
  2
63
 70
     0
 62
     7
  6
CONTINUOUS
  0
LAYER
  2
64
 70
     0
 62
     7
  6
CONTINUOUS
  0
LAYER
  2
65
 70
     0
 62
     7
  6
CONTINUOUS
  0
LAYER
  2
66
 70
     0
 62
     7
  6
CONTINUOUS
  0
LAYER
  2
67
 70
     0
 62
     7
  6
CONTINUOUS
  0
LAYER
  2
68
 70
     0
 62
     7
  6
CONTINUOUS
  0
LAYER
  2
69
 70
     0
 62
     7
  6
CONTINUOUS
  0
LAYER
  2
70
 70
     0
 62
     7
  6
CONTINUOUS
  0
LAYER
  2
71
 70
     0
 62
     7
  6
CONTINUOUS
  0
LAYER
  2
72
 70
     0
 62
     7
  6
CONTINUOUS
  0
LAYER
  2
73
 70
     0
 62
     7
  6
CONTINUOUS
  0
LAYER
  2
74
 70
     0
 62
     7
  6
CONTINUOUS
  0
LAYER
  2
75
 70
     0
 62
     7
  6
CONTINUOUS
  0
LAYER
  2
76
 70
     0
 62
     7
  6
CONTINUOUS
  0
LAYER
  2
77
 70
     0
 62
     7
  6
CONTINUOUS
  0
LAYER
  2
78
 70
     0
 62
     7
  6
CONTINUOUS
  0
LAYER
  2
79
 70
     0
 62
     7
  6
CONTINUOUS
  0
LAYER
  2
80
 70
     0
 62
     7
  6
CONTINUOUS
  0
LAYER
  2
81
 70
     0
 62
     7
  6
CONTINUOUS
  0
LAYER
  2
82
 70
     0
 62
     7
  6
CONTINUOUS
  0
LAYER
  2
83
 70
     0
 62
     7
  6
CONTINUOUS
  0
LAYER
  2
84
 70
     0
 62
     7
  6
CONTINUOUS
  0
LAYER
  2
85
 70
     0
 62
     7
  6
CONTINUOUS
  0
LAYER
  2
86
 70
     0
 62
     7
  6
CONTINUOUS
  0
LAYER
  2
87
 70
     0
 62
     7
  6
CONTINUOUS
  0
LAYER
  2
88
 70
     0
 62
     7
  6
CONTINUOUS
  0
LAYER
  2
89
 70
     0
 62
     7
  6
CONTINUOUS
  0
LAYER
  2
90
 70
     0
 62
     7
  6
CONTINUOUS
  0
LAYER
  2
91
 70
     0
 62
     7
  6
CONTINUOUS
  0
LAYER
  2
92
 70
     0
 62
     7
  6
CONTINUOUS
  0
LAYER
  2
93
 70
     0
 62
     7
  6
CONTINUOUS
  0
LAYER
  2
94
 70
     0
 62
     7
  6
CONTINUOUS
  0
LAYER
  2
95
 70
     0
 62
     7
  6
CONTINUOUS
  0
LAYER
  2
96
 70
     0
 62
     7
  6
CONTINUOUS
  0
LAYER
  2
97
 70
     0
 62
     7
  6
CONTINUOUS
  0
LAYER
  2
98
 70
     0
 62
     7
  6
CONTINUOUS
  0
LAYER
  2
99
 70
     0
 62
     7
  6
CONTINUOUS
  0
LAYER
  2
100
 70
     0
 62
     7
  6
CONTINUOUS
  0
LAYER
  2
101
 70
     0
 62
     7
  6
CONTINUOUS
  0
LAYER
  2
102
 70
     0
 62
     7
  6
CONTINUOUS
  0
LAYER
  2
103
 70
     0
 62
     7
  6
CONTINUOUS
  0
LAYER
  2
104
 70
     0
 62
     7
  6
CONTINUOUS
  0
LAYER
  2
105
 70
     0
 62
     7
  6
CONTINUOUS
  0
LAYER
  2
106
 70
     0
 62
     7
  6
CONTINUOUS
  0
LAYER
  2
107
 70
     0
 62
     7
  6
CONTINUOUS
  0
LAYER
  2
108
 70
     0
 62
     7
  6
CONTINUOUS
  0
LAYER
  2
109
 70
     0
 62
     7
  6
CONTINUOUS
  0
LAYER
  2
110
 70
     0
 62
     7
  6
CONTINUOUS
  0
LAYER
  2
111
 70
     0
 62
     7
  6
CONTINUOUS
  0
LAYER
  2
112
 70
     0
 62
     7
  6
CONTINUOUS
  0
LAYER
  2
113
 70
     0
 62
     7
  6
CONTINUOUS
  0
LAYER
  2
114
 70
     0
 62
     7
  6
CONTINUOUS
  0
LAYER
  2
115
 70
     0
 62
     7
  6
CONTINUOUS
  0
LAYER
  2
116
 70
     0
 62
     7
  6
CONTINUOUS
  0
LAYER
  2
117
 70
     0
 62
     7
  6
CONTINUOUS
  0
LAYER
  2
118
 70
     0
 62
     7
  6
CONTINUOUS
  0
LAYER
  2
119
 70
     0
 62
     7
  6
CONTINUOUS
  0
LAYER
  2
120
 70
     0
 62
     7
  6
CONTINUOUS
  0
LAYER
  2
121
 70
     0
 62
     7
  6
CONTINUOUS
  0
LAYER
  2
122
 70
     0
 62
     7
  6
CONTINUOUS
  0
LAYER
  2
123
 70
     0
 62
     7
  6
CONTINUOUS
  0
LAYER
  2
124
 70
     0
 62
     7
  6
CONTINUOUS
  0
LAYER
  2
125
 70
     0
 62
     7
  6
CONTINUOUS
  0
LAYER
  2
126
 70
     0
 62
     7
  6
CONTINUOUS
  0
LAYER
  2
127
 70
     0
 62
     7
  6
CONTINUOUS
  0
LAYER
  2
128
 70
     0
 62
     7
  6
CONTINUOUS
  0
ENDTAB
  0
TABLE
  2
STYLE
 70
    11
  0
STYLE
  2
STANDARD
 70
     0
 40
0.0
 41
1.0
 50
0.0
 71
     0
 42
0.2
  3
txt.shx
  4
extfont.shx
  0
STYLE
  2
KANJI0
 70
     0
 40
3.0
 41
0.9
 50
0.0
 71
     0
 42
3.0
  3
txt.shx
  4
extfont.shx
  0
STYLE
  2
KANJI1
 70
     0
 40
3.0
 41
0.9
 50
0.0
 71
     0
 42
3.0
  3
txt.shx
  4
extfont.shx
  0
STYLE
  2
KANJI2
 70
     0
 40
4.0
 41
0.9
 50
0.0
 71
     0
 42
4.0
  3
txt.shx
  4
extfont.shx
  0
STYLE
  2
KANJI3
 70
     4
 40
3.0
 41
0.9
 50
0.0
 71
     0
 42
3.0
  3
txt.shx
  4
extfont.shx
  0
STYLE
  2
KANJI4
 70
     0
 40
3.0
 41
0.9
 50
0.0
 71
     0
 42
3.0
  3
txt.shx
  4
extfont.shx
  0
STYLE
  2
KANJI5
 70
     0
 40
5.0
 41
0.9
 50
0.0
 71
     0
 42
5.0
  3
txt.shx
  4
extfont.shx
  0
STYLE
  2
KANJI6
 70
     0
 40
3.0
 41
0.45
 50
0.0
 71
     0
 42
3.0
  3
txt.shx
  4
extfont.shx
  0
STYLE
  2
KANJI7
 70
     0
 40
4.0
 41
0.75
 50
0.0
 71
     0
 42
4.0
  3
txt.shx
  4
extfont.shx
  0
STYLE
  2
KANJI8
 70
     0
 40
4.0
 41
0.9
 50
0.0
 71
     0
 42
4.0
  3
txt.shx
  4
extfont.shx
  0
STYLE
  2
KANJI9
 70
     0
 40
5.8
 41
0.827586207
 50
0.0
 71
     0
 42
5.8
  3
txt.shx
  4
extfont.shx
  0
ENDTAB
  0
TABLE
  2
VIEW
 70
     0
  0
ENDTAB
  0
ENDSEC
  0
SECTION
  2
BLOCKS
  0
ENDSEC
  0
SECTION
  2
ENTITIES
  0
LINE
  8
0
  6
CONTINUOUS
 62
     2
 10
163.0
 20
173.0
 30
0.0
 11
223.0
 21
173.0
 31
0.0
  0
LINE
  8
0
  6
CONTINUOUS
 62
     2
 10
163.0
 20
179.0
 30
0.0
 11
223.0
 21
179.0
 31
0.0
  0
LINE
  8
0
  6
CONTINUOUS
 62
     2
 10
163.0
 20
185.0
 30
0.0
 11
223.0
 21
185.0
 31
0.0
  0
LINE
  8
0
  6
CONTINUOUS
 62
     2
 10
195.5
 20
173.0
 30
0.0
 11
195.5
 21
179.0
 31
0.0
  0
LINE
  8
0
  6
CONTINUOUS
 62
     2
 10
163.0
 20
136.0
 30
0.0
 11
223.0
 21
136.0
 31
0.0
  0
LINE
  8
0
  6
CONTINUOUS
 62
     2
 10
223.0
 20
138.0
 30
0.0
 11
163.0
 21
138.0
 31
0.0
  0
LINE
  8
0
  6
CONTINUOUS
 62
     2
 10
163.0
 20
153.0
 30
0.0
 11
223.0
 21
153.0
 31
0.0
  0
LINE
  8
0
  6
CONTINUOUS
 62
     2
 10
163.0
 20
148.0
 30
0.0
 11
223.0
 21
148.0
 31
0.0
  0
LINE
  8
0
  6
CONTINUOUS
 62
     2
 10
163.0
 20
143.0
 30
0.0
 11
223.0
 21
143.0
 31
0.0
  0
LINE
  8
0
  6
CONTINUOUS
 62
     2
 10
178.0
 20
148.0
 30
0.0
 11
178.0
 21
138.0
 31
0.0
  0
LINE
  8
0
  6
CONTINUOUS
 62
     2
 10
203.0
 20
138.0
 30
0.0
 11
203.0
 21
148.0
 31
0.0
  0
LINE
  8
0
  6
CONTINUOUS
 62
     2
 10
213.0
 20
148.0
 30
0.0
 11
213.0
 21
143.0
 31
0.0
  0
LINE
  8
0
  6
CONTINUOUS
 62
     2
 10
198.0
 20
148.0
 30
0.0
 11
198.0
 21
173.0
 31
0.0
  0
LINE
  8
0
  6
CONTINUOUS
 62
     2
 10
173.0
 20
173.0
 30
0.0
 11
173.0
 21
153.0
 31
0.0
  0
LINE
  8
0
  6
CONTINUOUS
 62
     2
 10
173.0
 20
158.0
 30
0.0
 11
223.0
 21
158.0
 31
0.0
  0
LINE
  8
0
  6
CONTINUOUS
 62
     2
 10
173.0
 20
163.0
 30
0.0
 11
223.0
 21
163.0
 31
0.0
  0
LINE
  8
0
  6
CONTINUOUS
 62
     2
 10
173.0
 20
168.0
 30
0.0
 11
223.0
 21
168.0
 31
0.0
  0
LINE
  8
0
  6
CONTINUOUS
 62
     2
 10
163.0
 20
138.0
 30
0.0
 11
163.0
 21
185.0
 31
0.0
  0
LINE
  8
0
  6
CONTINUOUS
 62
     2
 10
223.0
 20
185.0
 30
0.0
 11
223.0
 21
138.0
 31
0.0
  0
TEXT
  8
0
  6
CONTINUOUS
 62
     2
 10
180.0
 20
154.0
 30
0.3
 40
3.0
  1
負　　担
 50
0.0
 41
0.9
 51
0.0
  7
KANJI0
  0
TEXT
  8
0
  6
CONTINUOUS
 62
     2
 10
180.0
 20
159.0
 30
0.3
 40
3.0
  1
周　波　数
 50
0.0
 41
0.9
 51
0.0
  7
KANJI0
  0
TEXT
  8
0
  6
CONTINUOUS
 62
     2
 10
166.5
 20
144.0
 30
0.3
 40
3.0
  1
規　格
 50
0.0
 41
0.9
 51
0.0
  7
KANJI0
  0
TEXT
  8
0
  6
CONTINUOUS
 62
     2
 10
204.0
 20
144.0
 30
0.3
 40
3.0
  1
階　級
 50
0.0
 41
0.9
 51
0.0
  7
KANJI0
  0
TEXT
  8
0
  6
CONTINUOUS
 62
     2
 10
166.5
 20
139.0
 30
0.3
 40
3.0
  1
質　量
 50
0.0
 41
0.9
 51
0.0
  7
KANJI0
  0
TEXT
  8
0
  6
CONTINUOUS
 62
     2
 10
180.0
 20
164.0
 30
0.3
 40
3.0
  1
二次電流
 50
0.0
 41
0.9
 51
0.0
  7
KANJI0
  0
TEXT
  8
0
  6
CONTINUOUS
 62
     2
 10
180.0
 20
169.0
 30
0.3
 40
3.0
  1
一次電流
 50
0.0
 41
0.9
 51
0.0
  7
KANJI0
  0
LINE
  8
0
  6
CONTINUOUS
 62
     2
 10
213.0
 20
136.0
 30
0.0
 11
213.0
 21
131.0
 31
0.0
  0
LINE
  8
0
  6
CONTINUOUS
 62
     2
 10
163.0
 20
131.0
 30
0.0
 11
223.0
 21
131.0
 31
0.0
  0
TEXT
  8
0
  6
CONTINUOUS
 62
     2
 10
172.369
 20
149.0
 30
0.3
 40
3.0
  1
最　高　電　圧
 50
0.0
 41
0.9
 51
0.0
  7
KANJI0
  0
TEXT
  8
0
  6
CONTINUOUS
 62
     2
 10
164.801
 20
132.0
 30
0.3
 40
3.0
  1
過電流強度
 50
0.0
 41
0.9
 51
0.0
  7
KANJI0
  0
LINE
  8
0
  6
CONTINUOUS
 62
     2
 10
195.0
 20
131.0
 30
0.0
 11
195.0
 21
136.0
 31
0.0
  0
TEXT
  8
0
  6
CONTINUOUS
 62
     2
 10
196.801
 20
132.0
 30
0.3
 40
3.0
  1
過電流定数
 50
0.0
 41
0.9
 51
0.0
  7
KANJI0
  0
TEXT
  8
0
  6
CONTINUOUS
 62
     2
 10
214.0
 20
144.0
 30
0.3
 40
3.0
  1
１．０
 50
0.0
 41
0.9
 51
0.0
  7
KANJI0
  0
POLYLINE
  8
0
  6
CONTINUOUS
 62
     2
 66
     1
  0
VERTEX
  8
0
  6
CONTINUOUS
 62
     2
 10
223.0
 20
126.0
 30
0.0
  0
VERTEX
  8
0
  6
CONTINUOUS
 62
     2
 10
163.0
 20
126.0
 30
0.0
  0
VERTEX
  8
0
  6
CONTINUOUS
 62
     2
 10
163.0
 20
136.0
 30
0.0
  0
SEQEND
  0
LINE
  8
0
  6
CONTINUOUS
 62
     2
 10
223.0
 20
136.0
 30
0.0
 11
223.0
 21
126.0
 31
0.0
  0
LINE
  8
0
  6
CONTINUOUS
 62
     2
 10
181.0
 20
126.0
 30
0.0
 11
181.0
 21
136.0
 31
0.0
  0
TEXT
  8
0
  6
CONTINUOUS
 62
     2
 10
166.0
 20
127.0
 30
0.3
 40
3.0
  1
絶縁階級
 50
0.0
 41
0.9
 51
0.0
  7
KANJI1
  0
TEXT
  8
0
  6
CONTINUOUS
 62
     2
 10
188.0
 20
127.0
 30
0.3
 40
3.0
  1
６号　Ａ級
 50
0.0
 41
0.9
 51
0.0
  7
KANJI0
  0
TEXT
  8
0
  6
CONTINUOUS
 62
     2
 10
201.0
 20
159.0
 30
0.3
 40
3.0
  1
５０／６０Ｈｚ
 50
0.0
 41
0.9
 51
0.0
  7
KANJI0
  0
TEXT
  8
0
  6
CONTINUOUS
 62
     2
 10
201.0
 20
154.0
 30
0.3
 40
3.0
  1
４０ＶＡ
 50
0.0
 41
0.9
 51
0.0
  7
KANJI0
  0
TEXT
  8
0
  6
CONTINUOUS
 62
     2
 10
201.0
 20
149.0
 30
0.3
 40
3.0
  1
６９００Ｖ
 50
0.0
 41
0.9
 51
0.0
  7
KANJI0
  0
TEXT
  8
0
  6
CONTINUOUS
 62
     2
 10
180.0
 20
139.0
 30
0.3
 40
3.0
  1
約　３．２　ｋｇ
 50
0.0
 41
0.9
 51
0.0
  7
KANJI0
  0
TEXT
  8
0
  6
CONTINUOUS
 62
     2
 10
172.0
 20
180.0
 30
0.4
 40
4.0
  1
エポキシモールド変流器
 50
0.0
 41
0.9
 51
0.0
  7
KANJI2
  0
TEXT
  8
0
  6
CONTINUOUS
 62
     2
 10
169.188
 20
174.155008543
 30
0.3
 40
3.0
  1
ＣＭｅ－６Ｃａ
 50
0.0
 41
0.9
 51
0.0
  7
KANJI0
  0
TEXT
  8
0
  6
CONTINUOUS
 62
     2
 10
201.893
 20
174.351
 30
0.3
 40
3.0
  1
屋内用乾式
 50
0.0
 41
0.9
 51
0.0
  7
KANJI0
  0
TEXT
  8
0
  6
CONTINUOUS
 62
     2
 10
167.851
 20
168.638997902
 30
1.0
 40
3.0
  1
定　格
 50
0.0
 41
0.9
 51
0.0
  7
KANJI3
  0
TEXT
  8
0
  6
CONTINUOUS
 62
     2
 10
184.893
 20
132.0
 30
0.3
 40
3.0
  1
４０
 50
0.0
 41
0.9
 51
0.0
  7
KANJI0
  0
LINE
  8
0
  6
LTYPE1
 62
     2
 10
145.0
 20
47.109348633
 30
0.0
 11
145.0
 21
45.0
 31
0.0
  0
LINE
  8
0
  6
CONTINUOUS
 62
     2
 10
141.666666667
 20
45.0
 30
0.0
 11
141.666666667
 21
51.999996185
 31
0.0
  0
LINE
  8
0
  6
CONTINUOUS
 62
     2
 10
141.666666667
 20
51.999996185
 30
0.0
 11
178.333333333
 21
51.999996185
 31
0.0
  0
LINE
  8
0
  6
CONTINUOUS
 62
     2
 10
178.333333333
 20
51.999996185
 30
0.0
 11
178.333333333
 21
45.0
 31
0.0
  0
ARC
  8
0
  6
CONTINUOUS
 62
     2
 10
146.5
 20
83.333333333
 30
0.0
 40
2.0
 50
90.0
 51
180.0
  0
LINE
  8
0
  6
CONTINUOUS
 62
     2
 10
144.5
 20
73.333333333
 30
0.0
 11
144.5
 21
83.333333333
 31
0.0
  0
ARC
  8
0
  6
CONTINUOUS
 62
     2
 10
146.5
 20
73.333333333
 30
0.0
 40
2.0
 50
180.0
 51
270.0
  0
LINE
  8
0
  6
CONTINUOUS
 62
     2
 10
146.5
 20
71.333333333
 30
0.0
 11
173.5
 21
71.333333333
 31
0.0
  0
ARC
  8
0
  6
CONTINUOUS
 62
     2
 10
173.5
 20
73.333333333
 30
0.0
 40
2.0
 50
270.0
 51
0.0
  0
LINE
  8
0
  6
CONTINUOUS
 62
     2
 10
146.5
 20
85.333333333
 30
0.0
 11
173.5
 21
85.333333333
 31
0.0
  0
LINE
  8
0
  6
CONTINUOUS
 62
     2
 10
175.5
 20
73.333333333
 30
0.0
 11
175.5
 21
83.333333333
 31
0.0
  0
ARC
  8
0
  6
CONTINUOUS
 62
     2
 10
173.5
 20
83.333333333
 30
0.0
 40
2.0
 50
0.0
 51
90.0
  0
ARC
  8
0
  6
CONTINUOUS
 62
     2
 10
169.0
 20
80.333333333
 30
0.0
 40
1.0
 50
0.0
 51
90.0
  0
LINE
  8
0
  6
CONTINUOUS
 62
     2
 10
170.0
 20
76.333333333
 30
0.0
 11
170.0
 21
80.333333333
 31
0.0
  0
ARC
  8
0
  6
CONTINUOUS
 62
     2
 10
169.0
 20
76.333333333
 30
0.0
 40
1.0
 50
270.0
 51
0.0
  0
LINE
  8
0
  6
CONTINUOUS
 62
     2
 10
151.0
 20
75.333333333
 30
0.0
 11
169.0
 21
75.333333333
 31
0.0
  0
ARC
  8
0
  6
CONTINUOUS
 62
     2
 10
151.0
 20
76.333333333
 30
0.0
 40
1.0
 50
180.0
 51
270.0
  0
LINE
  8
0
  6
CONTINUOUS
 62
     2
 10
169.0
 20
81.333333333
 30
0.0
 11
151.0
 21
81.333333333
 31
0.0
  0
LINE
  8
0
  6
CONTINUOUS
 62
     2
 10
150.0
 20
76.333333333
 30
0.0
 11
150.0
 21
80.333333333
 31
0.0
  0
ARC
  8
0
  6
CONTINUOUS
 62
     2
 10
151.0
 20
80.333333333
 30
0.0
 40
1.0
 50
90.0
 51
180.0
  0
ARC
  8
0
  6
CONTINUOUS
 62
     2
 10
146.666666667
 20
58.833333333
 30
0.0
 40
5.0
 50
180.0
 51
270.0
  0
ARC
  8
0
  6
CONTINUOUS
 62
     2
 10
173.333333333
 20
58.833333333
 30
0.0
 40
5.0
 50
270.0
 51
0.0
  0
LINE
  8
0
  6
CONTINUOUS
 62
     2
 10
141.666666667
 20
58.833333333
 30
0.0
 11
141.666666667
 21
74.833334682
 31
0.0
  0
LINE
  8
0
  6
CONTINUOUS
 62
     2
 10
178.333333333
 20
58.833333333
 30
0.0
 11
178.333333333
 21
74.833333333
 31
0.0
  0
LINE
  8
0
  6
CONTINUOUS
 62
     2
 10
142.166666667
 20
58.833333333
 30
0.0
 11
142.166666667
 21
74.833334682
 31
0.0
  0
ARC
  8
0
  6
CONTINUOUS
 62
     2
 10
146.666666667
 20
58.833333333
 30
0.0
 40
4.5
 50
180.0
 51
270.0
  0
ARC
  8
0
  6
CONTINUOUS
 62
     2
 10
173.333333333
 20
58.833333333
 30
0.0
 40
4.5
 50
270.0
 51
0.0
  0
LINE
  8
0
  6
CONTINUOUS
 62
     2
 10
177.833333333
 20
58.833333333
 30
0.0
 11
177.833333333
 21
74.833333333
 31
0.0
  0
LINE
  8
0
  6
CONTINUOUS
 62
     2
 10
151.193548316
 20
64.333333333
 30
0.0
 11
150.0
 21
51.999996185
 31
0.0
  0
LINE
  8
0
  6
CONTINUOUS
 62
     2
 10
170.0
 20
51.999996185
 30
0.0
 11
168.806451684
 21
64.333333333
 31
0.0
  0
LINE
  8
0
  6
CONTINUOUS
 62
     2
 10
169.774193263
 20
54.333333333
 30
0.0
 11
173.333333333
 21
54.333333333
 31
0.0
  0
LINE
  8
0
  6
CONTINUOUS
 62
     2
 10
146.666666667
 20
54.333333333
 30
0.0
 11
150.225806737
 21
54.333333333
 31
0.0
  0
LINE
  8
0
  6
CONTINUOUS
 62
     2
 10
169.822580341
 20
53.833333333
 30
0.0
 11
173.333333333
 21
53.833333333
 31
0.0
  0
LINE
  8
0
  6
CONTINUOUS
 62
     2
 10
146.666666667
 20
53.833333333
 30
0.0
 11
150.177419659
 21
53.833333333
 31
0.0
  0
ARC
  8
0
  6
CONTINUOUS
 62
     2
 10
146.666666667
 20
74.833333333
 30
0.0
 40
4.5
 50
118.782204681
 51
179.999984538
  0
ARC
  8
0
  6
CONTINUOUS
 62
     2
 10
146.666666667
 20
74.833333333
 30
0.0
 40
5.0
 50
115.679288619
 51
179.999984538
  0
ARC
  8
0
  6
CONTINUOUS
 62
     2
 10
173.333333333
 20
74.833333333
 30
0.0
 40
4.5
 50
0.0
 51
61.217795319
  0
ARC
  8
0
  6
CONTINUOUS
 62
     2
 10
173.333333333
 20
74.833333333
 30
0.0
 40
5.0
 50
0.0
 51
64.320711381
  0
LINE
  8
0
  6
CONTINUOUS
 62
     2
 10
141.666666667
 20
46.0
 30
0.0
 11
178.333333333
 21
46.0
 31
0.0
  0
LINE
  8
0
  6
CONTINUOUS
 62
     2
 10
178.333333333
 20
45.0
 30
0.0
 11
141.666666667
 21
45.0
 31
0.0
  0
LINE
  8
0
  6
LTYPE1
 62
     2
 10
175.0
 20
47.109348633
 30
0.0
 11
175.0
 21
45.0
 31
0.0
  0
LINE
  8
0
  6
CONTINUOUS
 62
     2
 10
161.666666667
 20
45.0
 30
0.0
 11
161.666666667
 21
46.0
 31
0.0
  0
LINE
  8
0
  6
CONTINUOUS
 62
     2
 10
158.333333333
 20
45.0
 30
0.0
 11
158.333333333
 21
46.0
 31
0.0
  0
LINE
  8
0
  6
CONTINUOUS
 62
     2
 10
145.0
 20
30.0
 30
0.0
 11
146.629979457
 21
30.436751679
 31
0.0
  0
LINE
  8
0
  6
CONTINUOUS
 62
     2
 10
145.0
 20
30.0
 30
0.0
 11
146.629979457
 21
29.563248321
 31
0.0
  0
LINE
  8
0
  6
CONTINUOUS
 62
     2
 10
145.0
 20
44.156260547
 30
0.0
 11
145.0
 21
29.156260547
 31
0.0
  0
POINT
  8
2
  6
CONTINUOUS
 62
     2
 10
175.0
 20
30.0
 30
0.0
  0
LINE
  8
0
  6
CONTINUOUS
 62
     2
 10
174.999718754
 20
30.0
 30
0.0
 11
173.369739296
 21
30.436751679
 31
0.0
  0
LINE
  8
0
  6
CONTINUOUS
 62
     2
 10
174.999718754
 20
30.0
 30
0.0
 11
173.369739296
 21
29.563248321
 31
0.0
  0
LINE
  8
0
  6
CONTINUOUS
 62
     2
 10
145.0
 20
30.0
 30
0.0
 11
175.0
 21
30.0
 31
0.0
  0
LINE
  8
0
  6
CONTINUOUS
 62
     2
 10
141.666666667
 20
25.0
 30
0.0
 11
143.296646124
 21
25.436751679
 31
0.0
  0
LINE
  8
0
  6
CONTINUOUS
 62
     2
 10
141.666666667
 20
25.0
 30
0.0
 11
143.296646124
 21
24.563248321
 31
0.0
  0
LINE
  8
0
  6
CONTINUOUS
 62
     2
 10
141.666666667
 20
44.156260547
 30
0.0
 11
141.666666667
 21
24.156260547
 31
0.0
  0
POINT
  8
2
  6
CONTINUOUS
 62
     2
 10
178.333333333
 20
25.0
 30
0.0
  0
LINE
  8
0
  6
CONTINUOUS
 62
     2
 10
178.33361458
 20
25.0
 30
0.0
 11
176.703635123
 21
25.436751679
 31
0.0
  0
LINE
  8
0
  6
CONTINUOUS
 62
     2
 10
178.33361458
 20
25.0
 30
0.0
 11
176.703635123
 21
24.563248321
 31
0.0
  0
LINE
  8
0
  6
CONTINUOUS
 62
     2
 10
178.333333333
 20
44.156260547
 30
0.0
 11
178.333333333
 21
24.156260547
 31
0.0
  0
LINE
  8
0
  6
CONTINUOUS
 62
     2
 10
141.666666667
 20
25.0
 30
0.0
 11
178.333333333
 21
25.0
 31
0.0
  0
TEXT
  8
0
  6
CONTINUOUS
 62
     2
 10
157.112308253
 20
30.281246484
 30
0.3
 40
3.0
  1
９０
 50
0.0
 41
0.9
 51
0.0
  7
KANJI0
  0
TEXT
  8
0
  6
CONTINUOUS
 62
     2
 10
155.782264597
 20
25.281246484
 30
0.3
 40
3.0
  1
１１０
 50
0.0
 41
0.9
 51
0.0
  7
KANJI0
  0
TEXT
  8
0
  6
CONTINUOUS
 62
     2
 10
162.112308253
 20
35.281246484
 30
0.3
 40
3.0
  1
１０
 50
0.0
 41
0.9
 51
0.0
  7
KANJI0
  0
LINE
  8
0
  6
CONTINUOUS
 62
     2
 10
158.333333333
 20
44.0
 30
0.0
 11
158.333333333
 21
34.0
 31
0.0
  0
LINE
  8
0
  6
CONTINUOUS
 62
     2
 10
161.666666667
 20
44.0
 30
0.0
 11
161.666666667
 21
34.0
 31
0.0
  0
LINE
  8
0
  6
CONTINUOUS
 62
     2
 10
161.666666667
 20
35.0
 30
0.0
 11
164.081481232
 21
34.352952387
 31
0.0
  0
LINE
  8
0
  6
CONTINUOUS
 62
     2
 10
161.666666667
 20
35.0
 30
0.0
 11
164.081481232
 21
35.647047613
 31
0.0
  0
LINE
  8
0
  6
CONTINUOUS
 62
     2
 10
158.333333333
 20
35.0
 30
0.0
 11
155.918518768
 21
35.647047613
 31
0.0
  0
LINE
  8
0
  6
CONTINUOUS
 62
     2
 10
158.333333333
 20
35.0
 30
0.0
 11
155.918518768
 21
34.352952387
 31
0.0
  0
LINE
  8
0
  6
CONTINUOUS
 62
     2
 10
155.0
 20
35.0
 30
0.0
 11
165.0
 21
35.0
 31
0.0
  0
LINE
  8
0
  6
CONTINUOUS
 62
     2
 10
149.0
 20
85.333333333
 30
0.0
 11
149.0
 21
93.333333333
 31
0.0
  0
ARC
  8
0
  6
CONTINUOUS
 62
     2
 10
150.0
 20
93.333333333
 30
0.0
 40
1.0
 50
90.0
 51
180.0
  0
LINE
  8
0
  6
CONTINUOUS
 62
     2
 10
171.0
 20
85.333333333
 30
0.0
 11
171.0
 21
93.333333333
 31
0.0
  0
LINE
  8
0
  6
CONTINUOUS
 62
     2
 10
170.0
 20
94.333333333
 30
0.0
 11
150.0
 21
94.333333333
 31
0.0
  0
ARC
  8
0
  6
CONTINUOUS
 62
     2
 10
170.0
 20
93.333333333
 30
0.0
 40
1.0
 50
0.0
 51
90.0
  0
LINE
  8
0
  6
CONTINUOUS
 62
     2
 10
141.666666667
 20
103.333333333
 30
0.0
 11
143.296646124
 21
103.770085013
 31
0.0
  0
LINE
  8
0
  6
CONTINUOUS
 62
     2
 10
141.666666667
 20
103.333333333
 30
0.0
 11
143.296646124
 21
102.896581654
 31
0.0
  0
LINE
  8
0
  6
CONTINUOUS
 62
     2
 10
178.333333333
 20
103.333333333
 30
0.0
 11
176.703353876
 21
103.770085013
 31
0.0
  0
LINE
  8
0
  6
CONTINUOUS
 62
     2
 10
178.333333333
 20
103.333333333
 30
0.0
 11
176.703353876
 21
102.896581654
 31
0.0
  0
LINE
  8
0
  6
CONTINUOUS
 62
     2
 10
141.666666667
 20
103.333333333
 30
0.0
 11
178.33361458
 21
103.333333333
 31
0.0
  0
TEXT
  8
0
  6
CONTINUOUS
 62
     2
 10
155.782264597
 20
103.614579818
 30
0.3
 40
3.0
  1
１１０
 50
0.0
 41
0.9
 51
0.0
  7
KANJI0
  0
LINE
  8
0
  6
LTYPE1
 62
     2
 10
160.0
 20
42.0
 30
0.0
 11
160.0
 21
96.982
 31
0.0
  0
LINE
  8
0
  6
CONTINUOUS
 62
     2
 10
175.0
 20
44.156260547
 30
0.0
 11
175.0
 21
29.156260547
 31
0.0
  0
LINE
  8
0
  6
CONTINUOUS
 62
     2
 10
175.0
 20
45.0
 30
0.0
 11
175.647047613
 21
42.585185434
 31
0.0
  0
LINE
  8
0
  6
CONTINUOUS
 62
     2
 10
175.0
 20
45.0
 30
0.0
 11
176.767766953
 21
43.232233047
 31
0.0
  0
LINE
  8
0
  6
CONTINUOUS
 62
     2
 10
175.0
 20
45.0
 30
0.0
 11
180.773502692
 21
35.0
 31
0.0
  0
TEXT
  8
0
  6
CONTINUOUS
 62
     2
 10
180.773502692
 20
35.441666771
 30
0.3
 40
3.0
  1
４－φ９長穴
 50
0.0
 41
0.9
 51
0.0
  7
KANJI4
  0
LINE
  8
0
  6
CONTINUOUS
 62
     2
 10
180.773502692
 20
35.0
 30
0.0
 11
198.957502692
 21
35.0
 31
0.0
  0
LINE
  8
0
  6
CONTINUOUS
 62
     2
 10
144.0
 20
90.333333333
 30
0.0
 11
144.0
 21
86.333333333
 31
0.0
  0
LINE
  8
0
  6
CONTINUOUS
 62
     2
 10
144.0
 20
89.333333333
 30
0.0
 11
143.3
 21
89.333333333
 31
0.0
  0
ARC
  8
0
  6
CONTINUOUS
 62
     2
 10
143.3
 20
88.533333333
 30
0.0
 40
0.8
 50
90.0
 51
180.0
  0
LINE
  8
0
  6
CONTINUOUS
 62
     2
 10
144.0
 20
87.333333333
 30
0.0
 11
143.3
 21
87.333333333
 31
0.0
  0
LINE
  8
0
  6
CONTINUOUS
 62
     2
 10
142.5
 20
88.533333333
 30
0.0
 11
142.5
 21
88.133333333
 31
0.0
  0
ARC
  8
0
  6
CONTINUOUS
 62
     2
 10
143.3
 20
88.133333333
 30
0.0
 40
0.8
 50
180.0
 51
270.0
  0
LINE
  8
0
  6
CONTINUOUS
 62
     2
 10
143.5
 20
89.333333333
 30
0.0
 11
143.5
 21
87.333333333
 31
0.0
  0
LINE
  8
0
  6
LTYPE1
 62
     2
 10
141.534820115
 20
88.333333333
 30
0.0
 11
150.562605467
 21
88.333333333
 31
0.0
  0
LINE
  8
0
  6
CONTINUOUS
 62
     2
 10
149.0
 20
90.833333333
 30
0.0
 11
144.0
 21
90.333333333
 31
0.0
  0
LINE
  8
0
  6
CONTINUOUS
 62
     2
 10
149.0
 20
85.833333333
 30
0.0
 11
144.0
 21
86.333333333
 31
0.0
  0
TEXT
  8
0
  6
CONTINUOUS
 62
     2
 10
189.5
 20
63.516666667
 30
0.3
 40
3.0
  1
１４８
 50
90.0
 41
0.9
 51
0.0
  7
KANJI0
  0
LINE
  8
0
  6
CONTINUOUS
 62
     2
 10
179.333333333
 20
45.0
 30
0.0
 11
191.0
 21
45.0
 31
0.0
  0
LINE
  8
0
  6
CONTINUOUS
 62
     2
 10
190.0
 20
45.0
 30
0.0
 11
190.647047613
 21
47.414814566
 31
0.0
  0
LINE
  8
0
  6
CONTINUOUS
 62
     2
 10
190.0
 20
45.0
 30
0.0
 11
189.352952387
 21
47.414814566
 31
0.0
  0
LINE
  8
0
  6
CONTINUOUS
 62
     2
 10
190.0
 20
45.0
 30
0.0
 11
190.0
 21
94.333333333
 31
0.0
  0
LINE
  8
0
  6
CONTINUOUS
 62
     2
 10
190.0
 20
94.333333333
 30
0.0
 11
189.352952387
 21
91.918518768
 31
0.0
  0
LINE
  8
0
  6
CONTINUOUS
 62
     2
 10
190.0
 20
94.333333333
 30
0.0
 11
190.647047613
 21
91.918518768
 31
0.0
  0
LINE
  8
0
  6
CONTINUOUS
 62
     2
 10
171.0
 20
94.333333333
 30
0.0
 11
191.0
 21
94.333333333
 31
0.0
  0
LINE
  8
0
  6
CONTINUOUS
 62
     2
 10
145.5
 20
46.0
 30
0.0
 11
145.5
 21
51.999996185
 31
0.0
  0
LINE
  8
0
  6
CONTINUOUS
 62
     2
 10
174.5
 20
46.0
 30
0.0
 11
174.5
 21
51.999996185
 31
0.0
  0
CIRCLE
  8
0
  6
CONTINUOUS
 62
     2
 10
147.0
 20
49.0
 30
0.0
 40
0.75
  0
LINE
  8
0
  6
LTYPE1
 62
     2
 10
147.0
 20
50.5
 30
0.0
 11
147.0
 21
47.5
 31
0.0
  0
LINE
  8
0
  6
LTYPE1
 62
     2
 10
148.5
 20
49.0
 30
0.0
 11
145.5
 21
49.0
 31
0.0
  0
CIRCLE
  8
0
  6
CONTINUOUS
 62
     2
 10
173.0
 20
49.0
 30
0.0
 40
0.75
  0
LINE
  8
0
  6
LTYPE1
 62
     2
 10
173.0
 20
50.5
 30
0.0
 11
173.0
 21
47.5
 31
0.0
  0
LINE
  8
0
  6
LTYPE1
 62
     2
 10
174.5
 20
49.0
 30
0.0
 11
171.5
 21
49.0
 31
0.0
  0
TEXT
  8
0
  6
CONTINUOUS
 62
     2
 10
155.433264597
 20
47.452246484
 30
0.3
 40
3.0
  1
Ｎ．Ｐ
 50
0.0
 41
0.9
 51
0.0
  7
KANJI0
  0
LINE
  8
0
  6
CONTINUOUS
 62
     2
 10
141.666666667
 20
105.02081224
 30
0.0
 11
141.666666667
 21
78.733333333
 31
0.0
  0
LINE
  8
0
  6
CONTINUOUS
 62
     2
 10
178.333333333
 20
78.733333333
 30
0.0
 11
178.333333333
 21
105.02081224
 31
0.0
  0
LINE
  8
0
  6
CONTINUOUS
 62
     2
 10
173.0
 20
46.0
 30
0.0
 11
173.0
 21
45.0
 31
0.0
  0
LINE
  8
0
  6
CONTINUOUS
 62
     2
 10
177.0
 20
46.0
 30
0.0
 11
177.0
 21
45.0
 31
0.0
  0
LINE
  8
0
  6
CONTINUOUS
 62
     2
 10
147.0
 20
46.0
 30
0.0
 11
147.0
 21
45.0
 31
0.0
  0
LINE
  8
0
  6
CONTINUOUS
 62
     2
 10
143.0
 20
46.0
 30
0.0
 11
143.0
 21
45.0
 31
0.0
  0
TEXT
  8
0
  6
CONTINUOUS
 62
     2
 10
201.0
 20
164.0
 30
0.3
 40
3.0
  1
５Ａ
 50
0.0
 41
0.9
 51
0.0
  7
KANJI0
  0
TEXT
  8
0
  6
CONTINUOUS
 62
     2
 10
214.0
 20
132.0
 30
0.3
 40
3.0
  1
２．５
 50
0.0
 41
0.9
 51
0.0
  7
KANJI0
  0
TEXT
  8
0
  6
CONTINUOUS
 62
     2
 10
198.56
 20
169.0
 30
0.3
 40
3.0
  1
４００～６００Ａ
 50
0.0
 41
0.9
 51
0.0
  7
KANJI0
  0
LINE
  8
0
  6
CONTINUOUS
 62
     2
 10
52.5
 20
150.0
 30
0.0
 11
52.5
 21
149.944511154
 31
0.0
  0
LINE
  8
0
  6
CONTINUOUS
 62
     2
 10
78.0
 20
134.0
 30
0.0
 11
78.0
 21
133.3
 31
0.0
  0
ARC
  8
0
  6
CONTINUOUS
 62
     2
 10
78.8
 20
133.3
 30
0.0
 40
0.8
 50
180.0
 51
270.0
  0
LINE
  8
0
  6
CONTINUOUS
 62
     2
 10
80.0
 20
134.0
 30
0.0
 11
80.0
 21
133.3
 31
0.0
  0
LINE
  8
0
  6
CONTINUOUS
 62
     2
 10
78.8
 20
132.5
 30
0.0
 11
79.2
 21
132.5
 31
0.0
  0
ARC
  8
0
  6
CONTINUOUS
 62
     2
 10
79.2
 20
133.3
 30
0.0
 40
0.8
 50
270.0
 51
0.0
  0
LINE
  8
0
  6
CONTINUOUS
 62
     2
 10
78.0
 20
133.5
 30
0.0
 11
80.0
 21
133.5
 31
0.0
  0
LINE
  8
0
  6
CONTINUOUS
 62
     2
 10
70.0
 20
134.0
 30
0.0
 11
70.0
 21
133.3
 31
0.0
  0
ARC
  8
0
  6
CONTINUOUS
 62
     2
 10
70.8
 20
133.3
 30
0.0
 40
0.8
 50
180.0
 51
270.0
  0
LINE
  8
0
  6
CONTINUOUS
 62
     2
 10
72.0
 20
134.0
 30
0.0
 11
72.0
 21
133.3
 31
0.0
  0
LINE
  8
0
  6
CONTINUOUS
 62
     2
 10
70.8
 20
132.5
 30
0.0
 11
71.2
 21
132.5
 31
0.0
  0
ARC
  8
0
  6
CONTINUOUS
 62
     2
 10
71.2
 20
133.3
 30
0.0
 40
0.8
 50
270.0
 51
0.0
  0
LINE
  8
0
  6
CONTINUOUS
 62
     2
 10
70.0
 20
133.5
 30
0.0
 11
72.0
 21
133.5
 31
0.0
  0
LINE
  8
0
  6
LTYPE1
 62
     2
 10
79.0
 20
131.534820115
 30
0.0
 11
79.0
 21
137.0
 31
0.0
  0
LINE
  8
0
  6
LTYPE1
 62
     2
 10
71.0
 20
131.534820115
 30
0.0
 11
71.0
 21
137.0
 31
0.0
  0
LINE
  8
0
  6
LTYPE1
 62
     2
 10
57.0
 20
161.0
 30
0.0
 11
57.0
 21
167.0
 31
0.0
  0
LINE
  8
0
  6
LTYPE1
 62
     2
 10
60.0
 20
164.0
 30
0.0
 11
54.0
 21
164.0
 31
0.0
  0
LINE
  8
0
  6
LTYPE1
 62
     2
 10
93.0
 20
161.0
 30
0.0
 11
93.0
 21
167.0
 31
0.0
  0
LINE
  8
0
  6
LTYPE1
 62
     2
 10
90.0
 20
164.0
 30
0.0
 11
96.0
 21
164.0
 31
0.0
  0
LINE
  8
0
  6
LTYPE1
 62
     2
 10
57.0
 20
139.0
 30
0.0
 11
57.0
 21
133.0
 31
0.0
  0
LINE
  8
0
  6
LTYPE1
 62
     2
 10
60.0
 20
136.0
 30
0.0
 11
54.0
 21
136.0
 31
0.0
  0
LINE
  8
0
  6
LTYPE1
 62
     2
 10
93.0
 20
139.0
 30
0.0
 11
93.0
 21
133.0
 31
0.0
  0
LINE
  8
0
  6
LTYPE1
 62
     2
 10
90.0
 20
136.0
 30
0.0
 11
96.0
 21
136.0
 31
0.0
  0
ARC
  8
0
  6
CONTINUOUS
 62
     2
 10
51.5
 20
164.5
 30
0.0
 40
1.0
 50
0.0
 51
180.0
  0
ARC
  8
0
  6
CONTINUOUS
 62
     2
 10
51.5
 20
135.5
 30
0.0
 40
1.0
 50
180.0
 51
0.0
  0
ARC
  8
0
  6
CONTINUOUS
 62
     2
 10
98.5
 20
135.5
 30
0.0
 40
1.0
 50
180.0
 51
0.0
  0
ARC
  8
0
  6
CONTINUOUS
 62
     2
 10
98.5
 20
164.5
 30
0.0
 40
1.0
 50
0.0
 51
180.0
  0
LINE
  8
0
  6
CONTINUOUS
 62
     2
 10
97.5
 20
164.5
 30
0.0
 11
97.5
 21
135.5
 31
0.0
  0
ARC
  8
0
  6
CONTINUOUS
 62
     2
 10
55.5
 20
164.0
 30
0.0
 40
3.0
 50
180.0
 51
270.0
  0
LINE
  8
0
  6
CONTINUOUS
 62
     2
 10
52.5
 20
164.5
 30
0.0
 11
52.5
 21
135.5
 31
0.0
  0
ARC
  8
0
  6
CONTINUOUS
 62
     2
 10
94.5
 20
164.0
 30
0.0
 40
3.0
 50
270.000031547
 51
0.0
  0
LINE
  8
0
  6
CONTINUOUS
 62
     2
 10
55.5
 20
161.0
 30
0.0
 11
94.500001652
 21
161.0
 31
0.0
  0
ARC
  8
0
  6
CONTINUOUS
 62
     2
 10
55.5
 20
136.0
 30
0.0
 40
3.0
 50
90.0
 51
180.0
  0
ARC
  8
0
  6
CONTINUOUS
 62
     2
 10
94.5
 20
136.0
 30
0.0
 40
3.0
 50
0.0
 51
89.999968453
  0
LINE
  8
0
  6
CONTINUOUS
 62
     2
 10
55.5
 20
139.0
 30
0.0
 11
94.500001652
 21
139.0
 31
0.0
  0
ARC
  8
0
  6
CONTINUOUS
 62
     2
 10
64.183333333
 20
136.716666667
 30
0.0
 40
4.026647351
 50
7.386258759
 51
34.545164922
  0
ARC
  8
0
  6
CONTINUOUS
 62
     2
 10
85.816666667
 20
136.716666667
 30
0.0
 40
4.026647351
 50
145.454835078
 51
172.613741241
  0
LINE
  8
0
  6
CONTINUOUS
 62
     2
 10
68.5
 20
134.0
 30
0.0
 11
68.176567657
 21
137.234323432
 31
0.0
  0
LINE
  8
0
  6
CONTINUOUS
 62
     2
 10
81.5
 20
134.0
 30
0.0
 11
81.823432343
 21
137.234323432
 31
0.0
  0
LINE
  8
0
  6
CONTINUOUS
 62
     2
 10
68.5
 20
134.0
 30
0.0
 11
81.5
 21
134.0
 31
0.0
  0
ARC
  8
0
  6
CONTINUOUS
 62
     2
 10
51.224877323
 20
160.012561338
 30
0.0
 40
1.224941731
 50
126.28233967
 51
179.412442016
  0
ARC
  8
0
  6
CONTINUOUS
 62
     2
 10
51.224877323
 20
139.987438662
 30
0.0
 40
1.224941731
 50
179.412442025
 51
233.71766033
  0
LINE
  8
0
  6
CONTINUOUS
 62
     2
 10
50.0
 20
160.025122677
 30
0.0
 11
50.0
 21
140.0
 31
0.0
  0
ARC
  8
0
  6
CONTINUOUS
 62
     2
 10
98.775122677
 20
160.012561338
 30
0.0
 40
1.224941731
 50
0.587557984
 51
53.71766033
  0
ARC
  8
0
  6
CONTINUOUS
 62
     2
 10
98.775122677
 20
139.987438662
 30
0.0
 40
1.224941731
 50
306.28233967
 51
0.587557975
  0
LINE
  8
0
  6
CONTINUOUS
 62
     2
 10
100.0
 20
160.025122677
 30
0.0
 11
100.0
 21
140.0
 31
0.0
  0
LINE
  8
0
  6
CONTINUOUS
 62
     2
 10
72.5
 20
168.333333333
 30
0.0
 11
72.5
 21
161.0
 31
0.0
  0
LINE
  8
0
  6
CONTINUOUS
 62
     2
 10
77.5
 20
168.333333333
 30
0.0
 11
77.5
 21
161.0
 31
0.0
  0
LINE
  8
0
  6
CONTINUOUS
 62
     2
 10
71.5
 20
161.0
 30
0.0
 11
71.5
 21
167.333333333
 31
0.0
  0
LINE
  8
0
  6
CONTINUOUS
 62
     2
 10
72.5
 20
167.833333333
 30
0.0
 11
71.5
 21
167.333333333
 31
0.0
  0
LINE
  8
0
  6
CONTINUOUS
 62
     2
 10
77.5
 20
167.833333333
 30
0.0
 11
78.5
 21
167.333333333
 31
0.0
  0
LINE
  8
0
  6
CONTINUOUS
 62
     2
 10
78.5
 20
167.333333333
 30
0.0
 11
78.5
 21
161.0
 31
0.0
  0
ARC
  8
0
  6
CONTINUOUS
 62
     2
 10
56.5
 20
164.0
 30
0.0
 40
2.0
 50
90.0
 51
270.0
  0
ARC
  8
0
  6
CONTINUOUS
 62
     2
 10
57.5
 20
164.0
 30
0.0
 40
2.0
 50
270.0
 51
90.0
  0
LINE
  8
0
  6
CONTINUOUS
 62
     2
 10
57.5
 20
166.0
 30
0.0
 11
56.5
 21
166.0
 31
0.0
  0
LINE
  8
0
  6
CONTINUOUS
 62
     2
 10
56.5
 20
162.0
 30
0.0
 11
57.5
 21
162.0
 31
0.0
  0
ARC
  8
0
  6
CONTINUOUS
 62
     2
 10
93.5
 20
164.0
 30
0.0
 40
2.0
 50
270.0
 51
90.0
  0
ARC
  8
0
  6
CONTINUOUS
 62
     2
 10
92.5
 20
164.0
 30
0.0
 40
2.0
 50
90.0
 51
270.0
  0
LINE
  8
0
  6
CONTINUOUS
 62
     2
 10
92.5
 20
166.0
 30
0.0
 11
93.5
 21
166.0
 31
0.0
  0
LINE
  8
0
  6
CONTINUOUS
 62
     2
 10
93.5
 20
162.0
 30
0.0
 11
92.5
 21
162.0
 31
0.0
  0
ARC
  8
0
  6
CONTINUOUS
 62
     2
 10
56.5
 20
136.0
 30
0.0
 40
2.0
 50
90.0
 51
270.0
  0
ARC
  8
0
  6
CONTINUOUS
 62
     2
 10
57.5
 20
136.0
 30
0.0
 40
2.0
 50
270.0
 51
90.0
  0
LINE
  8
0
  6
CONTINUOUS
 62
     2
 10
57.5
 20
134.0
 30
0.0
 11
56.5
 21
134.0
 31
0.0
  0
LINE
  8
0
  6
CONTINUOUS
 62
     2
 10
56.5
 20
138.0
 30
0.0
 11
57.5
 21
138.0
 31
0.0
  0
ARC
  8
0
  6
CONTINUOUS
 62
     2
 10
93.5
 20
136.0
 30
0.0
 40
2.0
 50
270.0
 51
90.0
  0
ARC
  8
0
  6
CONTINUOUS
 62
     2
 10
92.5
 20
136.0
 30
0.0
 40
2.0
 50
90.0
 51
270.0
  0
LINE
  8
0
  6
CONTINUOUS
 62
     2
 10
92.5
 20
134.0
 30
0.0
 11
93.5
 21
134.0
 31
0.0
  0
LINE
  8
0
  6
CONTINUOUS
 62
     2
 10
93.5
 20
138.0
 30
0.0
 11
92.5
 21
138.0
 31
0.0
  0
ARC
  8
0
  6
CONTINUOUS
 62
     2
 10
52.5
 20
166.333333333
 30
0.0
 40
2.0
 50
90.0
 51
180.0
  0
LINE
  8
0
  6
CONTINUOUS
 62
     2
 10
52.5
 20
168.333333333
 30
0.0
 11
97.5
 21
168.333333333
 31
0.0
  0
ARC
  8
0
  6
CONTINUOUS
 62
     2
 10
97.5
 20
166.333333333
 30
0.0
 40
2.0
 50
0.0
 51
90.0
  0
LINE
  8
0
  6
CONTINUOUS
 62
     2
 10
99.5
 20
166.333333333
 30
0.0
 11
99.5
 21
133.666666667
 31
0.0
  0
ARC
  8
0
  6
CONTINUOUS
 62
     2
 10
97.5
 20
133.666666667
 30
0.0
 40
2.0
 50
270.0
 51
0.0
  0
LINE
  8
0
  6
CONTINUOUS
 62
     2
 10
50.5
 20
166.333333333
 30
0.0
 11
50.5
 21
133.666666667
 31
0.0
  0
LINE
  8
0
  6
CONTINUOUS
 62
     2
 10
52.5
 20
131.666666667
 30
0.0
 11
97.5
 21
131.666666667
 31
0.0
  0
ARC
  8
0
  6
CONTINUOUS
 62
     2
 10
52.5
 20
133.666666667
 30
0.0
 40
2.0
 50
180.0
 51
270.0
  0
LINE
  8
0
  6
CONTINUOUS
 62
     2
 10
63.0
 20
51.999996185
 30
0.0
 11
87.0
 21
51.999996185
 31
0.0
  0
LINE
  8
0
  6
CONTINUOUS
 62
     2
 10
63.0
 20
51.999996185
 30
0.0
 11
61.0
 21
45.999996185
 31
0.0
  0
LINE
  8
0
  6
CONTINUOUS
 62
     2
 10
87.0
 20
51.999996185
 30
0.0
 11
89.0
 21
45.999996185
 31
0.0
  0
LINE
  8
0
  6
CONTINUOUS
 62
     2
 10
88.27923584
 20
44.999996185
 30
0.0
 11
86.279266357
 21
50.999996185
 31
0.0
  0
LINE
  8
0
  6
CONTINUOUS
 62
     2
 10
63.695510864
 20
50.924278259
 30
0.0
 11
61.720733643
 21
44.999996185
 31
0.0
  0
LINE
  8
0
  6
CONTINUOUS
 62
     2
 10
86.27923584
 20
50.999996185
 30
0.0
 11
63.695510864
 21
50.999996185
 31
0.0
  0
LINE
  8
0
  6
CONTINUOUS
 62
     2
 10
63.0
 20
51.999996185
 30
0.0
 11
87.0
 21
51.999996185
 31
0.0
  0
TEXT
  8
0
  6
CONTINUOUS
 62
     2
 10
70.961782904
 20
98.833333333
 30
0.3
 40
3.0
  1
１５０
 50
0.0
 41
0.9
 51
0.0
  7
KANJI0
  0
LINE
  8
0
  6
LTYPE1
 62
     2
 10
75.0
 20
96.864333333
 30
0.0
 11
75.0
 21
42.333333333
 31
0.0
  0
LINE
  8
0
  6
LTYPE1
 62
     2
 10
71.0
 20
93.333333333
 30
0.0
 11
71.0
 21
83.333333333
 31
0.0
  0
LINE
  8
0
  6
LTYPE1
 62
     2
 10
79.0
 20
93.333333333
 30
0.0
 11
79.0
 21
83.333333333
 31
0.0
  0
LINE
  8
0
  6
LTYPE1
 62
     2
 10
66.0
 20
88.333333333
 30
0.0
 11
84.0
 21
88.333333333
 31
0.0
  0
LINE
  8
0
  6
CONTINUOUS
 62
     2
 10
72.5
 20
80.833333333
 30
0.0
 11
77.5
 21
80.833333333
 31
0.0
  0
LINE
  8
0
  6
CONTINUOUS
 62
     2
 10
77.5
 20
80.833333333
 30
0.0
 11
77.5
 21
52.833333333
 31
0.0
  0
LINE
  8
0
  6
CONTINUOUS
 62
     2
 10
72.5
 20
52.833333333
 30
0.0
 11
77.5
 21
52.833333333
 31
0.0
  0
LINE
  8
0
  6
CONTINUOUS
 62
     2
 10
72.5
 20
80.833333333
 30
0.0
 11
72.5
 21
52.833333333
 31
0.0
  0
LINE
  8
0
  6
CONTINUOUS
 62
     2
 10
78.5
 20
79.833333333
 30
0.0
 11
78.5
 21
53.833333333
 31
0.0
  0
LINE
  8
0
  6
CONTINUOUS
 62
     2
 10
71.5
 20
79.833333333
 30
0.0
 11
71.5
 21
53.833333333
 31
0.0
  0
LINE
  8
0
  6
CONTINUOUS
 62
     2
 10
77.5
 20
79.833333333
 30
0.0
 11
78.5
 21
79.833333333
 31
0.0
  0
LINE
  8
0
  6
CONTINUOUS
 62
     2
 10
71.5
 20
79.833333333
 30
0.0
 11
72.5
 21
79.833333333
 31
0.0
  0
LINE
  8
0
  6
CONTINUOUS
 62
     2
 10
77.5
 20
53.833333333
 30
0.0
 11
78.5
 21
53.833333333
 31
0.0
  0
LINE
  8
0
  6
CONTINUOUS
 62
     2
 10
71.5
 20
53.833333333
 30
0.0
 11
72.5
 21
53.833333333
 31
0.0
  0
LINE
  8
0
  6
CONTINUOUS
 62
     2
 10
71.5
 20
59.999996185
 30
0.0
 11
70.5
 21
59.499996185
 31
0.0
  0
LINE
  8
0
  6
CONTINUOUS
 62
     2
 10
78.5
 20
59.999996185
 30
0.0
 11
79.5
 21
59.499996185
 31
0.0
  0
LINE
  8
0
  6
CONTINUOUS
 62
     2
 10
70.5
 20
59.499996185
 30
0.0
 11
70.5
 21
51.999996185
 31
0.0
  0
LINE
  8
0
  6
CONTINUOUS
 62
     2
 10
79.5
 20
59.499996185
 30
0.0
 11
79.5
 21
51.999996185
 31
0.0
  0
LINE
  8
0
  6
CONTINUOUS
 62
     2
 10
71.5
 20
73.833333333
 30
0.0
 11
71.5
 21
73.833333333
 31
0.0
  0
ARC
  8
0
  6
CONTINUOUS
 62
     2
 10
71.5
 20
74.833333333
 30
0.0
 40
1.0
 50
180.0
 51
270.0
  0
LINE
  8
0
  6
CONTINUOUS
 62
     2
 10
78.5
 20
73.833333333
 30
0.0
 11
78.5
 21
73.833333333
 31
0.0
  0
ARC
  8
0
  6
CONTINUOUS
 62
     2
 10
78.5
 20
74.833333333
 30
0.0
 40
1.0
 50
270.0
 51
0.0
  0
LINE
  8
0
  6
CONTINUOUS
 62
     2
 10
70.5
 20
80.333333333
 30
0.0
 11
70.5
 21
74.833333333
 31
0.0
  0
ARC
  8
0
  6
CONTINUOUS
 62
     2
 10
71.5
 20
80.333333333
 30
0.0
 40
1.0
 50
90.0
 51
180.0
  0
LINE
  8
0
  6
CONTINUOUS
 62
     2
 10
79.5
 20
80.333333333
 30
0.0
 11
79.5
 21
74.833333333
 31
0.0
  0
LINE
  8
0
  6
CONTINUOUS
 62
     2
 10
71.5
 20
81.333333333
 30
0.0
 11
78.5
 21
81.333333333
 31
0.0
  0
ARC
  8
0
  6
CONTINUOUS
 62
     2
 10
78.5
 20
80.333333333
 30
0.0
 40
1.0
 50
0.0
 51
90.0
  0
ARC
  8
0
  6
CONTINUOUS
 62
     2
 10
51.5
 20
84.333333333
 30
0.0
 40
1.0
 50
0.0
 51
180.0
  0
LINE
  8
0
  6
CONTINUOUS
 62
     2
 10
50.5
 20
84.333333333
 30
0.0
 11
50.5
 21
72.333333333
 31
0.0
  0
ARC
  8
0
  6
CONTINUOUS
 62
     2
 10
51.5
 20
72.333333333
 30
0.0
 40
1.0
 50
180.0
 51
0.0
  0
LINE
  8
0
  6
CONTINUOUS
 62
     2
 10
52.5
 20
84.333333333
 30
0.0
 11
52.5
 21
72.333333333
 31
0.0
  0
ARC
  8
0
  6
CONTINUOUS
 62
     2
 10
98.5
 20
84.333333333
 30
0.0
 40
1.0
 50
0.0
 51
180.0
  0
LINE
  8
0
  6
CONTINUOUS
 62
     2
 10
99.5
 20
84.333333333
 30
0.0
 11
99.5
 21
72.333333333
 31
0.0
  0
ARC
  8
0
  6
CONTINUOUS
 62
     2
 10
98.5
 20
72.333333333
 30
0.0
 40
1.0
 50
180.0
 51
0.0
  0
LINE
  8
0
  6
CONTINUOUS
 62
     2
 10
97.5
 20
84.333333333
 30
0.0
 11
97.5
 21
72.333333333
 31
0.0
  0
LINE
  8
0
  6
CONTINUOUS
 62
     2
 10
100.0
 20
75.833333333
 30
0.0
 11
99.5
 21
75.333333333
 31
0.0
  0
LINE
  8
0
  6
CONTINUOUS
 62
     2
 10
100.0
 20
80.833333333
 30
0.0
 11
100.0
 21
75.833333333
 31
0.0
  0
LINE
  8
0
  6
CONTINUOUS
 62
     2
 10
99.5
 20
81.333333333
 30
0.0
 11
100.0
 21
80.833333333
 31
0.0
  0
LINE
  8
0
  6
CONTINUOUS
 62
     2
 10
50.5
 20
81.333333333
 30
0.0
 11
50.0
 21
80.833333333
 31
0.0
  0
LINE
  8
0
  6
CONTINUOUS
 62
     2
 10
50.0
 20
80.833333333
 30
0.0
 11
50.0
 21
75.833333333
 31
0.0
  0
LINE
  8
0
  6
CONTINUOUS
 62
     2
 10
50.5
 20
75.333333333
 30
0.0
 11
50.0
 21
75.833333333
 31
0.0
  0
LINE
  8
0
  6
CONTINUOUS
 62
     2
 10
52.5
 20
84.333333333
 30
0.0
 11
55.439339828
 21
81.393993505
 31
0.0
  0
ARC
  8
0
  6
CONTINUOUS
 62
     2
 10
56.5
 20
82.454653677
 30
0.0
 40
1.5
 50
225.0
 51
315.0
  0
LINE
  8
0
  6
CONTINUOUS
 62
     2
 10
52.5
 20
72.333333333
 30
0.0
 11
55.439339828
 21
75.272673162
 31
0.0
  0
ARC
  8
0
  6
CONTINUOUS
 62
     2
 10
56.5
 20
74.21201299
 30
0.0
 40
1.5
 50
45.0
 51
135.0
  0
LINE
  8
0
  6
CONTINUOUS
 62
     2
 10
97.5
 20
84.333333333
 30
0.0
 11
94.560660172
 21
81.393993505
 31
0.0
  0
ARC
  8
0
  6
CONTINUOUS
 62
     2
 10
93.5
 20
82.454653677
 30
0.0
 40
1.5
 50
225.0
 51
315.0
  0
LINE
  8
0
  6
CONTINUOUS
 62
     2
 10
97.5
 20
72.333333333
 30
0.0
 11
94.560660172
 21
75.272673162
 31
0.0
  0
ARC
  8
0
  6
CONTINUOUS
 62
     2
 10
93.5
 20
74.21201299
 30
0.0
 40
1.5
 50
45.0
 51
135.0
  0
ARC
  8
0
  6
CONTINUOUS
 62
     2
 10
55.71518817
 20
63.223543211
 30
0.0
 40
8.745710082
 50
358.042206507
 51
27.110514687
  0
LINE
  8
0
  6
CONTINUOUS
 62
     2
 10
63.5
 20
51.999996185
 30
0.0
 11
64.455793069
 21
62.92476095
 31
0.0
  0
ARC
  8
0
  6
CONTINUOUS
 62
     2
 10
94.28481183
 20
63.223543211
 30
0.0
 40
8.745710082
 50
152.889485313
 51
181.957793493
  0
LINE
  8
0
  6
CONTINUOUS
 62
     2
 10
86.5
 20
51.999996185
 30
0.0
 11
85.544206931
 21
62.92476095
 31
0.0
  0
LINE
  8
0
  6
CONTINUOUS
 62
     2
 10
50.0
 20
81.833333333
 30
0.0
 11
50.0
 21
99.333333333
 31
0.0
  0
LINE
  8
0
  6
CONTINUOUS
 62
     2
 10
50.0
 20
98.333333333
 30
0.0
 11
52.414814566
 21
97.686285721
 31
0.0
  0
LINE
  8
0
  6
CONTINUOUS
 62
     2
 10
50.0
 20
98.333333333
 30
0.0
 11
52.414814566
 21
98.980380946
 31
0.0
  0
LINE
  8
0
  6
CONTINUOUS
 62
     2
 10
50.0
 20
98.333333333
 30
0.0
 11
100.0
 21
98.333333333
 31
0.0
  0
LINE
  8
0
  6
CONTINUOUS
 62
     2
 10
100.0
 20
98.333333333
 30
0.0
 11
97.585185434
 21
98.980380946
 31
0.0
  0
LINE
  8
0
  6
CONTINUOUS
 62
     2
 10
100.0
 20
98.333333333
 30
0.0
 11
97.585185434
 21
97.686285721
 31
0.0
  0
LINE
  8
0
  6
CONTINUOUS
 62
     2
 10
100.0
 20
81.833333333
 30
0.0
 11
100.0
 21
99.333333333
 31
0.0
  0
CIRCLE
  8
0
  6
CONTINUOUS
 62
     2
 10
71.0
 20
88.333333333
 30
0.0
 40
1.0
  0
ARC
  8
0
  6
CONTINUOUS
 62
     2
 10
71.0
 20
88.333333333
 30
0.0
 40
2.5
 50
90.0
 51
270.0
  0
ARC
  8
0
  6
CONTINUOUS
 62
     2
 10
71.0
 20
88.333333333
 30
0.0
 40
3.5
 50
90.0
 51
270.0
  0
CIRCLE
  8
0
  6
CONTINUOUS
 62
     2
 10
79.0
 20
88.333333333
 30
0.0
 40
1.0
  0
ARC
  8
0
  6
CONTINUOUS
 62
     2
 10
79.0
 20
88.333333333
 30
0.0
 40
2.5
 50
270.0
 51
90.0
  0
ARC
  8
0
  6
CONTINUOUS
 62
     2
 10
79.0
 20
88.333333333
 30
0.0
 40
3.5
 50
270.0
 51
90.0
  0
LINE
  8
0
  6
CONTINUOUS
 62
     2
 10
71.0
 20
84.833333333
 30
0.0
 11
79.0
 21
84.833333333
 31
0.0
  0
LINE
  8
0
  6
CONTINUOUS
 62
     2
 10
71.0
 20
85.833333333
 30
0.0
 11
79.0
 21
85.833333333
 31
0.0
  0
LINE
  8
0
  6
CONTINUOUS
 62
     2
 10
71.0
 20
90.833333333
 30
0.0
 11
79.0
 21
90.833333333
 31
0.0
  0
LINE
  8
0
  6
CONTINUOUS
 62
     2
 10
71.0
 20
91.833333333
 30
0.0
 11
79.0
 21
91.833333333
 31
0.0
  0
LINE
  8
0
  6
CONTINUOUS
 62
     2
 10
57.0
 20
44.0
 30
0.0
 11
57.0
 21
27.857250214
 31
0.0
  0
LINE
  8
0
  6
CONTINUOUS
 62
     2
 10
57.0
 20
29.857250214
 30
0.0
 11
58.931851653
 21
30.374888304
 31
0.0
  0
LINE
  8
0
  6
CONTINUOUS
 62
     2
 10
57.0
 20
29.857250214
 30
0.0
 11
58.931851653
 21
29.339612123
 31
0.0
  0
LINE
  8
0
  6
CONTINUOUS
 62
     2
 10
93.0
 20
29.85724678
 30
0.0
 11
91.068148347
 21
30.374884871
 31
0.0
  0
LINE
  8
0
  6
CONTINUOUS
 62
     2
 10
93.0
 20
29.85724678
 30
0.0
 11
91.068148347
 21
29.33960869
 31
0.0
  0
LINE
  8
0
  6
CONTINUOUS
 62
     2
 10
93.0
 20
43.999996567
 30
0.0
 11
93.0
 21
27.85724678
 31
0.0
  0
LINE
  8
0
  6
CONTINUOUS
 62
     2
 10
57.0
 20
29.857250214
 30
0.0
 11
93.0
 21
29.85724678
 31
0.0
  0
TEXT
  8
0
  6
CONTINUOUS
 62
     2
 10
71.332264597
 20
30.138494981
 30
0.3
 40
3.0
  1
１０８
 50
0.0
 41
0.9
 51
0.0
  7
KANJI0
  0
LINE
  8
0
  6
CONTINUOUS
 62
     2
 10
52.0
 20
24.99999812
 30
0.0
 11
53.629979457
 21
25.436749799
 31
0.0
  0
LINE
  8
0
  6
CONTINUOUS
 62
     2
 10
52.0
 20
24.99999812
 30
0.0
 11
53.629979457
 21
24.56324644
 31
0.0
  0
POINT
  8
2
  6
CONTINUOUS
 62
     2
 10
98.0
 20
24.99999812
 30
0.0
  0
LINE
  8
0
  6
CONTINUOUS
 62
     2
 10
98.000281246
 20
24.99999812
 30
0.0
 11
96.370301789
 21
25.436749799
 31
0.0
  0
LINE
  8
0
  6
CONTINUOUS
 62
     2
 10
98.000281246
 20
24.99999812
 30
0.0
 11
96.370301789
 21
24.56324644
 31
0.0
  0
LINE
  8
0
  6
CONTINUOUS
 62
     2
 10
52.0
 20
24.99999812
 30
0.0
 11
98.0
 21
24.99999812
 31
0.0
  0
TEXT
  8
0
  6
CONTINUOUS
 62
     2
 10
71.332264597
 20
25.281246484
 30
0.3
 40
3.0
  1
１４０
 50
0.0
 41
0.9
 51
0.0
  7
KANJI0
  0
POLYLINE
  8
0
  6
CONTINUOUS
 62
     2
 66
     1
  0
VERTEX
  8
0
  6
CONTINUOUS
 62
     2
 10
66.107142857
 20
84.42375
 30
0.0
  0
VERTEX
  8
0
  6
CONTINUOUS
 62
     2
 10
66.821428571
 20
85.29875
 30
0.0
  0
VERTEX
  8
0
  6
CONTINUOUS
 62
     2
 10
67.178571429
 20
85.955
 30
0.0
  0
VERTEX
  8
0
  6
CONTINUOUS
 62
     2
 10
67.0
 20
86.3925
 30
0.0
  0
VERTEX
  8
0
  6
CONTINUOUS
 62
     2
 10
66.642857143
 20
86.17375
 30
0.0
  0
VERTEX
  8
0
  6
CONTINUOUS
 62
     2
 10
66.464285714
 20
85.5175
 30
0.0
  0
VERTEX
  8
0
  6
CONTINUOUS
 62
     2
 10
66.285714286
 20
83.54875
 30
0.0
  0
VERTEX
  8
0
  6
CONTINUOUS
 62
     2
 10
66.642857143
 20
84.86125
 30
0.0
  0
VERTEX
  8
0
  6
CONTINUOUS
 62
     2
 10
67.357142857
 20
84.86125
 30
0.0
  0
VERTEX
  8
0
  6
CONTINUOUS
 62
     2
 10
67.535714286
 20
84.6425
 30
0.0
  0
VERTEX
  8
0
  6
CONTINUOUS
 62
     2
 10
67.535714286
 20
84.205
 30
0.0
  0
VERTEX
  8
0
  6
CONTINUOUS
 62
     2
 10
66.821428571
 20
84.205
 30
0.0
  0
SEQEND
  0
LINE
  8
0
  6
CONTINUOUS
 62
     2
 10
66.821428571
 20
84.42375
 30
0.0
 11
66.821428571
 21
83.7675
 31
0.0
  0
LINE
  8
0
  6
CONTINUOUS
 62
     2
 10
66.821428571
 20
83.7675
 30
0.0
 11
67.0
 21
83.54875
 31
0.0
  0
LINE
  8
0
  6
CONTINUOUS
 62
     2
 10
67.0
 20
83.54875
 30
0.0
 11
67.535714286
 21
83.54875
 31
0.0
  0
POLYLINE
  8
0
  6
CONTINUOUS
 62
     2
 66
     1
  0
VERTEX
  8
0
  6
CONTINUOUS
 62
     2
 10
82.107142857
 20
83.7675
 30
0.0
  0
VERTEX
  8
0
  6
CONTINUOUS
 62
     2
 10
82.642857143
 20
83.98625
 30
0.0
  0
VERTEX
  8
0
  6
CONTINUOUS
 62
     2
 10
83.0
 20
84.42375
 30
0.0
  0
VERTEX
  8
0
  6
CONTINUOUS
 62
     2
 10
83.178571429
 20
84.86125
 30
0.0
  0
VERTEX
  8
0
  6
CONTINUOUS
 62
     2
 10
83.178571429
 20
85.73625
 30
0.0
  0
VERTEX
  8
0
  6
CONTINUOUS
 62
     2
 10
83.0
 20
86.17375
 30
0.0
  0
VERTEX
  8
0
  6
CONTINUOUS
 62
     2
 10
82.642857143
 20
86.17375
 30
0.0
  0
VERTEX
  8
0
  6
CONTINUOUS
 62
     2
 10
82.464285714
 20
85.73625
 30
0.0
  0
VERTEX
  8
0
  6
CONTINUOUS
 62
     2
 10
82.464285714
 20
84.6425
 30
0.0
  0
VERTEX
  8
0
  6
CONTINUOUS
 62
     2
 10
82.821428571
 20
83.7675
 30
0.0
  0
VERTEX
  8
0
  6
CONTINUOUS
 62
     2
 10
83.357142857
 20
83.7675
 30
0.0
  0
VERTEX
  8
0
  6
CONTINUOUS
 62
     2
 10
83.535714286
 20
83.98625
 30
0.0
  0
SEQEND
  0
LINE
  8
0
  6
CONTINUOUS
 62
     2
 10
79.935
 20
132.673
 30
0.0
 11
80.582047613
 21
130.258185434
 31
0.0
  0
LINE
  8
0
  6
CONTINUOUS
 62
     2
 10
79.935
 20
132.673
 30
0.0
 11
81.702766953
 21
130.905233047
 31
0.0
  0
LINE
  8
0
  6
CONTINUOUS
 62
     2
 10
79.935
 20
132.673
 30
0.0
 11
85.708502692
 21
122.673
 31
0.0
  0
TEXT
  8
0
  6
CONTINUOUS
 62
     2
 10
85.708502692
 20
123.114666771
 30
0.3
 40
3.0
  1
２－Ｍ５二次端子
 50
0.0
 41
0.9
 51
0.0
  7
KANJI4
  0
LINE
  8
0
  6
CONTINUOUS
 62
     2
 10
85.708502692
 20
122.673
 30
0.0
 11
109.416502692
 21
122.673
 31
0.0
  0
LINE
  8
0
  6
CONTINUOUS
 62
     2
 10
52.0
 20
44.99999812
 30
0.0
 11
61.720733643
 21
45.0
 31
0.0
  0
LINE
  8
0
  6
CONTINUOUS
 62
     2
 10
52.0
 20
45.999996185
 30
0.0
 11
52.0
 21
44.99999812
 31
0.0
  0
LINE
  8
0
  6
CONTINUOUS
 62
     2
 10
52.0
 20
45.999996185
 30
0.0
 11
61.0
 21
45.999996185
 31
0.0
  0
LINE
  8
0
  6
CONTINUOUS
 62
     2
 10
52.0
 20
44.156258666
 30
0.0
 11
52.0
 21
24.156258666
 31
0.0
  0
LINE
  8
0
  6
CONTINUOUS
 62
     2
 10
98.0
 20
44.99999812
 30
0.0
 11
88.27923584
 21
45.0
 31
0.0
  0
LINE
  8
0
  6
CONTINUOUS
 62
     2
 10
98.0
 20
45.999996185
 30
0.0
 11
98.0
 21
44.99999812
 31
0.0
  0
LINE
  8
0
  6
CONTINUOUS
 62
     2
 10
89.0
 20
45.999996185
 30
0.0
 11
98.0
 21
45.999996185
 31
0.0
  0
LINE
  8
0
  6
CONTINUOUS
 62
     2
 10
98.0
 20
44.156258666
 30
0.0
 11
98.0
 21
24.156258666
 31
0.0
  0
LINE
  8
0
  6
CONTINUOUS
 62
     2
 10
51.0
 20
45.999996185
 30
0.0
 11
39.0
 21
45.999996185
 31
0.0
  0
LINE
  8
0
  6
CONTINUOUS
 62
     2
 10
40.0
 20
44.99999812
 30
0.0
 11
39.352952387
 21
42.585183554
 31
0.0
  0
LINE
  8
0
  6
CONTINUOUS
 62
     2
 10
40.0
 20
44.99999812
 30
0.0
 11
40.647047613
 21
42.585183554
 31
0.0
  0
LINE
  8
0
  6
CONTINUOUS
 62
     2
 10
40.0
 20
45.999996185
 30
0.0
 11
40.647047613
 21
48.414810751
 31
0.0
  0
LINE
  8
0
  6
CONTINUOUS
 62
     2
 10
40.0
 20
45.999996185
 30
0.0
 11
39.352952387
 21
48.414810751
 31
0.0
  0
LINE
  8
0
  6
CONTINUOUS
 62
     2
 10
40.0
 20
39.99999812
 30
0.0
 11
40.0
 21
50.999996185
 31
0.0
  0
TEXT
  8
0
  6
CONTINUOUS
 62
     2
 10
39.5
 20
46.104994305
 30
0.3
 40
3.0
  1
３．２
 50
90.0
 41
0.9
 51
0.0
  7
KANJI0
  0
TEXT
  8
0
  6
CONTINUOUS
 62
     2
 10
59.932782904
 20
76.119333333
 30
0.3
 40
5.0
  1
Ｋ
 50
0.0
 41
0.9
 51
0.0
  7
KANJI5
  0
TEXT
  8
0
  6
CONTINUOUS
 62
     2
 10
85.932782904
 20
76.119333333
 30
0.3
 40
5.0
  1
Ｌ
 50
0.0
 41
0.9
 51
0.0
  7
KANJI5
  0
ARC
  8
0
  6
CONTINUOUS
 62
     2
 10
75.0
 20
78.333333333
 30
0.0
 40
16.0
 50
208.163729491
 51
257.364374907
  0
ARC
  8
0
  6
CONTINUOUS
 62
     2
 10
23.273220574
 20
46.339268716
 30
0.0
 40
44.86390985
 50
33.011488107
 51
40.159296119
  0
ARC
  8
0
  6
CONTINUOUS
 62
     2
 10
23.273220574
 20
110.327397951
 30
0.0
 40
44.86390985
 50
319.840703881
 51
329.536221113
  0
ARC
  8
0
  6
CONTINUOUS
 62
     2
 10
126.726779426
 20
110.327397951
 30
0.0
 40
44.86390985
 50
210.463778887
 51
220.159296119
  0
ARC
  8
0
  6
CONTINUOUS
 62
     2
 10
75.0
 20
78.333333333
 30
0.0
 40
16.0
 50
35.311537503
 51
144.688462497
  0
ARC
  8
0
  6
CONTINUOUS
 62
     2
 10
75.0
 20
78.333333333
 30
0.0
 40
16.0
 50
282.635625093
 51
331.836270509
  0
ARC
  8
0
  6
CONTINUOUS
 62
     2
 10
126.726779426
 20
46.339268716
 30
0.0
 40
44.86390985
 50
139.840703881
 51
146.988511893
  0
LINE
  8
0
  6
CONTINUOUS
 62
     2
 10
97.5
 20
150.0
 30
0.0
 11
97.5
 21
149.944511154
 31
0.0
  0
LINE
  8
0
  6
CONTINUOUS
 62
     2
 10
54.5
 20
45.999996185
 30
0.0
 11
54.5
 21
45.0
 31
0.0
  0
LINE
  8
0
  6
CONTINUOUS
 62
     2
 10
59.5
 20
45.999996185
 30
0.0
 11
59.5
 21
45.0
 31
0.0
  0
LINE
  8
0
  6
CONTINUOUS
 62
     2
 10
95.5
 20
45.999996185
 30
0.0
 11
95.5
 21
44.999996567
 31
0.0
  0
LINE
  8
0
  6
CONTINUOUS
 62
     2
 10
90.5
 20
45.999996185
 30
0.0
 11
90.5
 21
44.999996567
 31
0.0
  0
LINE
  8
0
  6
LTYPE1
 62
     2
 10
57.0
 20
49.0
 30
0.0
 11
57.0
 21
45.0
 31
0.0
  0
LINE
  8
0
  6
LTYPE1
 62
     2
 10
93.0
 20
48.999996567
 30
0.0
 11
93.0
 21
44.999996567
 31
0.0
  0
LINE
  8
0
  6
CONTINUOUS
 62
     2
 10
66.0
 20
50.999996185
 30
0.0
 11
66.0
 21
50.299996185
 31
0.0
  0
ARC
  8
0
  6
CONTINUOUS
 62
     2
 10
66.8
 20
50.299996185
 30
0.0
 40
0.8
 50
180.0
 51
270.0
  0
LINE
  8
0
  6
CONTINUOUS
 62
     2
 10
68.0
 20
50.999996185
 30
0.0
 11
68.0
 21
50.299996185
 31
0.0
  0
LINE
  8
0
  6
CONTINUOUS
 62
     2
 10
66.8
 20
49.499996185
 30
0.0
 11
67.2
 21
49.499996185
 31
0.0
  0
ARC
  8
0
  6
CONTINUOUS
 62
     2
 10
67.2
 20
50.299996185
 30
0.0
 40
0.8
 50
270.0
 51
0.0
  0
LINE
  8
0
  6
CONTINUOUS
 62
     2
 10
66.0
 20
50.499996185
 30
0.0
 11
68.0
 21
50.499996185
 31
0.0
  0
LINE
  8
0
  6
LTYPE1
 62
     2
 10
67.0
 20
52.868
 30
0.0
 11
67.0
 21
49.0
 31
0.0
  0
LINE
  8
0
  6
CONTINUOUS
 62
     2
 10
82.0
 20
50.999996185
 30
0.0
 11
82.0
 21
50.299996185
 31
0.0
  0
ARC
  8
0
  6
CONTINUOUS
 62
     2
 10
82.8
 20
50.299996185
 30
0.0
 40
0.8
 50
180.0
 51
270.0
  0
LINE
  8
0
  6
CONTINUOUS
 62
     2
 10
84.0
 20
50.999996185
 30
0.0
 11
84.0
 21
50.299996185
 31
0.0
  0
LINE
  8
0
  6
CONTINUOUS
 62
     2
 10
82.8
 20
49.499996185
 30
0.0
 11
83.2
 21
49.499996185
 31
0.0
  0
ARC
  8
0
  6
CONTINUOUS
 62
     2
 10
83.2
 20
50.299996185
 30
0.0
 40
0.8
 50
270.0
 51
0.0
  0
LINE
  8
0
  6
CONTINUOUS
 62
     2
 10
82.0
 20
50.499996185
 30
0.0
 11
84.0
 21
50.499996185
 31
0.0
  0
LINE
  8
0
  6
LTYPE1
 62
     2
 10
83.0
 20
52.868
 30
0.0
 11
83.0
 21
49.0
 31
0.0
  0
LINE
  8
0
  6
CONTINUOUS
 62
     2
 10
33.0
 20
108.333333333
 30
0.0
 11
35.414814566
 21
107.686285721
 31
0.0
  0
LINE
  8
0
  6
CONTINUOUS
 62
     2
 10
33.0
 20
108.333333333
 30
0.0
 11
35.414814566
 21
108.980380946
 31
0.0
  0
LINE
  8
0
  6
CONTINUOUS
 62
     2
 10
23.0
 20
45.0
 30
0.0
 11
22.563248321
 21
46.629979457
 31
0.0
  0
LINE
  8
0
  6
CONTINUOUS
 62
     2
 10
23.0
 20
45.0
 30
0.0
 11
23.436751679
 21
46.629979457
 31
0.0
  0
TEXT
  8
0
  6
CONTINUOUS
 62
     2
 10
22.370445726
 20
57.219574826
 30
0.3
 40
3.0
  1
１００
 50
90.0
 41
0.9
 51
0.0
  7
KANJI0
  0
LINE
  8
0
  6
CONTINUOUS
 62
     2
 10
51.0
 20
45.0
 30
0.0
 11
21.312521093
 21
45.0
 31
0.0
  0
LINE
  8
0
  6
CONTINUOUS
 62
     2
 10
117.0
 20
108.333333333
 30
0.0
 11
114.585185434
 21
108.980380946
 31
0.0
  0
LINE
  8
0
  6
CONTINUOUS
 62
     2
 10
117.0
 20
108.333333333
 30
0.0
 11
114.585185434
 21
107.686285721
 31
0.0
  0
LINE
  8
0
  6
LTYPE1
 62
     2
 10
31.0
 20
78.333333333
 30
0.0
 11
119.0
 21
78.333333333
 31
0.0
  0
LINE
  8
0
  6
CONTINUOUS
 62
     2
 10
33.0
 20
108.333333333
 30
0.0
 11
117.0
 21
108.333333333
 31
0.0
  0
LINE
  8
0
  6
CONTINUOUS
 62
     2
 10
100.0
 20
79.133333333
 30
0.0
 11
117.0
 21
79.133333333
 31
0.0
  0
LINE
  8
0
  6
CONTINUOUS
 62
     2
 10
117.0
 20
80.133333333
 30
0.0
 11
117.0
 21
109.333333333
 31
0.0
  0
LINE
  8
0
  6
CONTINUOUS
 62
     2
 10
100.0
 20
77.533333333
 30
0.0
 11
117.0
 21
77.533333333
 31
0.0
  0
LINE
  8
0
  6
CONTINUOUS
 62
     2
 10
117.0
 20
79.133333333
 30
0.0
 11
117.0
 21
77.533333333
 31
0.0
  0
LINE
  8
0
  6
CONTINUOUS
 62
     2
 10
33.0
 20
77.533333333
 30
0.0
 11
50.0
 21
77.533333333
 31
0.0
  0
LINE
  8
0
  6
CONTINUOUS
 62
     2
 10
33.0
 20
79.133333333
 30
0.0
 11
50.0
 21
79.133333333
 31
0.0
  0
LINE
  8
0
  6
CONTINUOUS
 62
     2
 10
33.0
 20
80.133333333
 30
0.0
 11
33.0
 21
109.333333333
 31
0.0
  0
LINE
  8
0
  6
CONTINUOUS
 62
     2
 10
33.0
 20
79.133333333
 30
0.0
 11
33.0
 21
77.533333333
 31
0.0
  0
LINE
  8
0
  6
CONTINUOUS
 62
     2
 10
23.0
 20
79.133333333
 30
0.0
 11
22.563248321
 21
80.76331279
 31
0.0
  0
LINE
  8
0
  6
CONTINUOUS
 62
     2
 10
23.0
 20
79.133333333
 30
0.0
 11
23.436751679
 21
80.76331279
 31
0.0
  0
LINE
  8
0
  6
CONTINUOUS
 62
     2
 10
32.0
 20
79.133340318
 30
0.0
 11
21.312521093
 21
79.133333333
 31
0.0
  0
LINE
  8
0
  6
CONTINUOUS
 62
     2
 10
23.0
 20
82.133333333
 30
0.0
 11
23.0
 21
45.0
 31
0.0
  0
LINE
  8
0
  6
CONTINUOUS
 62
     2
 10
23.0
 20
77.533333333
 30
0.0
 11
22.563248321
 21
75.903353876
 31
0.0
  0
LINE
  8
0
  6
CONTINUOUS
 62
     2
 10
23.0
 20
77.533333333
 30
0.0
 11
23.436751679
 21
75.903353876
 31
0.0
  0
LINE
  8
0
  6
CONTINUOUS
 62
     2
 10
32.0
 20
77.533340318
 30
0.0
 11
21.312521093
 21
77.533333333
 31
0.0
  0
TEXT
  8
0
  6
CONTINUOUS
 62
     2
 10
70.767333333
 20
108.833333333
 30
0.3
 40
3.0
  1
２５０
 50
0.0
 41
0.9
 51
0.0
  7
KANJI0
  0
TEXT
  8
0
  6
CONTINUOUS
 62
     2
 10
70.768100858
 20
103.833333333
 30
0.3
 40
3.0
  1
２００
 50
0.0
 41
0.9
 51
0.0
  7
KANJI0
  0
TEXT
  8
0
  6
CONTINUOUS
 62
     2
 10
22.370445726
 20
79.972107398
 30
0.3
 40
3.0
  1
５
 50
90.0
 41
0.9
 51
0.0
  7
KANJI0
  0
LINE
  8
0
  6
CONTINUOUS
 62
     2
 10
151.7
 20
79.133333333
 30
0.0
 11
151.7
 21
77.533333333
 31
0.0
  0
LINE
  8
0
  6
CONTINUOUS
 62
     2
 10
151.7
 20
77.533333333
 30
0.0
 11
168.3
 21
77.533333333
 31
0.0
  0
LINE
  8
0
  6
CONTINUOUS
 62
     2
 10
168.3
 20
77.533333333
 30
0.0
 11
168.3
 21
79.133333333
 31
0.0
  0
LINE
  8
0
  6
CONTINUOUS
 62
     2
 10
168.3
 20
79.133333333
 30
0.0
 11
151.7
 21
79.133333333
 31
0.0
  0
LINE
  8
0
  6
LTYPE1
 62
     2
 10
41.667
 20
80.333333333
 30
0.0
 11
41.667
 21
76.333333333
 31
0.0
  0
LINE
  8
0
  6
CONTINUOUS
 62
     2
 10
41.667
 20
81.333333333
 30
0.0
 11
41.667
 21
104.333333333
 31
0.0
  0
LINE
  8
0
  6
CONTINUOUS
 62
     2
 10
41.667
 20
103.333333333
 30
0.0
 11
44.081814566
 21
102.686285721
 31
0.0
  0
LINE
  8
0
  6
CONTINUOUS
 62
     2
 10
41.667
 20
103.333333333
 30
0.0
 11
44.081814566
 21
103.980380946
 31
0.0
  0
LINE
  8
0
  6
LTYPE1
 62
     2
 10
108.333333333
 20
80.333333333
 30
0.0
 11
108.333333333
 21
76.333333333
 31
0.0
  0
LINE
  8
0
  6
CONTINUOUS
 62
     2
 10
108.333333333
 20
103.333333333
 30
0.0
 11
105.918518768
 21
103.980380946
 31
0.0
  0
LINE
  8
0
  6
CONTINUOUS
 62
     2
 10
108.333333333
 20
103.333333333
 30
0.0
 11
105.918518768
 21
102.686285721
 31
0.0
  0
LINE
  8
0
  6
CONTINUOUS
 62
     2
 10
108.333333333
 20
81.333333333
 30
0.0
 11
108.333333333
 21
104.333333333
 31
0.0
  0
LINE
  8
0
  6
CONTINUOUS
 62
     2
 10
41.667
 20
103.333333333
 30
0.0
 11
108.333333333
 21
103.333333333
 31
0.0
  0
LINE
  8
0
  6
CONTINUOUS
 62
     2
 10
117.0
 20
158.333333333
 30
0.0
 11
117.0
 21
141.666666667
 31
0.0
  0
LINE
  8
0
  6
CONTINUOUS
 62
     2
 10
33.0
 20
158.333333333
 30
0.0
 11
33.0
 21
141.666666667
 31
0.0
  0
LINE
  8
0
  6
LTYPE1
 62
     2
 10
108.333333333
 20
147.0
 30
0.0
 11
108.333333333
 21
153.0
 31
0.0
  0
LINE
  8
0
  6
LTYPE1
 62
     2
 10
41.667
 20
147.0
 30
0.0
 11
41.667
 21
153.0
 31
0.0
  0
CIRCLE
  8
0
  6
CONTINUOUS
 62
     2
 10
41.667
 20
150.0
 30
0.0
 40
2.333333333
  0
CIRCLE
  8
0
  6
CONTINUOUS
 62
     2
 10
108.333333333
 20
150.0
 30
0.0
 40
2.333333333
  0
LINE
  8
0
  6
CONTINUOUS
 62
     2
 10
32.5
 20
158.333333333
 30
0.0
 11
22.0
 21
158.333333333
 31
0.0
  0
LINE
  8
0
  6
CONTINUOUS
 62
     2
 10
23.0
 20
158.333333333
 30
0.0
 11
22.352952387
 21
155.918518768
 31
0.0
  0
LINE
  8
0
  6
CONTINUOUS
 62
     2
 10
23.0
 20
158.333333333
 30
0.0
 11
23.647047613
 21
155.918518768
 31
0.0
  0
LINE
  8
0
  6
CONTINUOUS
 62
     2
 10
23.0
 20
141.666666667
 30
0.0
 11
23.647047613
 21
144.081481232
 31
0.0
  0
LINE
  8
0
  6
CONTINUOUS
 62
     2
 10
23.0
 20
141.666666667
 30
0.0
 11
22.352952387
 21
144.081481232
 31
0.0
  0
LINE
  8
0
  6
CONTINUOUS
 62
     2
 10
32.5
 20
141.666666667
 30
0.0
 11
22.0
 21
141.666666667
 31
0.0
  0
LINE
  8
0
  6
CONTINUOUS
 62
     2
 10
23.0
 20
158.333333333
 30
0.0
 11
23.0
 21
141.666666667
 31
0.0
  0
TEXT
  8
0
  6
CONTINUOUS
 62
     2
 10
22.5
 20
147.203
 30
0.3
 40
3.0
  1
５０
 50
90.0
 41
0.9
 51
0.0
  7
KANJI0
  0
LINE
  8
0
  6
CONTINUOUS
 62
     2
 10
39.890666667
 20
151.788676943
 30
0.0
 11
39.243619054
 21
154.203491509
 31
0.0
  0
LINE
  8
0
  6
CONTINUOUS
 62
     2
 10
39.890666667
 20
151.788676943
 30
0.0
 11
38.122899714
 21
153.556443896
 31
0.0
  0
LINE
  8
0
  6
CONTINUOUS
 62
     2
 10
39.890666667
 20
151.788676943
 30
0.0
 11
26.489603052
 21
175.0
 31
0.0
  0
TEXT
  8
0
  6
CONTINUOUS
 62
     2
 10
26.489603052
 20
175.441666771
 30
0.3
 40
3.0
  1
２－φ１４穴
 50
0.0
 41
0.9
 51
0.0
  7
KANJI4
  0
LINE
  8
0
  6
CONTINUOUS
 62
     2
 10
26.489603052
 20
175.0
 30
0.0
 11
44.651603052
 21
175.0
 31
0.0
  0
LINE
  8
0
  6
CONTINUOUS
 62
     2
 10
100.0
 20
158.333333333
 30
0.0
 11
117.0
 21
158.333333333
 31
0.0
  0
LINE
  8
0
  6
CONTINUOUS
 62
     2
 10
33.0
 20
158.333333333
 30
0.0
 11
50.0
 21
158.333333333
 31
0.0
  0
LINE
  8
0
  6
CONTINUOUS
 62
     2
 10
100.0
 20
141.666666667
 30
0.0
 11
117.0
 21
141.666666667
 31
0.0
  0
LINE
  8
0
  6
CONTINUOUS
 62
     2
 10
33.0
 20
141.666666667
 30
0.0
 11
50.0
 21
141.666666667
 31
0.0
  0
LINE
  8
0
  6
CONTINUOUS
 62
     2
 10
149.0
 20
63.166333333
 30
0.0
 11
149.0
 21
71.333333333
 31
0.0
  0
ARC
  8
0
  6
CONTINUOUS
 62
     2
 10
151.0
 20
63.166333333
 30
0.0
 40
2.0
 50
180.0
 51
270.0
  0
LINE
  8
0
  6
CONTINUOUS
 62
     2
 10
171.0
 20
71.333333333
 30
0.0
 11
171.0
 21
63.166333333
 31
0.0
  0
ARC
  8
0
  6
CONTINUOUS
 62
     2
 10
169.0
 20
63.166333333
 30
0.0
 40
2.0
 50
270.0
 51
0.0
  0
ARC
  8
0
  6
CONTINUOUS
 62
     2
 10
151.0
 20
63.166333333
 30
0.0
 40
1.5
 50
180.0
 51
270.0
  0
ARC
  8
0
  6
CONTINUOUS
 62
     2
 10
169.0
 20
63.166333333
 30
0.0
 40
1.5
 50
270.0
 51
0.0
  0
LINE
  8
0
  6
CONTINUOUS
 62
     2
 10
149.5
 20
63.166333333
 30
0.0
 11
149.5
 21
71.333333333
 31
0.0
  0
LINE
  8
0
  6
CONTINUOUS
 62
     2
 10
170.5
 20
71.333333333
 30
0.0
 11
170.5
 21
63.166333333
 31
0.0
  0
LINE
  8
0
  6
LTYPE1
 62
     2
 10
75.0
 20
172.0
 30
0.0
 11
75.0
 21
128.0
 31
0.0
  0
LINE
  8
0
  6
LTYPE2
 62
     2
 10
99.5
 20
152.0
 30
0.0
 11
92.5
 21
152.0
 31
0.0
  0
LINE
  8
0
  6
LTYPE2
 62
     2
 10
99.5
 20
148.0
 30
0.0
 11
92.5
 21
148.0
 31
0.0
  0
LINE
  8
0
  6
LTYPE2
 62
     2
 10
50.5
 20
152.0
 30
0.0
 11
57.5
 21
152.0
 31
0.0
  0
LINE
  8
0
  6
LTYPE2
 62
     2
 10
50.5
 20
148.0
 30
0.0
 11
57.5
 21
148.0
 31
0.0
  0
ARC
  8
0
  6
LTYPE2
 62
     2
 10
57.5
 20
150.0
 30
0.0
 40
2.0
 50
270.0
 51
90.0
  0
ARC
  8
0
  6
LTYPE2
 62
     2
 10
92.5
 20
150.0
 30
0.0
 40
2.0
 50
90.0
 51
270.0
  0
LINE
  8
0
  6
LTYPE1
 62
     2
 10
38.667
 20
150.0
 30
0.0
 11
111.333333333
 21
150.0
 31
0.0
  0
TEXT
  8
0
  6
CONTINUOUS
 62
     2
 10
180.992
 20
144.0
 30
0.3
 40
3.0
  1
ＪＩＳ　Ｃ　１７３１
 50
0.0
 41
0.45
 51
0.0
  7
KANJI6
  0
TEXT
  8
0
  6
CONTINUOUS
 62
     1
 10
205.0
 20
57.0
 30
0.0
 40
4.0
  1
エポキシモールド変流器　外形図
 50
0.0
 41
0.75
 51
0.0
  7
KANJI7
  0
TEXT
  8
0
  6
CONTINUOUS
 62
     1
 10
207.0
 20
67.0
 30
0.4
 40
4.0
  1
ＣＭｅ－６Ｃａ
 50
0.0
 41
0.9
 51
0.0
  7
KANJI8
  0
TEXT
  8
0
  6
CONTINUOUS
 62
     3
 10
205.0
 20
43.0
 30
0.2
 40
5.8
  1
ＭＳ－９４５６Ａ
 50
0.0
 41
0.827586207
 51
0.0
  7
KANJI9
  0
ENDSEC
  0
EOF
