  0
SECTION
  2
HEADER
  9
$ACADVER
  1
AC1009
  9
$DWGCODEPAGE
  3
dos932
  9
$EXTMIN
 10
0.0
 20
0.0
 30
0.0
  9
$EXTMAX
 10
297.0
 20
210.0
 30
0.0
  9
$LIMMIN
 10
0.0
 20
0.0
  9
$LIMMAX
 10
297.0
 20
210.0
  9
$LTSCALE
 40
1.0
  9
$PDMODE
 70
     0
  0
ENDSEC
  0
SECTION
  2
TABLES
  0
TABLE
  2
VPORT
 70
     1
  0
VPORT
  2
*ACTIVE
 70
     0
 10
0.0
 20
0.0
 11
1.0
 21
1.0
 12
148.5
 22
105.0
 13
0.0
 23
0.0
 14
10.0
 24
10.0
 15
10.0
 25
10.0
 16
0.0
 26
0.0
 36
1.0
 17
0.0
 27
0.0
 37
0.0
 40
297.0
 41
1.414285714
 42
50.0
 43
0.0
 44
0.0
 50
0.0
 51
0.0
 71
     0
 72
  1000
 73
     1
 74
     3
 75
     0
 76
     0
 77
     0
 78
     0
  0
ENDTAB
  0
TABLE
  2
LTYPE
 70
     2
  0
LTYPE
  2
CONTINUOUS
 70
    64
  3
Solid line
 72
    65
 73
     0
 40
0.0
  0
LTYPE
  2
LTYPE1
 70
    64
  3
CENTER
 72
    65
 73
     4
 40
5.0
 49
3.5
 49
-0.5
 49
0.5
 49
-0.5
  0
ENDTAB
  0
TABLE
  2
LAYER
 70
   128
  0
LAYER
  2
0
 70
     0
 62
     7
  6
CONTINUOUS
  0
LAYER
  2
2
 70
     0
 62
     7
  6
CONTINUOUS
  0
LAYER
  2
3
 70
     0
 62
     7
  6
CONTINUOUS
  0
LAYER
  2
4
 70
     0
 62
     7
  6
CONTINUOUS
  0
LAYER
  2
5
 70
     0
 62
     7
  6
CONTINUOUS
  0
LAYER
  2
6
 70
     0
 62
     7
  6
CONTINUOUS
  0
LAYER
  2
7
 70
     0
 62
     7
  6
CONTINUOUS
  0
LAYER
  2
8
 70
     0
 62
     7
  6
CONTINUOUS
  0
LAYER
  2
9
 70
     0
 62
     7
  6
CONTINUOUS
  0
LAYER
  2
10
 70
     0
 62
     7
  6
CONTINUOUS
  0
LAYER
  2
11
 70
     0
 62
     7
  6
CONTINUOUS
  0
LAYER
  2
12
 70
     0
 62
     7
  6
CONTINUOUS
  0
LAYER
  2
13
 70
     0
 62
     7
  6
CONTINUOUS
  0
LAYER
  2
14
 70
     0
 62
     7
  6
CONTINUOUS
  0
LAYER
  2
15
 70
     0
 62
     7
  6
CONTINUOUS
  0
LAYER
  2
16
 70
     0
 62
     7
  6
CONTINUOUS
  0
LAYER
  2
17
 70
     0
 62
     7
  6
CONTINUOUS
  0
LAYER
  2
18
 70
     0
 62
     7
  6
CONTINUOUS
  0
LAYER
  2
19
 70
     0
 62
     7
  6
CONTINUOUS
  0
LAYER
  2
20
 70
     0
 62
     7
  6
CONTINUOUS
  0
LAYER
  2
21
 70
     0
 62
     7
  6
CONTINUOUS
  0
LAYER
  2
22
 70
     0
 62
     7
  6
CONTINUOUS
  0
LAYER
  2
23
 70
     0
 62
     7
  6
CONTINUOUS
  0
LAYER
  2
24
 70
     0
 62
     7
  6
CONTINUOUS
  0
LAYER
  2
25
 70
     0
 62
     7
  6
CONTINUOUS
  0
LAYER
  2
26
 70
     0
 62
     7
  6
CONTINUOUS
  0
LAYER
  2
27
 70
     0
 62
     7
  6
CONTINUOUS
  0
LAYER
  2
28
 70
     0
 62
     7
  6
CONTINUOUS
  0
LAYER
  2
29
 70
     0
 62
     7
  6
CONTINUOUS
  0
LAYER
  2
30
 70
     0
 62
     7
  6
CONTINUOUS
  0
LAYER
  2
31
 70
     0
 62
     7
  6
CONTINUOUS
  0
LAYER
  2
32
 70
     0
 62
     7
  6
CONTINUOUS
  0
LAYER
  2
33
 70
     0
 62
     7
  6
CONTINUOUS
  0
LAYER
  2
34
 70
     0
 62
     7
  6
CONTINUOUS
  0
LAYER
  2
35
 70
     0
 62
     7
  6
CONTINUOUS
  0
LAYER
  2
36
 70
     0
 62
     7
  6
CONTINUOUS
  0
LAYER
  2
37
 70
     0
 62
     7
  6
CONTINUOUS
  0
LAYER
  2
38
 70
     0
 62
     7
  6
CONTINUOUS
  0
LAYER
  2
39
 70
     0
 62
     7
  6
CONTINUOUS
  0
LAYER
  2
40
 70
     0
 62
     7
  6
CONTINUOUS
  0
LAYER
  2
41
 70
     0
 62
     7
  6
CONTINUOUS
  0
LAYER
  2
42
 70
     0
 62
     7
  6
CONTINUOUS
  0
LAYER
  2
43
 70
     0
 62
     7
  6
CONTINUOUS
  0
LAYER
  2
44
 70
     0
 62
     7
  6
CONTINUOUS
  0
LAYER
  2
45
 70
     0
 62
     7
  6
CONTINUOUS
  0
LAYER
  2
46
 70
     0
 62
     7
  6
CONTINUOUS
  0
LAYER
  2
47
 70
     0
 62
     7
  6
CONTINUOUS
  0
LAYER
  2
48
 70
     0
 62
     7
  6
CONTINUOUS
  0
LAYER
  2
49
 70
     0
 62
     7
  6
CONTINUOUS
  0
LAYER
  2
50
 70
     0
 62
     7
  6
CONTINUOUS
  0
LAYER
  2
51
 70
     0
 62
     7
  6
CONTINUOUS
  0
LAYER
  2
52
 70
     0
 62
     7
  6
CONTINUOUS
  0
LAYER
  2
53
 70
     0
 62
     7
  6
CONTINUOUS
  0
LAYER
  2
54
 70
     0
 62
     7
  6
CONTINUOUS
  0
LAYER
  2
55
 70
     0
 62
     7
  6
CONTINUOUS
  0
LAYER
  2
56
 70
     0
 62
     7
  6
CONTINUOUS
  0
LAYER
  2
57
 70
     0
 62
     7
  6
CONTINUOUS
  0
LAYER
  2
58
 70
     0
 62
     7
  6
CONTINUOUS
  0
LAYER
  2
59
 70
     0
 62
     7
  6
CONTINUOUS
  0
LAYER
  2
60
 70
     0
 62
     7
  6
CONTINUOUS
  0
LAYER
  2
61
 70
     0
 62
     7
  6
CONTINUOUS
  0
LAYER
  2
62
 70
     0
 62
     7
  6
CONTINUOUS
  0
LAYER
  2
63
 70
     0
 62
     7
  6
CONTINUOUS
  0
LAYER
  2
64
 70
     0
 62
     7
  6
CONTINUOUS
  0
LAYER
  2
65
 70
     0
 62
     7
  6
CONTINUOUS
  0
LAYER
  2
66
 70
     0
 62
     7
  6
CONTINUOUS
  0
LAYER
  2
67
 70
     0
 62
     7
  6
CONTINUOUS
  0
LAYER
  2
68
 70
     0
 62
     7
  6
CONTINUOUS
  0
LAYER
  2
69
 70
     0
 62
     7
  6
CONTINUOUS
  0
LAYER
  2
70
 70
     0
 62
     7
  6
CONTINUOUS
  0
LAYER
  2
71
 70
     0
 62
     7
  6
CONTINUOUS
  0
LAYER
  2
72
 70
     0
 62
     7
  6
CONTINUOUS
  0
LAYER
  2
73
 70
     0
 62
     7
  6
CONTINUOUS
  0
LAYER
  2
74
 70
     0
 62
     7
  6
CONTINUOUS
  0
LAYER
  2
75
 70
     0
 62
     7
  6
CONTINUOUS
  0
LAYER
  2
76
 70
     0
 62
     7
  6
CONTINUOUS
  0
LAYER
  2
77
 70
     0
 62
     7
  6
CONTINUOUS
  0
LAYER
  2
78
 70
     0
 62
     7
  6
CONTINUOUS
  0
LAYER
  2
79
 70
     0
 62
     7
  6
CONTINUOUS
  0
LAYER
  2
80
 70
     0
 62
     7
  6
CONTINUOUS
  0
LAYER
  2
81
 70
     0
 62
     7
  6
CONTINUOUS
  0
LAYER
  2
82
 70
     0
 62
     7
  6
CONTINUOUS
  0
LAYER
  2
83
 70
     0
 62
     7
  6
CONTINUOUS
  0
LAYER
  2
84
 70
     0
 62
     7
  6
CONTINUOUS
  0
LAYER
  2
85
 70
     0
 62
     7
  6
CONTINUOUS
  0
LAYER
  2
86
 70
     0
 62
     7
  6
CONTINUOUS
  0
LAYER
  2
87
 70
     0
 62
     7
  6
CONTINUOUS
  0
LAYER
  2
88
 70
     0
 62
     7
  6
CONTINUOUS
  0
LAYER
  2
89
 70
     0
 62
     7
  6
CONTINUOUS
  0
LAYER
  2
90
 70
     0
 62
     7
  6
CONTINUOUS
  0
LAYER
  2
91
 70
     0
 62
     7
  6
CONTINUOUS
  0
LAYER
  2
92
 70
     0
 62
     7
  6
CONTINUOUS
  0
LAYER
  2
93
 70
     0
 62
     7
  6
CONTINUOUS
  0
LAYER
  2
94
 70
     0
 62
     7
  6
CONTINUOUS
  0
LAYER
  2
95
 70
     0
 62
     7
  6
CONTINUOUS
  0
LAYER
  2
96
 70
     0
 62
     7
  6
CONTINUOUS
  0
LAYER
  2
97
 70
     0
 62
     7
  6
CONTINUOUS
  0
LAYER
  2
98
 70
     0
 62
     7
  6
CONTINUOUS
  0
LAYER
  2
99
 70
     0
 62
     7
  6
CONTINUOUS
  0
LAYER
  2
100
 70
     0
 62
     7
  6
CONTINUOUS
  0
LAYER
  2
101
 70
     0
 62
     7
  6
CONTINUOUS
  0
LAYER
  2
102
 70
     0
 62
     7
  6
CONTINUOUS
  0
LAYER
  2
103
 70
     0
 62
     7
  6
CONTINUOUS
  0
LAYER
  2
104
 70
     0
 62
     7
  6
CONTINUOUS
  0
LAYER
  2
105
 70
     0
 62
     7
  6
CONTINUOUS
  0
LAYER
  2
106
 70
     0
 62
     7
  6
CONTINUOUS
  0
LAYER
  2
107
 70
     0
 62
     7
  6
CONTINUOUS
  0
LAYER
  2
108
 70
     0
 62
     7
  6
CONTINUOUS
  0
LAYER
  2
109
 70
     0
 62
     7
  6
CONTINUOUS
  0
LAYER
  2
110
 70
     0
 62
     7
  6
CONTINUOUS
  0
LAYER
  2
111
 70
     0
 62
     7
  6
CONTINUOUS
  0
LAYER
  2
112
 70
     0
 62
     7
  6
CONTINUOUS
  0
LAYER
  2
113
 70
     0
 62
     7
  6
CONTINUOUS
  0
LAYER
  2
114
 70
     0
 62
     7
  6
CONTINUOUS
  0
LAYER
  2
115
 70
     0
 62
     7
  6
CONTINUOUS
  0
LAYER
  2
116
 70
     0
 62
     7
  6
CONTINUOUS
  0
LAYER
  2
117
 70
     0
 62
     7
  6
CONTINUOUS
  0
LAYER
  2
118
 70
     0
 62
     7
  6
CONTINUOUS
  0
LAYER
  2
119
 70
     0
 62
     7
  6
CONTINUOUS
  0
LAYER
  2
120
 70
     0
 62
     7
  6
CONTINUOUS
  0
LAYER
  2
121
 70
     0
 62
     7
  6
CONTINUOUS
  0
LAYER
  2
122
 70
     0
 62
     7
  6
CONTINUOUS
  0
LAYER
  2
123
 70
     0
 62
     7
  6
CONTINUOUS
  0
LAYER
  2
124
 70
     0
 62
     7
  6
CONTINUOUS
  0
LAYER
  2
125
 70
     0
 62
     7
  6
CONTINUOUS
  0
LAYER
  2
126
 70
     0
 62
     7
  6
CONTINUOUS
  0
LAYER
  2
127
 70
     0
 62
     7
  6
CONTINUOUS
  0
LAYER
  2
128
 70
     0
 62
     7
  6
CONTINUOUS
  0
ENDTAB
  0
TABLE
  2
STYLE
 70
    10
  0
STYLE
  2
STANDARD
 70
     0
 40
0.0
 41
1.0
 50
0.0
 71
     0
 42
0.2
  3
txt.shx
  4
extfont.shx
  0
STYLE
  2
KANJI0
 70
     0
 40
2.7
 41
0.733333333
 50
0.0
 71
     0
 42
2.7
  3
txt.shx
  4
extfont.shx
  0
STYLE
  2
KANJI1
 70
     0
 40
5.8
 41
0.827586207
 50
0.0
 71
     0
 42
5.8
  3
txt.shx
  4
extfont.shx
  0
STYLE
  2
KANJI2
 70
     0
 40
2.7
 41
0.9
 50
0.0
 71
     0
 42
2.7
  3
txt.shx
  4
extfont.shx
  0
STYLE
  2
KANJI3
 70
     0
 40
2.7
 41
0.833333333
 50
0.0
 71
     0
 42
2.7
  3
txt.shx
  4
extfont.shx
  0
STYLE
  2
KANJI4
 70
     0
 40
2.7
 41
0.9
 50
0.0
 71
     0
 42
2.7
  3
txt.shx
  4
extfont.shx
  0
STYLE
  2
KANJI5
 70
     0
 40
4.0
 41
0.75
 50
0.0
 71
     0
 42
4.0
  3
txt.shx
  4
extfont.shx
  0
STYLE
  2
KANJI6
 70
     0
 40
3.0
 41
0.666666667
 50
0.0
 71
     0
 42
3.0
  3
txt.shx
  4
extfont.shx
  0
STYLE
  2
KANJI7
 70
     0
 40
4.0
 41
0.9
 50
0.0
 71
     0
 42
4.0
  3
txt.shx
  4
extfont.shx
  0
STYLE
  2
KANJI8
 70
     0
 40
4.0
 41
0.875
 50
0.0
 71
     0
 42
4.0
  3
txt.shx
  4
extfont.shx
  0
ENDTAB
  0
TABLE
  2
VIEW
 70
     0
  0
ENDTAB
  0
ENDSEC
  0
SECTION
  2
BLOCKS
  0
ENDSEC
  0
SECTION
  2
ENTITIES
  0
LINE
  8
0
  6
CONTINUOUS
 62
     2
 10
119.617
 20
184.879
 30
0.0
 11
119.617
 21
111.439
 31
0.0
  0
TEXT
  8
0
  6
CONTINUOUS
 62
     2
 10
121.8733
 20
176.959
 30
0.09
 40
2.7
  1
　１０００Ａ
 50
0.0
 41
0.733333333
 51
0.0
  7
KANJI0
  0
TEXT
  8
0
  6
CONTINUOUS
 62
     2
 10
121.8733
 20
172.639
 30
0.09
 40
2.7
  1
　１２００Ａ
 50
0.0
 41
0.733333333
 51
0.0
  7
KANJI0
  0
TEXT
  8
0
  6
CONTINUOUS
 62
     2
 10
121.8733
 20
168.319
 30
0.09
 40
2.7
  1
　１５００Ａ
 50
0.0
 41
0.733333333
 51
0.0
  7
KANJI0
  0
TEXT
  8
0
  6
CONTINUOUS
 62
     2
 10
121.8733
 20
163.999
 30
0.09
 40
2.7
  1
　２０００Ａ
 50
0.0
 41
0.733333333
 51
0.0
  7
KANJI0
  0
TEXT
  8
0
  6
CONTINUOUS
 62
     2
 10
121.8733
 20
159.679
 30
0.09
 40
2.7
  1
　２５００Ａ
 50
0.0
 41
0.733333333
 51
0.0
  7
KANJI0
  0
TEXT
  8
0
  6
CONTINUOUS
 62
     2
 10
121.8733
 20
155.359
 30
0.09
 40
2.7
  1
　３０００Ａ
 50
0.0
 41
0.733333333
 51
0.0
  7
KANJI0
  0
TEXT
  8
0
  6
CONTINUOUS
 62
     2
 10
121.8733
 20
151.039
 30
0.09
 40
2.7
  1
　４０００Ａ
 50
0.0
 41
0.733333333
 51
0.0
  7
KANJI0
  0
TEXT
  8
0
  6
CONTINUOUS
 62
     2
 10
121.8733
 20
146.719
 30
0.09
 40
2.7
  1
　５０００Ａ
 50
0.0
 41
0.733333333
 51
0.0
  7
KANJI0
  0
TEXT
  8
0
  6
CONTINUOUS
 62
     2
 10
121.8733
 20
142.399
 30
0.09
 40
2.7
  1
　６０００Ａ
 50
0.0
 41
0.733333333
 51
0.0
  7
KANJI0
  0
TEXT
  8
0
  6
CONTINUOUS
 62
     2
 10
121.8733
 20
138.079
 30
0.09
 40
2.7
  1
　７０００Ａ
 50
0.0
 41
0.733333333
 51
0.0
  7
KANJI0
  0
TEXT
  8
0
  6
CONTINUOUS
 62
     2
 10
121.8733
 20
133.759
 30
0.09
 40
2.7
  1
　７５００Ａ
 50
0.0
 41
0.733333333
 51
0.0
  7
KANJI0
  0
TEXT
  8
0
  6
CONTINUOUS
 62
     2
 10
121.8733
 20
129.439
 30
0.09
 40
2.7
  1
　８０００Ａ
 50
0.0
 41
0.733333333
 51
0.0
  7
KANJI0
  0
TEXT
  8
0
  6
CONTINUOUS
 62
     2
 10
121.8733
 20
125.119
 30
0.09
 40
2.7
  1
　９０００Ａ
 50
0.0
 41
0.733333333
 51
0.0
  7
KANJI0
  0
TEXT
  8
0
  6
CONTINUOUS
 62
     2
 10
121.8733
 20
120.799
 30
0.09
 40
2.7
  1
１００００Ａ
 50
0.0
 41
0.733333333
 51
0.0
  7
KANJI0
  0
TEXT
  8
0
  6
CONTINUOUS
 62
     2
 10
121.8733
 20
116.479
 30
0.09
 40
2.7
  1
１２０００Ａ
 50
0.0
 41
0.733333333
 51
0.0
  7
KANJI0
  0
LINE
  8
0
  6
CONTINUOUS
 62
     2
 10
137.617
 20
184.879
 30
0.0
 11
137.617
 21
111.439
 31
0.0
  0
LINE
  8
0
  6
CONTINUOUS
 62
     2
 10
146.617
 20
184.879
 30
0.0
 11
146.617
 21
111.439
 31
0.0
  0
TEXT
  8
0
  6
CONTINUOUS
 62
     2
 10
138.9445
 20
172.639
 30
0.09
 40
2.7
  1
１６０
 50
0.0
 41
0.733333333
 51
0.0
  7
KANJI0
  0
TEXT
  8
0
  6
CONTINUOUS
 62
     2
 10
138.9445
 20
163.999
 30
0.09
 40
2.7
  1
１８０
 50
0.0
 41
0.733333333
 51
0.0
  7
KANJI0
  0
TEXT
  8
0
  6
CONTINUOUS
 62
     2
 10
138.9445
 20
157.7458
 30
0.09
 40
2.7
  1
２００
 50
0.0
 41
0.733333333
 51
0.0
  7
KANJI0
  0
TEXT
  8
0
  6
CONTINUOUS
 62
     2
 10
138.9445
 20
151.039
 30
0.09
 40
2.7
  1
２３０
 50
0.0
 41
0.733333333
 51
0.0
  7
KANJI0
  0
TEXT
  8
0
  6
CONTINUOUS
 62
     2
 10
138.9445
 20
142.399
 30
0.09
 40
2.7
  1
２４０
 50
0.0
 41
0.733333333
 51
0.0
  7
KANJI0
  0
TEXT
  8
0
  6
CONTINUOUS
 62
     2
 10
138.9445
 20
146.719
 30
0.09
 40
2.7
  1
２３０
 50
0.0
 41
0.733333333
 51
0.0
  7
KANJI0
  0
TEXT
  8
0
  6
CONTINUOUS
 62
     2
 10
138.9445
 20
133.759
 30
0.09
 40
2.7
  1
２９０
 50
0.0
 41
0.733333333
 51
0.0
  7
KANJI0
  0
TEXT
  8
0
  6
CONTINUOUS
 62
     2
 10
138.9445
 20
125.119
 30
0.09
 40
2.7
  1
３２０
 50
0.0
 41
0.733333333
 51
0.0
  7
KANJI0
  0
TEXT
  8
0
  6
CONTINUOUS
 62
     2
 10
138.9445
 20
120.799
 30
0.09
 40
2.7
  1
３２０
 50
0.0
 41
0.733333333
 51
0.0
  7
KANJI0
  0
TEXT
  8
0
  6
CONTINUOUS
 62
     2
 10
138.9445
 20
116.479
 30
0.09
 40
2.7
  1
３６０
 50
0.0
 41
0.733333333
 51
0.0
  7
KANJI0
  0
TEXT
  8
0
  6
CONTINUOUS
 62
     2
 10
138.9445
 20
112.159
 30
0.09
 40
2.7
  1
４１０
 50
0.0
 41
0.733333333
 51
0.0
  7
KANJI0
  0
TEXT
  8
0
  6
CONTINUOUS
 62
     2
 10
140.9551
 20
181.279
 30
0.09
 40
2.7
  1
Ａ
 50
0.0
 41
0.733333333
 51
0.0
  7
KANJI0
  0
LINE
  8
0
  6
CONTINUOUS
 62
     2
 10
155.617
 20
184.879
 30
0.0
 11
155.617
 21
111.439
 31
0.0
  0
TEXT
  8
0
  6
CONTINUOUS
 62
     2
 10
149.9551
 20
181.279
 30
0.09
 40
2.7
  1
Ｂ
 50
0.0
 41
0.733333333
 51
0.0
  7
KANJI0
  0
TEXT
  8
0
  6
CONTINUOUS
 62
     2
 10
147.9445
 20
172.639
 30
0.09
 40
2.7
  1
１３０
 50
0.0
 41
0.733333333
 51
0.0
  7
KANJI0
  0
TEXT
  8
0
  6
CONTINUOUS
 62
     2
 10
147.9445
 20
163.999
 30
0.09
 40
2.7
  1
１４０
 50
0.0
 41
0.733333333
 51
0.0
  7
KANJI0
  0
TEXT
  8
0
  6
CONTINUOUS
 62
     2
 10
147.9445
 20
157.7458
 30
0.09
 40
2.7
  1
１５５
 50
0.0
 41
0.733333333
 51
0.0
  7
KANJI0
  0
TEXT
  8
0
  6
CONTINUOUS
 62
     2
 10
147.9445
 20
151.039
 30
0.09
 40
2.7
  1
１８０
 50
0.0
 41
0.733333333
 51
0.0
  7
KANJI0
  0
TEXT
  8
0
  6
CONTINUOUS
 62
     2
 10
147.9445
 20
146.719
 30
0.09
 40
2.7
  1
１８０
 50
0.0
 41
0.733333333
 51
0.0
  7
KANJI0
  0
TEXT
  8
0
  6
CONTINUOUS
 62
     2
 10
147.9445
 20
142.399
 30
0.09
 40
2.7
  1
１９０
 50
0.0
 41
0.733333333
 51
0.0
  7
KANJI0
  0
TEXT
  8
0
  6
CONTINUOUS
 62
     2
 10
147.9445
 20
133.759
 30
0.09
 40
2.7
  1
２３０
 50
0.0
 41
0.733333333
 51
0.0
  7
KANJI0
  0
TEXT
  8
0
  6
CONTINUOUS
 62
     2
 10
147.9445
 20
125.119
 30
0.09
 40
2.7
  1
２５０
 50
0.0
 41
0.733333333
 51
0.0
  7
KANJI0
  0
TEXT
  8
0
  6
CONTINUOUS
 62
     2
 10
147.9445
 20
120.799
 30
0.09
 40
2.7
  1
２５０
 50
0.0
 41
0.733333333
 51
0.0
  7
KANJI0
  0
TEXT
  8
0
  6
CONTINUOUS
 62
     2
 10
147.9445
 20
116.479
 30
0.09
 40
2.7
  1
２８０
 50
0.0
 41
0.733333333
 51
0.0
  7
KANJI0
  0
TEXT
  8
0
  6
CONTINUOUS
 62
     2
 10
147.9445
 20
112.159
 30
0.09
 40
2.7
  1
３３０
 50
0.0
 41
0.733333333
 51
0.0
  7
KANJI0
  0
LINE
  8
0
  6
CONTINUOUS
 62
     2
 10
164.617
 20
184.879
 30
0.0
 11
164.617
 21
111.439
 31
0.0
  0
TEXT
  8
0
  6
CONTINUOUS
 62
     2
 10
156.9445
 20
172.639
 30
0.09
 40
2.7
  1
１３０
 50
0.0
 41
0.733333333
 51
0.0
  7
KANJI0
  0
TEXT
  8
0
  6
CONTINUOUS
 62
     2
 10
156.9445
 20
163.999
 30
0.09
 40
2.7
  1
１４０
 50
0.0
 41
0.733333333
 51
0.0
  7
KANJI0
  0
TEXT
  8
0
  6
CONTINUOUS
 62
     2
 10
156.9445
 20
157.7458
 30
0.09
 40
2.7
  1
１５５
 50
0.0
 41
0.733333333
 51
0.0
  7
KANJI0
  0
TEXT
  8
0
  6
CONTINUOUS
 62
     2
 10
156.9445
 20
151.039
 30
0.09
 40
2.7
  1
１８０
 50
0.0
 41
0.733333333
 51
0.0
  7
KANJI0
  0
TEXT
  8
0
  6
CONTINUOUS
 62
     2
 10
156.9445
 20
146.719
 30
0.09
 40
2.7
  1
１８０
 50
0.0
 41
0.733333333
 51
0.0
  7
KANJI0
  0
TEXT
  8
0
  6
CONTINUOUS
 62
     2
 10
156.9445
 20
142.399
 30
0.09
 40
2.7
  1
１９０
 50
0.0
 41
0.733333333
 51
0.0
  7
KANJI0
  0
TEXT
  8
0
  6
CONTINUOUS
 62
     2
 10
156.9445
 20
133.759
 30
0.09
 40
2.7
  1
２３０
 50
0.0
 41
0.733333333
 51
0.0
  7
KANJI0
  0
TEXT
  8
0
  6
CONTINUOUS
 62
     2
 10
156.9445
 20
125.119
 30
0.09
 40
2.7
  1
２５０
 50
0.0
 41
0.733333333
 51
0.0
  7
KANJI0
  0
TEXT
  8
0
  6
CONTINUOUS
 62
     2
 10
156.9445
 20
120.799
 30
0.09
 40
2.7
  1
２５０
 50
0.0
 41
0.733333333
 51
0.0
  7
KANJI0
  0
TEXT
  8
0
  6
CONTINUOUS
 62
     2
 10
156.9445
 20
116.479
 30
0.09
 40
2.7
  1
２８０
 50
0.0
 41
0.733333333
 51
0.0
  7
KANJI0
  0
TEXT
  8
0
  6
CONTINUOUS
 62
     2
 10
156.9445
 20
112.159
 30
0.09
 40
2.7
  1
３３０
 50
0.0
 41
0.733333333
 51
0.0
  7
KANJI0
  0
TEXT
  8
0
  6
CONTINUOUS
 62
     2
 10
158.9551
 20
181.279
 30
0.09
 40
2.7
  1
Ｃ
 50
0.0
 41
0.733333333
 51
0.0
  7
KANJI0
  0
LINE
  8
0
  6
CONTINUOUS
 62
     2
 10
173.617
 20
184.879
 30
0.0
 11
173.617
 21
111.439
 31
0.0
  0
TEXT
  8
0
  6
CONTINUOUS
 62
     2
 10
167.9551
 20
181.279
 30
0.09
 40
2.7
  1
Ｄ
 50
0.0
 41
0.733333333
 51
0.0
  7
KANJI0
  0
TEXT
  8
0
  6
CONTINUOUS
 62
     2
 10
165.9445
 20
172.639
 30
0.09
 40
2.7
  1
　９５
 50
0.0
 41
0.733333333
 51
0.0
  7
KANJI0
  0
TEXT
  8
0
  6
CONTINUOUS
 62
     2
 10
165.9445
 20
163.999
 30
0.09
 40
2.7
  1
１０８
 50
0.0
 41
0.733333333
 51
0.0
  7
KANJI0
  0
TEXT
  8
0
  6
CONTINUOUS
 62
     2
 10
165.9445
 20
157.7458
 30
0.09
 40
2.7
  1
１２０
 50
0.0
 41
0.733333333
 51
0.0
  7
KANJI0
  0
TEXT
  8
0
  6
CONTINUOUS
 62
     2
 10
165.9445
 20
151.039
 30
0.09
 40
2.7
  1
１３３
 50
0.0
 41
0.733333333
 51
0.0
  7
KANJI0
  0
TEXT
  8
0
  6
CONTINUOUS
 62
     2
 10
165.9445
 20
146.719
 30
0.09
 40
2.7
  1
１４５
 50
0.0
 41
0.733333333
 51
0.0
  7
KANJI0
  0
TEXT
  8
0
  6
CONTINUOUS
 62
     2
 10
165.9445
 20
142.399
 30
0.09
 40
2.7
  1
１７０
 50
0.0
 41
0.733333333
 51
0.0
  7
KANJI0
  0
TEXT
  8
0
  6
CONTINUOUS
 62
     2
 10
165.9445
 20
133.759
 30
0.09
 40
2.7
  1
２００
 50
0.0
 41
0.733333333
 51
0.0
  7
KANJI0
  0
TEXT
  8
0
  6
CONTINUOUS
 62
     2
 10
165.9445
 20
125.119
 30
0.09
 40
2.7
  1
２００
 50
0.0
 41
0.733333333
 51
0.0
  7
KANJI0
  0
TEXT
  8
0
  6
CONTINUOUS
 62
     2
 10
165.9445
 20
120.799
 30
0.09
 40
2.7
  1
２００
 50
0.0
 41
0.733333333
 51
0.0
  7
KANJI0
  0
TEXT
  8
0
  6
CONTINUOUS
 62
     2
 10
165.9445
 20
116.479
 30
0.09
 40
2.7
  1
２００
 50
0.0
 41
0.733333333
 51
0.0
  7
KANJI0
  0
TEXT
  8
0
  6
CONTINUOUS
 62
     2
 10
165.9445
 20
112.159
 30
0.09
 40
2.7
  1
２２０
 50
0.0
 41
0.733333333
 51
0.0
  7
KANJI0
  0
LINE
  8
0
  6
CONTINUOUS
 62
     2
 10
182.617
 20
184.879
 30
0.0
 11
182.617
 21
111.439
 31
0.0
  0
TEXT
  8
0
  6
CONTINUOUS
 62
     2
 10
176.9551
 20
181.279
 30
0.09
 40
2.7
  1
Ｅ
 50
0.0
 41
0.733333333
 51
0.0
  7
KANJI0
  0
TEXT
  8
0
  6
CONTINUOUS
 62
     2
 10
174.9445
 20
172.639
 30
0.09
 40
2.7
  1
　２０
 50
0.0
 41
0.733333333
 51
0.0
  7
KANJI0
  0
TEXT
  8
0
  6
CONTINUOUS
 62
     2
 10
174.9445
 20
163.999
 30
0.09
 40
2.7
  1
　２５
 50
0.0
 41
0.733333333
 51
0.0
  7
KANJI0
  0
TEXT
  8
0
  6
CONTINUOUS
 62
     2
 10
174.9445
 20
157.7458
 30
0.09
 40
2.7
  1
　３５
 50
0.0
 41
0.733333333
 51
0.0
  7
KANJI0
  0
TEXT
  8
0
  6
CONTINUOUS
 62
     2
 10
174.9445
 20
151.039
 30
0.09
 40
2.7
  1
　５０
 50
0.0
 41
0.733333333
 51
0.0
  7
KANJI0
  0
TEXT
  8
0
  6
CONTINUOUS
 62
     2
 10
174.9445
 20
146.719
 30
0.09
 40
2.7
  1
　５０
 50
0.0
 41
0.733333333
 51
0.0
  7
KANJI0
  0
TEXT
  8
0
  6
CONTINUOUS
 62
     2
 10
174.9445
 20
142.399
 30
0.09
 40
2.7
  1
　６０
 50
0.0
 41
0.733333333
 51
0.0
  7
KANJI0
  0
TEXT
  8
0
  6
CONTINUOUS
 62
     2
 10
174.9445
 20
133.759
 30
0.09
 40
2.7
  1
１００
 50
0.0
 41
0.733333333
 51
0.0
  7
KANJI0
  0
TEXT
  8
0
  6
CONTINUOUS
 62
     2
 10
174.9445
 20
125.119
 30
0.09
 40
2.7
  1
１２０
 50
0.0
 41
0.733333333
 51
0.0
  7
KANJI0
  0
TEXT
  8
0
  6
CONTINUOUS
 62
     2
 10
174.9445
 20
120.799
 30
0.09
 40
2.7
  1
１２０
 50
0.0
 41
0.733333333
 51
0.0
  7
KANJI0
  0
TEXT
  8
0
  6
CONTINUOUS
 62
     2
 10
174.9445
 20
116.479
 30
0.09
 40
2.7
  1
１５０
 50
0.0
 41
0.733333333
 51
0.0
  7
KANJI0
  0
TEXT
  8
0
  6
CONTINUOUS
 62
     2
 10
174.9445
 20
112.159
 30
0.09
 40
2.7
  1
１８０
 50
0.0
 41
0.733333333
 51
0.0
  7
KANJI0
  0
TEXT
  8
0
  6
CONTINUOUS
 62
     2
 10
185.9551
 20
181.279
 30
0.09
 40
2.7
  1
Ｆ
 50
0.0
 41
0.733333333
 51
0.0
  7
KANJI0
  0
TEXT
  8
0
  6
CONTINUOUS
 62
     2
 10
183.9445
 20
172.639
 30
0.09
 40
2.7
  1
　９０
 50
0.0
 41
0.733333333
 51
0.0
  7
KANJI0
  0
TEXT
  8
0
  6
CONTINUOUS
 62
     2
 10
183.9445
 20
163.999
 30
0.09
 40
2.7
  1
１１５
 50
0.0
 41
0.733333333
 51
0.0
  7
KANJI0
  0
TEXT
  8
0
  6
CONTINUOUS
 62
     2
 10
183.9445
 20
157.7458
 30
0.09
 40
2.7
  1
１４０
 50
0.0
 41
0.733333333
 51
0.0
  7
KANJI0
  0
TEXT
  8
0
  6
CONTINUOUS
 62
     2
 10
183.9445
 20
151.039
 30
0.09
 40
2.7
  1
１６５
 50
0.0
 41
0.733333333
 51
0.0
  7
KANJI0
  0
TEXT
  8
0
  6
CONTINUOUS
 62
     2
 10
183.9445
 20
146.719
 30
0.09
 40
2.7
  1
１９０
 50
0.0
 41
0.733333333
 51
0.0
  7
KANJI0
  0
TEXT
  8
0
  6
CONTINUOUS
 62
     2
 10
183.9445
 20
142.399
 30
0.09
 40
2.7
  1
２４０
 50
0.0
 41
0.733333333
 51
0.0
  7
KANJI0
  0
TEXT
  8
0
  6
CONTINUOUS
 62
     2
 10
183.9445
 20
133.759
 30
0.09
 40
2.7
  1
３００
 50
0.0
 41
0.733333333
 51
0.0
  7
KANJI0
  0
TEXT
  8
0
  6
CONTINUOUS
 62
     2
 10
183.9445
 20
125.119
 30
0.09
 40
2.7
  1
３００
 50
0.0
 41
0.733333333
 51
0.0
  7
KANJI0
  0
TEXT
  8
0
  6
CONTINUOUS
 62
     2
 10
183.9445
 20
120.799
 30
0.09
 40
2.7
  1
３００
 50
0.0
 41
0.733333333
 51
0.0
  7
KANJI0
  0
TEXT
  8
0
  6
CONTINUOUS
 62
     2
 10
183.9445
 20
116.479
 30
0.09
 40
2.7
  1
３００
 50
0.0
 41
0.733333333
 51
0.0
  7
KANJI0
  0
TEXT
  8
0
  6
CONTINUOUS
 62
     2
 10
183.9445
 20
112.159
 30
0.09
 40
2.7
  1
３４０
 50
0.0
 41
0.733333333
 51
0.0
  7
KANJI0
  0
LINE
  8
0
  6
CONTINUOUS
 62
     2
 10
191.617
 20
184.879
 30
0.0
 11
191.617
 21
111.439
 31
0.0
  0
LINE
  8
0
  6
CONTINUOUS
 62
     2
 10
200.617
 20
184.879
 30
0.0
 11
200.617
 21
111.439
 31
0.0
  0
TEXT
  8
0
  6
CONTINUOUS
 62
     2
 10
192.9445
 20
172.639
 30
0.09
 40
2.7
  1
１９３
 50
0.0
 41
0.733333333
 51
0.0
  7
KANJI0
  0
TEXT
  8
0
  6
CONTINUOUS
 62
     2
 10
192.9445
 20
163.999
 30
0.09
 40
2.7
  1
２１８
 50
0.0
 41
0.733333333
 51
0.0
  7
KANJI0
  0
TEXT
  8
0
  6
CONTINUOUS
 62
     2
 10
192.9445
 20
157.7458
 30
0.09
 40
2.7
  1
２４３
 50
0.0
 41
0.733333333
 51
0.0
  7
KANJI0
  0
TEXT
  8
0
  6
CONTINUOUS
 62
     2
 10
192.9445
 20
151.039
 30
0.09
 40
2.7
  1
２６８
 50
0.0
 41
0.733333333
 51
0.0
  7
KANJI0
  0
TEXT
  8
0
  6
CONTINUOUS
 62
     2
 10
192.9445
 20
146.719
 30
0.09
 40
2.7
  1
２９３
 50
0.0
 41
0.733333333
 51
0.0
  7
KANJI0
  0
TEXT
  8
0
  6
CONTINUOUS
 62
     2
 10
192.9445
 20
142.399
 30
0.09
 40
2.7
  1
３４３
 50
0.0
 41
0.733333333
 51
0.0
  7
KANJI0
  0
TEXT
  8
0
  6
CONTINUOUS
 62
     2
 10
192.9445
 20
133.759
 30
0.09
 40
2.7
  1
４０３
 50
0.0
 41
0.733333333
 51
0.0
  7
KANJI0
  0
TEXT
  8
0
  6
CONTINUOUS
 62
     2
 10
192.9445
 20
125.119
 30
0.09
 40
2.7
  1
４０３
 50
0.0
 41
0.733333333
 51
0.0
  7
KANJI0
  0
TEXT
  8
0
  6
CONTINUOUS
 62
     2
 10
192.9445
 20
120.799
 30
0.09
 40
2.7
  1
４０３
 50
0.0
 41
0.733333333
 51
0.0
  7
KANJI0
  0
TEXT
  8
0
  6
CONTINUOUS
 62
     2
 10
192.9445
 20
116.479
 30
0.09
 40
2.7
  1
４０３
 50
0.0
 41
0.733333333
 51
0.0
  7
KANJI0
  0
TEXT
  8
0
  6
CONTINUOUS
 62
     2
 10
192.9445
 20
112.159
 30
0.09
 40
2.7
  1
４４３
 50
0.0
 41
0.733333333
 51
0.0
  7
KANJI0
  0
LINE
  8
0
  6
CONTINUOUS
 62
     2
 10
209.617
 20
184.879
 30
0.0
 11
209.617
 21
111.439
 31
0.0
  0
TEXT
  8
0
  6
CONTINUOUS
 62
     2
 10
203.9551
 20
181.279
 30
0.09
 40
2.7
  1
Ｈ
 50
0.0
 41
0.733333333
 51
0.0
  7
KANJI0
  0
TEXT
  8
0
  6
CONTINUOUS
 62
     2
 10
201.9445
 20
172.639
 30
0.09
 40
2.7
  1
２１５
 50
0.0
 41
0.733333333
 51
0.0
  7
KANJI0
  0
TEXT
  8
0
  6
CONTINUOUS
 62
     2
 10
201.9445
 20
163.999
 30
0.09
 40
2.7
  1
２４０
 50
0.0
 41
0.733333333
 51
0.0
  7
KANJI0
  0
TEXT
  8
0
  6
CONTINUOUS
 62
     2
 10
201.9445
 20
157.7458
 30
0.09
 40
2.7
  1
２６５
 50
0.0
 41
0.733333333
 51
0.0
  7
KANJI0
  0
TEXT
  8
0
  6
CONTINUOUS
 62
     2
 10
201.9445
 20
151.039
 30
0.09
 40
2.7
  1
２９０
 50
0.0
 41
0.733333333
 51
0.0
  7
KANJI0
  0
TEXT
  8
0
  6
CONTINUOUS
 62
     2
 10
201.9445
 20
146.719
 30
0.09
 40
2.7
  1
３１５
 50
0.0
 41
0.733333333
 51
0.0
  7
KANJI0
  0
TEXT
  8
0
  6
CONTINUOUS
 62
     2
 10
201.9445
 20
142.399
 30
0.09
 40
2.7
  1
３６５
 50
0.0
 41
0.733333333
 51
0.0
  7
KANJI0
  0
TEXT
  8
0
  6
CONTINUOUS
 62
     2
 10
201.9445
 20
133.759
 30
0.09
 40
2.7
  1
４２５
 50
0.0
 41
0.733333333
 51
0.0
  7
KANJI0
  0
TEXT
  8
0
  6
CONTINUOUS
 62
     2
 10
201.9445
 20
125.119
 30
0.09
 40
2.7
  1
４２５
 50
0.0
 41
0.733333333
 51
0.0
  7
KANJI0
  0
TEXT
  8
0
  6
CONTINUOUS
 62
     2
 10
201.9445
 20
120.799
 30
0.09
 40
2.7
  1
４２５
 50
0.0
 41
0.733333333
 51
0.0
  7
KANJI0
  0
TEXT
  8
0
  6
CONTINUOUS
 62
     2
 10
201.9445
 20
116.479
 30
0.09
 40
2.7
  1
４２５
 50
0.0
 41
0.733333333
 51
0.0
  7
KANJI0
  0
TEXT
  8
0
  6
CONTINUOUS
 62
     2
 10
201.9445
 20
112.159
 30
0.09
 40
2.7
  1
４６５
 50
0.0
 41
0.733333333
 51
0.0
  7
KANJI0
  0
LINE
  8
0
  6
CONTINUOUS
 62
     2
 10
223.117
 20
184.879
 30
0.0
 11
223.117
 21
111.439
 31
0.0
  0
LINE
  8
0
  6
CONTINUOUS
 62
     2
 10
119.617
 20
184.879
 30
0.0
 11
223.117
 21
184.879
 31
0.0
  0
LINE
  8
0
  6
CONTINUOUS
 62
     2
 10
119.617
 20
180.559
 30
0.0
 11
223.117
 21
180.559
 31
0.0
  0
LINE
  8
0
  6
CONTINUOUS
 62
     2
 10
119.617
 20
167.599
 30
0.0
 11
223.117
 21
167.599
 31
0.0
  0
LINE
  8
0
  6
CONTINUOUS
 62
     2
 10
119.617
 20
163.279
 30
0.0
 11
223.117
 21
163.279
 31
0.0
  0
LINE
  8
0
  6
CONTINUOUS
 62
     2
 10
119.617
 20
154.639
 30
0.0
 11
223.117
 21
154.639
 31
0.0
  0
LINE
  8
0
  6
CONTINUOUS
 62
     2
 10
119.617
 20
150.319
 30
0.0
 11
223.117
 21
150.319
 31
0.0
  0
LINE
  8
0
  6
CONTINUOUS
 62
     2
 10
119.617
 20
145.999
 30
0.0
 11
223.117
 21
145.999
 31
0.0
  0
LINE
  8
0
  6
CONTINUOUS
 62
     2
 10
119.617
 20
141.679
 30
0.0
 11
223.117
 21
141.679
 31
0.0
  0
LINE
  8
0
  6
CONTINUOUS
 62
     2
 10
119.617
 20
128.719
 30
0.0
 11
223.117
 21
128.719
 31
0.0
  0
LINE
  8
0
  6
CONTINUOUS
 62
     2
 10
119.617
 20
124.399
 30
0.0
 11
223.117
 21
124.399
 31
0.0
  0
LINE
  8
0
  6
CONTINUOUS
 62
     2
 10
119.617
 20
120.079
 30
0.0
 11
223.117
 21
120.079
 31
0.0
  0
LINE
  8
0
  6
CONTINUOUS
 62
     2
 10
119.617
 20
115.759
 30
0.0
 11
223.117
 21
115.759
 31
0.0
  0
LINE
  8
0
  6
CONTINUOUS
 62
     2
 10
119.617
 20
111.439
 30
0.0
 11
223.117
 21
111.439
 31
0.0
  0
LINE
  8
0
  6
CONTINUOUS
 62
     2
 10
209.617
 20
176.239
 30
0.0
 11
223.117
 21
176.239
 31
0.0
  0
LINE
  8
0
  6
CONTINUOUS
 62
     2
 10
119.617
 20
176.239
 30
0.0
 11
137.617
 21
176.239
 31
0.0
  0
LINE
  8
0
  6
CONTINUOUS
 62
     2
 10
209.617
 20
171.919
 30
0.0
 11
223.117
 21
171.919
 31
0.0
  0
LINE
  8
0
  6
CONTINUOUS
 62
     2
 10
119.617
 20
171.919
 30
0.0
 11
137.617
 21
171.919
 31
0.0
  0
LINE
  8
0
  6
CONTINUOUS
 62
     2
 10
209.617
 20
158.959
 30
0.0
 11
223.117
 21
158.959
 31
0.0
  0
LINE
  8
0
  6
CONTINUOUS
 62
     2
 10
119.617
 20
158.959
 30
0.0
 11
137.617
 21
158.959
 31
0.0
  0
LINE
  8
0
  6
CONTINUOUS
 62
     2
 10
209.617
 20
137.359
 30
0.0
 11
223.117
 21
137.359
 31
0.0
  0
LINE
  8
0
  6
CONTINUOUS
 62
     2
 10
119.617
 20
137.359
 30
0.0
 11
137.617
 21
137.359
 31
0.0
  0
LINE
  8
0
  6
CONTINUOUS
 62
     2
 10
209.617
 20
133.039
 30
0.0
 11
223.117
 21
133.039
 31
0.0
  0
LINE
  8
0
  6
CONTINUOUS
 62
     2
 10
119.617
 20
133.039
 30
0.0
 11
137.617
 21
133.039
 31
0.0
  0
TEXT
  8
0
  6
CONTINUOUS
 62
     3
 10
234.0
 20
17.0
 30
0.2
 40
5.8
  1
ＭＳ－８７７０　　　Ｂ
 50
0.0
 41
0.827586207
 51
0.0
  7
KANJI1
  0
LINE
  8
0
  6
CONTINUOUS
 62
     2
 10
183.117
 20
104.391
 30
0.0
 11
183.117
 21
54.891
 31
0.0
  0
LINE
  8
0
  6
CONTINUOUS
 62
     2
 10
223.117
 20
104.391
 30
0.0
 11
223.117
 21
54.891
 31
0.0
  0
TEXT
  8
2
  6
CONTINUOUS
 62
     2
 10
189.271
 20
100.592
 30
0.27
 40
2.7
  1
ＣＤ－１ＣＮＴ
 50
0.0
 41
0.9
 51
0.0
  7
KANJI2
  0
TEXT
  8
2
  6
CONTINUOUS
 62
     2
 10
189.271
 20
91.592
 30
0.27
 40
2.7
  1
ＪＩＳ　Ｃ　１７３１
 50
0.0
 41
0.9
 51
0.0
  7
KANJI2
  0
TEXT
  8
2
  6
CONTINUOUS
 62
     2
 10
189.271
 20
87.092
 30
0.27
 40
2.7
  1
１．０
 50
0.0
 41
0.9
 51
0.0
  7
KANJI2
  0
TEXT
  8
2
  6
CONTINUOUS
 62
     2
 10
189.271
 20
60.092
 30
0.27
 40
2.7
  1
４０
 50
0.0
 41
0.9
 51
0.0
  7
KANJI2
  0
TEXT
  8
2
  6
CONTINUOUS
 62
     2
 10
189.271
 20
78.092
 30
0.27
 40
2.7
  1
１０００～１５０００Ａ
 50
0.0
 41
0.9
 51
0.0
  7
KANJI2
  0
TEXT
  8
2
  6
CONTINUOUS
 62
     2
 10
189.271
 20
64.592
 30
0.27
 40
2.7
  1
５０，６０Ｈｚ
 50
0.0
 41
0.9
 51
0.0
  7
KANJI2
  0
TEXT
  8
2
  6
CONTINUOUS
 62
     2
 10
189.271
 20
82.592
 30
0.27
 40
2.7
  1
４０ＶＡ
 50
0.0
 41
0.9
 51
0.0
  7
KANJI2
  0
TEXT
  8
2
  6
CONTINUOUS
 62
     2
 10
189.271
 20
69.092
 30
0.27
 40
2.7
  1
１１５０Ｖ
 50
0.0
 41
0.9
 51
0.0
  7
KANJI2
  0
TEXT
  8
2
  6
CONTINUOUS
 62
     2
 10
189.271
 20
96.092
 30
0.27
 40
2.7
  1
乾式自冷
 50
0.0
 41
0.9
 51
0.0
  7
KANJI2
  0
TEXT
  8
2
  6
CONTINUOUS
 62
     2
 10
189.271
 20
55.592
 30
0.27
 40
2.7
  1
Ａ
 50
0.0
 41
0.9
 51
0.0
  7
KANJI2
  0
TEXT
  8
0
  6
CONTINUOUS
 62
     2
 10
212.8019
 20
181.279
 30
0.18
 40
2.7
  1
質　量
 50
0.0
 41
0.833333333
 51
0.0
  7
KANJI3
  0
TEXT
  8
0
  6
CONTINUOUS
 62
     2
 10
123.1317
 20
181.279
 30
0.18
 40
2.7
  1
一次電流
 50
0.0
 41
0.9
 51
0.0
  7
KANJI4
  0
TEXT
  8
0
  6
CONTINUOUS
 62
     2
 10
211.617
 20
116.479
 30
0.09
 40
2.7
  1
約　３１．５
 50
0.0
 41
0.733333333
 51
0.0
  7
KANJI0
  0
TEXT
  8
0
  6
CONTINUOUS
 62
     2
 10
211.617
 20
112.159
 30
0.09
 40
2.7
  1
約　３８．０
 50
0.0
 41
0.733333333
 51
0.0
  7
KANJI0
  0
TEXT
  8
0
  6
CONTINUOUS
 62
     2
 10
211.617
 20
159.679
 30
0.09
 40
2.7
  1
約　１２．０
 50
0.0
 41
0.733333333
 51
0.0
  7
KANJI0
  0
TEXT
  8
0
  6
CONTINUOUS
 62
     2
 10
211.617
 20
155.359
 30
0.09
 40
2.7
  1
約　１２．５
 50
0.0
 41
0.733333333
 51
0.0
  7
KANJI0
  0
TEXT
  8
0
  6
CONTINUOUS
 62
     2
 10
211.617
 20
151.039
 30
0.09
 40
2.7
  1
約　１５．０
 50
0.0
 41
0.733333333
 51
0.0
  7
KANJI0
  0
TEXT
  8
0
  6
CONTINUOUS
 62
     2
 10
211.617
 20
146.719
 30
0.09
 40
2.7
  1
約　１６．５
 50
0.0
 41
0.733333333
 51
0.0
  7
KANJI0
  0
TEXT
  8
0
  6
CONTINUOUS
 62
     2
 10
211.617
 20
142.399
 30
0.09
 40
2.7
  1
約　１９．０
 50
0.0
 41
0.733333333
 51
0.0
  7
KANJI0
  0
TEXT
  8
0
  6
CONTINUOUS
 62
     2
 10
211.617
 20
138.079
 30
0.09
 40
2.7
  1
約　２２．５
 50
0.0
 41
0.733333333
 51
0.0
  7
KANJI0
  0
TEXT
  8
0
  6
CONTINUOUS
 62
     2
 10
211.617
 20
133.759
 30
0.09
 40
2.7
  1
約　２３．０
 50
0.0
 41
0.733333333
 51
0.0
  7
KANJI0
  0
TEXT
  8
0
  6
CONTINUOUS
 62
     2
 10
211.617
 20
129.439
 30
0.09
 40
2.7
  1
約　２３．５
 50
0.0
 41
0.733333333
 51
0.0
  7
KANJI0
  0
TEXT
  8
0
  6
CONTINUOUS
 62
     2
 10
211.617
 20
125.119
 30
0.09
 40
2.7
  1
約　２７．０
 50
0.0
 41
0.733333333
 51
0.0
  7
KANJI0
  0
TEXT
  8
0
  6
CONTINUOUS
 62
     2
 10
211.617
 20
120.799
 30
0.09
 40
2.7
  1
約　２８．０
 50
0.0
 41
0.733333333
 51
0.0
  7
KANJI0
  0
TEXT
  8
0
  6
CONTINUOUS
 62
     2
 10
211.617
 20
176.959
 30
0.09
 40
2.7
  1
約　　７．８
 50
0.0
 41
0.733333333
 51
0.0
  7
KANJI0
  0
TEXT
  8
0
  6
CONTINUOUS
 62
     2
 10
211.617
 20
172.639
 30
0.09
 40
2.7
  1
約　　７．９
 50
0.0
 41
0.733333333
 51
0.0
  7
KANJI0
  0
TEXT
  8
0
  6
CONTINUOUS
 62
     2
 10
211.617
 20
168.319
 30
0.09
 40
2.7
  1
約　　８．２
 50
0.0
 41
0.733333333
 51
0.0
  7
KANJI0
  0
TEXT
  8
0
  6
CONTINUOUS
 62
     2
 10
211.617
 20
163.999
 30
0.09
 40
2.7
  1
約　　９．３
 50
0.0
 41
0.733333333
 51
0.0
  7
KANJI0
  0
TEXT
  8
0
  6
CONTINUOUS
 62
     2
 10
194.9551
 20
181.279
 30
0.09
 40
2.7
  1
ｈ
 50
0.0
 41
0.733333333
 51
0.0
  7
KANJI0
  0
CIRCLE
  8
0
  6
CONTINUOUS
 62
     2
 10
71.244
 20
177.804
 30
0.0
 40
0.75
  0
CIRCLE
  8
0
  6
CONTINUOUS
 62
     2
 10
111.244
 20
177.804
 30
0.0
 40
0.75
  0
LINE
  8
0
  6
CONTINUOUS
 62
     2
 10
71.994
 20
177.804
 30
0.0
 11
110.494
 21
177.804
 31
0.0
  0
CIRCLE
  8
0
  6
CONTINUOUS
 62
     2
 10
81.244
 20
166.304
 30
0.0
 40
0.75
  0
CIRCLE
  8
0
  6
CONTINUOUS
 62
     2
 10
101.244
 20
166.304
 30
0.0
 40
0.75
  0
ARC
  8
0
  6
CONTINUOUS
 62
     2
 10
83.744
 20
177.804
 30
0.0
 40
2.5
 50
0.0
 51
180.0
  0
ARC
  8
0
  6
CONTINUOUS
 62
     2
 10
88.744
 20
177.804
 30
0.0
 40
2.5
 50
0.0
 51
180.0
  0
ARC
  8
0
  6
CONTINUOUS
 62
     2
 10
93.744
 20
177.804
 30
0.0
 40
2.5
 50
0.0
 51
180.0
  0
ARC
  8
0
  6
CONTINUOUS
 62
     2
 10
98.744
 20
177.804
 30
0.0
 40
2.5
 50
0.0
 51
180.0
  0
LINE
  8
0
  6
CONTINUOUS
 62
     2
 10
81.244
 20
167.054
 30
0.0
 11
81.244
 21
177.804
 31
0.0
  0
LINE
  8
0
  6
CONTINUOUS
 62
     2
 10
101.244
 20
167.054
 30
0.0
 11
101.244
 21
177.804
 31
0.0
  0
POLYLINE
  8
0
  6
CONTINUOUS
 62
     2
 66
     1
  0
VERTEX
  8
0
  6
CONTINUOUS
 62
     2
 10
80.351142857
 20
160.64775
 30
0.0
  0
VERTEX
  8
0
  6
CONTINUOUS
 62
     2
 10
81.065428571
 20
161.52275
 30
0.0
  0
VERTEX
  8
0
  6
CONTINUOUS
 62
     2
 10
81.422571429
 20
162.179
 30
0.0
  0
VERTEX
  8
0
  6
CONTINUOUS
 62
     2
 10
81.244
 20
162.6165
 30
0.0
  0
VERTEX
  8
0
  6
CONTINUOUS
 62
     2
 10
80.886857143
 20
162.39775
 30
0.0
  0
VERTEX
  8
0
  6
CONTINUOUS
 62
     2
 10
80.708285714
 20
161.7415
 30
0.0
  0
VERTEX
  8
0
  6
CONTINUOUS
 62
     2
 10
80.529714286
 20
159.77275
 30
0.0
  0
VERTEX
  8
0
  6
CONTINUOUS
 62
     2
 10
80.886857143
 20
161.08525
 30
0.0
  0
VERTEX
  8
0
  6
CONTINUOUS
 62
     2
 10
81.601142857
 20
161.08525
 30
0.0
  0
VERTEX
  8
0
  6
CONTINUOUS
 62
     2
 10
81.779714286
 20
160.8665
 30
0.0
  0
VERTEX
  8
0
  6
CONTINUOUS
 62
     2
 10
81.779714286
 20
160.429
 30
0.0
  0
VERTEX
  8
0
  6
CONTINUOUS
 62
     2
 10
81.065428571
 20
160.429
 30
0.0
  0
SEQEND
  0
LINE
  8
0
  6
CONTINUOUS
 62
     2
 10
81.065428571
 20
160.64775
 30
0.0
 11
81.065428571
 21
159.9915
 31
0.0
  0
LINE
  8
0
  6
CONTINUOUS
 62
     2
 10
81.065428571
 20
159.9915
 30
0.0
 11
81.244
 21
159.77275
 31
0.0
  0
LINE
  8
0
  6
CONTINUOUS
 62
     2
 10
81.244
 20
159.77275
 30
0.0
 11
81.779714286
 21
159.77275
 31
0.0
  0
POLYLINE
  8
0
  6
CONTINUOUS
 62
     2
 66
     1
  0
VERTEX
  8
0
  6
CONTINUOUS
 62
     2
 10
100.351142857
 20
159.9915
 30
0.0
  0
VERTEX
  8
0
  6
CONTINUOUS
 62
     2
 10
100.886857143
 20
160.21025
 30
0.0
  0
VERTEX
  8
0
  6
CONTINUOUS
 62
     2
 10
101.244
 20
160.64775
 30
0.0
  0
VERTEX
  8
0
  6
CONTINUOUS
 62
     2
 10
101.422571429
 20
161.08525
 30
0.0
  0
VERTEX
  8
0
  6
CONTINUOUS
 62
     2
 10
101.422571429
 20
161.96025
 30
0.0
  0
VERTEX
  8
0
  6
CONTINUOUS
 62
     2
 10
101.244
 20
162.39775
 30
0.0
  0
VERTEX
  8
0
  6
CONTINUOUS
 62
     2
 10
100.886857143
 20
162.39775
 30
0.0
  0
VERTEX
  8
0
  6
CONTINUOUS
 62
     2
 10
100.708285714
 20
161.96025
 30
0.0
  0
VERTEX
  8
0
  6
CONTINUOUS
 62
     2
 10
100.708285714
 20
160.8665
 30
0.0
  0
VERTEX
  8
0
  6
CONTINUOUS
 62
     2
 10
101.065428571
 20
159.9915
 30
0.0
  0
VERTEX
  8
0
  6
CONTINUOUS
 62
     2
 10
101.601142857
 20
159.9915
 30
0.0
  0
VERTEX
  8
0
  6
CONTINUOUS
 62
     2
 10
101.779714286
 20
160.21025
 30
0.0
  0
SEQEND
  0
LINE
  8
0
  6
CONTINUOUS
 62
     2
 10
65.351142857
 20
176.27275
 30
0.0
 11
65.351142857
 21
179.1165
 31
0.0
  0
LINE
  8
0
  6
CONTINUOUS
 62
     2
 10
65.351142857
 20
177.58525
 30
0.0
 11
66.958285714
 21
179.1165
 31
0.0
  0
LINE
  8
0
  6
CONTINUOUS
 62
     2
 10
65.886857143
 20
178.02275
 30
0.0
 11
66.958285714
 21
176.27275
 31
0.0
  0
POLYLINE
  8
0
  6
CONTINUOUS
 62
     2
 66
     1
  0
VERTEX
  8
0
  6
CONTINUOUS
 62
     2
 10
115.351142857
 20
179.1165
 30
0.0
  0
VERTEX
  8
0
  6
CONTINUOUS
 62
     2
 10
115.351142857
 20
176.27275
 30
0.0
  0
VERTEX
  8
0
  6
CONTINUOUS
 62
     2
 10
116.958285714
 20
176.27275
 30
0.0
  0
SEQEND
  0
TEXT
  8
0
  6
CONTINUOUS
 62
     2
 10
121.8733
 20
112.159
 30
0.09
 40
2.7
  1
１５０００Ａ
 50
0.0
 41
0.733333333
 51
0.0
  7
KANJI0
  0
LINE
  8
0
  6
CONTINUOUS
 62
     2
 10
165.117
 20
104.391
 30
0.0
 11
165.117
 21
54.891
 31
0.0
  0
LINE
  8
0
  6
CONTINUOUS
 62
     2
 10
165.117
 20
104.391
 30
0.0
 11
223.117
 21
104.391
 31
0.0
  0
LINE
  8
0
  6
CONTINUOUS
 62
     2
 10
165.117
 20
99.891
 30
0.0
 11
223.117
 21
99.891
 31
0.0
  0
LINE
  8
0
  6
CONTINUOUS
 62
     2
 10
165.117
 20
95.391
 30
0.0
 11
223.117
 21
95.391
 31
0.0
  0
LINE
  8
0
  6
CONTINUOUS
 62
     2
 10
165.117
 20
90.891
 30
0.0
 11
223.117
 21
90.891
 31
0.0
  0
LINE
  8
0
  6
CONTINUOUS
 62
     2
 10
165.117
 20
86.391
 30
0.0
 11
223.117
 21
86.391
 31
0.0
  0
LINE
  8
0
  6
CONTINUOUS
 62
     2
 10
165.117
 20
81.891
 30
0.0
 11
223.117
 21
81.891
 31
0.0
  0
LINE
  8
0
  6
CONTINUOUS
 62
     2
 10
165.117
 20
77.391
 30
0.0
 11
223.117
 21
77.391
 31
0.0
  0
LINE
  8
0
  6
CONTINUOUS
 62
     2
 10
165.117
 20
72.891
 30
0.0
 11
223.117
 21
72.891
 31
0.0
  0
LINE
  8
0
  6
CONTINUOUS
 62
     2
 10
165.117
 20
68.391
 30
0.0
 11
223.117
 21
68.391
 31
0.0
  0
LINE
  8
0
  6
CONTINUOUS
 62
     2
 10
165.117
 20
63.891
 30
0.0
 11
223.117
 21
63.891
 31
0.0
  0
LINE
  8
0
  6
CONTINUOUS
 62
     2
 10
165.117
 20
59.391
 30
0.0
 11
223.117
 21
59.391
 31
0.0
  0
LINE
  8
0
  6
CONTINUOUS
 62
     2
 10
165.117
 20
54.891
 30
0.0
 11
223.117
 21
54.891
 31
0.0
  0
TEXT
  8
2
  6
CONTINUOUS
 62
     2
 10
166.548
 20
96.391
 30
0.27
 40
2.7
  1
構　　造
 50
0.0
 41
0.9
 51
0.0
  7
KANJI2
  0
TEXT
  8
2
  6
CONTINUOUS
 62
     2
 10
166.610039192
 20
91.856997263
 30
0.27
 40
2.7
  1
規　　格
 50
0.0
 41
0.9
 51
0.0
  7
KANJI2
  0
TEXT
  8
2
  6
CONTINUOUS
 62
     2
 10
166.528019596
 20
87.280998631
 30
0.27
 40
2.7
  1
階　　級
 50
0.0
 41
0.9
 51
0.0
  7
KANJI2
  0
TEXT
  8
2
  6
CONTINUOUS
 62
     2
 10
166.436
 20
82.861
 30
0.27
 40
2.7
  1
定格負担
 50
0.0
 41
0.9
 51
0.0
  7
KANJI2
  0
TEXT
  8
2
  6
CONTINUOUS
 62
     2
 10
166.781735303
 20
78.338001027
 30
0.27
 40
2.7
  1
一次電流
 50
0.0
 41
0.9
 51
0.0
  7
KANJI2
  0
TEXT
  8
2
  6
CONTINUOUS
 62
     2
 10
166.781735303
 20
73.838001027
 30
0.27
 40
2.7
  1
二次電流
 50
0.0
 41
0.9
 51
0.0
  7
KANJI2
  0
TEXT
  8
2
  6
CONTINUOUS
 62
     2
 10
166.897245101
 20
69.436000342
 30
0.27
 40
2.7
  1
最高電圧
 50
0.0
 41
0.9
 51
0.0
  7
KANJI2
  0
TEXT
  8
2
  6
CONTINUOUS
 62
     2
 10
166.745245101
 20
64.936000342
 30
0.27
 40
2.7
  1
周　波　数
 50
0.0
 41
0.9
 51
0.0
  7
KANJI2
  0
TEXT
  8
2
  6
CONTINUOUS
 62
     2
 10
166.972245101
 20
60.436000342
 30
0.27
 40
2.7
  1
過電流強度
 50
0.0
 41
0.9
 51
0.0
  7
KANJI2
  0
TEXT
  8
2
  6
CONTINUOUS
 62
     2
 10
166.897245101
 20
55.936000342
 30
0.27
 40
2.7
  1
絶縁種別
 50
0.0
 41
0.9
 51
0.0
  7
KANJI2
  0
TEXT
  8
2
  6
CONTINUOUS
 62
     2
 10
168.785634964
 20
100.592
 30
0.27
 40
2.7
  1
形　　式
 50
0.0
 41
0.9
 51
0.0
  7
KANJI2
  0
LINE
  8
0
  6
CONTINUOUS
 62
     2
 10
83.770265431
 20
153.719512195
 30
0.0
 11
83.770265431
 21
118.963407867
 31
0.0
  0
LINE
  8
0
  6
CONTINUOUS
 62
     2
 10
83.770265431
 20
153.719512195
 30
0.0
 11
83.296815958
 21
151.952574708
 31
0.0
  0
LINE
  8
0
  6
CONTINUOUS
 62
     2
 10
83.770265431
 20
153.719512195
 30
0.0
 11
84.243714904
 21
151.952574708
 31
0.0
  0
LINE
  8
0
  6
CONTINUOUS
 62
     2
 10
83.770265431
 20
118.963407867
 30
0.0
 11
83.296815958
 21
120.730345355
 31
0.0
  0
LINE
  8
0
  6
CONTINUOUS
 62
     2
 10
83.770265431
 20
118.963407867
 30
0.0
 11
84.243714904
 21
120.730345355
 31
0.0
  0
TEXT
  8
0
  6
CONTINUOUS
 62
     2
 10
83.020265431
 20
131.903931487
 30
0.0
 40
4.0
  1
１５５
 50
90.0
 41
0.75
 51
0.0
  7
KANJI5
  0
LINE
  8
0
  6
CONTINUOUS
 62
     2
 10
26.707312844
 20
145.487801495
 30
0.0
 11
26.707312844
 21
153.719512195
 31
0.0
  0
LINE
  8
0
  6
CONTINUOUS
 62
     2
 10
26.707312844
 20
153.719512195
 30
0.0
 11
63.292682927
 21
153.719512195
 31
0.0
  0
LINE
  8
0
  6
CONTINUOUS
 62
     2
 10
26.707312844
 20
126.280487805
 30
0.0
 11
26.707312844
 21
134.512198505
 31
0.0
  0
LINE
  8
0
  6
CONTINUOUS
 62
     2
 10
63.292682927
 20
134.512198505
 30
0.0
 11
63.292682927
 21
126.280487805
 31
0.0
  0
LINE
  8
0
  6
CONTINUOUS
 62
     2
 10
26.707312844
 20
134.512198505
 30
0.0
 11
63.292682927
 21
134.512198505
 31
0.0
  0
LINE
  8
0
  6
CONTINUOUS
 62
     2
 10
26.707312844
 20
145.487801495
 30
0.0
 11
63.292682927
 21
145.487801495
 31
0.0
  0
LINE
  8
0
  6
CONTINUOUS
 62
     2
 10
26.707312844
 20
145.487801495
 30
0.0
 11
26.707312844
 21
134.512198505
 31
0.0
  0
LINE
  8
0
  6
CONTINUOUS
 62
     2
 10
63.292682927
 20
153.719512195
 30
0.0
 11
63.292682927
 21
134.512198505
 31
0.0
  0
LINE
  8
0
  6
CONTINUOUS
 62
     2
 10
51.402432258
 20
136.341460031
 30
0.0
 11
51.402432258
 21
143.658539969
 31
0.0
  0
LINE
  8
0
  6
CONTINUOUS
 62
     2
 10
51.402432258
 20
143.658539969
 30
0.0
 11
38.597559284
 21
143.658539969
 31
0.0
  0
LINE
  8
0
  6
CONTINUOUS
 62
     2
 10
38.597559284
 20
143.658539969
 30
0.0
 11
38.597559284
 21
136.341460031
 31
0.0
  0
LINE
  8
0
  6
CONTINUOUS
 62
     2
 10
38.597559284
 20
136.341460031
 30
0.0
 11
51.402432258
 21
136.341460031
 31
0.0
  0
LINE
  8
0
  6
CONTINUOUS
 62
     2
 10
67.865853659
 20
145.487801495
 30
0.0
 11
67.865853659
 21
153.719512195
 31
0.0
  0
LINE
  8
0
  6
CONTINUOUS
 62
     2
 10
67.865853659
 20
153.719512195
 30
0.0
 11
63.292682927
 21
153.719512195
 31
0.0
  0
LINE
  8
0
  6
CONTINUOUS
 62
     2
 10
63.292682927
 20
148.2317107
 30
0.0
 11
64.20731369
 21
148.2317107
 31
0.0
  0
LINE
  8
0
  6
CONTINUOUS
 62
     2
 10
66.951205979
 20
140.0
 30
0.0
 11
66.951205979
 21
145.487784578
 31
0.0
  0
ARC
  8
0
  6
CONTINUOUS
 62
     2
 10
64.20731369
 20
145.487784578
 30
0.0
 40
2.743902598
 50
0.0
 51
90.0
  0
LINE
  8
0
  6
CONTINUOUS
 62
     2
 10
66.951205979
 20
145.487801495
 30
0.0
 11
67.865853659
 21
145.487801495
 31
0.0
  0
LINE
  8
0
  6
CONTINUOUS
 62
     2
 10
22.134142112
 20
145.487801495
 30
0.0
 11
22.134142112
 21
153.719512195
 31
0.0
  0
LINE
  8
0
  6
CONTINUOUS
 62
     2
 10
22.134142112
 20
153.719512195
 30
0.0
 11
26.707312844
 21
153.719512195
 31
0.0
  0
LINE
  8
0
  6
CONTINUOUS
 62
     2
 10
26.707312844
 20
148.2317107
 30
0.0
 11
25.79268631
 21
148.2317107
 31
0.0
  0
LINE
  8
0
  6
CONTINUOUS
 62
     2
 10
23.048777104
 20
140.0
 30
0.0
 11
23.048777104
 21
145.487784578
 31
0.0
  0
ARC
  8
0
  6
CONTINUOUS
 62
     2
 10
25.79268631
 20
145.487784578
 30
0.0
 40
2.743902598
 50
90.0
 51
180.0
  0
LINE
  8
0
  6
CONTINUOUS
 62
     2
 10
23.048781334
 20
145.487801495
 30
0.0
 11
22.134142112
 21
145.487801495
 31
0.0
  0
LINE
  8
0
  6
CONTINUOUS
 62
     2
 10
67.865853659
 20
134.512198505
 30
0.0
 11
67.865853659
 21
126.280487805
 31
0.0
  0
LINE
  8
0
  6
CONTINUOUS
 62
     2
 10
67.865853659
 20
126.280487805
 30
0.0
 11
63.292682927
 21
126.280487805
 31
0.0
  0
LINE
  8
0
  6
CONTINUOUS
 62
     2
 10
63.292682927
 20
131.7682893
 30
0.0
 11
64.20731369
 21
131.7682893
 31
0.0
  0
LINE
  8
0
  6
CONTINUOUS
 62
     2
 10
66.951205979
 20
140.0
 30
0.0
 11
66.951205979
 21
134.512215422
 31
0.0
  0
ARC
  8
0
  6
CONTINUOUS
 62
     2
 10
64.20731369
 20
134.512215422
 30
0.0
 40
2.743902598
 50
270.0
 51
0.0
  0
LINE
  8
0
  6
CONTINUOUS
 62
     2
 10
66.951205979
 20
134.512198505
 30
0.0
 11
67.865853659
 21
134.512198505
 31
0.0
  0
LINE
  8
0
  6
CONTINUOUS
 62
     2
 10
22.134142112
 20
134.512198505
 30
0.0
 11
22.134142112
 21
126.280487805
 31
0.0
  0
LINE
  8
0
  6
CONTINUOUS
 62
     2
 10
22.134142112
 20
126.280487805
 30
0.0
 11
26.707312844
 21
126.280487805
 31
0.0
  0
LINE
  8
0
  6
CONTINUOUS
 62
     2
 10
26.707312844
 20
131.7682893
 30
0.0
 11
25.79268631
 21
131.7682893
 31
0.0
  0
LINE
  8
0
  6
CONTINUOUS
 62
     2
 10
23.048777104
 20
140.0
 30
0.0
 11
23.048777104
 21
134.512215422
 31
0.0
  0
ARC
  8
0
  6
CONTINUOUS
 62
     2
 10
25.79268631
 20
134.512215422
 30
0.0
 40
2.743902598
 50
180.0
 51
270.0
  0
LINE
  8
0
  6
CONTINUOUS
 62
     2
 10
23.048781334
 20
134.512198505
 30
0.0
 11
22.134142112
 21
134.512198505
 31
0.0
  0
LINE
  8
0
  6
CONTINUOUS
 62
     2
 10
55.975608064
 20
129.939027774
 30
0.0
 11
55.975608064
 21
118.963407867
 31
0.0
  0
LINE
  8
0
  6
CONTINUOUS
 62
     2
 10
34.024387706
 20
118.963407867
 30
0.0
 11
55.975608064
 21
118.963407867
 31
0.0
  0
LINE
  8
0
  6
CONTINUOUS
 62
     2
 10
55.975608064
 20
129.939027774
 30
0.0
 11
45.0
 21
129.939027774
 31
0.0
  0
LINE
  8
0
  6
CONTINUOUS
 62
     2
 10
34.024387706
 20
129.939027774
 30
0.0
 11
34.024387706
 21
118.963407867
 31
0.0
  0
LINE
  8
0
  6
CONTINUOUS
 62
     2
 10
37.682924292
 20
118.963407867
 30
0.0
 11
45.0
 21
118.963407867
 31
0.0
  0
LINE
  8
0
  6
CONTINUOUS
 62
     2
 10
34.024387706
 20
129.939027774
 30
0.0
 11
45.0
 21
129.939027774
 31
0.0
  0
LINE
  8
0
  6
CONTINUOUS
 62
     2
 10
26.707312844
 20
126.280487805
 30
0.0
 11
34.024387706
 21
126.280487805
 31
0.0
  0
LINE
  8
0
  6
CONTINUOUS
 62
     2
 10
55.975608064
 20
126.280487805
 30
0.0
 11
63.292682927
 21
126.280487805
 31
0.0
  0
CIRCLE
  8
0
  6
CONTINUOUS
 62
     2
 10
50.945115185
 20
120.79268631
 30
0.0
 40
1.371951299
  0
CIRCLE
  8
0
  6
CONTINUOUS
 62
     2
 10
50.945115185
 20
120.79268631
 30
0.0
 40
0.914634199
  0
CIRCLE
  8
0
  6
CONTINUOUS
 62
     2
 10
39.054876357
 20
120.79268631
 30
0.0
 40
1.371951299
  0
CIRCLE
  8
0
  6
CONTINUOUS
 62
     2
 10
39.054876357
 20
120.79268631
 30
0.0
 40
0.914634199
  0
LINE
  8
0
  6
CONTINUOUS
 62
     2
 10
26.707312844
 20
154.634142958
 30
0.0
 11
26.707312844
 21
159.449763713
 31
0.0
  0
LINE
  8
0
  6
CONTINUOUS
 62
     2
 10
63.292682927
 20
154.634142958
 30
0.0
 11
63.292682927
 21
159.449763713
 31
0.0
  0
LINE
  8
0
  6
CONTINUOUS
 62
     2
 10
26.707312844
 20
157.615920107
 30
0.0
 11
63.292682927
 21
157.615920107
 31
0.0
  0
LINE
  8
0
  6
CONTINUOUS
 62
     2
 10
26.707312844
 20
157.615920107
 30
0.0
 11
28.474250331
 21
158.08936958
 31
0.0
  0
LINE
  8
0
  6
CONTINUOUS
 62
     2
 10
26.707312844
 20
157.615920107
 30
0.0
 11
28.474250331
 21
157.142470634
 31
0.0
  0
LINE
  8
0
  6
CONTINUOUS
 62
     2
 10
63.292682927
 20
157.615920107
 30
0.0
 11
61.52574544
 21
158.08936958
 31
0.0
  0
LINE
  8
0
  6
CONTINUOUS
 62
     2
 10
63.292682927
 20
157.615920107
 30
0.0
 11
61.52574544
 21
157.142470634
 31
0.0
  0
LINE
  8
0
  6
CONTINUOUS
 62
     2
 10
22.134142112
 20
154.634142958
 30
0.0
 11
22.134142112
 21
167.43902439
 31
0.0
  0
LINE
  8
0
  6
CONTINUOUS
 62
     2
 10
67.865853659
 20
154.634142958
 30
0.0
 11
67.865853659
 21
167.43902439
 31
0.0
  0
LINE
  8
0
  6
CONTINUOUS
 62
     2
 10
22.134142112
 20
166.298621066
 30
0.0
 11
67.865853659
 21
166.298621066
 31
0.0
  0
LINE
  8
0
  6
CONTINUOUS
 62
     2
 10
22.134142112
 20
166.298621066
 30
0.0
 11
23.901079599
 21
166.772070538
 31
0.0
  0
LINE
  8
0
  6
CONTINUOUS
 62
     2
 10
22.134142112
 20
166.298621066
 30
0.0
 11
23.901079599
 21
165.825171593
 31
0.0
  0
LINE
  8
0
  6
CONTINUOUS
 62
     2
 10
67.865853659
 20
166.298621066
 30
0.0
 11
66.098916171
 21
166.772070538
 31
0.0
  0
LINE
  8
0
  6
CONTINUOUS
 62
     2
 10
67.865853659
 20
166.298621066
 30
0.0
 11
66.098916171
 21
165.825171593
 31
0.0
  0
LINE
  8
0
  6
CONTINUOUS
 62
     2
 10
68.780484422
 20
153.719512195
 30
0.0
 11
85.599543874
 21
153.719512195
 31
0.0
  0
LINE
  8
0
  6
CONTINUOUS
 62
     2
 10
56.917957551
 20
118.963407867
 30
0.0
 11
85.599543874
 21
118.963407867
 31
0.0
  0
LINE
  8
0
  6
CONTINUOUS
 62
     2
 10
74.364829053
 20
153.719512195
 30
0.0
 11
74.364829053
 21
140.0
 31
0.0
  0
LINE
  8
0
  6
CONTINUOUS
 62
     2
 10
74.364829053
 20
153.719512195
 30
0.0
 11
73.89137958
 21
151.952574708
 31
0.0
  0
LINE
  8
0
  6
CONTINUOUS
 62
     2
 10
74.364829053
 20
153.719512195
 30
0.0
 11
74.838278526
 21
151.952574708
 31
0.0
  0
LINE
  8
0
  6
CONTINUOUS
 62
     2
 10
74.364829053
 20
140.0
 30
0.0
 11
73.89137958
 21
141.766937487
 31
0.0
  0
LINE
  8
0
  6
CONTINUOUS
 62
     2
 10
74.364829053
 20
140.0
 30
0.0
 11
74.838278526
 21
141.766937487
 31
0.0
  0
LINE
  8
0
  6
CONTINUOUS
 62
     2
 10
67.865853659
 20
140.0
 30
0.0
 11
76.194090579
 21
140.0
 31
0.0
  0
LINE
  8
0
  6
CONTINUOUS
 62
     2
 10
74.364829053
 20
140.0
 30
0.0
 11
74.364829053
 21
118.963407867
 31
0.0
  0
LINE
  8
0
  6
CONTINUOUS
 62
     2
 10
74.364829053
 20
140.0
 30
0.0
 11
73.89137958
 21
138.233062513
 31
0.0
  0
LINE
  8
0
  6
CONTINUOUS
 62
     2
 10
74.364829053
 20
140.0
 30
0.0
 11
74.838278526
 21
138.233062513
 31
0.0
  0
LINE
  8
0
  6
CONTINUOUS
 62
     2
 10
74.364829053
 20
118.963407867
 30
0.0
 11
73.89137958
 21
120.730345355
 31
0.0
  0
LINE
  8
0
  6
CONTINUOUS
 62
     2
 10
74.364829053
 20
118.963407867
 30
0.0
 11
74.838278526
 21
120.730345355
 31
0.0
  0
LINE
  8
0
  6
CONTINUOUS
 62
     2
 10
63.292682927
 20
135.898007818
 30
0.0
 11
53.009976135
 21
135.898007818
 31
0.0
  0
LINE
  8
0
  6
CONTINUOUS
 62
     2
 10
63.292682927
 20
137.006655268
 30
0.0
 11
55.227271036
 21
137.006655268
 31
0.0
  0
LINE
  8
0
  6
CONTINUOUS
 62
     2
 10
63.292682927
 20
138.115302718
 30
0.0
 11
57.444565936
 21
138.115302718
 31
0.0
  0
LINE
  8
0
  6
CONTINUOUS
 62
     2
 10
63.292682927
 20
139.223950168
 30
0.0
 11
59.661860836
 21
139.223950168
 31
0.0
  0
LINE
  8
0
  6
CONTINUOUS
 62
     2
 10
26.707312844
 20
144.767170502
 30
0.0
 11
37.488911834
 21
144.767187419
 31
0.0
  0
LINE
  8
0
  6
CONTINUOUS
 62
     2
 10
26.707312844
 20
143.658556885
 30
0.0
 11
35.271616934
 21
143.658539969
 31
0.0
  0
LINE
  8
0
  6
CONTINUOUS
 62
     2
 10
26.707312844
 20
142.549875602
 30
0.0
 11
33.054322033
 21
142.549892519
 31
0.0
  0
LINE
  8
0
  6
CONTINUOUS
 62
     2
 10
26.707312844
 20
141.441245068
 30
0.0
 11
30.837027133
 21
141.441245068
 31
0.0
  0
LINE
  8
0
  6
CONTINUOUS
 62
     2
 10
22.134146341
 20
145.875817952
 30
0.0
 11
23.076494982
 21
145.875834869
 31
0.0
  0
LINE
  8
0
  6
CONTINUOUS
 62
     2
 10
67.8658452
 20
145.875817952
 30
0.0
 11
66.923496559
 21
145.875834869
 31
0.0
  0
LINE
  8
0
  6
CONTINUOUS
 62
     2
 10
22.134146341
 20
134.124182048
 30
0.0
 11
23.076494982
 21
134.124165131
 31
0.0
  0
LINE
  8
0
  6
CONTINUOUS
 62
     2
 10
67.8658452
 20
134.124182048
 30
0.0
 11
66.923496559
 21
134.124165131
 31
0.0
  0
CIRCLE
  8
0
  6
CONTINUOUS
 62
     2
 10
52.774383477
 20
128.109749331
 30
0.0
 40
0.914634146
  0
CIRCLE
  8
0
  6
CONTINUOUS
 62
     2
 10
37.225608064
 20
128.109749331
 30
0.0
 40
0.914634146
  0
POLYLINE
  8
0
  6
CONTINUOUS
 62
     2
 66
     1
  0
VERTEX
  8
0
  6
CONTINUOUS
 62
     2
 10
41.668118467
 20
138.599466463
 30
0.0
  0
VERTEX
  8
0
  6
CONTINUOUS
 62
     2
 10
41.668118467
 20
141.200457317
 30
0.0
  0
VERTEX
  8
0
  6
CONTINUOUS
 62
     2
 10
43.138066202
 20
138.599466463
 30
0.0
  0
VERTEX
  8
0
  6
CONTINUOUS
 62
     2
 10
43.138066202
 20
141.200457317
 30
0.0
  0
SEQEND
  0
LINE
  8
0
  6
CONTINUOUS
 62
     2
 10
46.698606272
 20
138.599466463
 30
0.0
 11
46.698606272
 21
141.200457317
 31
0.0
  0
LINE
  8
0
  6
CONTINUOUS
 62
     2
 10
46.698606272
 20
141.200457317
 30
0.0
 11
47.678571429
 21
141.200457317
 31
0.0
  0
LINE
  8
0
  6
CONTINUOUS
 62
     2
 10
47.678571429
 20
141.200457317
 30
0.0
 11
48.005226481
 21
141.000381098
 31
0.0
  0
LINE
  8
0
  6
CONTINUOUS
 62
     2
 10
48.005226481
 20
141.000381098
 30
0.0
 11
48.168554007
 21
140.600228659
 31
0.0
  0
LINE
  8
0
  6
CONTINUOUS
 62
     2
 10
48.168554007
 20
140.600228659
 30
0.0
 11
48.168554007
 21
140.400152439
 31
0.0
  0
LINE
  8
0
  6
CONTINUOUS
 62
     2
 10
48.168554007
 20
140.400152439
 30
0.0
 11
48.005226481
 21
140.0
 31
0.0
  0
LINE
  8
0
  6
CONTINUOUS
 62
     2
 10
48.005226481
 20
140.0
 30
0.0
 11
47.678571429
 21
139.79992378
 31
0.0
  0
LINE
  8
0
  6
CONTINUOUS
 62
     2
 10
47.678571429
 20
139.79992378
 30
0.0
 11
46.698606272
 21
139.79992378
 31
0.0
  0
POLYLINE
  8
0
  6
CONTINUOUS
 62
     2
 66
     1
  0
VERTEX
  8
0
  6
CONTINUOUS
 62
     2
 10
50.159439193
 20
122.596118276
 30
0.0
  0
VERTEX
  8
0
  6
CONTINUOUS
 62
     2
 10
50.649421772
 20
122.796194495
 30
0.0
  0
VERTEX
  8
0
  6
CONTINUOUS
 62
     2
 10
50.976076824
 20
123.196346934
 30
0.0
  0
VERTEX
  8
0
  6
CONTINUOUS
 62
     2
 10
51.13940435
 20
123.596499373
 30
0.0
  0
VERTEX
  8
0
  6
CONTINUOUS
 62
     2
 10
51.13940435
 20
124.396804251
 30
0.0
  0
VERTEX
  8
0
  6
CONTINUOUS
 62
     2
 10
50.976076824
 20
124.79695669
 30
0.0
  0
VERTEX
  8
0
  6
CONTINUOUS
 62
     2
 10
50.649421772
 20
124.79695669
 30
0.0
  0
VERTEX
  8
0
  6
CONTINUOUS
 62
     2
 10
50.486094246
 20
124.396804251
 30
0.0
  0
VERTEX
  8
0
  6
CONTINUOUS
 62
     2
 10
50.486094246
 20
123.396423154
 30
0.0
  0
VERTEX
  8
0
  6
CONTINUOUS
 62
     2
 10
50.812749298
 20
122.596118276
 30
0.0
  0
VERTEX
  8
0
  6
CONTINUOUS
 62
     2
 10
51.302731876
 20
122.596118276
 30
0.0
  0
VERTEX
  8
0
  6
CONTINUOUS
 62
     2
 10
51.466059402
 20
122.796194495
 30
0.0
  0
SEQEND
  0
POLYLINE
  8
0
  6
CONTINUOUS
 62
     2
 66
     1
  0
VERTEX
  8
0
  6
CONTINUOUS
 62
     2
 10
38.12195728
 20
123.196346934
 30
0.0
  0
VERTEX
  8
0
  6
CONTINUOUS
 62
     2
 10
38.775267385
 20
123.996651812
 30
0.0
  0
VERTEX
  8
0
  6
CONTINUOUS
 62
     2
 10
39.101922437
 20
124.596880471
 30
0.0
  0
VERTEX
  8
0
  6
CONTINUOUS
 62
     2
 10
38.938594911
 20
124.99703291
 30
0.0
  0
VERTEX
  8
0
  6
CONTINUOUS
 62
     2
 10
38.611939859
 20
124.79695669
 30
0.0
  0
VERTEX
  8
0
  6
CONTINUOUS
 62
     2
 10
38.448612333
 20
124.196728032
 30
0.0
  0
VERTEX
  8
0
  6
CONTINUOUS
 62
     2
 10
38.285284807
 20
122.396042056
 30
0.0
  0
VERTEX
  8
0
  6
CONTINUOUS
 62
     2
 10
38.611939859
 20
123.596499373
 30
0.0
  0
VERTEX
  8
0
  6
CONTINUOUS
 62
     2
 10
39.265249963
 20
123.596499373
 30
0.0
  0
VERTEX
  8
0
  6
CONTINUOUS
 62
     2
 10
39.42857749
 20
123.396423154
 30
0.0
  0
VERTEX
  8
0
  6
CONTINUOUS
 62
     2
 10
39.42857749
 20
122.996270715
 30
0.0
  0
VERTEX
  8
0
  6
CONTINUOUS
 62
     2
 10
38.775267385
 20
122.996270715
 30
0.0
  0
SEQEND
  0
LINE
  8
0
  6
CONTINUOUS
 62
     2
 10
38.775267385
 20
123.196346934
 30
0.0
 11
38.775267385
 21
122.596118276
 31
0.0
  0
LINE
  8
0
  6
CONTINUOUS
 62
     2
 10
38.775267385
 20
122.596118276
 30
0.0
 11
38.938594911
 21
122.396042056
 31
0.0
  0
LINE
  8
0
  6
CONTINUOUS
 62
     2
 10
38.938594911
 20
122.396042056
 30
0.0
 11
39.42857749
 21
122.396042056
 31
0.0
  0
LINE
  8
0
  6
CONTINUOUS
 62
     2
 10
44.183362369
 20
148.203138956
 30
0.0
 11
44.183362369
 21
150.80412981
 31
0.0
  0
LINE
  8
0
  6
CONTINUOUS
 62
     2
 10
44.183362369
 20
149.403596273
 30
0.0
 11
45.653310105
 21
150.80412981
 31
0.0
  0
LINE
  8
0
  6
CONTINUOUS
 62
     2
 10
44.673344948
 20
149.803748712
 30
0.0
 11
45.653310105
 21
148.203138956
 31
0.0
  0
POLYLINE
  8
0
  6
CONTINUOUS
 62
     2
 66
     1
  0
VERTEX
  8
0
  6
CONTINUOUS
 62
     2
 10
44.183362369
 20
133.426081029
 30
0.0
  0
VERTEX
  8
0
  6
CONTINUOUS
 62
     2
 10
44.183362369
 20
130.825090176
 30
0.0
  0
VERTEX
  8
0
  6
CONTINUOUS
 62
     2
 10
45.653310105
 20
130.825090176
 30
0.0
  0
SEQEND
  0
LINE
  8
0
  6
LTYPE1
 62
     2
 10
20.145158112
 20
140.0
 30
0.0
 11
70.491989373
 21
140.0
 31
0.0
  0
LINE
  8
0
  6
LTYPE1
 62
     2
 10
45.0
 20
156.848359034
 30
0.0
 11
45.0
 21
117.013497025
 31
0.0
  0
LINE
  8
0
  6
LTYPE1
 62
     2
 10
49.115853659
 20
120.79268631
 30
0.0
 11
52.774393627
 21
120.79268631
 31
0.0
  0
LINE
  8
0
  6
LTYPE1
 62
     2
 10
50.945115185
 20
122.621947836
 30
0.0
 11
50.945115185
 21
118.963407867
 31
0.0
  0
LINE
  8
0
  6
LTYPE1
 62
     2
 10
37.225606373
 20
120.79268631
 30
0.0
 11
40.884146341
 21
120.79268631
 31
0.0
  0
LINE
  8
0
  6
LTYPE1
 62
     2
 10
39.054876357
 20
122.621947836
 30
0.0
 11
39.054876357
 21
118.963407867
 31
0.0
  0
LINE
  8
0
  6
LTYPE1
 62
     2
 10
35.39633808
 20
128.109749331
 30
0.0
 11
39.054878049
 21
128.109749331
 31
0.0
  0
LINE
  8
0
  6
LTYPE1
 62
     2
 10
37.225608064
 20
129.939027774
 30
0.0
 11
37.225608064
 21
126.280487805
 31
0.0
  0
LINE
  8
0
  6
LTYPE1
 62
     2
 10
50.945121951
 20
128.109749331
 30
0.0
 11
54.60366192
 21
128.109749331
 31
0.0
  0
LINE
  8
0
  6
LTYPE1
 62
     2
 10
52.774383477
 20
129.939027774
 30
0.0
 11
52.774383477
 21
126.280487805
 31
0.0
  0
TEXT
  8
0
  6
CONTINUOUS
 62
     2
 10
43.543702829
 20
167.048621066
 30
0.0
 40
4.0
  1
Ａ
 50
0.0
 41
0.75
 51
0.0
  7
KANJI5
  0
TEXT
  8
0
  6
CONTINUOUS
 62
     2
 10
43.543702829
 20
158.365920107
 30
0.0
 40
4.0
  1
Ｂ
 50
0.0
 41
0.75
 51
0.0
  7
KANJI5
  0
TEXT
  8
0
  6
CONTINUOUS
 62
     2
 10
73.614829053
 20
144.025345376
 30
0.0
 40
4.0
  1
６０
 50
90.0
 41
0.75
 51
0.0
  7
KANJI5
  0
TEXT
  8
0
  6
CONTINUOUS
 62
     2
 10
73.614829053
 20
126.640211937
 30
0.0
 40
4.0
  1
９５
 50
90.0
 41
0.75
 51
0.0
  7
KANJI5
  0
LINE
  8
0
  6
CONTINUOUS
 62
     2
 10
23.048777104
 20
46.169616245
 30
0.0
 11
66.951205979
 21
46.169616245
 31
0.0
  0
LINE
  8
0
  6
CONTINUOUS
 62
     2
 10
66.951205979
 20
46.169616245
 30
0.0
 11
66.951205979
 21
82.754982099
 31
0.0
  0
LINE
  8
0
  6
CONTINUOUS
 62
     2
 10
66.951205979
 20
82.754982099
 30
0.0
 11
23.048777104
 21
82.754982099
 31
0.0
  0
LINE
  8
0
  6
CONTINUOUS
 62
     2
 10
23.048777104
 20
82.754982099
 30
0.0
 11
23.048777104
 21
46.169616245
 31
0.0
  0
LINE
  8
0
  6
CONTINUOUS
 62
     2
 10
50.487801495
 20
82.754982099
 30
0.0
 11
50.487801495
 21
46.169616245
 31
0.0
  0
LINE
  8
0
  6
CONTINUOUS
 62
     2
 10
39.512181589
 20
82.754982099
 30
0.0
 11
39.512181589
 21
46.169616245
 31
0.0
  0
LINE
  8
0
  6
CONTINUOUS
 62
     2
 10
67.865853659
 20
44.146338032
 30
0.0
 11
67.865853659
 21
35.914627332
 31
0.0
  0
LINE
  8
0
  6
CONTINUOUS
 62
     2
 10
67.865853659
 20
35.914627332
 30
0.0
 11
22.134142112
 21
35.914627332
 31
0.0
  0
LINE
  8
0
  6
CONTINUOUS
 62
     2
 10
22.134142112
 20
35.914627332
 30
0.0
 11
22.134142112
 21
44.146338032
 31
0.0
  0
LINE
  8
0
  6
CONTINUOUS
 62
     2
 10
22.134142112
 20
35.914627332
 30
0.0
 11
22.134142112
 21
34.999996569
 31
0.0
  0
LINE
  8
0
  6
CONTINUOUS
 62
     2
 10
22.134142112
 20
34.999996569
 30
0.0
 11
67.865853659
 21
34.999996569
 31
0.0
  0
LINE
  8
0
  6
CONTINUOUS
 62
     2
 10
67.865853659
 20
34.999996569
 30
0.0
 11
67.865853659
 21
35.914627332
 31
0.0
  0
LINE
  8
0
  6
CONTINUOUS
 62
     2
 10
26.707312844
 20
46.169616245
 30
0.0
 11
26.707308615
 21
44.146329574
 31
0.0
  0
LINE
  8
0
  6
CONTINUOUS
 62
     2
 10
63.292682927
 20
46.169616245
 30
0.0
 11
63.292682927
 21
44.146329574
 31
0.0
  0
CIRCLE
  8
0
  6
CONTINUOUS
 62
     2
 10
58.719512195
 20
40.487798064
 30
0.0
 40
1.829268398
  0
LINE
  8
0
  6
CONTINUOUS
 62
     2
 10
57.256089441
 20
41.585356671
 30
0.0
 11
57.256089441
 21
39.390239456
 31
0.0
  0
LINE
  8
0
  6
CONTINUOUS
 62
     2
 10
60.182934949
 20
41.585356671
 30
0.0
 11
60.182934949
 21
39.390239456
 31
0.0
  0
LINE
  8
0
  6
CONTINUOUS
 62
     2
 10
58.719512195
 20
42.317068048
 30
0.0
 11
60.182934949
 21
41.585356671
 31
0.0
  0
LINE
  8
0
  6
CONTINUOUS
 62
     2
 10
58.719512195
 20
38.658528079
 30
0.0
 11
60.182934949
 21
39.390239456
 31
0.0
  0
LINE
  8
0
  6
CONTINUOUS
 62
     2
 10
58.719512195
 20
38.658528079
 30
0.0
 11
57.256089441
 21
39.390239456
 31
0.0
  0
LINE
  8
0
  6
CONTINUOUS
 62
     2
 10
57.256089441
 20
41.585356671
 30
0.0
 11
58.719512195
 21
42.317068048
 31
0.0
  0
LINE
  8
0
  6
CONTINUOUS
 62
     2
 10
45.0
 20
44.603653414
 30
0.0
 11
55.51827915
 21
44.603653414
 31
0.0
  0
LINE
  8
0
  6
CONTINUOUS
 62
     2
 10
55.51827915
 20
44.603644955
 30
0.0
 11
55.51827915
 21
46.169616245
 31
0.0
  0
LINE
  8
0
  6
CONTINUOUS
 62
     2
 10
57.804864515
 20
44.146338032
 30
0.0
 11
67.865853659
 21
44.146338032
 31
0.0
  0
CIRCLE
  8
0
  6
CONTINUOUS
 62
     2
 10
31.280479347
 20
40.487798064
 30
0.0
 40
1.829268398
  0
LINE
  8
0
  6
CONTINUOUS
 62
     2
 10
32.743893642
 20
41.585356671
 30
0.0
 11
32.743893642
 21
39.390239456
 31
0.0
  0
LINE
  8
0
  6
CONTINUOUS
 62
     2
 10
29.817065051
 20
41.585356671
 30
0.0
 11
29.817065051
 21
39.390239456
 31
0.0
  0
LINE
  8
0
  6
CONTINUOUS
 62
     2
 10
31.280479347
 20
42.317068048
 30
0.0
 11
29.817065051
 21
41.585356671
 31
0.0
  0
LINE
  8
0
  6
CONTINUOUS
 62
     2
 10
31.280479347
 20
38.658528079
 30
0.0
 11
29.817065051
 21
39.390239456
 31
0.0
  0
LINE
  8
0
  6
CONTINUOUS
 62
     2
 10
31.280479347
 20
38.658528079
 30
0.0
 11
32.743893642
 21
39.390239456
 31
0.0
  0
LINE
  8
0
  6
CONTINUOUS
 62
     2
 10
32.743893642
 20
41.585356671
 30
0.0
 11
31.280479347
 21
42.317068048
 31
0.0
  0
LINE
  8
0
  6
CONTINUOUS
 62
     2
 10
44.999991542
 20
44.603653414
 30
0.0
 11
34.481699705
 21
44.603653414
 31
0.0
  0
LINE
  8
0
  6
CONTINUOUS
 62
     2
 10
34.481699705
 20
44.603653414
 30
0.0
 11
34.481699705
 21
46.169616245
 31
0.0
  0
LINE
  8
0
  6
CONTINUOUS
 62
     2
 10
22.134142112
 20
44.146338032
 30
0.0
 11
32.195114339
 21
44.146338032
 31
0.0
  0
LINE
  8
0
  6
CONTINUOUS
 62
     2
 10
26.707312844
 20
82.754982099
 30
0.0
 11
26.707312844
 21
93.009971013
 31
0.0
  0
LINE
  8
0
  6
CONTINUOUS
 62
     2
 10
26.707312844
 20
93.009971013
 30
0.0
 11
63.292682927
 21
93.009971013
 31
0.0
  0
LINE
  8
0
  6
CONTINUOUS
 62
     2
 10
63.292682927
 20
93.009971013
 30
0.0
 11
63.292682927
 21
82.754982099
 31
0.0
  0
ARC
  8
0
  6
CONTINUOUS
 62
     2
 10
58.719512195
 20
88.436800281
 30
0.0
 40
1.829268398
 50
194.495519745
 51
283.427862964
  0
LINE
  8
0
  6
CONTINUOUS
 62
     2
 10
57.256089441
 20
87.339250132
 30
0.0
 11
57.256089441
 21
87.80975499
 31
0.0
  0
LINE
  8
0
  6
CONTINUOUS
 62
     2
 10
60.182934949
 20
87.339250132
 30
0.0
 11
60.182934949
 21
89.53435043
 31
0.0
  0
LINE
  8
0
  6
CONTINUOUS
 62
     2
 10
58.719512195
 20
86.607538755
 30
0.0
 11
59.037099408
 21
86.766332361
 31
0.0
  0
LINE
  8
0
  6
CONTINUOUS
 62
     2
 10
58.719512195
 20
90.266061807
 30
0.0
 11
60.182934949
 21
89.53435043
 31
0.0
  0
LINE
  8
0
  6
CONTINUOUS
 62
     2
 10
58.719512195
 20
90.266061807
 30
0.0
 11
57.256089441
 21
89.53435043
 31
0.0
  0
LINE
  8
0
  6
CONTINUOUS
 62
     2
 10
57.256089441
 20
87.339250132
 30
0.0
 11
58.719512195
 21
86.607538755
 31
0.0
  0
LINE
  8
0
  6
CONTINUOUS
 62
     2
 10
34.024391936
 20
94.839249455
 30
0.0
 11
55.975608064
 21
94.839249455
 31
0.0
  0
LINE
  8
0
  6
CONTINUOUS
 62
     2
 10
55.975608064
 20
94.839249455
 30
0.0
 11
55.975608064
 21
93.009971013
 31
0.0
  0
LINE
  8
0
  6
CONTINUOUS
 62
     2
 10
38.141236908
 20
92.095340249
 30
0.0
 11
26.707312844
 21
92.095340249
 31
0.0
  0
LINE
  8
0
  6
CONTINUOUS
 62
     2
 10
51.958057171
 20
90.723385647
 30
0.0
 11
49.572186185
 21
90.723385647
 31
0.0
  0
LINE
  8
0
  6
CONTINUOUS
 62
     2
 10
49.572186185
 20
90.723385647
 30
0.0
 11
49.572186185
 21
91.180709486
 31
0.0
  0
LINE
  8
0
  6
CONTINUOUS
 62
     2
 10
51.858763092
 20
92.552647173
 30
0.0
 11
51.858763092
 21
91.180709486
 31
0.0
  0
LINE
  8
0
  6
CONTINUOUS
 62
     2
 10
49.572177726
 20
92.552647173
 30
0.0
 11
49.572177726
 21
91.180709486
 31
0.0
  0
LINE
  8
0
  6
CONTINUOUS
 62
     2
 10
51.172785791
 20
92.552647173
 30
0.0
 11
51.172785791
 21
91.180709486
 31
0.0
  0
LINE
  8
0
  6
CONTINUOUS
 62
     2
 10
50.258155028
 20
92.552647173
 30
0.0
 11
50.258155028
 21
91.180709486
 31
0.0
  0
LINE
  8
0
  6
CONTINUOUS
 62
     2
 10
51.858763092
 20
91.180709486
 30
0.0
 11
49.572177726
 21
91.180709486
 31
0.0
  0
LINE
  8
0
  6
CONTINUOUS
 62
     2
 10
51.858763092
 20
92.552647173
 30
0.0
 11
49.572177726
 21
92.552647173
 31
0.0
  0
LINE
  8
0
  6
CONTINUOUS
 62
     2
 10
49.572177726
 20
92.552647173
 30
0.0
 11
49.572186185
 21
93.009971013
 31
0.0
  0
LINE
  8
0
  6
CONTINUOUS
 62
     2
 10
51.858763092
 20
92.552647173
 30
0.0
 11
51.85877155
 21
93.009971013
 31
0.0
  0
LINE
  8
0
  6
CONTINUOUS
 62
     2
 10
63.292682927
 20
92.095340249
 30
0.0
 11
51.858763092
 21
92.095340249
 31
0.0
  0
LINE
  8
0
  6
CONTINUOUS
 62
     2
 10
49.572177726
 20
92.095340249
 30
0.0
 11
40.427822274
 21
92.095340249
 31
0.0
  0
LINE
  8
0
  6
CONTINUOUS
 62
     2
 10
55.51827915
 20
84.972276999
 30
0.0
 11
55.51827915
 21
82.754982099
 31
0.0
  0
LINE
  8
0
  6
CONTINUOUS
 62
     2
 10
34.481699705
 20
85.166293686
 30
0.0
 11
34.481699705
 21
82.754982099
 31
0.0
  0
LINE
  8
0
  6
CONTINUOUS
 62
     2
 10
26.249997463
 20
38.201212698
 30
0.0
 11
26.249997463
 21
34.999996569
 31
0.0
  0
LINE
  8
0
  6
CONTINUOUS
 62
     2
 10
63.74998985
 20
38.201212698
 30
0.0
 11
63.74998985
 21
34.999996569
 31
0.0
  0
LINE
  8
0
  6
CONTINUOUS
 62
     2
 10
26.249997463
 20
34.085357347
 30
0.0
 11
26.249997463
 21
22.399840043
 31
0.0
  0
LINE
  8
0
  6
CONTINUOUS
 62
     2
 10
63.74998985
 20
34.085357347
 30
0.0
 11
63.74998985
 21
22.399840043
 31
0.0
  0
LINE
  8
0
  6
CONTINUOUS
 62
     2
 10
26.249997463
 20
24.229110027
 30
0.0
 11
63.74998985
 21
24.229110027
 31
0.0
  0
LINE
  8
0
  6
CONTINUOUS
 62
     2
 10
26.249997463
 20
24.229110027
 30
0.0
 11
28.01693495
 21
24.7025595
 31
0.0
  0
LINE
  8
0
  6
CONTINUOUS
 62
     2
 10
26.249997463
 20
24.229110027
 30
0.0
 11
28.01693495
 21
23.755660554
 31
0.0
  0
LINE
  8
0
  6
CONTINUOUS
 62
     2
 10
63.74998985
 20
24.229110027
 30
0.0
 11
61.983052363
 21
24.7025595
 31
0.0
  0
LINE
  8
0
  6
CONTINUOUS
 62
     2
 10
63.74998985
 20
24.229110027
 30
0.0
 11
61.983052363
 21
23.755660554
 31
0.0
  0
LINE
  8
0
  6
CONTINUOUS
 62
     2
 10
39.512181589
 20
51.477729428
 30
0.0
 11
50.487801495
 21
51.477729428
 31
0.0
  0
LINE
  8
0
  6
CONTINUOUS
 62
     2
 10
39.512181589
 20
51.477729428
 30
0.0
 11
41.279119076
 21
51.951178901
 31
0.0
  0
LINE
  8
0
  6
CONTINUOUS
 62
     2
 10
39.512181589
 20
51.477729428
 30
0.0
 11
41.279119076
 21
51.004279955
 31
0.0
  0
LINE
  8
0
  6
CONTINUOUS
 62
     2
 10
50.487801495
 20
51.477729428
 30
0.0
 11
48.720864008
 21
51.951178901
 31
0.0
  0
LINE
  8
0
  6
CONTINUOUS
 62
     2
 10
50.487801495
 20
51.477729428
 30
0.0
 11
48.720864008
 21
51.004279955
 31
0.0
  0
LINE
  8
0
  6
CONTINUOUS
 62
     2
 10
64.151793351
 20
34.552907283
 30
0.0
 11
71.631746482
 21
24.294695753
 31
0.0
  0
LINE
  8
0
  6
CONTINUOUS
 62
     2
 10
64.151793351
 20
34.552907283
 30
0.0
 11
65.57537499
 21
33.404152389
 31
0.0
  0
LINE
  8
0
  6
CONTINUOUS
 62
     2
 10
64.151793351
 20
34.552907283
 30
0.0
 11
64.810273768
 21
32.846265543
 31
0.0
  0
LINE
  8
0
  6
CONTINUOUS
 62
     2
 10
55.975602989
 20
88.436800281
 30
0.0
 11
56.115894757
 21
88.436800281
 31
0.0
  0
LINE
  8
0
  6
CONTINUOUS
 62
     2
 10
58.719512195
 20
91.180709486
 30
0.0
 11
58.719512195
 21
88.048773521
 31
0.0
  0
ARC
  8
0
  6
CONTINUOUS
 62
     2
 10
50.715487326
 20
90.723385647
 30
0.0
 40
1.143292683
 50
180.0
 51
0.0
  0
LINE
  8
0
  6
CONTINUOUS
 62
     2
 10
54.036481565
 20
90.624186601
 30
0.0
 11
53.558904178
 21
89.84300654
 31
0.0
  0
LINE
  8
0
  6
CONTINUOUS
 62
     2
 10
51.858788467
 20
91.180726403
 30
0.0
 11
52.756519529
 21
91.328087059
 31
0.0
  0
LINE
  8
0
  6
CONTINUOUS
 62
     2
 10
59.111122598
 20
87.83340902
 30
0.0
 11
52.756536446
 21
91.328087059
 31
0.0
  0
LINE
  8
0
  6
CONTINUOUS
 62
     2
 10
45.0
 20
41.402428827
 30
0.0
 11
54.146322436
 21
41.402410512
 31
0.0
  0
LINE
  8
0
  6
CONTINUOUS
 62
     2
 10
57.804864515
 20
46.169624704
 30
0.0
 11
57.804864515
 21
44.146326487
 31
0.0
  0
LINE
  8
0
  6
CONTINUOUS
 62
     2
 10
45.0
 20
40.487798064
 30
0.0
 11
54.146324666
 21
40.487789902
 31
0.0
  0
LINE
  8
0
  6
CONTINUOUS
 62
     2
 10
33.109778089
 20
44.14633799
 30
0.0
 11
56.890230369
 21
44.146346551
 31
0.0
  0
LINE
  8
0
  6
CONTINUOUS
 62
     2
 10
45.000008458
 20
41.402428827
 30
0.0
 11
35.853686023
 21
41.402410512
 31
0.0
  0
LINE
  8
0
  6
CONTINUOUS
 62
     2
 10
32.195143943
 20
46.169624704
 30
0.0
 11
32.195143943
 21
44.146326487
 31
0.0
  0
LINE
  8
0
  6
CONTINUOUS
 62
     2
 10
45.000008458
 20
40.487798064
 30
0.0
 11
35.853683793
 21
40.487789902
 31
0.0
  0
LINE
  8
0
  6
CONTINUOUS
 62
     2
 10
60.520170545
 20
85.16627677
 30
0.0
 11
63.292682927
 21
85.16627677
 31
0.0
  0
LINE
  8
0
  6
CONTINUOUS
 62
     2
 10
26.707312844
 20
85.166293686
 30
0.0
 11
29.479827827
 21
85.166293686
 31
0.0
  0
LINE
  8
0
  6
CONTINUOUS
 62
     2
 10
30.400824117
 20
85.166295247
 30
0.0
 11
59.599172974
 21
85.166275209
 31
0.0
  0
LINE
  8
0
  6
CONTINUOUS
 62
     2
 10
52.026304654
 20
100.327054333
 30
0.0
 11
97.194663225
 21
100.327054333
 31
0.0
  0
LINE
  8
0
  6
CONTINUOUS
 62
     2
 10
68.974501109
 20
34.999996569
 30
0.0
 11
97.194663225
 21
34.999996569
 31
0.0
  0
LINE
  8
0
  6
CONTINUOUS
 62
     2
 10
95.249002461
 20
100.327054333
 30
0.0
 11
95.249002461
 21
34.999996569
 31
0.0
  0
LINE
  8
0
  6
CONTINUOUS
 62
     2
 10
95.249002461
 20
100.327054333
 30
0.0
 11
94.775552988
 21
98.560116846
 31
0.0
  0
LINE
  8
0
  6
CONTINUOUS
 62
     2
 10
95.249002461
 20
100.327054333
 30
0.0
 11
95.722451934
 21
98.560116846
 31
0.0
  0
LINE
  8
0
  6
CONTINUOUS
 62
     2
 10
95.249002461
 20
34.999996569
 30
0.0
 11
94.775552988
 21
36.766934056
 31
0.0
  0
LINE
  8
0
  6
CONTINUOUS
 62
     2
 10
95.249002461
 20
34.999996569
 30
0.0
 11
95.722451934
 21
36.766934056
 31
0.0
  0
LINE
  8
0
  6
CONTINUOUS
 62
     2
 10
51.859752714
 20
94.839249455
 30
0.0
 11
51.859752714
 21
96.668510981
 31
0.0
  0
LINE
  8
0
  6
CONTINUOUS
 62
     2
 10
51.859752714
 20
96.668510981
 30
0.0
 11
51.859752714
 21
97.583138361
 31
0.0
  0
LINE
  8
0
  6
CONTINUOUS
 62
     2
 10
51.859752714
 20
97.583138361
 30
0.0
 11
49.115860425
 21
97.583138361
 31
0.0
  0
LINE
  8
0
  6
CONTINUOUS
 62
     2
 10
51.859752714
 20
98.040462201
 30
0.0
 11
51.859752714
 21
99.412406654
 31
0.0
  0
LINE
  8
0
  6
CONTINUOUS
 62
     2
 10
52.317076554
 20
98.040462201
 30
0.0
 11
49.115860425
 21
98.040462201
 31
0.0
  0
LINE
  8
0
  6
CONTINUOUS
 62
     2
 10
52.317076554
 20
97.583138361
 30
0.0
 11
51.859752714
 21
97.583138361
 31
0.0
  0
LINE
  8
0
  6
CONTINUOUS
 62
     2
 10
52.317076554
 20
98.040462201
 30
0.0
 11
52.317076554
 21
97.583138361
 31
0.0
  0
LINE
  8
0
  6
CONTINUOUS
 62
     2
 10
49.115860425
 20
98.040462201
 30
0.0
 11
49.115860425
 21
97.583138361
 31
0.0
  0
LINE
  8
0
  6
CONTINUOUS
 62
     2
 10
51.859752714
 20
99.412406654
 30
0.0
 11
49.573167348
 21
99.412406654
 31
0.0
  0
LINE
  8
0
  6
CONTINUOUS
 62
     2
 10
51.859752714
 20
96.211193908
 30
0.0
 11
49.573167348
 21
96.211193908
 31
0.0
  0
LINE
  8
0
  6
CONTINUOUS
 62
     2
 10
49.573167348
 20
99.412406654
 30
0.0
 11
49.573167348
 21
98.040462201
 31
0.0
  0
LINE
  8
0
  6
CONTINUOUS
 62
     2
 10
49.573167348
 20
97.583138361
 30
0.0
 11
49.573167348
 21
94.839249455
 31
0.0
  0
LINE
  8
0
  6
CONTINUOUS
 62
     2
 10
51.402445791
 20
97.583138361
 30
0.0
 11
51.402445791
 21
94.839249455
 31
0.0
  0
LINE
  8
0
  6
CONTINUOUS
 62
     2
 10
50.030491188
 20
97.583138361
 30
0.0
 11
50.030491188
 21
94.839249455
 31
0.0
  0
LINE
  8
0
  6
CONTINUOUS
 62
     2
 10
58.670376597
 20
87.031973692
 30
0.0
 11
51.958057171
 21
90.723385647
 31
0.0
  0
LINE
  8
0
  6
CONTINUOUS
 62
     2
 10
58.576927907
 20
82.754982099
 30
0.0
 11
59.45227857
 21
84.667957213
 31
0.0
  0
LINE
  8
0
  6
CONTINUOUS
 62
     2
 10
59.582769738
 20
82.754982099
 30
0.0
 11
60.283975558
 21
84.287384301
 31
0.0
  0
ARC
  8
0
  6
CONTINUOUS
 62
     2
 10
57.788884594
 20
85.429103038
 30
0.0
 40
1.829268293
 50
335.411830035
 51
61.191590008
  0
ARC
  8
0
  6
CONTINUOUS
 62
     2
 10
57.788884594
 20
85.429103038
 30
0.0
 40
2.743902439
 50
335.411830035
 51
61.191590008
  0
LINE
  8
0
  6
CONTINUOUS
 62
     2
 10
59.890628295
 20
87.193096805
 30
0.0
 11
60.182934949
 21
87.339250132
 31
0.0
  0
LINE
  8
0
  6
CONTINUOUS
 62
     2
 10
57.256089441
 20
88.853576735
 30
0.0
 11
57.256089441
 21
89.53435043
 31
0.0
  0
ARC
  8
0
  6
CONTINUOUS
 62
     2
 10
58.719512195
 20
88.436800281
 30
0.0
 40
1.829268398
 50
312.977594566
 51
161.903350148
  0
ARC
  8
0
  6
CONTINUOUS
 62
     2
 10
31.280487805
 20
88.436800281
 30
0.0
 40
1.829268398
 50
256.572137036
 51
345.504480255
  0
LINE
  8
0
  6
CONTINUOUS
 62
     2
 10
32.743910559
 20
87.339250132
 30
0.0
 11
32.743910559
 21
87.80975499
 31
0.0
  0
LINE
  8
0
  6
CONTINUOUS
 62
     2
 10
29.817065051
 20
87.339250132
 30
0.0
 11
29.817065051
 21
89.53435043
 31
0.0
  0
LINE
  8
0
  6
CONTINUOUS
 62
     2
 10
31.280487805
 20
86.607538755
 30
0.0
 11
30.962900592
 21
86.766332361
 31
0.0
  0
LINE
  8
0
  6
CONTINUOUS
 62
     2
 10
31.280487805
 20
90.266061807
 30
0.0
 11
29.817065051
 21
89.53435043
 31
0.0
  0
LINE
  8
0
  6
CONTINUOUS
 62
     2
 10
31.280487805
 20
90.266061807
 30
0.0
 11
32.743910559
 21
89.53435043
 31
0.0
  0
LINE
  8
0
  6
CONTINUOUS
 62
     2
 10
32.743910559
 20
87.339250132
 30
0.0
 11
31.280487805
 21
86.607538755
 31
0.0
  0
LINE
  8
0
  6
CONTINUOUS
 62
     2
 10
34.024391936
 20
94.839249455
 30
0.0
 11
34.024391936
 21
93.009971013
 31
0.0
  0
LINE
  8
0
  6
CONTINUOUS
 62
     2
 10
38.041942829
 20
90.723385647
 30
0.0
 11
40.427813815
 21
90.723385647
 31
0.0
  0
LINE
  8
0
  6
CONTINUOUS
 62
     2
 10
40.427813815
 20
90.723385647
 30
0.0
 11
40.427813815
 21
91.180709486
 31
0.0
  0
LINE
  8
0
  6
CONTINUOUS
 62
     2
 10
38.141236908
 20
92.552647173
 30
0.0
 11
38.141236908
 21
91.180709486
 31
0.0
  0
LINE
  8
0
  6
CONTINUOUS
 62
     2
 10
40.427822274
 20
92.552647173
 30
0.0
 11
40.427822274
 21
91.180709486
 31
0.0
  0
LINE
  8
0
  6
CONTINUOUS
 62
     2
 10
38.827214209
 20
92.552647173
 30
0.0
 11
38.827214209
 21
91.180709486
 31
0.0
  0
LINE
  8
0
  6
CONTINUOUS
 62
     2
 10
39.741844972
 20
92.552647173
 30
0.0
 11
39.741844972
 21
91.180709486
 31
0.0
  0
LINE
  8
0
  6
CONTINUOUS
 62
     2
 10
38.141236908
 20
91.180709486
 30
0.0
 11
40.427822274
 21
91.180709486
 31
0.0
  0
LINE
  8
0
  6
CONTINUOUS
 62
     2
 10
38.141236908
 20
92.552647173
 30
0.0
 11
40.427822274
 21
92.552647173
 31
0.0
  0
LINE
  8
0
  6
CONTINUOUS
 62
     2
 10
40.427822274
 20
92.552647173
 30
0.0
 11
40.427813815
 21
93.009971013
 31
0.0
  0
LINE
  8
0
  6
CONTINUOUS
 62
     2
 10
38.141236908
 20
92.552647173
 30
0.0
 11
38.14122845
 21
93.009971013
 31
0.0
  0
LINE
  8
0
  6
CONTINUOUS
 62
     2
 10
34.024397011
 20
88.436800281
 30
0.0
 11
33.884105243
 21
88.436800281
 31
0.0
  0
LINE
  8
0
  6
CONTINUOUS
 62
     2
 10
31.280487805
 20
91.180709486
 30
0.0
 11
31.280487805
 21
88.048773521
 31
0.0
  0
ARC
  8
0
  6
CONTINUOUS
 62
     2
 10
39.284512674
 20
90.723385647
 30
0.0
 40
1.143292683
 50
180.0
 51
0.0
  0
LINE
  8
0
  6
CONTINUOUS
 62
     2
 10
35.963518435
 20
90.624186601
 30
0.0
 11
36.441095822
 21
89.84300654
 31
0.0
  0
LINE
  8
0
  6
CONTINUOUS
 62
     2
 10
38.141211533
 20
91.180726403
 30
0.0
 11
37.243480471
 21
91.328087059
 31
0.0
  0
LINE
  8
0
  6
CONTINUOUS
 62
     2
 10
30.888877402
 20
87.83340902
 30
0.0
 11
37.243463554
 21
91.328087059
 31
0.0
  0
LINE
  8
0
  6
CONTINUOUS
 62
     2
 10
38.140247286
 20
94.839249455
 30
0.0
 11
38.140247286
 21
96.668510981
 31
0.0
  0
LINE
  8
0
  6
CONTINUOUS
 62
     2
 10
38.140247286
 20
96.668510981
 30
0.0
 11
38.140247286
 21
97.583138361
 31
0.0
  0
LINE
  8
0
  6
CONTINUOUS
 62
     2
 10
38.140247286
 20
97.583138361
 30
0.0
 11
40.884139575
 21
97.583138361
 31
0.0
  0
LINE
  8
0
  6
CONTINUOUS
 62
     2
 10
38.140247286
 20
98.040462201
 30
0.0
 11
38.140247286
 21
99.412406654
 31
0.0
  0
LINE
  8
0
  6
CONTINUOUS
 62
     2
 10
37.682923446
 20
98.040462201
 30
0.0
 11
40.884139575
 21
98.040462201
 31
0.0
  0
LINE
  8
0
  6
CONTINUOUS
 62
     2
 10
37.682923446
 20
97.583138361
 30
0.0
 11
38.140247286
 21
97.583138361
 31
0.0
  0
LINE
  8
0
  6
CONTINUOUS
 62
     2
 10
37.682923446
 20
98.040462201
 30
0.0
 11
37.682923446
 21
97.583138361
 31
0.0
  0
LINE
  8
0
  6
CONTINUOUS
 62
     2
 10
40.884139575
 20
98.040462201
 30
0.0
 11
40.884139575
 21
97.583138361
 31
0.0
  0
LINE
  8
0
  6
CONTINUOUS
 62
     2
 10
38.140247286
 20
99.412406654
 30
0.0
 11
40.426832652
 21
99.412406654
 31
0.0
  0
LINE
  8
0
  6
CONTINUOUS
 62
     2
 10
38.140247286
 20
96.211193908
 30
0.0
 11
40.426832652
 21
96.211193908
 31
0.0
  0
LINE
  8
0
  6
CONTINUOUS
 62
     2
 10
40.426832652
 20
99.412406654
 30
0.0
 11
40.426832652
 21
98.040462201
 31
0.0
  0
LINE
  8
0
  6
CONTINUOUS
 62
     2
 10
40.426832652
 20
97.583138361
 30
0.0
 11
40.426832652
 21
94.839249455
 31
0.0
  0
LINE
  8
0
  6
CONTINUOUS
 62
     2
 10
38.597554209
 20
97.583138361
 30
0.0
 11
38.597554209
 21
94.839249455
 31
0.0
  0
LINE
  8
0
  6
CONTINUOUS
 62
     2
 10
39.969508812
 20
97.583138361
 30
0.0
 11
39.969508812
 21
94.839249455
 31
0.0
  0
LINE
  8
0
  6
CONTINUOUS
 62
     2
 10
31.329623403
 20
87.031973692
 30
0.0
 11
38.041942829
 21
90.723385647
 31
0.0
  0
LINE
  8
0
  6
CONTINUOUS
 62
     2
 10
31.423072093
 20
82.754982099
 30
0.0
 11
30.54772143
 21
84.667957213
 31
0.0
  0
LINE
  8
0
  6
CONTINUOUS
 62
     2
 10
30.417230262
 20
82.754982099
 30
0.0
 11
29.716024442
 21
84.287384301
 31
0.0
  0
ARC
  8
0
  6
CONTINUOUS
 62
     2
 10
32.211115406
 20
85.429103038
 30
0.0
 40
1.829268293
 50
118.808409992
 51
204.588169965
  0
ARC
  8
0
  6
CONTINUOUS
 62
     2
 10
32.211115406
 20
85.429103038
 30
0.0
 40
2.743902439
 50
118.808409992
 51
204.588169965
  0
LINE
  8
0
  6
CONTINUOUS
 62
     2
 10
30.109371705
 20
87.193096805
 30
0.0
 11
29.817065051
 21
87.339250132
 31
0.0
  0
LINE
  8
0
  6
CONTINUOUS
 62
     2
 10
32.743910559
 20
88.853576735
 30
0.0
 11
32.743910559
 21
89.53435043
 31
0.0
  0
ARC
  8
0
  6
CONTINUOUS
 62
     2
 10
31.280487805
 20
88.436800281
 30
0.0
 40
1.829268398
 50
18.096649852
 51
227.022405434
  0
LINE
  8
0
  6
CONTINUOUS
 62
     2
 10
56.890230369
 20
46.169624704
 30
0.0
 11
56.890230369
 21
44.146312951
 31
0.0
  0
LINE
  8
0
  6
CONTINUOUS
 62
     2
 10
33.109778089
 20
46.169624704
 30
0.0
 11
33.109778089
 21
44.146312951
 31
0.0
  0
ARC
  8
0
  6
CONTINUOUS
 62
     2
 10
54.14632793
 20
44.146312951
 30
0.0
 40
2.743902439
 50
269.99988527
 51
0.0
  0
ARC
  8
0
  6
CONTINUOUS
 62
     2
 10
54.14632793
 20
44.146326487
 30
0.0
 40
3.658536585
 50
269.999948873
 51
0.0
  0
ARC
  8
0
  6
CONTINUOUS
 62
     2
 10
35.853680528
 20
44.146312951
 30
0.0
 40
2.743902439
 50
180.0
 51
270.00011473
  0
ARC
  8
0
  6
CONTINUOUS
 62
     2
 10
35.853680528
 20
44.146326487
 30
0.0
 40
3.658536585
 50
180.0
 51
270.000051127
  0
LINE
  8
0
  6
CONTINUOUS
 62
     2
 10
85.011487516
 20
100.327054333
 30
0.0
 11
85.011487516
 21
104.900225065
 31
0.0
  0
LINE
  8
0
  6
CONTINUOUS
 62
     2
 10
85.011487516
 20
100.327054333
 30
0.0
 11
84.538038043
 21
102.09399182
 31
0.0
  0
LINE
  8
0
  6
CONTINUOUS
 62
     2
 10
85.011487516
 20
100.327054333
 30
0.0
 11
85.484936989
 21
102.09399182
 31
0.0
  0
LINE
  8
0
  6
CONTINUOUS
 62
     2
 10
85.011487516
 20
100.327054333
 30
0.0
 11
85.011487516
 21
94.839249455
 31
0.0
  0
LINE
  8
0
  6
CONTINUOUS
 62
     2
 10
58.719512195
 20
87.031973692
 30
0.0
 11
58.719512195
 21
85.692891075
 31
0.0
  0
LINE
  8
0
  6
CONTINUOUS
 62
     2
 10
58.013939479
 20
88.436800281
 30
0.0
 11
61.006097561
 21
88.436800281
 31
0.0
  0
LINE
  8
0
  6
CONTINUOUS
 62
     2
 10
31.986060521
 20
88.436800281
 30
0.0
 11
28.993902439
 21
88.436800281
 31
0.0
  0
LINE
  8
0
  6
CONTINUOUS
 62
     2
 10
31.280487805
 20
87.003953746
 30
0.0
 11
31.280487805
 21
85.692891075
 31
0.0
  0
ARC
  8
0
  6
CONTINUOUS
 62
     2
 10
45.0
 20
88.436800281
 30
0.0
 40
1.829268398
 50
161.903350148
 51
312.977594566
  0
LINE
  8
0
  6
CONTINUOUS
 62
     2
 10
43.536577246
 20
87.339250132
 30
0.0
 11
43.536577246
 21
88.853576735
 31
0.0
  0
LINE
  8
0
  6
CONTINUOUS
 62
     2
 10
46.463422754
 20
87.339250132
 30
0.0
 11
46.463422754
 21
89.53435043
 31
0.0
  0
LINE
  8
0
  6
CONTINUOUS
 62
     2
 10
45.0
 20
86.607538755
 30
0.0
 11
46.1711161
 21
87.193096805
 31
0.0
  0
LINE
  8
0
  6
CONTINUOUS
 62
     2
 10
45.0
 20
90.266061807
 30
0.0
 11
46.463422754
 21
89.53435043
 31
0.0
  0
LINE
  8
0
  6
CONTINUOUS
 62
     2
 10
45.0
 20
90.266061807
 30
0.0
 11
43.536577246
 21
89.53435043
 31
0.0
  0
LINE
  8
0
  6
CONTINUOUS
 62
     2
 10
43.536577246
 20
87.339250132
 30
0.0
 11
45.0
 21
86.607538755
 31
0.0
  0
LINE
  8
0
  6
CONTINUOUS
 62
     2
 10
46.1711161
 20
87.193096805
 30
0.0
 11
46.463422754
 21
87.339250132
 31
0.0
  0
LINE
  8
0
  6
CONTINUOUS
 62
     2
 10
43.536577246
 20
88.853576735
 30
0.0
 11
43.536577246
 21
89.53435043
 31
0.0
  0
ARC
  8
0
  6
CONTINUOUS
 62
     2
 10
45.0
 20
88.436800281
 30
0.0
 40
1.829268398
 50
312.977594566
 51
161.903350148
  0
LINE
  8
0
  6
CONTINUOUS
 62
     2
 10
45.0
 20
87.031973692
 30
0.0
 11
45.0
 21
85.692891075
 31
0.0
  0
ARC
  8
0
  6
CONTINUOUS
 62
     2
 10
45.0
 20
40.487798064
 30
0.0
 40
1.829268398
 50
29.999760993
 51
150.000239008
  0
LINE
  8
0
  6
CONTINUOUS
 62
     2
 10
43.536577246
 20
41.585356671
 30
0.0
 11
43.536577246
 21
41.402425896
 31
0.0
  0
LINE
  8
0
  6
CONTINUOUS
 62
     2
 10
46.463422754
 20
41.585356671
 30
0.0
 11
46.463422754
 21
41.402425896
 31
0.0
  0
LINE
  8
0
  6
CONTINUOUS
 62
     2
 10
45.0
 20
42.317068048
 30
0.0
 11
46.463422754
 21
41.585356671
 31
0.0
  0
LINE
  8
0
  6
CONTINUOUS
 62
     2
 10
45.0
 20
38.658528079
 30
0.0
 11
46.463422754
 21
39.390239456
 31
0.0
  0
LINE
  8
0
  6
CONTINUOUS
 62
     2
 10
45.0
 20
38.658528079
 30
0.0
 11
43.536577246
 21
39.390239456
 31
0.0
  0
LINE
  8
0
  6
CONTINUOUS
 62
     2
 10
43.536577246
 20
41.585356671
 30
0.0
 11
45.0
 21
42.317068048
 31
0.0
  0
LINE
  8
0
  6
CONTINUOUS
 62
     2
 10
42.256090794
 20
40.487798064
 30
0.0
 11
47.743892289
 21
40.487798064
 31
0.0
  0
LINE
  8
0
  6
CONTINUOUS
 62
     2
 10
45.0
 20
43.231698811
 30
0.0
 11
45.0
 21
37.743897316
 31
0.0
  0
LINE
  8
0
  6
CONTINUOUS
 62
     2
 10
46.463422754
 20
40.487796758
 30
0.0
 11
46.463422754
 21
39.390239456
 31
0.0
  0
LINE
  8
0
  6
CONTINUOUS
 62
     2
 10
43.536577246
 20
40.487798064
 30
0.0
 11
43.536577246
 21
39.390239456
 31
0.0
  0
ARC
  8
0
  6
CONTINUOUS
 62
     2
 10
45.0
 20
40.487798064
 30
0.0
 40
1.829268398
 50
180.0
 51
359.999948873
  0
LINE
  8
0
  6
CONTINUOUS
 62
     2
 10
68.780487805
 20
34.999996569
 30
0.0
 11
77.625117092
 21
34.999996569
 31
0.0
  0
LINE
  8
0
  6
CONTINUOUS
 62
     2
 10
70.300090646
 20
64.462299172
 30
0.0
 11
77.625117092
 21
64.462299172
 31
0.0
  0
LINE
  8
0
  6
CONTINUOUS
 62
     2
 10
75.795848799
 20
34.999996569
 30
0.0
 11
75.795848799
 21
64.462299172
 31
0.0
  0
LINE
  8
0
  6
CONTINUOUS
 62
     2
 10
75.795848799
 20
34.999996569
 30
0.0
 11
75.322399327
 21
36.766934056
 31
0.0
  0
LINE
  8
0
  6
CONTINUOUS
 62
     2
 10
75.795848799
 20
34.999996569
 30
0.0
 11
76.269298272
 21
36.766934056
 31
0.0
  0
LINE
  8
0
  6
CONTINUOUS
 62
     2
 10
75.795848799
 20
64.462299172
 30
0.0
 11
75.322399327
 21
62.695361685
 31
0.0
  0
LINE
  8
0
  6
CONTINUOUS
 62
     2
 10
75.795848799
 20
64.462299172
 30
0.0
 11
76.269298272
 21
62.695361685
 31
0.0
  0
LINE
  8
0
  6
CONTINUOUS
 62
     2
 10
68.780487805
 20
34.999996569
 30
0.0
 11
86.840755809
 21
34.999996569
 31
0.0
  0
LINE
  8
0
  6
CONTINUOUS
 62
     2
 10
56.890242211
 20
94.839249455
 30
0.0
 11
86.840755809
 21
94.839249455
 31
0.0
  0
LINE
  8
0
  6
CONTINUOUS
 62
     2
 10
85.011487516
 20
34.999996569
 30
0.0
 11
85.011487516
 21
94.839249455
 31
0.0
  0
LINE
  8
0
  6
CONTINUOUS
 62
     2
 10
85.011487516
 20
34.999996569
 30
0.0
 11
84.538038043
 21
36.766934056
 31
0.0
  0
LINE
  8
0
  6
CONTINUOUS
 62
     2
 10
85.011487516
 20
34.999996569
 30
0.0
 11
85.484936989
 21
36.766934056
 31
0.0
  0
LINE
  8
0
  6
CONTINUOUS
 62
     2
 10
85.011487516
 20
94.839249455
 30
0.0
 11
84.538038043
 21
93.072311968
 31
0.0
  0
LINE
  8
0
  6
CONTINUOUS
 62
     2
 10
85.011487516
 20
94.839249455
 30
0.0
 11
85.484936989
 21
93.072311968
 31
0.0
  0
LINE
  8
0
  6
CONTINUOUS
 62
     2
 10
22.134142958
 20
46.169616245
 30
0.0
 11
14.76691838
 21
46.169616245
 31
0.0
  0
LINE
  8
0
  6
CONTINUOUS
 62
     2
 10
22.134142958
 20
82.754982099
 30
0.0
 11
14.76691838
 21
82.754982099
 31
0.0
  0
LINE
  8
0
  6
CONTINUOUS
 62
     2
 10
16.596186673
 20
46.169616245
 30
0.0
 11
16.596186673
 21
82.754982099
 31
0.0
  0
LINE
  8
0
  6
CONTINUOUS
 62
     2
 10
16.596186673
 20
46.169616245
 30
0.0
 11
16.1227372
 21
47.936553732
 31
0.0
  0
LINE
  8
0
  6
CONTINUOUS
 62
     2
 10
16.596186673
 20
46.169616245
 30
0.0
 11
17.069636146
 21
47.936553732
 31
0.0
  0
LINE
  8
0
  6
CONTINUOUS
 62
     2
 10
16.596186673
 20
82.754982099
 30
0.0
 11
16.1227372
 21
80.988044612
 31
0.0
  0
LINE
  8
0
  6
CONTINUOUS
 62
     2
 10
16.596186673
 20
82.754982099
 30
0.0
 11
17.069636146
 21
80.988044612
 31
0.0
  0
LINE
  8
0
  6
CONTINUOUS
 62
     2
 10
71.631746482
 20
24.294695753
 30
0.0
 11
100.385503443
 21
24.294695753
 31
0.0
  0
LINE
  8
0
  6
LTYPE1
 62
     2
 10
20.698424549
 20
64.462299172
 30
0.0
 11
69.3854565
 21
64.462299172
 31
0.0
  0
LINE
  8
0
  6
LTYPE1
 62
     2
 10
45.0
 20
49.937187564
 30
0.0
 11
45.0
 21
34.2854471
 31
0.0
  0
LINE
  8
0
  6
LTYPE1
 62
     2
 10
55.975602989
 20
40.487798064
 30
0.0
 11
61.463404484
 21
40.487798064
 31
0.0
  0
LINE
  8
0
  6
LTYPE1
 62
     2
 10
58.719512195
 20
43.231698811
 30
0.0
 11
58.719512195
 21
37.743897316
 31
0.0
  0
LINE
  8
0
  6
LTYPE1
 62
     2
 10
28.536582828
 20
40.487798064
 30
0.0
 11
34.024388552
 21
40.487798064
 31
0.0
  0
LINE
  8
0
  6
LTYPE1
 62
     2
 10
31.280483576
 20
43.231698811
 30
0.0
 11
31.280483576
 21
37.743897316
 31
0.0
  0
LINE
  8
0
  6
LTYPE1
 62
     2
 10
45.0
 20
91.180709486
 30
0.0
 11
45.0
 21
88.048773521
 31
0.0
  0
LINE
  8
0
  6
LTYPE1
 62
     2
 10
42.842758848
 20
88.436800281
 30
0.0
 11
47.286585366
 21
88.436800281
 31
0.0
  0
LINE
  8
0
  6
LTYPE1
 62
     2
 10
45.0
 20
95.3695685
 30
0.0
 11
45.0
 21
58.70095063
 31
0.0
  0
TEXT
  8
0
  6
CONTINUOUS
 62
     2
 10
84.261487516
 20
94.422276973
 30
0.0
 40
4.0
  1
２２
 50
90.0
 41
0.75
 51
0.0
  7
KANJI5
  0
TEXT
  8
0
  6
CONTINUOUS
 62
     2
 10
84.261487516
 20
66.179510402
 30
0.0
 40
4.0
  1
ｈ
 50
90.0
 41
0.75
 51
0.0
  7
KANJI5
  0
TEXT
  8
0
  6
CONTINUOUS
 62
     2
 10
94.499002461
 20
66.179510402
 30
0.0
 40
4.0
  1
Ｈ
 50
90.0
 41
0.75
 51
0.0
  7
KANJI5
  0
TEXT
  8
0
  6
CONTINUOUS
 62
     2
 10
75.045848799
 20
48.247132821
 30
0.0
 40
4.0
  1
Ｄ
 50
90.0
 41
0.75
 51
0.0
  7
KANJI5
  0
TEXT
  8
0
  6
CONTINUOUS
 62
     2
 10
43.515984951
 20
24.979110027
 30
0.0
 40
4.0
  1
Ｃ
 50
0.0
 41
0.75
 51
0.0
  7
KANJI5
  0
TEXT
  8
0
  6
CONTINUOUS
 62
     2
 10
72.024984951
 20
25.044695753
 30
0.0
 40
4.0
  1
４－１２×１８長穴
 50
0.0
 41
0.75
 51
0.0
  7
KANJI5
  0
TEXT
  8
0
  6
CONTINUOUS
 62
     2
 10
46.650984951
 20
26.384610027
 30
0.0
 40
3.0
  1
±２
 50
0.0
 41
0.666666667
 51
0.0
  7
KANJI6
  0
TEXT
  8
0
  6
CONTINUOUS
 62
     2
 10
43.515984951
 20
52.227729428
 30
0.0
 40
4.0
  1
Ｅ
 50
0.0
 41
0.75
 51
0.0
  7
KANJI5
  0
TEXT
  8
0
  6
CONTINUOUS
 62
     2
 10
40.166484951
 20
56.549610027
 30
0.0
 40
3.0
  1
Ｍｉｎ
 50
0.0
 41
0.666666667
 51
0.0
  7
KANJI6
  0
LINE
  8
0
  6
CONTINUOUS
 62
     2
 10
51.402445791
 20
100.327054333
 30
0.0
 11
51.402445791
 21
98.040462201
 31
0.0
  0
LINE
  8
0
  6
CONTINUOUS
 62
     2
 10
50.030491188
 20
100.327054333
 30
0.0
 11
50.030491188
 21
98.040462201
 31
0.0
  0
LINE
  8
0
  6
CONTINUOUS
 62
     2
 10
51.402445791
 20
100.327054333
 30
0.0
 11
50.030491188
 21
100.327054333
 31
0.0
  0
LINE
  8
0
  6
CONTINUOUS
 62
     2
 10
38.597554209
 20
100.327054333
 30
0.0
 11
38.597554209
 21
98.040462201
 31
0.0
  0
LINE
  8
0
  6
CONTINUOUS
 62
     2
 10
39.969508812
 20
100.327054333
 30
0.0
 11
39.969508812
 21
98.040462201
 31
0.0
  0
LINE
  8
0
  6
CONTINUOUS
 62
     2
 10
38.597554209
 20
100.327054333
 30
0.0
 11
39.969508812
 21
100.327054333
 31
0.0
  0
LINE
  8
0
  6
LTYPE1
 62
     2
 10
50.716460031
 20
102.315690697
 30
0.0
 11
50.716460031
 21
88.665462201
 31
0.0
  0
LINE
  8
0
  6
LTYPE1
 62
     2
 10
39.283539969
 20
102.315690697
 30
0.0
 11
39.283539969
 21
88.665462201
 31
0.0
  0
TEXT
  8
0
  6
CONTINUOUS
 62
     2
 10
15.846186673
 20
63.095631496
 30
0.0
 40
4.0
  1
Ｆ
 50
90.0
 41
0.75
 51
0.0
  7
KANJI5
  0
TEXT
  8
2
  6
CONTINUOUS
 62
     2
 10
189.271
 20
73.592
 30
0.27
 40
2.7
  1
５Ａ　又は　１Ａ
 50
0.0
 41
0.9
 51
0.0
  7
KANJI2
  0
LINE
  8
0
  6
CONTINUOUS
 62
     2
 10
116.768297758
 20
82.75498553
 30
0.0
 11
133.231693784
 21
82.75498553
 31
0.0
  0
LINE
  8
0
  6
CONTINUOUS
 62
     2
 10
133.231693784
 20
82.75498553
 30
0.0
 11
133.231693784
 21
46.169619677
 31
0.0
  0
LINE
  8
0
  6
CONTINUOUS
 62
     2
 10
133.231693784
 20
46.169619677
 30
0.0
 11
116.768297758
 21
46.169619677
 31
0.0
  0
LINE
  8
0
  6
CONTINUOUS
 62
     2
 10
116.768297758
 20
46.169619677
 30
0.0
 11
116.768297758
 21
82.75498553
 31
0.0
  0
LINE
  8
0
  6
CONTINUOUS
 62
     2
 10
131.402432258
 20
42.774386861
 30
0.0
 11
131.859722264
 21
42.774386861
 31
0.0
  0
LINE
  8
0
  6
CONTINUOUS
 62
     2
 10
131.859722264
 20
42.774386861
 30
0.0
 11
131.859722264
 21
38.201216129
 31
0.0
  0
LINE
  8
0
  6
CONTINUOUS
 62
     2
 10
131.859722264
 20
38.201216129
 30
0.0
 11
131.402432258
 21
38.201216129
 31
0.0
  0
LINE
  8
0
  6
CONTINUOUS
 62
     2
 10
131.859722264
 20
42.317071479
 30
0.0
 11
133.231693784
 21
42.317071479
 31
0.0
  0
LINE
  8
0
  6
CONTINUOUS
 62
     2
 10
133.231693784
 20
42.317071479
 30
0.0
 11
133.231693784
 21
38.65853151
 31
0.0
  0
LINE
  8
0
  6
CONTINUOUS
 62
     2
 10
133.231693784
 20
38.65853151
 30
0.0
 11
131.859722264
 21
38.65853151
 31
0.0
  0
LINE
  8
0
  6
CONTINUOUS
 62
     2
 10
134.004038876
 20
41.402432258
 30
0.0
 11
131.859722264
 21
41.402432258
 31
0.0
  0
LINE
  8
0
  6
CONTINUOUS
 62
     2
 10
134.004038876
 20
39.573170732
 30
0.0
 11
131.859722264
 21
39.573170732
 31
0.0
  0
LINE
  8
0
  6
CONTINUOUS
 62
     2
 10
131.786743976
 20
46.169619677
 30
0.0
 11
131.786743976
 21
44.603648387
 31
0.0
  0
LINE
  8
0
  6
CONTINUOUS
 62
     2
 10
119.512206964
 20
46.169619677
 30
0.0
 11
119.512206964
 21
35.0
 31
0.0
  0
LINE
  8
0
  6
CONTINUOUS
 62
     2
 10
118.597559284
 20
42.774386861
 30
0.0
 11
118.140235444
 21
42.774386861
 31
0.0
  0
LINE
  8
0
  6
CONTINUOUS
 62
     2
 10
118.140235444
 20
42.774386861
 30
0.0
 11
118.140235444
 21
38.201216129
 31
0.0
  0
LINE
  8
0
  6
CONTINUOUS
 62
     2
 10
118.140235444
 20
38.201216129
 30
0.0
 11
118.597559284
 21
38.201216129
 31
0.0
  0
LINE
  8
0
  6
CONTINUOUS
 62
     2
 10
118.140235444
 20
42.317071479
 30
0.0
 11
116.768297758
 21
42.317071479
 31
0.0
  0
LINE
  8
0
  6
CONTINUOUS
 62
     2
 10
116.768297758
 20
42.317071479
 30
0.0
 11
116.768297758
 21
38.65853151
 31
0.0
  0
LINE
  8
0
  6
CONTINUOUS
 62
     2
 10
116.768297758
 20
38.65853151
 30
0.0
 11
118.140235444
 21
38.65853151
 31
0.0
  0
LINE
  8
0
  6
CONTINUOUS
 62
     2
 10
118.140235444
 20
41.402432258
 30
0.0
 11
116.768297758
 21
41.402432258
 31
0.0
  0
LINE
  8
0
  6
CONTINUOUS
 62
     2
 10
118.140235444
 20
39.573170732
 30
0.0
 11
116.768297758
 21
39.573170732
 31
0.0
  0
LINE
  8
0
  6
CONTINUOUS
 62
     2
 10
118.597559284
 20
43.231707317
 30
0.0
 11
118.597559284
 21
36.829261526
 31
0.0
  0
LINE
  8
0
  6
CONTINUOUS
 62
     2
 10
112.192634182
 20
35.914630763
 30
0.0
 11
117.682911604
 21
35.914630763
 31
0.0
  0
ARC
  8
0
  6
CONTINUOUS
 62
     2
 10
117.682911604
 20
36.829261526
 30
0.0
 40
0.914634199
 50
270.0
 51
0.0
  0
LINE
  8
0
  6
CONTINUOUS
 62
     2
 10
111.280487805
 20
35.0
 30
0.0
 11
118.597559284
 21
35.0
 31
0.0
  0
LINE
  8
0
  6
CONTINUOUS
 62
     2
 10
131.402432258
 20
43.235225551
 30
0.0
 11
131.402432258
 21
36.829261526
 31
0.0
  0
LINE
  8
0
  6
CONTINUOUS
 62
     2
 10
137.807365818
 20
35.914630763
 30
0.0
 11
132.317046104
 21
35.914630763
 31
0.0
  0
ARC
  8
0
  6
CONTINUOUS
 62
     2
 10
132.317046104
 20
36.829261526
 30
0.0
 40
0.914634199
 50
180.0
 51
270.0
  0
LINE
  8
0
  6
CONTINUOUS
 62
     2
 10
130.487784578
 20
46.169611218
 30
0.0
 11
130.487784578
 21
35.0
 31
0.0
  0
LINE
  8
0
  6
CONTINUOUS
 62
     2
 10
138.719512195
 20
35.0
 30
0.0
 11
118.597559284
 21
35.0
 31
0.0
  0
LINE
  8
0
  6
CONTINUOUS
 62
     2
 10
117.561771706
 20
46.169611218
 30
0.0
 11
116.791270525
 21
42.317063021
 31
0.0
  0
LINE
  8
0
  6
CONTINUOUS
 62
     2
 10
118.420171632
 20
46.169611218
 30
0.0
 11
117.649670451
 21
42.317063021
 31
0.0
  0
LINE
  8
0
  6
CONTINUOUS
 62
     2
 10
118.597559284
 20
86.150218346
 30
0.0
 11
118.140235444
 21
86.150218346
 31
0.0
  0
LINE
  8
0
  6
CONTINUOUS
 62
     2
 10
118.140235444
 20
86.150218346
 30
0.0
 11
118.140235444
 21
90.723389078
 31
0.0
  0
LINE
  8
0
  6
CONTINUOUS
 62
     2
 10
118.140235444
 20
90.723389078
 30
0.0
 11
118.597559284
 21
90.723389078
 31
0.0
  0
LINE
  8
0
  6
CONTINUOUS
 62
     2
 10
118.140235444
 20
86.607542186
 30
0.0
 11
116.768297758
 21
86.607542186
 31
0.0
  0
LINE
  8
0
  6
CONTINUOUS
 62
     2
 10
116.768297758
 20
86.607542186
 30
0.0
 11
116.768297758
 21
90.266065238
 31
0.0
  0
LINE
  8
0
  6
CONTINUOUS
 62
     2
 10
116.768297758
 20
90.266065238
 30
0.0
 11
118.140235444
 21
90.266065238
 31
0.0
  0
LINE
  8
0
  6
CONTINUOUS
 62
     2
 10
118.140235444
 20
87.522172949
 30
0.0
 11
116.768297758
 21
87.522172949
 31
0.0
  0
LINE
  8
0
  6
CONTINUOUS
 62
     2
 10
118.140235444
 20
89.351451392
 30
0.0
 11
116.768297758
 21
89.351451392
 31
0.0
  0
LINE
  8
0
  6
CONTINUOUS
 62
     2
 10
131.402432258
 20
86.150218346
 30
0.0
 11
131.859722264
 21
86.150218346
 31
0.0
  0
LINE
  8
0
  6
CONTINUOUS
 62
     2
 10
131.859722264
 20
86.150218346
 30
0.0
 11
131.859722264
 21
90.723389078
 31
0.0
  0
LINE
  8
0
  6
CONTINUOUS
 62
     2
 10
131.859722264
 20
90.723389078
 30
0.0
 11
131.402432258
 21
90.723389078
 31
0.0
  0
LINE
  8
0
  6
CONTINUOUS
 62
     2
 10
131.859722264
 20
86.607542186
 30
0.0
 11
133.231693784
 21
86.607542186
 31
0.0
  0
LINE
  8
0
  6
CONTINUOUS
 62
     2
 10
133.231693784
 20
86.607542186
 30
0.0
 11
133.231693784
 21
90.266065238
 31
0.0
  0
LINE
  8
0
  6
CONTINUOUS
 62
     2
 10
133.231693784
 20
90.266065238
 30
0.0
 11
131.859722264
 21
90.266065238
 31
0.0
  0
LINE
  8
0
  6
CONTINUOUS
 62
     2
 10
131.859722264
 20
87.522172949
 30
0.0
 11
134.004038876
 21
87.522172949
 31
0.0
  0
LINE
  8
0
  6
CONTINUOUS
 62
     2
 10
131.859722264
 20
89.351451392
 30
0.0
 11
134.004038876
 21
89.351451392
 31
0.0
  0
LINE
  8
0
  6
CONTINUOUS
 62
     2
 10
113.959623282
 20
37.099436826
 30
0.0
 11
113.959623282
 21
34.882141925
 31
0.0
  0
LINE
  8
0
  6
CONTINUOUS
 62
     2
 10
136.132555367
 20
37.099436826
 30
0.0
 11
136.132555367
 21
34.882141925
 31
0.0
  0
LINE
  8
0
  6
CONTINUOUS
 62
     2
 10
120.017337165
 20
82.75498553
 30
0.0
 11
120.017337165
 21
88.852546506
 31
0.0
  0
LINE
  8
0
  6
CONTINUOUS
 62
     2
 10
120.57166089
 20
82.75498553
 30
0.0
 11
120.57166089
 21
87.743899056
 31
0.0
  0
LINE
  8
0
  6
CONTINUOUS
 62
     2
 10
121.125993073
 20
82.75498553
 30
0.0
 11
121.125993073
 21
86.635251606
 31
0.0
  0
LINE
  8
0
  6
CONTINUOUS
 62
     2
 10
121.680316798
 20
82.75498553
 30
0.0
 11
121.680316798
 21
84.97228043
 31
0.0
  0
LINE
  8
0
  6
CONTINUOUS
 62
     2
 10
118.382633658
 20
82.75498553
 30
0.0
 11
118.079961536
 21
85.166280201
 31
0.0
  0
LINE
  8
0
  6
CONTINUOUS
 62
     2
 10
130.487784578
 20
44.603648387
 30
0.0
 11
131.786743976
 21
44.603648387
 31
0.0
  0
LINE
  8
0
  6
CONTINUOUS
 62
     2
 10
120.066513772
 20
41.457868014
 30
0.0
 11
120.066513772
 21
35.0
 31
0.0
  0
LINE
  8
0
  6
CONTINUOUS
 62
     2
 10
120.620837497
 20
40.349220563
 30
0.0
 11
120.620837497
 21
35.0
 31
0.0
  0
LINE
  8
0
  6
CONTINUOUS
 62
     2
 10
121.175152764
 20
39.240573113
 30
0.0
 11
121.175152764
 21
35.0
 31
0.0
  0
LINE
  8
0
  6
CONTINUOUS
 62
     2
 10
121.729476489
 20
38.131925663
 30
0.0
 11
121.729476489
 21
35.0
 31
0.0
  0
LINE
  8
0
  6
CONTINUOUS
 62
     2
 10
130.044332365
 20
41.457868014
 30
0.0
 11
130.044332365
 21
46.169611218
 31
0.0
  0
LINE
  8
0
  6
CONTINUOUS
 62
     2
 10
129.49000864
 20
46.169611218
 30
0.0
 11
129.49000864
 21
42.566515464
 31
0.0
  0
LINE
  8
0
  6
CONTINUOUS
 62
     2
 10
128.935684915
 20
46.169611218
 30
0.0
 11
128.935684915
 21
43.675162914
 31
0.0
  0
LINE
  8
0
  6
CONTINUOUS
 62
     2
 10
128.38136119
 20
46.169611218
 30
0.0
 11
128.38136119
 21
44.783810364
 31
0.0
  0
LINE
  8
0
  6
CONTINUOUS
 62
     2
 10
118.213256024
 20
45.135021821
 30
0.0
 11
118.213256024
 21
44.603648387
 31
0.0
  0
LINE
  8
0
  6
CONTINUOUS
 62
     2
 10
119.512215422
 20
44.603648387
 30
0.0
 11
118.213256024
 21
44.603648387
 31
0.0
  0
LINE
  8
0
  6
CONTINUOUS
 62
     2
 10
131.786743976
 20
82.75498553
 30
0.0
 11
131.786743976
 21
84.32095682
 31
0.0
  0
LINE
  8
0
  6
CONTINUOUS
 62
     2
 10
130.487784578
 20
84.32095682
 30
0.0
 11
131.786743976
 21
84.32095682
 31
0.0
  0
LINE
  8
0
  6
CONTINUOUS
 62
     2
 10
119.512215422
 20
84.32095682
 30
0.0
 11
118.213256024
 21
84.32095682
 31
0.0
  0
LINE
  8
0
  6
CONTINUOUS
 62
     2
 10
118.213256024
 20
83.789583386
 30
0.0
 11
118.213256024
 21
84.32095682
 31
0.0
  0
LINE
  8
0
  6
CONTINUOUS
 62
     2
 10
134.004038876
 20
89.351451392
 30
0.0
 11
134.004038876
 21
87.522172949
 31
0.0
  0
LINE
  8
0
  6
CONTINUOUS
 62
     2
 10
134.004038876
 20
39.573153815
 30
0.0
 11
134.004038876
 21
41.402432258
 31
0.0
  0
LINE
  8
0
  6
CONTINUOUS
 62
     2
 10
117.460822212
 20
82.75498553
 30
0.0
 11
117.23675798
 21
84.540035588
 31
0.0
  0
ARC
  8
0
  6
CONTINUOUS
 62
     2
 10
130.487804878
 20
85.69289789
 30
0.0
 40
0.914634146
 50
270.0
 51
0.0
  0
ARC
  8
0
  6
CONTINUOUS
 62
     2
 10
119.512195122
 20
85.69289789
 30
0.0
 40
0.914634146
 50
180.0
 51
270.0
  0
ARC
  8
0
  6
CONTINUOUS
 62
     2
 10
137.804878049
 20
35.0
 30
0.0
 40
0.914634146
 50
0.0
 51
90.0
  0
ARC
  8
0
  6
CONTINUOUS
 62
     2
 10
130.487804878
 20
43.231707317
 30
0.0
 40
0.914634146
 50
0.0
 51
90.0
  0
ARC
  8
0
  6
CONTINUOUS
 62
     2
 10
112.195121951
 20
35.0
 30
0.0
 40
0.914634146
 50
90.0
 51
180.0
  0
ARC
  8
0
  6
CONTINUOUS
 62
     2
 10
119.512195122
 20
43.231707317
 30
0.0
 40
0.914634146
 50
90.0
 51
180.0
  0
LINE
  8
0
  6
LTYPE1
 62
     2
 10
113.542391826
 20
64.462302603
 30
0.0
 11
135.672863201
 21
64.462302603
 31
0.0
  0
LINE
  8
0
  6
LTYPE1
 62
     2
 10
114.939036232
 20
88.436803712
 30
0.0
 11
120.42682081
 21
88.436803712
 31
0.0
  0
LINE
  8
0
  6
LTYPE1
 62
     2
 10
129.573136898
 20
88.436803712
 30
0.0
 11
134.14630763
 21
88.436803712
 31
0.0
  0
LINE
  8
0
  6
LTYPE1
 62
     2
 10
114.939036232
 20
40.487801495
 30
0.0
 11
120.42682081
 21
40.487801495
 31
0.0
  0
LINE
  8
0
  6
LTYPE1
 62
     2
 10
129.573136898
 20
40.487801495
 30
0.0
 11
134.14630763
 21
40.487801495
 31
0.0
  0
LINE
  8
0
  6
CONTINUOUS
 62
     2
 10
113.959623282
 20
33.773494475
 30
0.0
 11
113.959623282
 21
26.585158388
 31
0.0
  0
LINE
  8
0
  6
CONTINUOUS
 62
     2
 10
136.132555367
 20
33.773494475
 30
0.0
 11
136.132555367
 21
26.585158388
 31
0.0
  0
LINE
  8
0
  6
CONTINUOUS
 62
     2
 10
113.959623282
 20
28.0
 30
0.0
 11
136.132555367
 21
28.0
 31
0.0
  0
LINE
  8
0
  6
CONTINUOUS
 62
     2
 10
113.959623282
 20
28.0
 30
0.0
 11
115.726560769
 21
28.473449473
 31
0.0
  0
LINE
  8
0
  6
CONTINUOUS
 62
     2
 10
113.959623282
 20
28.0
 30
0.0
 11
115.726560769
 21
27.526550527
 31
0.0
  0
LINE
  8
0
  6
CONTINUOUS
 62
     2
 10
136.132555367
 20
28.0
 30
0.0
 11
134.36561788
 21
28.473449473
 31
0.0
  0
LINE
  8
0
  6
CONTINUOUS
 62
     2
 10
136.132555367
 20
28.0
 30
0.0
 11
134.36561788
 21
27.526550527
 31
0.0
  0
LINE
  8
0
  6
CONTINUOUS
 62
     2
 10
111.280487805
 20
34.085365854
 30
0.0
 11
111.280487805
 21
21.170731707
 31
0.0
  0
LINE
  8
0
  6
CONTINUOUS
 62
     2
 10
138.719512195
 20
34.085365854
 30
0.0
 11
138.719512195
 21
21.170731707
 31
0.0
  0
LINE
  8
0
  6
CONTINUOUS
 62
     2
 10
111.280487805
 20
23.0
 30
0.0
 11
138.719512195
 21
23.0
 31
0.0
  0
LINE
  8
0
  6
CONTINUOUS
 62
     2
 10
111.280487805
 20
23.0
 30
0.0
 11
113.047425292
 21
23.473449473
 31
0.0
  0
LINE
  8
0
  6
CONTINUOUS
 62
     2
 10
111.280487805
 20
23.0
 30
0.0
 11
113.047425292
 21
22.526550527
 31
0.0
  0
LINE
  8
0
  6
CONTINUOUS
 62
     2
 10
138.719512195
 20
23.0
 30
0.0
 11
136.952574708
 21
23.473449473
 31
0.0
  0
LINE
  8
0
  6
CONTINUOUS
 62
     2
 10
138.719512195
 20
23.0
 30
0.0
 11
136.952574708
 21
22.526550527
 31
0.0
  0
TEXT
  8
0
  6
CONTINUOUS
 62
     2
 10
122.011954853
 20
28.75
 30
0.0
 40
4.0
  1
９０
 50
0.0
 41
0.75
 51
0.0
  7
KANJI5
  0
TEXT
  8
0
  6
CONTINUOUS
 62
     2
 10
120.6965
 20
23.75
 30
0.0
 40
4.0
  1
１２０
 50
0.0
 41
0.75
 51
0.0
  7
KANJI5
  0
TEXT
  8
0
  6
CONTINUOUS
 62
     2
 10
128.119484951
 20
30.1555
 30
0.0
 40
3.0
  1
±２
 50
0.0
 41
0.666666667
 51
0.0
  7
KANJI6
  0
LINE
  8
0
  6
CONTINUOUS
 62
     2
 10
107.164623996
 20
94.839252886
 30
0.0
 11
107.164623996
 21
96.668514412
 31
0.0
  0
LINE
  8
0
  6
CONTINUOUS
 62
     2
 10
107.164623996
 20
96.668514412
 30
0.0
 11
107.164623996
 21
97.583141792
 31
0.0
  0
LINE
  8
0
  6
CONTINUOUS
 62
     2
 10
107.164623996
 20
97.583141792
 30
0.0
 11
104.420731707
 21
97.583141792
 31
0.0
  0
LINE
  8
0
  6
CONTINUOUS
 62
     2
 10
107.164623996
 20
98.040465632
 30
0.0
 11
107.164623996
 21
99.412410085
 31
0.0
  0
LINE
  8
0
  6
CONTINUOUS
 62
     2
 10
107.621947836
 20
98.040465632
 30
0.0
 11
104.420731707
 21
98.040465632
 31
0.0
  0
LINE
  8
0
  6
CONTINUOUS
 62
     2
 10
107.621947836
 20
97.583141792
 30
0.0
 11
107.164623996
 21
97.583141792
 31
0.0
  0
LINE
  8
0
  6
CONTINUOUS
 62
     2
 10
107.621947836
 20
98.040465632
 30
0.0
 11
107.621947836
 21
97.583141792
 31
0.0
  0
LINE
  8
0
  6
CONTINUOUS
 62
     2
 10
104.420731707
 20
98.040465632
 30
0.0
 11
104.420731707
 21
97.583141792
 31
0.0
  0
LINE
  8
0
  6
CONTINUOUS
 62
     2
 10
107.164623996
 20
99.412410085
 30
0.0
 11
104.878038631
 21
99.412410085
 31
0.0
  0
LINE
  8
0
  6
CONTINUOUS
 62
     2
 10
107.164623996
 20
96.211197339
 30
0.0
 11
104.878038631
 21
96.211197339
 31
0.0
  0
LINE
  8
0
  6
CONTINUOUS
 62
     2
 10
104.878038631
 20
99.412410085
 30
0.0
 11
104.878038631
 21
98.040465632
 31
0.0
  0
LINE
  8
0
  6
CONTINUOUS
 62
     2
 10
104.878038631
 20
97.583141792
 30
0.0
 11
104.878038631
 21
94.839252886
 31
0.0
  0
LINE
  8
0
  6
CONTINUOUS
 62
     2
 10
106.707317073
 20
97.583141792
 30
0.0
 11
106.707317073
 21
94.839252886
 31
0.0
  0
LINE
  8
0
  6
CONTINUOUS
 62
     2
 10
105.33536247
 20
97.583141792
 30
0.0
 11
105.33536247
 21
94.839252886
 31
0.0
  0
LINE
  8
0
  6
CONTINUOUS
 62
     2
 10
114.939036232
 20
93.009974444
 30
0.0
 11
114.939036232
 21
94.839252886
 31
0.0
  0
LINE
  8
0
  6
CONTINUOUS
 62
     2
 10
114.939036232
 20
94.839252886
 30
0.0
 11
103.963407867
 21
94.839252886
 31
0.0
  0
LINE
  8
0
  6
CONTINUOUS
 62
     2
 10
103.963407867
 20
94.839252886
 30
0.0
 11
103.963407867
 21
93.009974444
 31
0.0
  0
LINE
  8
0
  6
CONTINUOUS
 62
     2
 10
103.963407867
 20
93.009974444
 30
0.0
 11
111.280487805
 21
93.009974444
 31
0.0
  0
LINE
  8
0
  6
CONTINUOUS
 62
     2
 10
107.163642833
 20
92.552650604
 30
0.0
 11
107.163642833
 21
91.180712918
 31
0.0
  0
LINE
  8
0
  6
CONTINUOUS
 62
     2
 10
104.877057467
 20
92.552650604
 30
0.0
 11
104.877057467
 21
91.180712918
 31
0.0
  0
LINE
  8
0
  6
CONTINUOUS
 62
     2
 10
107.163642833
 20
91.180712918
 30
0.0
 11
104.877057467
 21
91.180712918
 31
0.0
  0
LINE
  8
0
  6
CONTINUOUS
 62
     2
 10
107.163642833
 20
92.552650604
 30
0.0
 11
104.877057467
 21
92.552650604
 31
0.0
  0
LINE
  8
0
  6
CONTINUOUS
 62
     2
 10
104.877057467
 20
92.552650604
 30
0.0
 11
104.877074383
 21
93.009974444
 31
0.0
  0
LINE
  8
0
  6
CONTINUOUS
 62
     2
 10
107.163642833
 20
92.552650604
 30
0.0
 11
107.163659749
 21
93.009974444
 31
0.0
  0
LINE
  8
0
  6
CONTINUOUS
 62
     2
 10
106.707317073
 20
91.180712918
 30
0.0
 11
106.707317073
 21
91.194939793
 31
0.0
  0
LINE
  8
0
  6
CONTINUOUS
 62
     2
 10
114.481712392
 20
94.839252886
 30
0.0
 11
114.481712392
 21
95.29655981
 31
0.0
  0
LINE
  8
0
  6
CONTINUOUS
 62
     2
 10
114.481712392
 20
95.29655981
 30
0.0
 11
111.737794728
 21
95.29655981
 31
0.0
  0
LINE
  8
0
  6
CONTINUOUS
 62
     2
 10
111.737794728
 20
95.29655981
 30
0.0
 11
111.737794728
 21
94.839252886
 31
0.0
  0
ARC
  8
0
  6
CONTINUOUS
 62
     2
 10
113.109749331
 20
95.29655981
 30
0.0
 40
1.371951299
 50
0.0
 51
180.0
  0
LINE
  8
0
  6
CONTINUOUS
 62
     2
 10
105.595353966
 20
101.895546247
 30
0.0
 11
103.429750146
 21
105.439256995
 31
0.0
  0
LINE
  8
0
  6
CONTINUOUS
 62
     2
 10
105.595353966
 20
101.895546247
 30
0.0
 11
104.269997835
 21
103.15636091
 31
0.0
  0
LINE
  8
0
  6
CONTINUOUS
 62
     2
 10
105.595353966
 20
101.895546247
 30
0.0
 11
105.077969219
 21
103.65012184
 31
0.0
  0
LINE
  8
0
  6
CONTINUOUS
 62
     2
 10
130.487784578
 20
93.009974444
 30
0.0
 11
130.487784578
 21
82.75498553
 31
0.0
  0
LINE
  8
0
  6
CONTINUOUS
 62
     2
 10
119.512206964
 20
93.009974444
 30
0.0
 11
119.512206964
 21
82.75498553
 31
0.0
  0
LINE
  8
0
  6
CONTINUOUS
 62
     2
 10
129.995172674
 20
93.009974444
 30
0.0
 11
129.995172674
 21
87.743899056
 31
0.0
  0
LINE
  8
0
  6
CONTINUOUS
 62
     2
 10
129.440848949
 20
93.009974444
 30
0.0
 11
129.440848949
 21
88.852546506
 31
0.0
  0
LINE
  8
0
  6
CONTINUOUS
 62
     2
 10
128.886525224
 20
93.009974444
 30
0.0
 11
128.886525224
 21
89.961193956
 31
0.0
  0
LINE
  8
0
  6
CONTINUOUS
 62
     2
 10
128.332201499
 20
93.009974444
 30
0.0
 11
128.332201499
 21
91.069841406
 31
0.0
  0
LINE
  8
0
  6
CONTINUOUS
 62
     2
 10
106.707317073
 20
92.552650604
 30
0.0
 11
106.707317073
 21
91.180712918
 31
0.0
  0
LINE
  8
0
  6
CONTINUOUS
 62
     2
 10
105.33536247
 20
92.552650604
 30
0.0
 11
105.33536247
 21
91.180712918
 31
0.0
  0
LINE
  8
0
  6
CONTINUOUS
 62
     2
 10
137.807365818
 20
92.095343681
 30
0.0
 11
132.317046104
 21
92.095343681
 31
0.0
  0
ARC
  8
0
  6
CONTINUOUS
 62
     2
 10
132.317046104
 20
91.180712918
 30
0.0
 40
0.914634199
 50
90.0
 51
180.0
  0
LINE
  8
0
  6
CONTINUOUS
 62
     2
 10
138.719512195
 20
93.009974444
 30
0.0
 11
118.597567742
 21
93.009974444
 31
0.0
  0
LINE
  8
0
  6
CONTINUOUS
 62
     2
 10
131.402432258
 20
85.689379656
 30
0.0
 11
131.402432258
 21
91.180712918
 31
0.0
  0
LINE
  8
0
  6
CONTINUOUS
 62
     2
 10
112.192634182
 20
92.095343681
 30
0.0
 11
117.682953896
 21
92.095343681
 31
0.0
  0
ARC
  8
0
  6
CONTINUOUS
 62
     2
 10
117.682953896
 20
91.180712918
 30
0.0
 40
0.914634199
 50
0.0
 51
90.0
  0
LINE
  8
0
  6
CONTINUOUS
 62
     2
 10
111.280487805
 20
93.009974444
 30
0.0
 11
118.597567742
 21
93.009974444
 31
0.0
  0
LINE
  8
0
  6
CONTINUOUS
 62
     2
 10
118.597567742
 20
85.689379656
 30
0.0
 11
118.597567742
 21
91.180712918
 31
0.0
  0
LINE
  8
0
  6
CONTINUOUS
 62
     2
 10
106.478648387
 20
91.180712918
 30
0.0
 11
106.478648387
 21
90.681377064
 31
0.0
  0
LINE
  8
0
  6
CONTINUOUS
 62
     2
 10
105.56401424
 20
91.180712918
 30
0.0
 11
105.56401424
 21
90.660370989
 31
0.0
  0
ARC
  8
0
  6
CONTINUOUS
 62
     2
 10
108.307916679
 20
90.681377064
 30
0.0
 40
1.829268293
 50
180.0
 51
248.198745437
  0
ARC
  8
0
  6
CONTINUOUS
 62
     2
 10
137.804878049
 20
93.009974444
 30
0.0
 40
0.914634146
 50
270.0
 51
0.0
  0
ARC
  8
0
  6
CONTINUOUS
 62
     2
 10
112.195121951
 20
93.009974444
 30
0.0
 40
0.914634146
 50
180.0
 51
270.0
  0
LINE
  8
0
  6
LTYPE1
 62
     2
 10
106.021331313
 20
102.156315907
 30
0.0
 11
106.021331313
 21
91.180696001
 31
0.0
  0
LINE
  8
0
  6
LTYPE1
 62
     2
 10
113.109749331
 20
96.668514412
 30
0.0
 11
113.109749331
 21
91.180712918
 31
0.0
  0
LINE
  8
0
  6
LTYPE1
 62
     2
 10
125.0
 20
94.053070001
 30
0.0
 11
125.0
 21
32.933555575
 31
0.0
  0
ARC
  8
0
  6
CONTINUOUS
 62
     2
 10
116.32924525
 20
84.426122176
 30
0.0
 40
0.914634146
 50
7.154499968
 51
64.513176743
  0
LINE
  8
0
  6
CONTINUOUS
 62
     2
 10
116.722815534
 20
85.251748031
 30
0.0
 11
107.720993822
 21
87.979975094
 31
0.0
  0
ARC
  8
0
  6
CONTINUOUS
 62
     2
 10
108.307916679
 20
90.660370989
 30
0.0
 40
2.743902439
 50
180.0
 51
257.648953824
  0
ARC
  8
0
  6
CONTINUOUS
 62
     2
 10
116.768297758
 20
84.764036868
 30
0.0
 40
1.371951299
 50
17.049020767
 51
69.10612914
  0
LINE
  8
0
  6
CONTINUOUS
 62
     2
 10
117.25758781
 20
86.045772258
 30
0.0
 11
107.591467625
 21
88.975331577
 31
0.0
  0
LINE
  8
0
  6
CONTINUOUS
 62
     2
 10
106.707317073
 20
100.327057764
 30
0.0
 11
106.707317073
 21
98.040465632
 31
0.0
  0
LINE
  8
0
  6
CONTINUOUS
 62
     2
 10
105.33536247
 20
100.327057764
 30
0.0
 11
105.33536247
 21
98.040465632
 31
0.0
  0
LINE
  8
0
  6
CONTINUOUS
 62
     2
 10
106.707317073
 20
100.327057764
 30
0.0
 11
105.33536247
 21
100.327057764
 31
0.0
  0
TEXT
  8
0
  6
CONTINUOUS
 62
     2
 10
103.822988614
 20
106.189256995
 30
0.0
 40
4.0
  1
２－Ｍ５ネジ
 50
0.0
 41
0.75
 51
0.0
  7
KANJI5
  0
LINE
  8
0
  6
CONTINUOUS
 62
     2
 10
103.429750146
 20
105.439256995
 30
0.0
 11
122.262413545
 21
105.439256995
 31
0.0
  0
TEXT
  8
0
  6
CONTINUOUS
 62
     1
 10
235.0
 20
40.0
 30
0.4
 40
4.0
  1
ＣＤ－１ＣＮＴ
 50
0.0
 41
0.9
 51
0.0
  7
KANJI7
  0
TEXT
  8
0
  6
CONTINUOUS
 62
     1
 10
235.0
 20
30.0
 30
0.1
 40
4.0
  1
貫通形（縦バー）変流器　外形図
 50
0.0
 41
0.875
 51
0.0
  7
KANJI8
  0
ENDSEC
  0
EOF
