  0
SECTION
  2
HEADER
  9
$ACADVER
  1
AC1009
  9
$INSBASE
 10
0
 20
0
 30
0
  9
$EXTMIN
 10
0
 20
0
  9
$EXTMAX
 10
420
 20
297
  9
$LIMMIN
 10
0
 20
0
  9
$LIMMAX
 10
420
 20
297
  9
$LTSCALE
 40
1
  0
ENDSEC
  0
SECTION
  2
TABLES
  0
TABLE
  2
LTYPE
 70
     9
  0
LTYPE
  2
CONTINUOUS
 70
    64
  3
実線
 72
    65
 73
     0
 40
0.0
  0
LTYPE
  2
DASHED1
 70
    64
  3
--  --  --  --  --  --  --  --  
 72
    65
 73
     2
 40
2.5
 49
1.25
 49
-1.25
  0
LTYPE
  2
DASHED2
 70
    64
  3
----    ----    ----    ----    
 72
    65
 73
     2
 40
5.0
 49
2.5
 49
-2.5
  0
LTYPE
  2
DASHED3
 70
    64
  3
------  ------  ------  ------  
 72
    65
 73
     2
 40
5.0
 49
3.75
 49
-1.25
  0
LTYPE
  2
CENTER1
 70
    64
  3
----- - ----- - ----- - ----- - 
 72
    65
 73
     4
 40
10.0
 49
6.25
 49
-1.25
 49
1.25
 49
-1.25
  0
LTYPE
  2
CENTER2
 70
    64
  3
----------  --  ----------  --  
 72
    65
 73
     4
 40
20.0
 49
12.5
 49
-2.5
 49
2.5
 49
-2.5
  0
LTYPE
  2
PHANTOM1
 70
    64
  3
--- - - --- - - --- - - --- - - 
 72
    65
 73
     6
 40
10.0
 49
3.25
 49
-1.25
 49
1.25
 49
-1.25
 49
1.25
 49
-1.25
  0
LTYPE
  2
PHANTOM2
 70
    64
  3
--------  -  -  --------  -  -  
 72
    65
 73
     6
 40
20.0
 49
10.0
 49
-2.5
 49
1.25
 49
-2.5
 49
1.25
 49
-2.5
  0
LTYPE
  2
DOT
 70
    64
  3
-   -   -   -   -   -   -   -   
 72
    65
 73
     2
 40
2.5
 49
0.625
 49
-1.875
  0
LTYPE
  2
DUMMY
 70
    64
  3
ダミー
 72
    65
 73
     0
 40
0.0
  0
LTYPE
  2
RAND1
 70
    64
  3
ランダム線1
 72
    65
 73
     4
 40
10.0
 49
1.0
 49
-2.0
 49
3.0
 49
-4.0
  0
LTYPE
  2
RAND2
 70
    64
  3
ランダム線2
 72
    65
 73
     4
 40
14.0
 49
2.0
 49
-3.0
 49
4.0
 49
-5.0
  0
LTYPE
  2
RAND3
 70
    64
  3
ランダム線3
 72
    65
 73
     4
 40
18.0
 49
3.0
 49
-4.0
 49
5.0
 49
-6.0
  0
LTYPE
  2
RAND4
 70
    64
  3
ランダム線4
 72
    65
 73
     4
 40
22.0
 49
4.0
 49
-5.0
 49
6.0
 49
-7.0
  0
LTYPE
  2
RAND5
 70
    64
  3
ランダム線5
 72
    65
 73
     4
 40
26.0
 49
5.0
 49
-6.0
 49
7.0
 49
-8.0
  0
LTYPE
  2
LONG1
 70
    64
  3
----------  --  ----------  --  
 72
    65
 73
     4
 40
40.0
 49
32.5
 49
-2.5
 49
2.5
 49
-2.5
  0
LTYPE
  2
LONG2
 70
    64
  3
--------  -  -  --------  -  -  
 72
    65
 73
     6
 40
40.0
 49
30.0
 49
-2.5
 49
1.25
 49
-2.5
 49
1.25
 49
-2.5
  0
LTYPE
  2
LONG3
 70
    64
  3
+++++++++++++++..+++++++++++++++
 72
    65
 73
     2
 40
40.0
 49
37.5
 49
-2.5
  0
LTYPE
  2
LONG4
 70
    64
  3
+++++++++++++++..+++++++++++++++
 72
    65
 73
     2
 40
80.0
 49
75.0
 49
-5.0
  0
LTYPE
  2
LONG5
 70
    64
  3
----------  --  ----------  --  
 72
    65
 73
     4
 40
60.0
 49
37.5
 49
-7.5
 49
7.5
 49
-7.5
  0
LTYPE
  2
dashed
 70
   64
  3
-------   -------------   ------
 72
   65
 73
    2
 40
7.5
 49
6
 49
-1.5
  0
LTYPE
  2
dashed_spaced
 70
   64
  3
----        --------        ----
 72
   65
 73
    2
 40
12
 49
6
 49
-6
  0
LTYPE
  2
long_dashed_dotted
 70
   64
  3
------------- --- --------------
 72
   65
 73
    4
 40
15.25
 49
12
 49
-1.5
 49
0.25
 49
-1.5
  0
LTYPE
  2
long_dashed_double-dotted
 70
   64
  3
----------- --- --- ------------
 72
   65
 73
    6
 40
17
 49
12
 49
-1.5
 49
0.25
 49
-1.5
 49
0.25
 49
-1.5
  0
LTYPE
  2
long_dashed_triplicate-dotted
 70
   64
  3
--------- --- --- --- ----------
 72
   65
 73
    8
 40
18.75
 49
12
 49
-1.5
 49
0.25
 49
-1.5
 49
0.25
 49
-1.5
 49
0.25
 49
-1.5
  0
LTYPE
  2
dotted
 70
   64
  3
   -       -       -       -    
 72
   65
 73
    2
 40
1.75
 49
0.25
 49
-1.5
  0
LTYPE
  2
chain
 70
   64
  3
-------------- -- --------------
 72
   65
 73
    4
 40
18.5
 49
12
 49
-1.5
 49
3.5
 49
-1.5
  0
LTYPE
  2
chain_double_dash
 70
   64
  3
------------ -- -- -------------
 72
   65
 73
    6
 40
23.5
 49
12
 49
-1.5
 49
3.5
 49
-1.5
 49
3.5
 49
-1.5
  0
LTYPE
  2
dashed_dotted
 70
   64
  3
-----------     -     ----------
 72
   65
 73
    4
 40
9.25
 49
6
 49
-1.5
 49
0.25
 49
-1.5
  0
LTYPE
  2
double-dashed_dotted
 70
   64
  3
------   -----------   -   -----
 72
   65
 73
    6
 40
16.75
 49
6
 49
-1.5
 49
6
 49
-1.5
 49
0.25
 49
-1.5
  0
LTYPE
  2
dashed_double-dotted
 70
   64
  3
---------    -    -    ---------
 72
   65
 73
    6
 40
11
 49
6
 49
-1.5
 49
0.25
 49
-1.5
 49
0.25
 49
-1.5
  0
LTYPE
  2
double-dashed_double-dotted
 70
   64
  3
-----   ---------   -   -   ----
 72
   65
 73
    8
 40
18.5
 49
6
 49
-1.5
 49
6
 49
-1.5
 49
0.25
 49
-1.5
 49
0.25
 49
-1.5
  0
LTYPE
  2
dashed_triplicate-dotted
 70
   64
  3
-------    -    -    -    ------
 72
   65
 73
    8
 40
12.75
 49
6
 49
-1.5
 49
0.25
 49
-1.5
 49
0.25
 49
-1.5
 49
0.25
 49
-1.5
  0
LTYPE
  2
double-dashed_triplicate-dotted
 70
   64
  3
-----  ---------  -  -  -  -----
 72
   65
 73
   10
 40
20.25
 49
6
 49
-1.5
 49
6
 49
-1.5
 49
0.25
 49
-1.5
 49
0.25
 49
-1.5
 49
0.25
 49
-1.5
  0
LTYPE
  2
undefined
 70
   64
  3
--------------------------------
 72
   65
 73
    0
 40
0
  0
LTYPE
  2
LTYPE1
 70
   64
  3
------------   ---   -----------
 72
   65
 73
    4
 40
5
 49
3.5
 49
-0.5
 49
0.5
 49
-0.5
  0
ENDTAB
  0
TABLE
  2
STYLE
  5
3
100
AcDbSymbolTable
 70
     1
  0
STYLE
  5
10
100
AcDbSymbolTableRecord
100
AcDbTextStyleTableRecord
  2
STANDARD
 70
     0
 40
0.0
 41
1.0
 50
0.0
 71
     0
 42
0.2
  3
txt
  4
bigfont.shx
  0
STYLE
  5
26
100
AcDbSymbolTableRecord
100
AcDbTextStyleTableRecord
  2
TATEGAKI
 70
    68
 40
0.0
 41
1.0
 50
0.0
 71
     0
 42
1.0
  3
txt
  4
bigfont.shx
  0
ENDTAB
  0
TABLE
  2
LAYER
 70
    3
  0
LAYER
  2
_0-0_0
 70
   64
 62
    7
  6
CONTINUOUS
  0
LAYER
  2
_0-1_2
 70
   64
 62
    7
  6
CONTINUOUS
  0
LAYER
  2
ADD_LINE
 70
   64
 62
    7
  6
CONTINUOUS
  0
ENDTAB
  0
ENDSEC
  0
SECTION
  2
BLOCKS
  0
ENDSEC
  0
SECTION
  2
ENTITIES
  0
LINE
  8
_0-0_0
  6
CONTINUOUS
 62
    7
 10
61.5
 20
307.26499999999999
 11
481.5
 21
307.26499999999999
  0
LINE
  8
_0-0_0
  6
CONTINUOUS
 62
    2
 10
89.833510013999998
 20
109.280874345
 11
99.516261669000002
 21
96.077120874000002
  0
LINE
  8
_0-0_0
  6
CONTINUOUS
 62
    2
 10
128.33350333800001
 20
109.280874345
 11
118.65075168199999
 21
96.077120874000002
  0
LINE
  8
_0-0_0
  6
CONTINUOUS
 62
    2
 10
89.833510013999998
 20
109.280874345
 11
128.33351001400001
 21
109.280874345
  0
LINE
  8
_0-0_0
  6
CONTINUOUS
 62
    2
 10
89.833510013999998
 20
109.280874345
 11
89.833510013999998
 21
142.530874345
  0
ARC
  8
_0-0_0
  6
CONTINUOUS
 62
    2
 10
90.708506675999999
 20
142.530874345
 40
0.875
 50
90
 51
180
  0
LINE
  8
_0-0_0
  6
CONTINUOUS
 62
    2
 10
90.708506675999999
 20
143.405874345
 11
127.458510014
 21
143.405874345
  0
LINE
  8
_0-0_0
  6
CONTINUOUS
 62
    2
 10
128.33351001400001
 20
109.280874345
 11
128.33351001400001
 21
142.530874345
  0
ARC
  8
_0-0_0
  6
CONTINUOUS
 62
    2
 10
127.458510014
 20
142.530874345
 40
0.875
 50
0
 51
90
  0
LINE
  8
_0-0_0
  6
CONTINUOUS
 62
    2
 10
94.208510013999998
 20
143.405874345
 11
94.208510013999998
 21
147.780874345
  0
ARC
  8
_0-0_0
  6
CONTINUOUS
 62
    2
 10
95.083510013999998
 20
147.780874345
 40
0.875
 50
90
 51
180
  0
LINE
  8
_0-0_0
  6
CONTINUOUS
 62
    2
 10
123.958510014
 20
143.405874345
 11
123.958510014
 21
147.780881021
  0
ARC
  8
_0-0_0
  6
CONTINUOUS
 62
    2
 10
123.083510014
 20
147.780881021
 40
0.875
 50
0
 51
90
  0
LINE
  8
_0-0_0
  6
CONTINUOUS
 62
    2
 10
97.708510013999998
 20
143.405874345
 11
97.708510013999998
 21
145.155874345
  0
ARC
  8
_0-0_0
  6
CONTINUOUS
 62
    2
 10
98.583510013999998
 20
145.155874345
 40
0.875
 50
90
 51
180
  0
LINE
  8
_0-0_0
  6
CONTINUOUS
 62
    2
 10
98.583510013999998
 20
146.030874345
 11
119.583510014
 21
146.030874345
  0
LINE
  8
_0-0_0
  6
CONTINUOUS
 62
    2
 10
120.458510014
 20
143.405874345
 11
120.458510014
 21
145.155874345
  0
ARC
  8
_0-0_0
  6
CONTINUOUS
 62
    2
 10
119.583510014
 20
145.155874345
 40
0.875
 50
0
 51
90
  0
LINE
  8
_0-0_0
  6
CONTINUOUS
 62
    2
 10
108.208510014
 20
146.030874345
 11
108.646010014
 21
147.343374345
  0
LINE
  8
_0-0_0
  6
CONTINUOUS
 62
    2
 10
108.646010014
 20
147.343374345
 11
109.521010014
 21
147.343374345
  0
LINE
  8
_0-0_0
  6
CONTINUOUS
 62
    2
 10
109.521010014
 20
147.343374345
 11
109.958510014
 21
146.030874345
  0
LINE
  8
_0-0_0
  6
CONTINUOUS
 62
    2
 10
82.833510013999998
 20
90.905874345000001
 11
82.833510013999998
 21
91.780874345000001
  0
LINE
  8
_0-0_0
  6
CONTINUOUS
 62
    2
 10
135.33350333800001
 20
90.905867669999992
 11
135.33350333800001
 21
91.780867669999992
  0
ARC
  8
_0-0_0
  6
CONTINUOUS
 62
    2
 10
109.083510014
 20
94.405874345000001
 40
1.75
 50
180
 51
0
  0
LINE
  8
_0-0_0
  6
CONTINUOUS
 62
    2
 10
106.896010014
 20
95.280874345000001
 11
106.896010014
 21
94.843374345000001
  0
LINE
  8
_0-0_0
  6
CONTINUOUS
 62
    2
 10
106.896010014
 20
94.843374345000001
 11
111.271010014
 21
94.843374345000001
  0
LINE
  8
_0-0_0
  6
CONTINUOUS
 62
    2
 10
111.271010014
 20
94.843374345000001
 11
111.271010014
 21
95.280874345000001
  0
LINE
  8
_0-0_0
  6
CONTINUOUS
 62
    2
 10
107.333510014
 20
94.843374345000001
 11
107.333510014
 21
94.405874345000001
  0
LINE
  8
_0-0_0
  6
CONTINUOUS
 62
    2
 10
107.333510014
 20
94.405874345000001
 11
110.833510014
 21
94.405874345000001
  0
LINE
  8
_0-0_0
  6
CONTINUOUS
 62
    2
 10
110.833510014
 20
94.405874345000001
 11
110.833510014
 21
94.843374345000001
  0
LINE
  8
_0-0_0
  6
CONTINUOUS
 62
    2
 10
123.958510014
 20
148.655874345
 11
150.02237090699998
 21
148.655874345
  0
LINE
  8
_0-0_0
  6
CONTINUOUS
 62
    2
 10
136.20850333800001
 20
90.905867669999992
 11
150.02237090699998
 21
90.905867669999992
  0
LINE
  8
_0-0_0
  6
CONTINUOUS
 62
    2
 10
148.27237090699998
 20
148.655874345
 11
148.27237090699998
 21
90.905867669999992
  0
LINE
  8
_0-0_0
  6
CONTINUOUS
 62
    2
 10
148.27237090699998
 20
148.655874345
 11
147.81943757800002
 21
146.965504149
  0
LINE
  8
_0-0_0
  6
CONTINUOUS
 62
    2
 10
148.27237090699998
 20
148.655874345
 11
148.725304236
 21
146.965504149
  0
LINE
  8
_0-0_0
  6
CONTINUOUS
 62
    2
 10
148.27237090699998
 20
90.905867669999992
 11
147.81943757800002
 21
92.596237865999996
  0
LINE
  8
_0-0_0
  6
CONTINUOUS
 62
    2
 10
148.27237090699998
 20
90.905867669999992
 11
148.725304236
 21
92.596237865999996
  0
LINE
  8
_0-0_0
  6
CONTINUOUS
 62
    2
 10
95.083510013999998
 20
148.655874345
 11
123.083510014
 21
148.655881021
  0
LINE
  8
_0-0_0
  6
CONTINUOUS
 62
    2
 10
135.33350333800001
 20
90.905867669999992
 11
122.208496662
 21
90.905874345000001
  0
ARC
  8
_0-0_0
  6
CONTINUOUS
 62
    2
 10
122.208496662
 20
91.780874345000001
 40
0.875
 50
218.65963745100001
 51
270
  0
LINE
  8
_0-0_0
  6
CONTINUOUS
 62
    2
 10
82.833510013999998
 20
90.905874345000001
 11
95.958510013999998
 21
90.905874345000001
  0
ARC
  8
_0-0_0
  6
CONTINUOUS
 62
    2
 10
95.958510013999998
 20
91.780874345000001
 40
0.875
 50
270
 51
321.34017944300001
  0
LINE
  8
_0-0_0
  6
CONTINUOUS
 62
    2
 10
121.525236698
 20
91.234269712
 11
118.550669285
 21
94.952482317000005
  0
ARC
  8
_0-0_0
  6
CONTINUOUS
 62
    2
 10
117.867409321
 20
94.405874345000001
 40
0.875
 50
38.659809113000001
 51
90
  0
LINE
  8
_0-0_0
  6
CONTINUOUS
 62
    2
 10
117.867409321
 20
95.280874345000001
 11
100.299597355
 21
95.280874345000001
  0
LINE
  8
_0-0_0
  6
CONTINUOUS
 62
    2
 10
96.641769977999999
 20
91.234266374000001
 11
99.616334053000003
 21
94.952482317000005
  0
ARC
  8
_0-0_0
  6
CONTINUOUS
 62
    2
 10
100.299597355
 20
94.405874345000001
 40
0.875
 50
90
 51
141.340332031
  0
ARC
  8
_0-0_0
  6
CONTINUOUS
 62
    2
 10
99.879053683999999
 20
95.280874345000001
 40
0.875
 50
90
 51
141.34019470199999
  0
LINE
  8
_0-0_0
  6
CONTINUOUS
 62
    2
 10
99.879053683999999
 20
96.155874345000001
 11
118.287959667
 21
96.155874345000001
  0
ARC
  8
_0-0_0
  6
CONTINUOUS
 62
    2
 10
118.287959667
 20
95.280874345000001
 40
0.875
 50
38.659809113000001
 51
90
  0
LINE
  8
_0-0_0
  6
CONTINUOUS
 62
    2
 10
99.195793719999998
 20
95.827482317000005
 11
96.221222968999996
 21
92.109266374000001
  0
LINE
  8
_0-0_0
  6
CONTINUOUS
 62
    2
 10
82.833510013999998
 20
91.780874345000001
 11
95.537963004999995
 21
91.780874345000001
  0
ARC
  8
_0-0_0
  6
CONTINUOUS
 62
    2
 10
95.537963004999995
 20
92.655874345000001
 40
0.875
 50
270
 51
321.34017944300001
  0
LINE
  8
_0-0_0
  6
CONTINUOUS
 62
    2
 10
118.971219631
 20
95.827482317000005
 11
121.945787045
 21
92.109266374000001
  0
LINE
  8
_0-0_0
  6
CONTINUOUS
 62
    2
 10
135.33350333800001
 20
91.780867669999992
 11
122.629047009
 21
91.780874345000001
  0
ARC
  8
_0-0_0
  6
CONTINUOUS
 62
    2
 10
122.629047009
 20
92.655874345000001
 40
0.875
 50
218.65980529799998
 51
270
  0
LINE
  8
_0-0_0
  6
CONTINUOUS
 62
    2
 10
119.162959667
 20
96.155874345000001
 11
143.899694057
 21
96.155874345000001
  0
LINE
  8
_0-0_0
  6
CONTINUOUS
 62
    2
 10
142.149694057
 20
96.155874345000001
 11
141.696760729
 21
94.465504148999997
  0
LINE
  8
_0-0_0
  6
CONTINUOUS
 62
    2
 10
142.149694057
 20
96.155874345000001
 11
142.60262738599999
 21
94.465504148999997
  0
LINE
  8
_0-0_0
  6
CONTINUOUS
 62
    2
 10
142.149694057
 20
90.905867669999992
 11
141.696760729
 21
92.596237865999996
  0
LINE
  8
_0-0_0
  6
CONTINUOUS
 62
    2
 10
142.149694057
 20
90.905867669999992
 11
142.60262738599999
 21
92.596237865999996
  0
LINE
  8
_0-0_0
  6
CONTINUOUS
 62
    2
 10
130.08351001400001
 20
92.563642595000005
 11
130.08351001400001
 21
90.813642595000005
  0
LINE
  8
_0-0_0
  6
CONTINUOUS
 62
    2
 10
88.083503338
 20
92.563642595000005
 11
88.083503338
 21
90.813642595000005
  0
LINE
  8
_0-0_0
  6
CONTINUOUS
 62
    2
 10
88.083505006999999
 20
90.030874345000001
 11
88.083505006999999
 21
77.771484944999997
  0
LINE
  8
_0-0_0
  6
CONTINUOUS
 62
    2
 10
130.08351001400001
 20
90.030871007999991
 11
130.08351001400001
 21
77.771484944999997
  0
LINE
  8
_0-0_0
  6
CONTINUOUS
 62
    2
 10
88.083505006999999
 20
79.521484944999997
 11
130.08351001400001
 21
79.521484944999997
  0
LINE
  8
_0-0_0
  6
CONTINUOUS
 62
    2
 10
88.083505006999999
 20
79.521484944999997
 11
89.773875203000003
 21
79.974418274000001
  0
LINE
  8
_0-0_0
  6
CONTINUOUS
 62
    2
 10
88.083505006999999
 20
79.521484944999997
 11
89.773875203000003
 21
79.068551616000008
  0
LINE
  8
_0-0_0
  6
CONTINUOUS
 62
    2
 10
130.08351001400001
 20
79.521484944999997
 11
128.39313981800001
 21
79.974418274000001
  0
LINE
  8
_0-0_0
  6
CONTINUOUS
 62
    2
 10
130.08351001400001
 20
79.521484944999997
 11
128.39313981800001
 21
79.068551616000008
  0
LINE
  8
_0-0_0
  6
LTYPE1
 62
    2
 10
109.083510014
 20
91.386596295999993
 11
109.083510014
 21
150.782004449
  0
LINE
  8
_0-0_0
  6
CONTINUOUS
 62
    2
 10
128.33351001400001
 20
191.22636995100001
 11
135.33351001400001
 21
191.22636995100001
  0
LINE
  8
_0-0_0
  6
CONTINUOUS
 62
    2
 10
135.33351001400001
 20
191.22636995100001
 11
135.33351001400001
 21
182.47636995100001
  0
LINE
  8
_0-0_0
  6
CONTINUOUS
 62
    2
 10
135.33351001400001
 20
178.97636995100001
 11
135.33351001400001
 21
170.22636995099998
  0
LINE
  8
_0-0_0
  6
CONTINUOUS
 62
    2
 10
135.33351001400001
 20
170.22636995099998
 11
128.33351001400001
 21
170.22636995099998
  0
LINE
  8
_0-0_0
  6
CONTINUOUS
 62
    2
 10
135.33351001400001
 20
182.47636995100001
 11
130.08351001400001
 21
182.47636995100001
  0
LINE
  8
_0-0_0
  6
CONTINUOUS
 62
    2
 10
135.33351001400001
 20
178.97636995100001
 11
130.08351001400001
 21
178.97636995100001
  0
ARC
  8
_0-0_0
  6
CONTINUOUS
 62
    2
 10
130.08351001400001
 20
180.72636995100001
 40
1.75
 50
90
 51
270
  0
LINE
  8
_0-0_0
  6
CONTINUOUS
 62
    2
 10
89.833510013999998
 20
191.22636995100001
 11
82.833510013999998
 21
191.22636995100001
  0
LINE
  8
_0-0_0
  6
CONTINUOUS
 62
    2
 10
82.833510013999998
 20
191.22636995100001
 11
82.833510013999998
 21
182.47636995100001
  0
LINE
  8
_0-0_0
  6
CONTINUOUS
 62
    2
 10
82.833510013999998
 20
178.97636995100001
 11
82.833510013999998
 21
170.22636995099998
  0
LINE
  8
_0-0_0
  6
CONTINUOUS
 62
    2
 10
82.833510013999998
 20
170.22636995099998
 11
89.833510013999998
 21
170.22636995099998
  0
LINE
  8
_0-0_0
  6
CONTINUOUS
 62
    2
 10
82.833510013999998
 20
182.47636995100001
 11
88.083510013999998
 21
182.47636995100001
  0
LINE
  8
_0-0_0
  6
CONTINUOUS
 62
    2
 10
82.833510013999998
 20
178.97636995100001
 11
88.083510013999998
 21
178.97636995100001
  0
ARC
  8
_0-0_0
  6
CONTINUOUS
 62
    2
 10
88.083510013999998
 20
180.72636995100001
 40
1.75
 50
270
 51
90
  0
ARC
  8
_0-0_0
  6
CONTINUOUS
 62
    2
 10
95.958510013999998
 20
193.85138330199999
 40
6.125
 50
90
 51
180
  0
LINE
  8
_0-0_0
  6
CONTINUOUS
 62
    2
 10
95.958510013999998
 20
199.97636995100001
 11
122.20851668899999
 21
199.97636995100001
  0
ARC
  8
_0-0_0
  6
CONTINUOUS
 62
    2
 10
122.20851668899999
 20
193.85138330199999
 40
6.125
 50
0
 51
90
  0
LINE
  8
_0-0_0
  6
CONTINUOUS
 62
    2
 10
128.33351001400001
 20
193.85138330199999
 11
128.33351001400001
 21
167.60136995099998
  0
ARC
  8
_0-0_0
  6
CONTINUOUS
 62
    2
 10
122.20851668899999
 20
167.60136995099998
 40
6.125
 50
270
 51
0
  0
LINE
  8
_0-0_0
  6
CONTINUOUS
 62
    2
 10
89.833510013999998
 20
193.85138330199999
 11
89.833510013999998
 21
167.60136995099998
  0
ARC
  8
_0-0_0
  6
CONTINUOUS
 62
    2
 10
95.958510013999998
 20
167.60136995099998
 40
6.125
 50
180
 51
270
  0
LINE
  8
_0-0_0
  6
CONTINUOUS
 62
    2
 10
94.208510013999998
 20
192.10136995100001
 11
123.958510014
 21
192.10136995100001
  0
LINE
  8
_0-0_0
  6
CONTINUOUS
 62
    2
 10
123.958510014
 20
192.10136995100001
 11
123.958510014
 21
169.35136995099998
  0
LINE
  8
_0-0_0
  6
CONTINUOUS
 62
    2
 10
123.958510014
 20
169.35136995099998
 11
94.208510013999998
 21
169.35136995099998
  0
LINE
  8
_0-0_0
  6
CONTINUOUS
 62
    2
 10
94.208510013999998
 20
169.35136995099998
 11
94.208510013999998
 21
192.10136995100001
  0
LINE
  8
_0-0_0
  6
CONTINUOUS
 62
    2
 10
95.958510013999998
 20
188.60136995100001
 11
122.208510014
 21
188.60136995100001
  0
LINE
  8
_0-0_0
  6
CONTINUOUS
 62
    2
 10
122.208510014
 20
188.60136995100001
 11
122.208510014
 21
172.85136995100001
  0
LINE
  8
_0-0_0
  6
CONTINUOUS
 62
    2
 10
122.208510014
 20
172.85136995100001
 11
95.958510013999998
 21
172.85136995100001
  0
LINE
  8
_0-0_0
  6
CONTINUOUS
 62
    2
 10
95.958510013999998
 20
172.85136995100001
 11
95.958510013999998
 21
188.60136995100001
  0
LINE
  8
_0-0_0
  6
CONTINUOUS
 62
    2
 10
97.708510013999998
 20
192.10136995100001
 11
97.708510013999998
 21
199.10138330199999
  0
ARC
  8
_0-0_0
  6
CONTINUOUS
 62
    2
 10
98.583510013999998
 20
199.10138330199999
 40
0.875
 50
90
 51
180
  0
LINE
  8
_0-0_0
  6
CONTINUOUS
 62
    2
 10
120.458510014
 20
192.10136995100001
 11
120.458510014
 21
199.10138330199999
  0
ARC
  8
_0-0_0
  6
CONTINUOUS
 62
    2
 10
119.583510014
 20
199.10138330199999
 40
0.875
 50
0
 51
90
  0
LINE
  8
_0-0_0
  6
CONTINUOUS
 62
    2
 10
120.458510014
 20
169.35136995099998
 11
120.458510014
 21
162.35138330199999
  0
ARC
  8
_0-0_0
  6
CONTINUOUS
 62
    2
 10
119.583510014
 20
162.35138330199999
 40
0.875
 50
270
 51
0
  0
LINE
  8
_0-0_0
  6
CONTINUOUS
 62
    2
 10
97.708510013999998
 20
169.35136995099998
 11
97.708510013999998
 21
162.35138330199999
  0
LINE
  8
_0-0_0
  6
CONTINUOUS
 62
    2
 10
122.20851668899999
 20
161.47636995099998
 11
95.958510013999998
 21
161.47636995099998
  0
ARC
  8
_0-0_0
  6
CONTINUOUS
 62
    2
 10
98.583510013999998
 20
162.35138330199999
 40
0.875
 50
180
 51
270
  0
CIRCLE
  8
_0-0_0
  6
CONTINUOUS
 62
    2
 10
102.083510014
 20
196.03886995100001
 40
2.625
  0
CIRCLE
  8
_0-0_0
  6
CONTINUOUS
 62
    2
 10
102.083510014
 20
196.03886995100001
 40
2.1875
  0
LINE
  8
_0-0_0
  6
CONTINUOUS
 62
    2
 10
100.771010014
 20
196.03886995100001
 11
103.396010014
 21
196.03886995100001
  0
LINE
  8
_0-0_0
  6
CONTINUOUS
 62
    2
 10
102.083510014
 20
197.35136995100001
 11
102.083510014
 21
194.72636995100001
  0
CIRCLE
  8
_0-0_0
  6
CONTINUOUS
 62
    2
 10
116.083510014
 20
196.03886995100001
 40
2.625
  0
CIRCLE
  8
_0-0_0
  6
CONTINUOUS
 62
    2
 10
116.083510014
 20
196.03886995100001
 40
2.1875
  0
LINE
  8
_0-0_0
  6
CONTINUOUS
 62
    2
 10
117.396010014
 20
196.03886995100001
 11
114.771010014
 21
196.03886995100001
  0
LINE
  8
_0-0_0
  6
CONTINUOUS
 62
    2
 10
116.083510014
 20
197.35136995100001
 11
116.083510014
 21
194.72636995100001
  0
CIRCLE
  8
_0-0_0
  6
CONTINUOUS
 62
    2
 10
102.083510014
 20
165.41386995099998
 40
2.625
  0
CIRCLE
  8
_0-0_0
  6
CONTINUOUS
 62
    2
 10
102.083510014
 20
165.41386995099998
 40
2.1875
  0
LINE
  8
_0-0_0
  6
CONTINUOUS
 62
    2
 10
100.771010014
 20
165.41386995099998
 11
103.396010014
 21
165.41386995099998
  0
LINE
  8
_0-0_0
  6
CONTINUOUS
 62
    2
 10
102.083510014
 20
164.10136995099998
 11
102.083510014
 21
166.72636995099998
  0
CIRCLE
  8
_0-0_0
  6
CONTINUOUS
 62
    2
 10
116.083510014
 20
165.41386995099998
 40
2.625
  0
CIRCLE
  8
_0-0_0
  6
CONTINUOUS
 62
    2
 10
116.083510014
 20
165.41386995099998
 40
2.1875
  0
LINE
  8
_0-0_0
  6
CONTINUOUS
 62
    2
 10
117.396010014
 20
165.41386995099998
 11
114.771010014
 21
165.41386995099998
  0
LINE
  8
_0-0_0
  6
CONTINUOUS
 62
    2
 10
116.083510014
 20
164.10136995099998
 11
116.083510014
 21
166.72636995099998
  0
LINE
  8
_0-0_0
  6
CONTINUOUS
 62
    2
 10
108.646010014
 20
192.10136995100001
 11
108.646010014
 21
199.10136995100001
  0
LINE
  8
_0-0_0
  6
CONTINUOUS
 62
    2
 10
109.521010014
 20
199.10136995100001
 11
109.521010014
 21
192.10136995100001
  0
ARC
  8
_0-0_0
  6
CONTINUOUS
 62
    2
 10
109.083510014
 20
199.10136995100001
 40
0.4375
 50
0
 51
180
  0
LINE
  8
_0-0_0
  6
CONTINUOUS
 62
    2
 10
108.208510014
 20
192.10136995100001
 11
108.208510014
 21
199.10136995100001
  0
ARC
  8
_0-0_0
  6
CONTINUOUS
 62
    2
 10
109.083510014
 20
199.10136995100001
 40
0.875
 50
0
 51
180
  0
LINE
  8
_0-0_0
  6
CONTINUOUS
 62
    2
 10
109.958506676
 20
199.10136995100001
 11
109.958510014
 21
192.10136995100001
  0
LINE
  8
_0-0_0
  6
CONTINUOUS
 62
    2
 10
108.646010014
 20
169.35136995099998
 11
108.646010014
 21
162.35136995099998
  0
LINE
  8
_0-0_0
  6
CONTINUOUS
 62
    2
 10
109.521010014
 20
162.35136995099998
 11
109.521010014
 21
169.35136995099998
  0
ARC
  8
_0-0_0
  6
CONTINUOUS
 62
    2
 10
109.083510014
 20
162.35136995099998
 40
0.4375
 50
180
 51
0
  0
LINE
  8
_0-0_0
  6
CONTINUOUS
 62
    2
 10
108.208510014
 20
169.35136995099998
 11
108.208510014
 21
162.35136995099998
  0
ARC
  8
_0-0_0
  6
CONTINUOUS
 62
    2
 10
109.083510014
 20
162.35136995099998
 40
0.875
 50
180
 51
0
  0
LINE
  8
_0-0_0
  6
CONTINUOUS
 62
    2
 10
109.958506676
 20
162.35136995099998
 11
109.958510014
 21
169.35136995099998
  0
LINE
  8
_0-0_0
  6
CONTINUOUS
 62
    2
 10
89.833510013999998
 20
196.47636995100001
 11
89.833510013999998
 21
209.56377229500001
  0
LINE
  8
_0-0_0
  6
CONTINUOUS
 62
    2
 10
128.33351001400001
 20
196.47636995100001
 11
128.33351001400001
 21
209.56377229500001
  0
LINE
  8
_0-0_0
  6
CONTINUOUS
 62
    2
 10
89.833510013999998
 20
207.81377229500001
 11
128.33351001400001
 21
207.81377229500001
  0
LINE
  8
_0-0_0
  6
CONTINUOUS
 62
    2
 10
89.833510013999998
 20
207.81377229500001
 11
91.523880210000002
 21
208.266705624
  0
LINE
  8
_0-0_0
  6
CONTINUOUS
 62
    2
 10
89.833510013999998
 20
207.81377229500001
 11
91.523880210000002
 21
207.36083896599999
  0
LINE
  8
_0-0_0
  6
CONTINUOUS
 62
    2
 10
128.33351001400001
 20
207.81377229500001
 11
126.64313981799999
 21
208.266705624
  0
LINE
  8
_0-0_0
  6
CONTINUOUS
 62
    2
 10
128.33351001400001
 20
207.81377229500001
 11
126.64313981799999
 21
207.36083896599999
  0
LINE
  8
_0-0_0
  6
CONTINUOUS
 62
    2
 10
82.833510013999998
 20
192.10136995100001
 11
82.833510013999998
 21
220.48844156000001
  0
LINE
  8
_0-0_0
  6
CONTINUOUS
 62
    2
 10
135.33351001400001
 20
192.10136995100001
 11
135.33351001400001
 21
220.48844156000001
  0
LINE
  8
_0-0_0
  6
CONTINUOUS
 62
    2
 10
82.833510013999998
 20
218.73844156000001
 11
135.33351001400001
 21
218.73844156000001
  0
LINE
  8
_0-0_0
  6
CONTINUOUS
 62
    2
 10
82.833510013999998
 20
218.73844156000001
 11
84.523880210000002
 21
219.191374889
  0
LINE
  8
_0-0_0
  6
CONTINUOUS
 62
    2
 10
82.833510013999998
 20
218.73844156000001
 11
84.523880210000002
 21
218.28550823099999
  0
LINE
  8
_0-0_0
  6
CONTINUOUS
 62
    2
 10
135.33351001400001
 20
218.73844156000001
 11
133.64313981800001
 21
219.191374889
  0
LINE
  8
_0-0_0
  6
CONTINUOUS
 62
    2
 10
135.33351001400001
 20
218.73844156000001
 11
133.64313981800001
 21
218.28550823099999
  0
LINE
  8
_0-0_0
  6
CONTINUOUS
 62
    2
 10
124.833510014
 20
199.97636995100001
 11
150.834231945
 21
199.97636995100001
  0
LINE
  8
_0-0_0
  6
CONTINUOUS
 62
    2
 10
149.084231945
 20
199.97636995100001
 11
149.084231945
 21
161.47636995099998
  0
LINE
  8
_0-0_0
  6
CONTINUOUS
 62
    2
 10
149.084231945
 20
199.97636995100001
 11
148.63129861599998
 21
198.28599975500001
  0
LINE
  8
_0-0_0
  6
CONTINUOUS
 62
    2
 10
149.084231945
 20
199.97636995100001
 11
149.53716527400002
 21
198.28599975500001
  0
LINE
  8
_0-0_0
  6
CONTINUOUS
 62
    2
 10
149.084231945
 20
161.47636995099998
 11
148.63129861599998
 21
163.16674014699998
  0
LINE
  8
_0-0_0
  6
CONTINUOUS
 62
    2
 10
149.084231945
 20
161.47636995099998
 11
149.53716527400002
 21
163.16674014699998
  0
POINT
  8
_0-0_0
 62
    2
 10
145.83351001400001
 20
180.72636995100001
  0
LINE
  8
_0-0_0
  6
CONTINUOUS
 62
    2
 10
88.083510013999998
 20
183.35136995100001
 11
88.083510013999998
 21
178.10136995100001
  0
LINE
  8
_0-0_0
  6
CONTINUOUS
 62
    2
 10
130.08351001400001
 20
183.35136995100001
 11
130.08351001400001
 21
178.10136995100001
  0
LINE
  8
_0-0_0
  6
CONTINUOUS
 62
    2
 10
124.833510014
 20
161.47636995099998
 11
150.834231945
 21
161.47636995099998
  0
LINE
  8
_0-0_0
  6
LTYPE1
 62
    2
 10
109.083510014
 20
201.82473001299999
 11
109.083510014
 21
159.20769319300001
  0
LINE
  8
_0-0_0
  6
LTYPE1
 62
    2
 10
86.818703028000002
 20
180.72636995100001
 11
132.52713069499998
 21
180.72636995100001
  0
TEXT
  8
_0-0_0
 62
    7
 10
102.521010014
 20
178.10136995100001
 40
5.25
 41
0.833333333
 50
0
  1
Ｎ　Ｐ
  0
LINE
  8
_0-0_0
  6
CONTINUOUS
 62
    2
 10
142.149694057
 20
148.655874345
 11
142.149694057
 21
90.905867669999992
  0
LINE
  8
_0-0_0
  6
CONTINUOUS
 62
    2
 10
142.149694057
 20
148.655874345
 11
141.696760729
 21
146.965504149
  0
LINE
  8
_0-0_0
  6
CONTINUOUS
 62
    2
 10
142.149694057
 20
148.655874345
 11
142.60262738599999
 21
146.965504149
  0
LINE
  8
_0-0_0
  6
CONTINUOUS
 62
    2
 10
142.149694057
 20
96.155874345000001
 11
141.696760729
 21
97.846244541000004
  0
LINE
  8
_0-0_0
  6
CONTINUOUS
 62
    2
 10
142.149694057
 20
96.155874345000001
 11
142.60262738599999
 21
97.846244541000004
  0
LINE
  8
_0-0_0
  6
CONTINUOUS
 62
    2
 10
81.958516688999993
 20
90.905867669999992
 11
77.767325970000002
 21
90.905867669999992
  0
LINE
  8
_0-0_0
  6
CONTINUOUS
 62
    2
 10
79.517325970000002
 20
91.780867669999992
 11
79.970259298999991
 21
93.471237865999996
  0
LINE
  8
_0-0_0
  6
CONTINUOUS
 62
    2
 10
79.517325970000002
 20
91.780867669999992
 11
79.064392641000012
 21
93.471237865999996
  0
LINE
  8
_0-0_0
  6
CONTINUOUS
 62
    2
 10
81.958516688999993
 20
91.780867669999992
 11
77.767325970000002
 21
91.780867669999992
  0
LINE
  8
_0-0_0
  6
CONTINUOUS
 62
    2
 10
79.517325970000002
 20
90.905867669999992
 11
79.970259298999991
 21
89.215497474000003
  0
LINE
  8
_0-0_0
  6
CONTINUOUS
 62
    2
 10
79.517325970000002
 20
90.905867669999992
 11
79.064392641000012
 21
89.215497474000003
  0
LINE
  8
_0-0_0
  6
CONTINUOUS
 62
    2
 10
79.517325970000002
 20
97.030874345000001
 11
79.517325970000002
 21
85.655860993999994
  0
TEXT
  8
_0-0_0
 62
    7
 10
77.353760013999988
 20
88.590285190000003
 40
3.0625
 41
0.7142857139999999
 50
90
  1
１．６
  0
TEXT
  8
_0-0_0
 62
    7
 10
109.885760014
 20
80.969892595000005
 40
1.6200000000000001
 41
0.5999999999999999
 50
0
  1
±１
  0
TEXT
  8
_0-0_0
 62
    7
 10
100.44001001399999
 20
199.97636995100001
 40
5.25
 41
0.833333333
 50
0
  1
Ｋ
  0
TEXT
  8
_0-0_0
 62
    7
 10
114.051010014
 20
199.97636995100001
 40
5.25
 41
0.833333333
 50
0
  1
Ｌ
  0
LINE
  8
_0-1_2
  6
CONTINUOUS
 62
    1
 10
115.28
 20
138.19
 11
115.334
 21
138.22311999999999
  0
LINE
  8
_0-1_2
  6
CONTINUOUS
 62
    1
 10
115.334
 20
138.22311999999999
 11
115.38800000000001
 21
138.25695999999999
  0
LINE
  8
_0-1_2
  6
CONTINUOUS
 62
    1
 10
115.38800000000001
 20
138.25695999999999
 11
115.44200000000001
 21
138.29223999999999
  0
LINE
  8
_0-1_2
  6
CONTINUOUS
 62
    1
 10
115.44200000000001
 20
138.29223999999999
 11
115.49600000000001
 21
138.32968
  0
LINE
  8
_0-1_2
  6
CONTINUOUS
 62
    1
 10
115.49600000000001
 20
138.32968
 11
115.55
 21
138.37
  0
LINE
  8
_0-1_2
  6
CONTINUOUS
 62
    1
 10
115.55
 20
138.37
 11
115.60112000000001
 21
138.41968
  0
LINE
  8
_0-1_2
  6
CONTINUOUS
 62
    1
 10
115.60112000000001
 20
138.41968
 11
115.65296000000001
 21
138.47224
  0
LINE
  8
_0-1_2
  6
CONTINUOUS
 62
    1
 10
115.65296000000001
 20
138.47224
 11
115.70624000000001
 21
138.52696
  0
LINE
  8
_0-1_2
  6
CONTINUOUS
 62
    1
 10
115.70624000000001
 20
138.52696
 11
115.76168
 21
138.58312000000001
  0
LINE
  8
_0-1_2
  6
CONTINUOUS
 62
    1
 10
115.76168
 20
138.58312000000001
 11
115.81999999999999
 21
138.63999999999999
  0
LINE
  8
_0-1_2
  6
CONTINUOUS
 62
    1
 10
115.81999999999999
 20
138.63999999999999
 11
115.89344
 21
138.69400000000002
  0
LINE
  8
_0-1_2
  6
CONTINUOUS
 62
    1
 10
115.89344
 20
138.69400000000002
 11
115.96832000000001
 21
138.74799999999999
  0
LINE
  8
_0-1_2
  6
CONTINUOUS
 62
    1
 10
115.96832000000001
 20
138.74799999999999
 11
116.04248
 21
138.80200000000002
  0
LINE
  8
_0-1_2
  6
CONTINUOUS
 62
    1
 10
116.04248
 20
138.80200000000002
 11
116.11376
 21
138.85599999999999
  0
LINE
  8
_0-1_2
  6
CONTINUOUS
 62
    1
 10
116.11376
 20
138.85599999999999
 11
116.18000000000001
 21
138.91
  0
LINE
  8
_0-1_2
  6
CONTINUOUS
 62
    1
 10
116.18000000000001
 20
138.91
 11
116.22463999999999
 21
138.964
  0
LINE
  8
_0-1_2
  6
CONTINUOUS
 62
    1
 10
116.22463999999999
 20
138.964
 11
116.26352
 21
139.018
  0
LINE
  8
_0-1_2
  6
CONTINUOUS
 62
    1
 10
116.26352
 20
139.018
 11
116.29808
 21
139.072
  0
LINE
  8
_0-1_2
  6
CONTINUOUS
 62
    1
 10
116.29808
 20
139.072
 11
116.32975999999999
 21
139.126
  0
LINE
  8
_0-1_2
  6
CONTINUOUS
 62
    1
 10
116.32975999999999
 20
139.126
 11
116.36
 21
139.18000000000001
  0
LINE
  8
_0-1_2
  6
CONTINUOUS
 62
    1
 10
116.36
 20
139.18000000000001
 11
116.39887999999999
 21
139.23399999999998
  0
LINE
  8
_0-1_2
  6
CONTINUOUS
 62
    1
 10
116.39887999999999
 20
139.23399999999998
 11
116.43704
 21
139.28800000000001
  0
LINE
  8
_0-1_2
  6
CONTINUOUS
 62
    1
 10
116.43704
 20
139.28800000000001
 11
116.47376
 21
139.34199999999998
  0
LINE
  8
_0-1_2
  6
CONTINUOUS
 62
    1
 10
116.47376
 20
139.34199999999998
 11
116.50832
 21
139.39600000000002
  0
LINE
  8
_0-1_2
  6
CONTINUOUS
 62
    1
 10
116.50832
 20
139.39600000000002
 11
116.53999999999999
 21
139.44999999999999
  0
LINE
  8
_0-1_2
  6
CONTINUOUS
 62
    1
 10
116.53999999999999
 20
139.44999999999999
 11
116.56232
 21
139.49824000000001
  0
LINE
  8
_0-1_2
  6
CONTINUOUS
 62
    1
 10
116.56232
 20
139.49824000000001
 11
116.58176
 21
139.54792
  0
LINE
  8
_0-1_2
  6
CONTINUOUS
 62
    1
 10
116.58176
 20
139.54792
 11
116.59904
 21
139.60048
  0
LINE
  8
_0-1_2
  6
CONTINUOUS
 62
    1
 10
116.59904
 20
139.60048
 11
116.61488
 21
139.65735999999998
  0
LINE
  8
_0-1_2
  6
CONTINUOUS
 62
    1
 10
116.61488
 20
139.65735999999998
 11
116.63
 21
139.72
  0
LINE
  8
_0-1_2
  6
CONTINUOUS
 62
    1
 10
116.63
 20
139.72
 11
116.65088
 21
139.80135999999999
  0
LINE
  8
_0-1_2
  6
CONTINUOUS
 62
    1
 10
116.65088
 20
139.80135999999999
 11
116.67104
 21
139.88848000000002
  0
LINE
  8
_0-1_2
  6
CONTINUOUS
 62
    1
 10
116.67104
 20
139.88848000000002
 11
116.68976000000001
 21
139.97991999999999
  0
LINE
  8
_0-1_2
  6
CONTINUOUS
 62
    1
 10
116.68976000000001
 20
139.97991999999999
 11
116.70632000000001
 21
140.07424
  0
LINE
  8
_0-1_2
  6
CONTINUOUS
 62
    1
 10
116.70632000000001
 20
140.07424
 11
116.72
 21
140.17000000000002
  0
LINE
  8
_0-1_2
  6
CONTINUOUS
 62
    1
 10
116.72
 20
140.17000000000002
 11
116.73008
 21
140.26576
  0
LINE
  8
_0-1_2
  6
CONTINUOUS
 62
    1
 10
116.73008
 20
140.26576
 11
116.73584
 21
140.36007999999998
  0
LINE
  8
_0-1_2
  6
CONTINUOUS
 62
    1
 10
116.73584
 20
140.36007999999998
 11
116.73656
 21
140.45152000000002
  0
LINE
  8
_0-1_2
  6
CONTINUOUS
 62
    1
 10
116.73656
 20
140.45152000000002
 11
116.73152
 21
140.53863999999999
  0
LINE
  8
_0-1_2
  6
CONTINUOUS
 62
    1
 10
116.73152
 20
140.53863999999999
 11
116.72
 21
140.62
  0
LINE
  8
_0-1_2
  6
CONTINUOUS
 62
    1
 10
116.72
 20
140.62
 11
116.69839999999999
 21
140.69416000000001
  0
LINE
  8
_0-1_2
  6
CONTINUOUS
 62
    1
 10
116.69839999999999
 20
140.69416000000001
 11
116.6696
 21
140.75968
  0
LINE
  8
_0-1_2
  6
CONTINUOUS
 62
    1
 10
116.6696
 20
140.75968
 11
116.6336
 21
140.81511999999998
  0
LINE
  8
_0-1_2
  6
CONTINUOUS
 62
    1
 10
116.6336
 20
140.81511999999998
 11
116.5904
 21
140.85903999999999
  0
LINE
  8
_0-1_2
  6
CONTINUOUS
 62
    1
 10
116.5904
 20
140.85903999999999
 11
116.53999999999999
 21
140.88999999999999
  0
LINE
  8
_0-1_2
  6
CONTINUOUS
 62
    1
 10
116.53999999999999
 20
140.88999999999999
 11
116.47376
 21
140.89792
  0
LINE
  8
_0-1_2
  6
CONTINUOUS
 62
    1
 10
116.47376
 20
140.89792
 11
116.40248
 21
140.89215999999999
  0
LINE
  8
_0-1_2
  6
CONTINUOUS
 62
    1
 10
116.40248
 20
140.89215999999999
 11
116.32831999999999
 21
140.87344000000002
  0
LINE
  8
_0-1_2
  6
CONTINUOUS
 62
    1
 10
116.32831999999999
 20
140.87344000000002
 11
116.25344
 21
140.84247999999999
  0
LINE
  8
_0-1_2
  6
CONTINUOUS
 62
    1
 10
116.25344
 20
140.84247999999999
 11
116.18000000000001
 21
140.80000000000001
  0
LINE
  8
_0-1_2
  6
CONTINUOUS
 62
    1
 10
116.18000000000001
 20
140.80000000000001
 11
116.11879999999999
 21
140.74096
  0
LINE
  8
_0-1_2
  6
CONTINUOUS
 62
    1
 10
116.11879999999999
 20
140.74096
 11
116.0612
 21
140.67328000000001
  0
LINE
  8
_0-1_2
  6
CONTINUOUS
 62
    1
 10
116.0612
 20
140.67328000000001
 11
116.0072
 21
140.59912
  0
LINE
  8
_0-1_2
  6
CONTINUOUS
 62
    1
 10
116.0072
 20
140.59912
 11
115.9568
 21
140.52064000000001
  0
LINE
  8
_0-1_2
  6
CONTINUOUS
 62
    1
 10
115.9568
 20
140.52064000000001
 11
115.91
 21
140.44
  0
LINE
  8
_0-1_2
  6
CONTINUOUS
 62
    1
 10
115.91
 20
140.44
 11
115.86392000000001
 21
140.37088
  0
LINE
  8
_0-1_2
  6
CONTINUOUS
 62
    1
 10
115.86392000000001
 20
140.37088
 11
115.82216
 21
140.30104
  0
LINE
  8
_0-1_2
  6
CONTINUOUS
 62
    1
 10
115.82216
 20
140.30104
 11
115.78543999999999
 21
140.22976
  0
LINE
  8
_0-1_2
  6
CONTINUOUS
 62
    1
 10
115.78543999999999
 20
140.22976
 11
115.75448
 21
140.15631999999999
  0
LINE
  8
_0-1_2
  6
CONTINUOUS
 62
    1
 10
115.75448
 20
140.15631999999999
 11
115.72999999999999
 21
140.07999999999998
  0
LINE
  8
_0-1_2
  6
CONTINUOUS
 62
    1
 10
115.72999999999999
 20
140.07999999999998
 11
115.71848
 21
139.99720000000002
  0
LINE
  8
_0-1_2
  6
CONTINUOUS
 62
    1
 10
115.71848
 20
139.99720000000002
 11
115.71343999999999
 21
139.91079999999999
  0
LINE
  8
_0-1_2
  6
CONTINUOUS
 62
    1
 10
115.71343999999999
 20
139.91079999999999
 11
115.71415999999999
 21
139.82080000000002
  0
LINE
  8
_0-1_2
  6
CONTINUOUS
 62
    1
 10
115.71415999999999
 20
139.82080000000002
 11
115.71992
 21
139.72719999999998
  0
LINE
  8
_0-1_2
  6
CONTINUOUS
 62
    1
 10
115.71992
 20
139.72719999999998
 11
115.72999999999999
 21
139.63
  0
LINE
  8
_0-1_2
  6
CONTINUOUS
 62
    1
 10
115.72999999999999
 20
139.63
 11
115.74080000000001
 21
139.52055999999999
  0
LINE
  8
_0-1_2
  6
CONTINUOUS
 62
    1
 10
115.74080000000001
 20
139.52055999999999
 11
115.7552
 21
139.40967999999998
  0
LINE
  8
_0-1_2
  6
CONTINUOUS
 62
    1
 10
115.7552
 20
139.40967999999998
 11
115.7732
 21
139.29952
  0
LINE
  8
_0-1_2
  6
CONTINUOUS
 62
    1
 10
115.7732
 20
139.29952
 11
115.79480000000001
 21
139.19224
  0
LINE
  8
_0-1_2
  6
CONTINUOUS
 62
    1
 10
115.79480000000001
 20
139.19224
 11
115.81999999999999
 21
139.09
  0
LINE
  8
_0-1_2
  6
CONTINUOUS
 62
    1
 10
115.81999999999999
 20
139.09
 11
115.8488
 21
139.00936000000002
  0
LINE
  8
_0-1_2
  6
CONTINUOUS
 62
    1
 10
115.8488
 20
139.00936000000002
 11
115.88120000000001
 21
138.93448000000001
  0
LINE
  8
_0-1_2
  6
CONTINUOUS
 62
    1
 10
115.88120000000001
 20
138.93448000000001
 11
115.91720000000001
 21
138.86392000000001
  0
LINE
  8
_0-1_2
  6
CONTINUOUS
 62
    1
 10
115.91720000000001
 20
138.86392000000001
 11
115.9568
 21
138.79624000000001
  0
LINE
  8
_0-1_2
  6
CONTINUOUS
 62
    1
 10
115.9568
 20
138.79624000000001
 11
116
 21
138.73000000000002
  0
LINE
  8
_0-1_2
  6
CONTINUOUS
 62
    1
 10
116
 20
138.73000000000002
 11
116.05256
 21
138.65512000000001
  0
LINE
  8
_0-1_2
  6
CONTINUOUS
 62
    1
 10
116.05256
 20
138.65512000000001
 11
116.10728
 21
138.58096
  0
LINE
  8
_0-1_2
  6
CONTINUOUS
 62
    1
 10
116.10728
 20
138.58096
 11
116.16272000000001
 21
138.50824
  0
LINE
  8
_0-1_2
  6
CONTINUOUS
 62
    1
 10
116.16272000000001
 20
138.50824
 11
116.21744000000001
 21
138.43768
  0
LINE
  8
_0-1_2
  6
CONTINUOUS
 62
    1
 10
116.21744000000001
 20
138.43768
 11
116.27000000000001
 21
138.37
  0
LINE
  8
_0-1_2
  6
CONTINUOUS
 62
    1
 10
116.27000000000001
 20
138.37
 11
116.30456000000001
 21
138.30592000000001
  0
LINE
  8
_0-1_2
  6
CONTINUOUS
 62
    1
 10
116.30456000000001
 20
138.30592000000001
 11
116.33768000000001
 21
138.24616
  0
LINE
  8
_0-1_2
  6
CONTINUOUS
 62
    1
 10
116.33768000000001
 20
138.24616
 11
116.37152
 21
138.19144
  0
LINE
  8
_0-1_2
  6
CONTINUOUS
 62
    1
 10
116.37152
 20
138.19144
 11
116.40824000000001
 21
138.14248000000001
  0
LINE
  8
_0-1_2
  6
CONTINUOUS
 62
    1
 10
116.40824000000001
 20
138.14248000000001
 11
116.45
 21
138.09999999999999
  0
LINE
  8
_0-1_2
  6
CONTINUOUS
 62
    1
 10
116.45
 20
138.09999999999999
 11
116.51912
 21
138.0676
  0
LINE
  8
_0-1_2
  6
CONTINUOUS
 62
    1
 10
116.51912
 20
138.0676
 11
116.59255999999999
 21
138.04239999999999
  0
LINE
  8
_0-1_2
  6
CONTINUOUS
 62
    1
 10
116.59255999999999
 20
138.04239999999999
 11
116.66744
 21
138.02440000000001
  0
LINE
  8
_0-1_2
  6
CONTINUOUS
 62
    1
 10
116.66744
 20
138.02440000000001
 11
116.74088
 21
138.0136
  0
LINE
  8
_0-1_2
  6
CONTINUOUS
 62
    1
 10
116.74088
 20
138.0136
 11
116.81
 21
138.00999999999999
  0
LINE
  8
_0-1_2
  6
CONTINUOUS
 62
    1
 10
116.81
 20
138.00999999999999
 11
116.85464
 21
138.01936000000001
  0
LINE
  8
_0-1_2
  6
CONTINUOUS
 62
    1
 10
116.85464
 20
138.01936000000001
 11
116.89352
 21
138.03448
  0
LINE
  8
_0-1_2
  6
CONTINUOUS
 62
    1
 10
116.89352
 20
138.03448
 11
116.92807999999999
 21
138.05392000000001
  0
LINE
  8
_0-1_2
  6
CONTINUOUS
 62
    1
 10
116.92807999999999
 20
138.05392000000001
 11
116.95976
 21
138.07623999999998
  0
LINE
  8
_0-1_2
  6
CONTINUOUS
 62
    1
 10
116.95976
 20
138.07623999999998
 11
116.99000000000001
 21
138.09999999999999
  0
LINE
  8
_0-0_0
  6
CONTINUOUS
 62
    1
 10
100.98644
 20
139.03016
 11
101.09443999999999
 21
139.09927999999999
  0
LINE
  8
_0-0_0
  6
CONTINUOUS
 62
    1
 10
101.09443999999999
 20
139.09927999999999
 11
101.20244
 21
139.16912000000002
  0
LINE
  8
_0-0_0
  6
CONTINUOUS
 62
    1
 10
101.20244
 20
139.16912000000002
 11
101.31044
 21
139.24039999999999
  0
LINE
  8
_0-0_0
  6
CONTINUOUS
 62
    1
 10
101.31044
 20
139.24039999999999
 11
101.41844
 21
139.31384
  0
LINE
  8
_0-0_0
  6
CONTINUOUS
 62
    1
 10
101.41844
 20
139.31384
 11
101.52644000000001
 21
139.39015999999998
  0
LINE
  8
_0-0_0
  6
CONTINUOUS
 62
    1
 10
101.52644000000001
 20
139.39015999999998
 11
101.64019999999999
 21
139.47584000000001
  0
LINE
  8
_0-0_0
  6
CONTINUOUS
 62
    1
 10
101.64019999999999
 20
139.47584000000001
 11
101.75252
 21
139.56440000000001
  0
LINE
  8
_0-0_0
  6
CONTINUOUS
 62
    1
 10
101.75252
 20
139.56440000000001
 11
101.86196000000001
 21
139.65512000000001
  0
LINE
  8
_0-0_0
  6
CONTINUOUS
 62
    1
 10
101.86196000000001
 20
139.65512000000001
 11
101.96708000000001
 21
139.74727999999999
  0
LINE
  8
_0-0_0
  6
CONTINUOUS
 62
    1
 10
101.96708000000001
 20
139.74727999999999
 11
102.06644
 21
139.84016
  0
LINE
  8
_0-0_0
  6
CONTINUOUS
 62
    1
 10
102.06644
 20
139.84016
 11
102.15572
 21
139.92728
  0
LINE
  8
_0-0_0
  6
CONTINUOUS
 62
    1
 10
102.15572
 20
139.92728
 11
102.23707999999999
 21
140.01512
  0
LINE
  8
_0-0_0
  6
CONTINUOUS
 62
    1
 10
102.23707999999999
 20
140.01512
 11
102.3098
 21
140.1044
  0
LINE
  8
_0-0_0
  6
CONTINUOUS
 62
    1
 10
102.3098
 20
140.1044
 11
102.37316
 21
140.19584
  0
LINE
  8
_0-0_0
  6
CONTINUOUS
 62
    1
 10
102.37316
 20
140.19584
 11
102.42644
 21
140.29016000000001
  0
LINE
  8
_0-0_0
  6
CONTINUOUS
 62
    1
 10
102.42644
 20
140.29016000000001
 11
102.46316
 21
140.40248
  0
LINE
  8
_0-0_0
  6
CONTINUOUS
 62
    1
 10
102.46316
 20
140.40248
 11
102.4898
 21
140.51551999999998
  0
LINE
  8
_0-0_0
  6
CONTINUOUS
 62
    1
 10
102.4898
 20
140.51551999999998
 11
102.50708
 21
140.62639999999999
  0
LINE
  8
_0-0_0
  6
CONTINUOUS
 62
    1
 10
102.50708
 20
140.62639999999999
 11
102.51572
 21
140.73223999999999
  0
LINE
  8
_0-0_0
  6
CONTINUOUS
 62
    1
 10
102.51572
 20
140.73223999999999
 11
102.51644
 21
140.83016000000001
  0
LINE
  8
_0-0_0
  6
CONTINUOUS
 62
    1
 10
102.51644
 20
140.83016000000001
 11
102.51572
 21
140.90863999999999
  0
LINE
  8
_0-0_0
  6
CONTINUOUS
 62
    1
 10
102.51572
 20
140.90863999999999
 11
102.50708
 21
140.97559999999999
  0
LINE
  8
_0-0_0
  6
CONTINUOUS
 62
    1
 10
102.50708
 20
140.97559999999999
 11
102.4898
 21
141.03032000000002
  0
LINE
  8
_0-0_0
  6
CONTINUOUS
 62
    1
 10
102.4898
 20
141.03032000000002
 11
102.46316
 21
141.07208
  0
LINE
  8
_0-0_0
  6
CONTINUOUS
 62
    1
 10
102.46316
 20
141.07208
 11
102.42644
 21
141.10016000000002
  0
LINE
  8
_0-0_0
  6
CONTINUOUS
 62
    1
 10
102.42644
 20
141.10016000000002
 11
102.36163999999999
 21
141.10808
  0
LINE
  8
_0-0_0
  6
CONTINUOUS
 62
    1
 10
102.36163999999999
 20
141.10808
 11
102.28963999999999
 21
141.10232000000002
  0
LINE
  8
_0-0_0
  6
CONTINUOUS
 62
    1
 10
102.28963999999999
 20
141.10232000000002
 11
102.21404
 21
141.08359999999999
  0
LINE
  8
_0-0_0
  6
CONTINUOUS
 62
    1
 10
102.21404
 20
141.08359999999999
 11
102.13844
 21
141.05264
  0
LINE
  8
_0-0_0
  6
CONTINUOUS
 62
    1
 10
102.13844
 20
141.05264
 11
102.06644
 21
141.01015999999998
  0
LINE
  8
_0-0_0
  6
CONTINUOUS
 62
    1
 10
102.06644
 20
141.01015999999998
 11
102.02467999999999
 21
140.95688000000001
  0
LINE
  8
_0-0_0
  6
CONTINUOUS
 62
    1
 10
102.02467999999999
 20
140.95688000000001
 11
101.98796
 21
140.89352
  0
LINE
  8
_0-0_0
  6
CONTINUOUS
 62
    1
 10
101.98796
 20
140.89352
 11
101.95412
 21
140.82080000000002
  0
LINE
  8
_0-0_0
  6
CONTINUOUS
 62
    1
 10
101.95412
 20
140.82080000000002
 11
101.92099999999999
 21
140.73944
  0
LINE
  8
_0-0_0
  6
CONTINUOUS
 62
    1
 10
101.92099999999999
 20
140.73944
 11
101.88643999999999
 21
140.65016
  0
LINE
  8
_0-0_0
  6
CONTINUOUS
 62
    1
 10
101.88643999999999
 20
140.65016
 11
101.831
 21
140.55367999999999
  0
LINE
  8
_0-0_0
  6
CONTINUOUS
 62
    1
 10
101.831
 20
140.55367999999999
 11
101.77412000000001
 21
140.45071999999999
  0
LINE
  8
_0-0_0
  6
CONTINUOUS
 62
    1
 10
101.77412000000001
 20
140.45071999999999
 11
101.71796000000001
 21
140.34199999999998
  0
LINE
  8
_0-0_0
  6
CONTINUOUS
 62
    1
 10
101.71796000000001
 20
140.34199999999998
 11
101.66468
 21
140.22824
  0
LINE
  8
_0-0_0
  6
CONTINUOUS
 62
    1
 10
101.66468
 20
140.22824
 11
101.61644
 21
140.11016000000001
  0
LINE
  8
_0-0_0
  6
CONTINUOUS
 62
    1
 10
101.61644
 20
140.11016000000001
 11
101.58691999999999
 21
139.98847999999998
  0
LINE
  8
_0-0_0
  6
CONTINUOUS
 62
    1
 10
101.58691999999999
 20
139.98847999999998
 11
101.56388
 21
139.86392000000001
  0
LINE
  8
_0-0_0
  6
CONTINUOUS
 62
    1
 10
101.56388
 20
139.86392000000001
 11
101.5466
 21
139.7372
  0
LINE
  8
_0-0_0
  6
CONTINUOUS
 62
    1
 10
101.5466
 20
139.7372
 11
101.53435999999999
 21
139.60903999999999
  0
LINE
  8
_0-0_0
  6
CONTINUOUS
 62
    1
 10
101.53435999999999
 20
139.60903999999999
 11
101.52644000000001
 21
139.48016000000001
  0
LINE
  8
_0-0_0
  6
CONTINUOUS
 62
    1
 10
101.52644000000001
 20
139.48016000000001
 11
101.52212
 21
139.3484
  0
LINE
  8
_0-0_0
  6
CONTINUOUS
 62
    1
 10
101.52212
 20
139.3484
 11
101.52068
 21
139.21807999999999
  0
LINE
  8
_0-0_0
  6
CONTINUOUS
 62
    1
 10
101.52068
 20
139.21807999999999
 11
101.5214
 21
139.09064000000001
  0
LINE
  8
_0-0_0
  6
CONTINUOUS
 62
    1
 10
101.5214
 20
139.09064000000001
 11
101.52356
 21
138.96751999999998
  0
LINE
  8
_0-0_0
  6
CONTINUOUS
 62
    1
 10
101.52356
 20
138.96751999999998
 11
101.52644000000001
 21
138.85016000000002
  0
LINE
  8
_0-0_0
  6
CONTINUOUS
 62
    1
 10
101.52644000000001
 20
138.85016000000002
 11
101.52644000000001
 21
138.74576000000002
  0
LINE
  8
_0-0_0
  6
CONTINUOUS
 62
    1
 10
101.52644000000001
 20
138.74576000000002
 11
101.52644000000001
 21
138.64856
  0
LINE
  8
_0-0_0
  6
CONTINUOUS
 62
    1
 10
101.52644000000001
 20
138.64856
 11
101.52644000000001
 21
138.55856
  0
LINE
  8
_0-0_0
  6
CONTINUOUS
 62
    1
 10
101.52644000000001
 20
138.55856
 11
101.52644000000001
 21
138.47575999999998
  0
LINE
  8
_0-0_0
  6
CONTINUOUS
 62
    1
 10
101.52644000000001
 20
138.47575999999998
 11
101.52644000000001
 21
138.40016
  0
LINE
  8
_0-0_0
  6
CONTINUOUS
 62
    1
 10
101.52644000000001
 20
138.40016
 11
101.52356
 21
138.30007999999998
  0
LINE
  8
_0-0_0
  6
CONTINUOUS
 62
    1
 10
101.52356
 20
138.30007999999998
 11
101.5214
 21
138.21512000000001
  0
LINE
  8
_0-0_0
  6
CONTINUOUS
 62
    1
 10
101.5214
 20
138.21512000000001
 11
101.52068
 21
138.1532
  0
LINE
  8
_0-0_0
  6
CONTINUOUS
 62
    1
 10
101.52068
 20
138.1532
 11
101.52212
 21
138.12224000000001
  0
LINE
  8
_0-0_0
  6
CONTINUOUS
 62
    1
 10
101.52212
 20
138.12224000000001
 11
101.52644000000001
 21
138.13015999999999
  0
LINE
  8
_0-0_0
  6
CONTINUOUS
 62
    1
 10
101.52644000000001
 20
138.13015999999999
 11
101.53148
 21
138.27127999999999
  0
LINE
  8
_0-0_0
  6
CONTINUOUS
 62
    1
 10
101.53148
 20
138.27127999999999
 11
101.54156
 21
138.44551999999999
  0
LINE
  8
_0-0_0
  6
CONTINUOUS
 62
    1
 10
101.54156
 20
138.44551999999999
 11
101.55812
 21
138.63920000000002
  0
LINE
  8
_0-0_0
  6
CONTINUOUS
 62
    1
 10
101.55812
 20
138.63920000000002
 11
101.5826
 21
138.83864
  0
LINE
  8
_0-0_0
  6
CONTINUOUS
 62
    1
 10
101.5826
 20
138.83864
 11
101.61644
 21
139.03016
  0
LINE
  8
_0-0_0
  6
CONTINUOUS
 62
    1
 10
101.61644
 20
139.03016
 11
101.67547999999999
 21
139.13672
  0
LINE
  8
_0-0_0
  6
CONTINUOUS
 62
    1
 10
101.67547999999999
 20
139.13672
 11
101.74316
 21
139.22384
  0
LINE
  8
_0-0_0
  6
CONTINUOUS
 62
    1
 10
101.74316
 20
139.22384
 11
101.81732
 21
139.29367999999999
  0
LINE
  8
_0-0_0
  6
CONTINUOUS
 62
    1
 10
101.81732
 20
139.29367999999999
 11
101.89580000000001
 21
139.3484
  0
LINE
  8
_0-0_0
  6
CONTINUOUS
 62
    1
 10
101.89580000000001
 20
139.3484
 11
101.97644
 21
139.39015999999998
  0
LINE
  8
_0-0_0
  6
CONTINUOUS
 62
    1
 10
101.97644
 20
139.39015999999998
 11
102.04844
 21
139.42687999999998
  0
LINE
  8
_0-0_0
  6
CONTINUOUS
 62
    1
 10
102.04844
 20
139.42687999999998
 11
102.12044
 21
139.45352
  0
LINE
  8
_0-0_0
  6
CONTINUOUS
 62
    1
 10
102.12044
 20
139.45352
 11
102.19244
 21
139.4708
  0
LINE
  8
_0-0_0
  6
CONTINUOUS
 62
    1
 10
102.19244
 20
139.4708
 11
102.26444000000001
 21
139.47944000000001
  0
LINE
  8
_0-0_0
  6
CONTINUOUS
 62
    1
 10
102.26444000000001
 20
139.47944000000001
 11
102.33644000000001
 21
139.48016000000001
  0
LINE
  8
_0-0_0
  6
CONTINUOUS
 62
    1
 10
102.33644000000001
 20
139.48016000000001
 11
102.41996
 21
139.48232000000002
  0
LINE
  8
_0-0_0
  6
CONTINUOUS
 62
    1
 10
102.41996
 20
139.48232000000002
 11
102.50059999999999
 21
139.47584000000001
  0
LINE
  8
_0-0_0
  6
CONTINUOUS
 62
    1
 10
102.50059999999999
 20
139.47584000000001
 11
102.57548
 21
139.45928000000001
  0
LINE
  8
_0-0_0
  6
CONTINUOUS
 62
    1
 10
102.57548
 20
139.45928000000001
 11
102.64171999999999
 21
139.43119999999999
  0
LINE
  8
_0-0_0
  6
CONTINUOUS
 62
    1
 10
102.64171999999999
 20
139.43119999999999
 11
102.69644
 21
139.39015999999998
  0
LINE
  8
_0-0_0
  6
CONTINUOUS
 62
    1
 10
102.69644
 20
139.39015999999998
 11
102.72236000000001
 21
139.30880000000002
  0
LINE
  8
_0-0_0
  6
CONTINUOUS
 62
    1
 10
102.72236000000001
 20
139.30880000000002
 11
102.7346
 21
139.21807999999999
  0
LINE
  8
_0-0_0
  6
CONTINUOUS
 62
    1
 10
102.7346
 20
139.21807999999999
 11
102.73388
 21
139.12304
  0
LINE
  8
_0-0_0
  6
CONTINUOUS
 62
    1
 10
102.73388
 20
139.12304
 11
102.72092000000001
 21
139.02872000000002
  0
LINE
  8
_0-0_0
  6
CONTINUOUS
 62
    1
 10
102.72092000000001
 20
139.02872000000002
 11
102.69644
 21
138.94015999999999
  0
LINE
  8
_0-0_0
  6
CONTINUOUS
 62
    1
 10
102.69644
 20
138.94015999999999
 11
102.6554
 21
138.88256000000001
  0
LINE
  8
_0-0_0
  6
CONTINUOUS
 62
    1
 10
102.6554
 20
138.88256000000001
 11
102.60571999999999
 21
138.83575999999999
  0
LINE
  8
_0-0_0
  6
CONTINUOUS
 62
    1
 10
102.60571999999999
 20
138.83575999999999
 11
102.54956
 21
138.79975999999999
  0
LINE
  8
_0-0_0
  6
CONTINUOUS
 62
    1
 10
102.54956
 20
138.79975999999999
 11
102.48908
 21
138.77456000000001
  0
LINE
  8
_0-0_0
  6
CONTINUOUS
 62
    1
 10
102.48908
 20
138.77456000000001
 11
102.42644
 21
138.76015999999998
  0
LINE
  8
_0-0_0
  6
CONTINUOUS
 62
    1
 10
102.42644
 20
138.76015999999998
 11
102.3638
 21
138.76231999999999
  0
LINE
  8
_0-0_0
  6
CONTINUOUS
 62
    1
 10
102.3638
 20
138.76231999999999
 11
102.30332
 21
138.77384000000001
  0
LINE
  8
_0-0_0
  6
CONTINUOUS
 62
    1
 10
102.30332
 20
138.77384000000001
 11
102.24716000000001
 21
138.79327999999998
  0
LINE
  8
_0-0_0
  6
CONTINUOUS
 62
    1
 10
102.24716000000001
 20
138.79327999999998
 11
102.19748
 21
138.8192
  0
LINE
  8
_0-0_0
  6
CONTINUOUS
 62
    1
 10
102.19748
 20
138.8192
 11
102.15644
 21
138.85016000000002
  0
LINE
  8
_0-0_0
  6
CONTINUOUS
 62
    1
 10
102.15644
 20
138.85016000000002
 11
102.14348
 21
138.90487999999999
  0
LINE
  8
_0-0_0
  6
CONTINUOUS
 62
    1
 10
102.14348
 20
138.90487999999999
 11
102.13916
 21
138.95672000000002
  0
LINE
  8
_0-0_0
  6
CONTINUOUS
 62
    1
 10
102.13916
 20
138.95672000000002
 11
102.14132000000001
 21
138.9992
  0
LINE
  8
_0-0_0
  6
CONTINUOUS
 62
    1
 10
102.14132000000001
 20
138.9992
 11
102.14779999999999
 21
139.02584000000002
  0
LINE
  8
_0-0_0
  6
CONTINUOUS
 62
    1
 10
102.14779999999999
 20
139.02584000000002
 11
102.15644
 21
139.03016
  0
LINE
  8
_0-0_0
  6
CONTINUOUS
 62
    1
 10
102.15644
 20
139.03016
 11
102.15067999999999
 21
138.95096000000001
  0
LINE
  8
_0-0_0
  6
CONTINUOUS
 62
    1
 10
102.15067999999999
 20
138.95096000000001
 11
102.14636
 21
138.85016000000002
  0
LINE
  8
_0-0_0
  6
CONTINUOUS
 62
    1
 10
102.14636
 20
138.85016000000002
 11
102.14492
 21
138.73496
  0
LINE
  8
_0-0_0
  6
CONTINUOUS
 62
    1
 10
102.14492
 20
138.73496
 11
102.14779999999999
 21
138.61256
  0
LINE
  8
_0-0_0
  6
CONTINUOUS
 62
    1
 10
102.14779999999999
 20
138.61256
 11
102.15644
 21
138.49016
  0
LINE
  8
_0-0_0
  6
CONTINUOUS
 62
    1
 10
102.15644
 20
138.49016
 11
102.18092
 21
138.398
  0
LINE
  8
_0-0_0
  6
CONTINUOUS
 62
    1
 10
102.18092
 20
138.398
 11
102.21188000000001
 21
138.31448
  0
LINE
  8
_0-0_0
  6
CONTINUOUS
 62
    1
 10
102.21188000000001
 20
138.31448
 11
102.24860000000001
 21
138.24104
  0
LINE
  8
_0-0_0
  6
CONTINUOUS
 62
    1
 10
102.24860000000001
 20
138.24104
 11
102.29035999999999
 21
138.17912000000001
  0
LINE
  8
_0-0_0
  6
CONTINUOUS
 62
    1
 10
102.29035999999999
 20
138.17912000000001
 11
102.33644000000001
 21
138.13015999999999
  0
LINE
  8
_0-0_0
  6
CONTINUOUS
 62
    1
 10
102.33644000000001
 20
138.13015999999999
 11
102.38900000000001
 21
138.11288000000002
  0
LINE
  8
_0-0_0
  6
CONTINUOUS
 62
    1
 10
102.38900000000001
 20
138.11288000000002
 11
102.44372
 21
138.10712000000001
  0
LINE
  8
_0-0_0
  6
CONTINUOUS
 62
    1
 10
102.44372
 20
138.10712000000001
 11
102.49916
 21
138.11000000000001
  0
LINE
  8
_0-0_0
  6
CONTINUOUS
 62
    1
 10
102.49916
 20
138.11000000000001
 11
102.55387999999999
 21
138.11864
  0
LINE
  8
_0-0_0
  6
CONTINUOUS
 62
    1
 10
102.55387999999999
 20
138.11864
 11
102.60643999999999
 21
138.13015999999999
  0
LINE
  8
_0-0_0
  6
CONTINUOUS
 62
    1
 10
102.60643999999999
 20
138.13015999999999
 11
102.64676
 21
138.13015999999999
  0
LINE
  8
_0-0_0
  6
CONTINUOUS
 62
    1
 10
102.64676
 20
138.13015999999999
 11
102.6842
 21
138.13015999999999
  0
LINE
  8
_0-0_0
  6
CONTINUOUS
 62
    1
 10
102.6842
 20
138.13015999999999
 11
102.71948
 21
138.13015999999999
  0
LINE
  8
_0-0_0
  6
CONTINUOUS
 62
    1
 10
102.71948
 20
138.13015999999999
 11
102.75332
 21
138.13015999999999
  0
LINE
  8
_0-0_0
  6
CONTINUOUS
 62
    1
 10
102.75332
 20
138.13015999999999
 11
102.78644
 21
138.13015999999999
  0
LINE
  8
_0-0_0
  6
CONTINUOUS
 62
    2
 10
99.896010013999998
 20
146.030874345
 11
99.896010013999998
 21
146.468374345
  0
LINE
  8
_0-0_0
  6
CONTINUOUS
 62
    2
 10
99.896010013999998
 20
146.468374345
 11
104.271010014
 21
146.468374345
  0
LINE
  8
_0-0_0
  6
CONTINUOUS
 62
    2
 10
104.271010014
 20
146.468374345
 11
104.271010014
 21
146.030874345
  0
LINE
  8
_0-0_0
  6
CONTINUOUS
 62
    2
 10
100.333510014
 20
146.468374345
 11
100.333510014
 21
146.905874345
  0
LINE
  8
_0-0_0
  6
CONTINUOUS
 62
    2
 10
100.333510014
 20
146.905874345
 11
103.396010014
 21
146.905874345
  0
LINE
  8
_0-0_0
  6
CONTINUOUS
 62
    2
 10
103.396010014
 20
146.905874345
 11
103.833510014
 21
146.905874345
  0
LINE
  8
_0-0_0
  6
CONTINUOUS
 62
    2
 10
103.833510014
 20
146.905874345
 11
103.833510014
 21
146.468374345
  0
ARC
  8
_0-0_0
  6
CONTINUOUS
 62
    2
 10
102.083510014
 20
146.905874345
 40
1.75
 50
0
 51
180
  0
LINE
  8
_0-0_0
  6
CONTINUOUS
 62
    2
 10
102.083510014
 20
149.438642595
 11
102.083510014
 21
145.501142595
  0
LINE
  8
_0-0_0
  6
CONTINUOUS
 62
    2
 10
118.271010014
 20
146.030874345
 11
118.271010014
 21
146.468374345
  0
LINE
  8
_0-0_0
  6
CONTINUOUS
 62
    2
 10
118.271010014
 20
146.468374345
 11
113.896010014
 21
146.468374345
  0
LINE
  8
_0-0_0
  6
CONTINUOUS
 62
    2
 10
113.896010014
 20
146.468374345
 11
113.896010014
 21
146.030874345
  0
LINE
  8
_0-0_0
  6
CONTINUOUS
 62
    2
 10
117.833510014
 20
146.468374345
 11
117.833510014
 21
146.905874345
  0
LINE
  8
_0-0_0
  6
CONTINUOUS
 62
    2
 10
117.833510014
 20
146.905874345
 11
114.771010014
 21
146.905874345
  0
LINE
  8
_0-0_0
  6
CONTINUOUS
 62
    2
 10
114.771010014
 20
146.905874345
 11
114.333510014
 21
146.905874345
  0
LINE
  8
_0-0_0
  6
CONTINUOUS
 62
    2
 10
114.333510014
 20
146.905874345
 11
114.333510014
 21
146.468374345
  0
ARC
  8
_0-0_0
  6
CONTINUOUS
 62
    2
 10
116.083510014
 20
146.905874345
 40
1.75
 50
0
 51
180
  0
LINE
  8
_0-0_0
  6
CONTINUOUS
 62
    2
 10
116.083510014
 20
149.438642595
 11
116.083510014
 21
145.501142595
  0
TEXT
  8
_0-0_0
 62
    7
 10
296.5
 20
60.5
 40
5.7999999999999998
 41
0.8275862069999999
 50
0
  1
ＭＳ－８７６５　　Ａ
  0
TEXT
  8
_0-1_2
 62
    7
 10
213.25
 20
110.09999999999999
 40
2.7000000000000002
 41
0.9
 50
0
  1
構　　　　　造
  0
LINE
  8
_0-1_2
  6
CONTINUOUS
 62
    2
 10
281.89999999999998
 20
113.7
 11
205.90000000000001
 21
113.7
  0
LINE
  8
_0-1_2
  6
CONTINUOUS
 62
    2
 10
205.90000000000001
 20
109.2
 11
281.89999999999998
 21
109.2
  0
LINE
  8
_0-1_2
  6
CONTINUOUS
 62
    2
 10
205.90000000000001
 20
104.7
 11
281.89999999999998
 21
104.7
  0
LINE
  8
_0-1_2
  6
CONTINUOUS
 62
    2
 10
281.89999999999998
 20
118.2
 11
205.90000000000001
 21
118.2
  0
LINE
  8
_0-1_2
  6
CONTINUOUS
 62
    2
 10
205.90000000000001
 20
100.2
 11
281.89999999999998
 21
100.2
  0
LINE
  8
_0-1_2
  6
CONTINUOUS
 62
    2
 10
205.90000000000001
 20
95.700000000000003
 11
281.89999999999998
 21
95.700000000000003
  0
LINE
  8
_0-1_2
  6
CONTINUOUS
 62
    2
 10
205.90000000000001
 20
91.200000000000003
 11
281.89999999999998
 21
91.200000000000003
  0
LINE
  8
_0-1_2
  6
CONTINUOUS
 62
    2
 10
205.90000000000001
 20
86.700000000000003
 11
281.89999999999998
 21
86.700000000000003
  0
LINE
  8
_0-1_2
  6
CONTINUOUS
 62
    2
 10
205.90000000000001
 20
82.200000000000003
 11
281.89999999999998
 21
82.200000000000003
  0
LINE
  8
_0-1_2
  6
CONTINUOUS
 62
    2
 10
261.89999999999998
 20
118.15000000000001
 11
261.89999999999998
 21
113.65000000000001
  0
TEXT
  8
_0-1_2
 62
    7
 10
213.25
 20
114.59999999999999
 40
2.7000000000000002
 41
0.9
 50
0
  1
形　　　　　式
  0
LINE
  8
_0-1_2
  6
CONTINUOUS
 62
    2
 10
205.90000000000001
 20
73.200000000000003
 11
281.89999999999998
 21
73.200000000000003
  0
LINE
  8
_0-1_2
  6
CONTINUOUS
 62
    2
 10
205.90000000000001
 20
68.700000000000003
 11
281.89999999999998
 21
68.700000000000003
  0
LINE
  8
_0-1_2
  6
CONTINUOUS
 62
    2
 10
205.90000000000001
 20
77.700000000000003
 11
281.89999999999998
 21
77.700000000000003
  0
LINE
  8
_0-1_2
  6
CONTINUOUS
 62
    2
 10
205.90000000000001
 20
118.2
 11
205.90000000000001
 21
68.700000000000003
  0
LINE
  8
_0-1_2
  6
CONTINUOUS
 62
    2
 10
241.90000000000001
 20
118.2
 11
241.90000000000001
 21
68.700000000000003
  0
LINE
  8
_0-1_2
  6
CONTINUOUS
 62
    2
 10
281.89999999999998
 20
68.700000000000003
 11
281.89999999999998
 21
118.2
  0
LINE
  8
_0-0_0
  6
CONTINUOUS
 62
    2
 10
200.75000914200001
 20
109.280874345
 11
162.25000914200001
 21
109.280874345
  0
LINE
  8
_0-0_0
  6
CONTINUOUS
 62
    2
 10
162.25000914200001
 20
109.280874345
 11
171.87500914200001
 21
96.155874345000001
  0
LINE
  8
_0-0_0
  6
CONTINUOUS
 62
    2
 10
171.87500914200001
 20
96.155874345000001
 11
191.12500914200001
 21
96.155874345000001
  0
LINE
  8
_0-0_0
  6
CONTINUOUS
 62
    2
 10
191.12500914200001
 20
96.155874345000001
 11
200.75000914200001
 21
109.280874345
  0
LINE
  8
_0-0_0
  6
CONTINUOUS
 62
    2
 10
170.12500914200001
 20
143.405874345
 11
170.12500914200001
 21
147.780874345
  0
ARC
  8
_0-0_0
  6
CONTINUOUS
 62
    2
 10
171.00000914200001
 20
147.780874345
 40
0.875
 50
90
 51
180
  0
LINE
  8
_0-0_0
  6
CONTINUOUS
 62
    2
 10
171.00000914200001
 20
148.65586767000002
 11
192.00000914200001
 21
148.655874345
  0
LINE
  8
_0-0_0
  6
CONTINUOUS
 62
    2
 10
192.87500914200001
 20
143.405874345
 11
192.87500914200001
 21
147.780881021
  0
ARC
  8
_0-0_0
  6
CONTINUOUS
 62
    2
 10
192.00000914200001
 20
147.780881021
 40
0.875
 50
0
 51
90
  0
LINE
  8
_0-0_0
  6
CONTINUOUS
 62
    2
 10
162.25000914200001
 20
109.280874345
 11
162.25001581800001
 21
142.530874345
  0
ARC
  8
_0-0_0
  6
CONTINUOUS
 62
    2
 10
163.12500914200001
 20
142.530874345
 40
0.875
 50
90
 51
180
  0
LINE
  8
_0-0_0
  6
CONTINUOUS
 62
    2
 10
163.12500914200001
 20
143.405874345
 11
199.87500914200001
 21
143.405874345
  0
ARC
  8
_0-0_0
  6
CONTINUOUS
 62
    2
 10
199.87500914200001
 20
142.530874345
 40
0.875
 50
0
 51
90
  0
LINE
  8
_0-0_0
  6
CONTINUOUS
 62
    2
 10
192.87500914200001
 20
146.030874345
 11
199.87500914200001
 21
146.030874345
  0
ARC
  8
_0-0_0
  6
CONTINUOUS
 62
    2
 10
199.87500914200001
 20
145.155874345
 40
0.875
 50
0
 51
90
  0
LINE
  8
_0-0_0
  6
CONTINUOUS
 62
    2
 10
170.12500914200001
 20
146.030874345
 11
163.12500914200001
 21
146.030874345
  0
LINE
  8
_0-0_0
  6
CONTINUOUS
 62
    2
 10
162.25000914200001
 20
142.530874345
 11
162.25001581800001
 21
145.155874345
  0
ARC
  8
_0-0_0
  6
CONTINUOUS
 62
    2
 10
163.12500914200001
 20
145.155874345
 40
0.875
 50
90
 51
180
  0
LINE
  8
_0-0_0
  6
CONTINUOUS
 62
    2
 10
194.62500914200001
 20
146.030874345
 11
194.62500914200001
 21
146.468374345
  0
LINE
  8
_0-0_0
  6
CONTINUOUS
 62
    2
 10
194.62500914200001
 20
146.468374345
 11
199.00000914200001
 21
146.468374345
  0
LINE
  8
_0-0_0
  6
CONTINUOUS
 62
    2
 10
199.00000914200001
 20
146.468374345
 11
199.00000914200001
 21
146.030874345
  0
LINE
  8
_0-0_0
  6
CONTINUOUS
 62
    2
 10
195.06250914200001
 20
146.468374345
 11
195.06250914200001
 21
146.905874345
  0
LINE
  8
_0-0_0
  6
CONTINUOUS
 62
    2
 10
195.06250914200001
 20
146.905874345
 11
198.56250914200001
 21
146.905874345
  0
LINE
  8
_0-0_0
  6
CONTINUOUS
 62
    2
 10
198.56250914200001
 20
146.905874345
 11
198.56250914200001
 21
146.468374345
  0
ARC
  8
_0-0_0
  6
CONTINUOUS
 62
    2
 10
196.81250914200001
 20
146.905874345
 40
1.75
 50
0
 51
180
  0
LINE
  8
_0-0_0
  6
CONTINUOUS
 62
    2
 10
200.31250914200001
 20
147.343374345
 11
200.75000914200001
 21
145.155874345
  0
LINE
  8
_0-0_0
  6
CONTINUOUS
 62
    2
 10
192.87500914200001
 20
147.343374345
 11
195.11807783699999
 21
147.343374345
  0
LINE
  8
_0-0_0
  6
CONTINUOUS
 62
    2
 10
198.50694044700001
 20
147.343374345
 11
200.31250914200001
 21
147.343374345
  0
LINE
  8
_0-0_0
  6
CONTINUOUS
 62
    2
 10
168.37500914200001
 20
146.030874345
 11
168.37500914200001
 21
146.468374345
  0
LINE
  8
_0-0_0
  6
CONTINUOUS
 62
    2
 10
168.37500914200001
 20
146.468374345
 11
164.00000914200001
 21
146.468374345
  0
LINE
  8
_0-0_0
  6
CONTINUOUS
 62
    2
 10
164.00000914200001
 20
146.468374345
 11
164.00000914200001
 21
146.030874345
  0
LINE
  8
_0-0_0
  6
CONTINUOUS
 62
    2
 10
167.93750914200001
 20
146.468374345
 11
167.93750914200001
 21
146.905874345
  0
LINE
  8
_0-0_0
  6
CONTINUOUS
 62
    2
 10
167.93750914200001
 20
146.905874345
 11
164.43750914200001
 21
146.905874345
  0
LINE
  8
_0-0_0
  6
CONTINUOUS
 62
    2
 10
164.43750914200001
 20
146.905874345
 11
164.43750914200001
 21
146.468374345
  0
ARC
  8
_0-0_0
  6
CONTINUOUS
 62
    2
 10
166.18750914200001
 20
146.905874345
 40
1.75
 50
0
 51
180
  0
LINE
  8
_0-0_0
  6
CONTINUOUS
 62
    2
 10
162.68750914200001
 20
147.343374345
 11
162.25000914200001
 21
145.155874345
  0
LINE
  8
_0-0_0
  6
CONTINUOUS
 62
    2
 10
170.12500914200001
 20
147.343374345
 11
167.88194044700001
 21
147.343374345
  0
LINE
  8
_0-0_0
  6
CONTINUOUS
 62
    2
 10
164.49307783699999
 20
147.343374345
 11
162.68750914200001
 21
147.343374345
  0
LINE
  8
_0-0_0
  6
CONTINUOUS
 62
    2
 10
171.00000914200001
 20
90.905874345000001
 11
192.00000914200001
 21
90.905874345000001
  0
LINE
  8
_0-0_0
  6
CONTINUOUS
 62
    2
 10
171.00000914200001
 20
91.780874345000001
 11
192.00000914200001
 21
91.780874345000001
  0
LINE
  8
_0-0_0
  6
CONTINUOUS
 62
    2
 10
179.75000914200001
 20
91.780874345000001
 11
179.75000914200001
 21
90.905874345000001
  0
LINE
  8
_0-0_0
  6
CONTINUOUS
 62
    2
 10
183.25000914200001
 20
91.780874345000001
 11
183.25000914200001
 21
90.905874345000001
  0
LINE
  8
_0-0_0
  6
CONTINUOUS
 62
    2
 10
192.00000914200001
 20
90.905874345000001
 11
192.00000914200001
 21
97.349045846999999
  0
LINE
  8
_0-0_0
  6
CONTINUOUS
 62
    2
 10
171.00000914200001
 20
97.349062535999991
 11
171.00000914200001
 21
90.905874345000001
  0
LINE
  8
_0-0_0
  6
CONTINUOUS
 62
    2
 10
179.75000914200001
 20
90.030874345000001
 11
179.75000914200001
 21
84.259660814
  0
LINE
  8
_0-0_0
  6
CONTINUOUS
 62
    2
 10
183.25000914200001
 20
90.030874345000001
 11
183.25000914200001
 21
84.259660814
  0
LINE
  8
_0-0_0
  6
CONTINUOUS
 62
    2
 10
179.75000914200001
 20
86.009660814
 11
174.97856482100002
 21
86.009660814
  0
LINE
  8
_0-0_0
  6
CONTINUOUS
 62
    2
 10
179.75000914200001
 20
86.009660814
 11
178.05963894600001
 21
86.46259414299999
  0
LINE
  8
_0-0_0
  6
CONTINUOUS
 62
    2
 10
179.75000914200001
 20
86.009660814
 11
178.05963894600001
 21
85.55672748500001
  0
LINE
  8
_0-0_0
  6
CONTINUOUS
 62
    2
 10
183.25000914200001
 20
86.009660814
 11
190.25000914200001
 21
86.009660814
  0
LINE
  8
_0-0_0
  6
CONTINUOUS
 62
    2
 10
183.25000914200001
 20
86.009660814
 11
184.94037933800001
 21
86.46259414299999
  0
LINE
  8
_0-0_0
  6
CONTINUOUS
 62
    2
 10
183.25000914200001
 20
86.009660814
 11
184.94037933800001
 21
85.55672748500001
  0
LINE
  8
_0-0_0
  6
CONTINUOUS
 62
    2
 10
179.75000914200001
 20
86.009660814
 11
183.25000914200001
 21
86.009660814
  0
LINE
  8
_0-0_0
  6
CONTINUOUS
 62
    2
 10
166.58195742200002
 20
148.72040185700001
 11
178.692374788
 21
162.34462556599999
  0
LINE
  8
_0-0_0
  6
CONTINUOUS
 62
    2
 10
166.58195742200002
 20
148.72040185700001
 11
167.366451426
 21
150.28471293799998
  0
LINE
  8
_0-0_0
  6
CONTINUOUS
 62
    2
 10
166.58195742200002
 20
148.72040185700001
 11
168.04350469899998
 21
149.682887991
  0
LINE
  8
_0-0_0
  6
CONTINUOUS
 62
    2
 10
196.48235472299999
 20
148.62445173
 11
178.692374788
 21
162.34462556599999
  0
LINE
  8
_0-0_0
  6
CONTINUOUS
 62
    2
 10
196.48235472299999
 20
148.62445173
 11
194.86721265200001
 21
149.29811046499998
  0
LINE
  8
_0-0_0
  6
CONTINUOUS
 62
    2
 10
196.48235472299999
 20
148.62445173
 11
195.42043002599999
 21
150.01542834399999
  0
LINE
  8
_0-0_0
  6
CONTINUOUS
 62
    2
 10
171.00000914200001
 20
90.030874345000001
 11
171.00000914200001
 21
75.857475851000004
  0
LINE
  8
_0-0_0
  6
CONTINUOUS
 62
    2
 10
192.00000914200001
 20
90.030874345000001
 11
192.00000914200001
 21
75.857475851000004
  0
LINE
  8
_0-0_0
  6
CONTINUOUS
 62
    2
 10
171.00000914200001
 20
77.607475851000004
 11
192.00000914200001
 21
77.607475851000004
  0
LINE
  8
_0-0_0
  6
CONTINUOUS
 62
    2
 10
171.00000914200001
 20
77.607475851000004
 11
172.69037933800001
 21
78.060409179999994
  0
LINE
  8
_0-0_0
  6
CONTINUOUS
 62
    2
 10
171.00000914200001
 20
77.607475851000004
 11
172.69037933800001
 21
77.154542522
  0
LINE
  8
_0-0_0
  6
CONTINUOUS
 62
    2
 10
192.00000914200001
 20
77.607475851000004
 11
190.30963894600001
 21
78.060409179999994
  0
LINE
  8
_0-0_0
  6
CONTINUOUS
 62
    2
 10
192.00000914200001
 20
77.607475851000004
 11
190.30963894600001
 21
77.154542522
  0
LINE
  8
_0-0_0
  6
CONTINUOUS
 62
    2
 10
166.18750914200001
 20
149.438642595
 11
166.18750914200001
 21
145.063642595
  0
LINE
  8
_0-0_0
  6
CONTINUOUS
 62
    2
 10
196.81250914200001
 20
149.43862924299998
 11
196.81250914200001
 21
145.06362924299998
  0
LINE
  8
_0-0_0
  6
LTYPE1
 62
    2
 10
181.49999579000001
 20
90.171244713999997
 11
181.50000914200001
 21
150.782004449
  0
TEXT
  8
_0-0_0
 62
    7
 10
179.72146708899999
 20
163.08335853699998
 40
3.0625
 41
0.7142857139999999
 50
0
  1
４－Ｍ５ネジ
  0
LINE
  8
_0-0_0
  6
CONTINUOUS
 62
    2
 10
178.692374788
 20
162.34462556599999
 11
193.953046038
 21
162.34462556599999
  0
TEXT
  8
_0-0_0
 62
    7
 10
180.50275959999999
 20
86.859119507999992
 40
3.0625
 41
0.7142857139999999
 50
0
  1
８
  0
POINT
  8
_0-0_0
 62
    2
 10
181.13900914200002
 20
88.188642595000005
  0
LINE
  8
_0-0_0
  6
CONTINUOUS
 62
    2
 10
200.75000914200001
 20
109.280874345
 11
200.75000914200001
 21
142.530874345
  0
LINE
  8
_0-0_0
  6
CONTINUOUS
 62
    2
 10
200.75000914200001
 20
142.530874345
 11
200.75000914200001
 21
145.155874345
  0
TEXT
  8
_0-1_2
 62
    7
 10
266.19999999999999
 20
114.3
 40
3
 41
0.5999999999999999
 50
0
  1
ＣＲＭ－４０
  0
TEXT
  8
_0-1_2
 62
    7
 10
245.40000000000001
 20
110.09999999999999
 40
2.7000000000000002
 41
0.9
 50
0
  1
ポリエステル樹脂モールド
  0
TEXT
  8
_0-1_2
 62
    7
 10
246.40000000000001
 20
105.59999999999999
 40
2.7000000000000002
 41
0.8333333330000001
 50
0
  1
ＪＩＳ　Ｃ　１７３１
  0
TEXT
  8
_0-1_2
 62
    7
 10
213.25
 20
105.59999999999999
 40
2.7000000000000002
 41
0.9
 50
0
  1
規　　　　　格
  0
TEXT
  8
_0-1_2
 62
    7
 10
212.75
 20
101.09999999999999
 40
2.7000000000000002
 41
0.9
 50
0
  1
定　格　負　担
  0
TEXT
  8
_0-1_2
 62
    7
 10
245.80000000000001
 20
101.09999999999999
 40
2.7000000000000002
 41
0.8333333330000001
 50
0
  1
１５ＶＡ
  0
TEXT
  8
_0-1_2
 62
    7
 10
266
 20
100.8
 40
2.7000000000000002
 41
0.8333333330000001
 50
0
  1
４０ＶＡ
  0
LINE
  8
_0-1_2
  6
CONTINUOUS
 62
    2
 10
261.89999999999998
 20
104.7
 11
261.89999999999998
 21
100.2
  0
TEXT
  8
_0-1_2
 62
    7
 10
213.25
 20
92.099999999999994
 40
2.7000000000000002
 41
0.9
 50
0
  1
一　次　電　流
  0
TEXT
  8
_0-1_2
 62
    7
 10
213.25
 20
87.599999999999994
 40
2.7000000000000002
 41
0.9
 50
0
  1
二　次　電　流
  0
TEXT
  8
_0-1_2
 62
    7
 10
246.40000000000001
 20
92.099999999999994
 40
2.7000000000000002
 41
0.8333333330000001
 50
0
  1
０．１～１０Ａ
  0
TEXT
  8
_0-1_2
 62
    7
 10
246.40000000000001
 20
87.599999999999994
 40
2.7000000000000002
 41
0.8333333330000001
 50
0
  1
０．１～１０Ａ
  0
TEXT
  8
_0-1_2
 62
    7
 10
246.40000000000001
 20
96.599999999999994
 40
2.7000000000000002
 41
0.8333333330000001
 50
0
  1
１．０　
  0
TEXT
  8
_0-1_2
 62
    7
 10
213.25
 20
96.599999999999994
 40
2.7000000000000002
 41
0.9
 50
0
  1
階　　　　　級
  0
TEXT
  8
_0-1_2
 62
    7
 10
213.25
 20
74.099999999999994
 40
2.7000000000000002
 41
0.9
 50
0
  1
過　電　流　強　度
  0
TEXT
  8
_0-1_2
 62
    7
 10
246.40000000000001
 20
74.099999999999994
 40
2.7000000000000002
 41
0.8333333330000001
 50
0
  1
４０
  0
TEXT
  8
_0-1_2
 62
    7
 10
213.25
 20
83.099999999999994
 40
2.7000000000000002
 41
0.9
 50
0
  1
周　　波　　数
  0
TEXT
  8
_0-1_2
 62
    7
 10
213.25
 20
78.599999999999994
 40
2.7000000000000002
 41
0.9
 50
0
  1
最　高　電　圧
  0
TEXT
  8
_0-1_2
 62
    7
 10
246.40000000000001
 20
78.599999999999994
 40
2.7000000000000002
 41
0.8333333330000001
 50
0
  1
１１５０Ｖ
  0
TEXT
  8
_0-1_2
 62
    7
 10
213.25
 20
69.599999999999994
 40
2.7000000000000002
 41
0.9
 50
0
  1
質　　　　　量
  0
LINE
  8
_0-1_2
  6
CONTINUOUS
 62
    2
 10
261.89999999999998
 20
73.200000000000003
 11
261.89999999999998
 21
68.700000000000003
  0
TEXT
  8
_0-1_2
 62
    7
 10
245.80000000000001
 20
69.599999999999994
 40
2.7000000000000002
 41
0.8333333330000001
 50
0
  1
約２ｋｇ
  0
TEXT
  8
_0-0_0
 62
    7
 10
210.80000000000001
 20
219.15000000000001
 40
3
 41
0.8000000000000001
 50
0
  1
Ｂ
  0
TEXT
  8
_0-0_0
 62
    7
 10
219.40000000000001
 20
219.15000000000001
 40
3
 41
0.8000000000000001
 50
0
  1
Ｃ
  0
TEXT
  8
_0-0_0
 62
    7
 10
184.65000000000001
 20
218.40000000000001
 40
3
 41
0.8000000000000001
 50
0
  1
定格負担
  0
TEXT
  8
_0-0_0
 62
    7
 10
186.084
 20
213.44999999999999
 40
3
 41
0.8000000000000001
 50
0
  1
１５ＶＡ
  0
TEXT
  8
_0-0_0
 62
    7
 10
167.136
 20
213.44999999999999
 40
3
 41
0.8000000000000001
 50
0
  1
ＣＲＭ－１５
  0
TEXT
  8
_0-0_0
 62
    7
 10
202.19999999999999
 20
219.15000000000001
 40
3
 41
0.8000000000000001
 50
0
  1
Ａ
  0
TEXT
  8
_0-0_0
 62
    7
 10
169.822
 20
218.40000000000001
 40
3
 41
0.8000000000000001
 50
0
  1
形　　式
  0
TEXT
  8
_0-0_0
 62
    7
 10
228
 20
219.15000000000001
 40
3
 41
0.8000000000000001
 50
0
  1
Ｆ
  0
TEXT
  8
_0-0_0
 62
    7
 10
236.59999999999999
 20
219.15000000000001
 40
3
 41
0.8000000000000001
 50
0
  1
Ｇ
  0
LINE
  8
_0-0_0
  6
CONTINUOUS
 62
    2
 10
166.59999999999999
 20
224.44999999999999
 11
268.39999999999998
 21
224.44999999999999
  0
LINE
  8
_0-0_0
  6
CONTINUOUS
 62
    2
 10
268.39999999999998
 20
217.44999999999999
 11
166.59999999999999
 21
217.44999999999999
  0
TEXT
  8
_0-0_0
 62
    7
 10
245.19999999999999
 20
219.15000000000001
 40
3
 41
0.8000000000000001
 50
0
  1
ｈ
  0
TEXT
  8
_0-0_0
 62
    7
 10
253.80000000000001
 20
219.15000000000001
 40
3
 41
0.8000000000000001
 50
0
  1
Ｈ
  0
TEXT
  8
_0-0_0
 62
    7
 10
262.39999999999998
 20
219.15000000000001
 40
3
 41
0.8000000000000001
 50
0
  1
Ⅰ
  0
TEXT
  8
_0-0_0
 62
    7
 10
210.17500000000001
 20
208.44999999999999
 40
3
 41
0.8000000000000001
 50
0
  1
９０
  0
TEXT
  8
_0-0_0
 62
    7
 10
235.72499999999999
 20
208.44999999999999
 40
3
 41
0.8000000000000001
 50
0
  1
５０
  0
LINE
  8
_0-0_0
  6
CONTINUOUS
 62
    2
 10
166.59999999999999
 20
212.44999999999999
 11
268.39999999999998
 21
212.44999999999999
  0
LINE
  8
_0-0_0
  6
CONTINUOUS
 62
    2
 10
166.59999999999999
 20
207.44999999999999
 11
268.39999999999998
 21
207.44999999999999
  0
LINE
  8
_0-0_0
  6
CONTINUOUS
 62
    2
 10
216.80000000000001
 20
224.44999999999999
 11
216.80000000000001
 21
207.44999999999999
  0
LINE
  8
_0-0_0
  6
CONTINUOUS
 62
    2
 10
208.19999999999999
 20
224.44999999999999
 11
208.19999999999999
 21
207.44999999999999
  0
LINE
  8
_0-0_0
  6
CONTINUOUS
 62
    2
 10
199.59999999999999
 20
224.44999999999999
 11
199.59999999999999
 21
207.44999999999999
  0
LINE
  8
_0-0_0
  6
CONTINUOUS
 62
    2
 10
183.09999999999999
 20
224.44999999999999
 11
183.09999999999999
 21
207.44999999999999
  0
LINE
  8
_0-0_0
  6
CONTINUOUS
 62
    2
 10
166.59999999999999
 20
224.44999999999999
 11
166.59999999999999
 21
207.44999999999999
  0
LINE
  8
_0-0_0
  6
CONTINUOUS
 62
    2
 10
268.39999999999998
 20
224.44999999999999
 11
268.39999999999998
 21
207.44999999999999
  0
LINE
  8
_0-0_0
  6
CONTINUOUS
 62
    2
 10
259.80000000000001
 20
224.44999999999999
 11
259.80000000000001
 21
207.44999999999999
  0
LINE
  8
_0-0_0
  6
CONTINUOUS
 62
    2
 10
251.19999999999999
 20
224.44999999999999
 11
251.19999999999999
 21
207.44999999999999
  0
LINE
  8
_0-0_0
  6
CONTINUOUS
 62
    2
 10
242.59999999999999
 20
224.44999999999999
 11
242.59999999999999
 21
207.44999999999999
  0
LINE
  8
_0-0_0
  6
CONTINUOUS
 62
    2
 10
234
 20
224.44999999999999
 11
234
 21
207.44999999999999
  0
LINE
  8
_0-0_0
  6
CONTINUOUS
 62
    2
 10
225.40000000000001
 20
224.44999999999999
 11
225.40000000000001
 21
207.44999999999999
  0
TEXT
  8
_0-0_0
 62
    7
 10
167.136
 20
208.44999999999999
 40
3
 41
0.8000000000000001
 50
0
  1
ＣＲＭ－４０
  0
TEXT
  8
_0-0_0
 62
    7
 10
186.084
 20
208.44999999999999
 40
3
 41
0.8000000000000001
 50
0
  1
４０ＶＡ
  0
TEXT
  8
_0-0_0
 62
    7
 10
218.77500000000001
 20
208.44999999999999
 40
3
 41
0.8000000000000001
 50
0
  1
９０
  0
TEXT
  8
_0-0_0
 62
    7
 10
200.125
 20
213.44999999999999
 40
3
 41
0.8000000000000001
 50
0
  1
１００
  0
TEXT
  8
_0-0_0
 62
    7
 10
210.17500000000001
 20
213.44999999999999
 40
3
 41
0.8000000000000001
 50
0
  1
７５
  0
TEXT
  8
_0-0_0
 62
    7
 10
218.77500000000001
 20
213.44999999999999
 40
3
 41
0.8000000000000001
 50
0
  1
７５
  0
TEXT
  8
_0-0_0
 62
    7
 10
227.22499999999999
 20
213.44999999999999
 40
3
 41
0.8000000000000001
 50
0
  1
８４
  0
TEXT
  8
_0-0_0
 62
    7
 10
235.72499999999999
 20
213.44999999999999
 40
3
 41
0.8000000000000001
 50
0
  1
４２
  0
TEXT
  8
_0-0_0
 62
    7
 10
243.125
 20
213.44999999999999
 40
3
 41
0.8000000000000001
 50
0
  1
１０５
  0
TEXT
  8
_0-0_0
 62
    7
 10
251.72499999999999
 20
213.44999999999999
 40
3
 41
0.8000000000000001
 50
0
  1
１１５
  0
TEXT
  8
_0-0_0
 62
    7
 10
261.72500000000002
 20
213.44999999999999
 40
3
 41
0.8000000000000001
 50
0
  1
１０
  0
TEXT
  8
_0-0_0
 62
    7
 10
200.125
 20
208.44999999999999
 40
3
 41
0.8000000000000001
 50
0
  1
１１２
  0
TEXT
  8
_0-0_0
 62
    7
 10
227.22499999999999
 20
208.44999999999999
 40
3
 41
0.8000000000000001
 50
0
  1
９０
  0
TEXT
  8
_0-0_0
 62
    7
 10
243.125
 20
208.44999999999999
 40
3
 41
0.8000000000000001
 50
0
  1
１１０
  0
TEXT
  8
_0-0_0
 62
    7
 10
251.72499999999999
 20
208.44999999999999
 40
3
 41
0.8000000000000001
 50
0
  1
１２５
  0
TEXT
  8
_0-0_0
 62
    7
 10
261.72500000000002
 20
208.44999999999999
 40
3
 41
0.8000000000000001
 50
0
  1
１５
  0
TEXT
  8
_0-1_2
 62
    7
 10
246.19999999999999
 20
114.3
 40
3
 41
0.5999999999999999
 50
0
  1
ＣＲＭ－１５
  0
TEXT
  8
_0-1_2
 62
    7
 10
266
 20
69.599999999999994
 40
2.7000000000000002
 41
0.8333333330000001
 50
0
  1
約３ｋｇ
  0
TEXT
  8
_0-0_0
 62
    7
 10
107.989760014
 20
209.38261995100001
 40
3.0625
 41
0.7142857139999999
 50
0
  1
Ｃ
  0
TEXT
  8
_0-0_0
 62
    7
 10
147.36476001400001
 20
179.63261995100001
 40
3.0625
 41
0.7142857139999999
 50
90
  1
Ｂ
  0
TEXT
  8
_0-0_0
 62
    7
 10
107.62852002700001
 20
80.969892595000005
 40
3.0625
 41
0.7142857139999999
 50
0
  1
Ｆ
  0
TEXT
  8
_0-0_0
 62
    7
 10
180.32875826999998
 20
79.219892595000005
 40
3.0625
 41
0.7142857139999999
 50
0
  1
Ｇ
  0
TEXT
  8
_0-0_0
 62
    7
 10
107.97376088499999
 20
220.32011995100001
 40
3.0625
 41
0.7142857139999999
 50
0
  1
Ａ
  0
TEXT
  8
_0-0_0
 62
    7
 10
140.80458316400001
 20
118.68014259500001
 40
3.0625
 41
0.7142857139999999
 50
90
  1
ｈ
  0
TEXT
  8
_0-0_0
 62
    7
 10
146.92726001400001
 20
118.68014259500001
 40
3.0625
 41
0.7142857139999999
 50
90
  1
Ｈ
  0
TEXT
  8
_0-0_0
 62
    7
 10
140.36476001400001
 20
92.370070380000001
 40
3.0625
 41
0.7142857139999999
 50
90
  1
Ⅰ
  0
TEXT
  8
_0-1_2
 62
    7
 10
246.40000000000001
 20
83.099999999999994
 40
2.7000000000000002
 41
0.8333333330000001
 50
0
  1
５０，６０Ｈｚ
  0
TEXT
  8
_0-0_0
 62
    7
 10
297.5
 20
73.521000000000001
 40
4
 41
0.9
 50
0
  1
変流器　外形図
  0
TEXT
  8
_0-0_0
 62
    7
 10
294.38400000000001
 20
83.099999999999994
 40
4
 41
0.9
 50
0
  1
ＣＲＭ－１５，ＣＲＭ－４０
  0
ENDSEC
  0
EOF
