  0
SECTION
  2
HEADER
  9
$ACADVER
  1
AC1009
  9
$DWGCODEPAGE
  3
dos932
  9
$EXTMIN
 10
0.0
 20
0.0
 30
0.0
  9
$EXTMAX
 10
594.0
 20
420.0
 30
0.0
  9
$LIMMIN
 10
0.0
 20
0.0
  9
$LIMMAX
 10
594.0
 20
420.0
  9
$LTSCALE
 40
1.0
  9
$PDMODE
 70
     0
  0
ENDSEC
  0
SECTION
  2
TABLES
  0
TABLE
  2
VPORT
 70
     1
  0
VPORT
  2
*ACTIVE
 70
     0
 10
0.0
 20
0.0
 11
1.0
 21
1.0
 12
297.0
 22
210.0
 13
0.0
 23
0.0
 14
10.0
 24
10.0
 15
10.0
 25
10.0
 16
0.0
 26
0.0
 36
1.0
 17
0.0
 27
0.0
 37
0.0
 40
594.0
 41
1.414285714
 42
50.0
 43
0.0
 44
0.0
 50
0.0
 51
0.0
 71
     0
 72
  1000
 73
     1
 74
     3
 75
     0
 76
     0
 77
     0
 78
     0
  0
ENDTAB
  0
TABLE
  2
LTYPE
 70
     5
  0
LTYPE
  2
CONTINUOUS
 70
    64
  3
Solid line
 72
    65
 73
     0
 40
0.0
  0
LTYPE
  2
LTYPE1
 70
    64
  3
HIDDEN
 72
    65
 73
     2
 40
3.0
 49
1.8
 49
-1.2
  0
LTYPE
  2
LTYPE2
 70
    64
  3
CENTER
 72
    65
 73
     4
 40
16.0
 49
11.2
 49
-1.6
 49
1.6
 49
-1.6
  0
LTYPE
  2
LTYPE3
 70
    64
  3
HIDDEN
 72
    65
 73
     2
 40
4.0
 49
2.4
 49
-1.6
  0
LTYPE
  2
LTYPE4
 70
    64
  3
CENTER
 72
    65
 73
     4
 40
30.0
 49
21.0
 49
-3.0
 49
3.0
 49
-3.0
  0
ENDTAB
  0
TABLE
  2
LAYER
 70
   128
  0
LAYER
  2
0
 70
     0
 62
     7
  6
CONTINUOUS
  0
LAYER
  2
2
 70
     0
 62
     7
  6
CONTINUOUS
  0
LAYER
  2
3
 70
     0
 62
     7
  6
CONTINUOUS
  0
LAYER
  2
4
 70
     0
 62
     7
  6
CONTINUOUS
  0
LAYER
  2
5
 70
     0
 62
     7
  6
CONTINUOUS
  0
LAYER
  2
6
 70
     0
 62
     7
  6
CONTINUOUS
  0
LAYER
  2
7
 70
     0
 62
     7
  6
CONTINUOUS
  0
LAYER
  2
8
 70
     0
 62
     7
  6
CONTINUOUS
  0
LAYER
  2
9
 70
     0
 62
     7
  6
CONTINUOUS
  0
LAYER
  2
10
 70
     0
 62
     7
  6
CONTINUOUS
  0
LAYER
  2
11
 70
     0
 62
     7
  6
CONTINUOUS
  0
LAYER
  2
12
 70
     0
 62
     7
  6
CONTINUOUS
  0
LAYER
  2
13
 70
     0
 62
     7
  6
CONTINUOUS
  0
LAYER
  2
14
 70
     0
 62
     7
  6
CONTINUOUS
  0
LAYER
  2
15
 70
     0
 62
     7
  6
CONTINUOUS
  0
LAYER
  2
16
 70
     0
 62
     7
  6
CONTINUOUS
  0
LAYER
  2
17
 70
     0
 62
     7
  6
CONTINUOUS
  0
LAYER
  2
18
 70
     0
 62
     7
  6
CONTINUOUS
  0
LAYER
  2
19
 70
     0
 62
     7
  6
CONTINUOUS
  0
LAYER
  2
20
 70
     0
 62
     7
  6
CONTINUOUS
  0
LAYER
  2
21
 70
     0
 62
     7
  6
CONTINUOUS
  0
LAYER
  2
22
 70
     0
 62
     7
  6
CONTINUOUS
  0
LAYER
  2
23
 70
     0
 62
     7
  6
CONTINUOUS
  0
LAYER
  2
24
 70
     0
 62
     7
  6
CONTINUOUS
  0
LAYER
  2
25
 70
     0
 62
     7
  6
CONTINUOUS
  0
LAYER
  2
26
 70
     0
 62
     7
  6
CONTINUOUS
  0
LAYER
  2
27
 70
     0
 62
     7
  6
CONTINUOUS
  0
LAYER
  2
28
 70
     0
 62
     7
  6
CONTINUOUS
  0
LAYER
  2
29
 70
     0
 62
     7
  6
CONTINUOUS
  0
LAYER
  2
30
 70
     0
 62
     7
  6
CONTINUOUS
  0
LAYER
  2
31
 70
     0
 62
     7
  6
CONTINUOUS
  0
LAYER
  2
32
 70
     0
 62
     7
  6
CONTINUOUS
  0
LAYER
  2
33
 70
     0
 62
     7
  6
CONTINUOUS
  0
LAYER
  2
34
 70
     0
 62
     7
  6
CONTINUOUS
  0
LAYER
  2
35
 70
     0
 62
     7
  6
CONTINUOUS
  0
LAYER
  2
36
 70
     0
 62
     7
  6
CONTINUOUS
  0
LAYER
  2
37
 70
     0
 62
     7
  6
CONTINUOUS
  0
LAYER
  2
38
 70
     0
 62
     7
  6
CONTINUOUS
  0
LAYER
  2
39
 70
     0
 62
     7
  6
CONTINUOUS
  0
LAYER
  2
40
 70
     0
 62
     7
  6
CONTINUOUS
  0
LAYER
  2
41
 70
     0
 62
     7
  6
CONTINUOUS
  0
LAYER
  2
42
 70
     0
 62
     7
  6
CONTINUOUS
  0
LAYER
  2
43
 70
     0
 62
     7
  6
CONTINUOUS
  0
LAYER
  2
44
 70
     0
 62
     7
  6
CONTINUOUS
  0
LAYER
  2
45
 70
     0
 62
     7
  6
CONTINUOUS
  0
LAYER
  2
46
 70
     0
 62
     7
  6
CONTINUOUS
  0
LAYER
  2
47
 70
     0
 62
     7
  6
CONTINUOUS
  0
LAYER
  2
48
 70
     0
 62
     7
  6
CONTINUOUS
  0
LAYER
  2
49
 70
     0
 62
     7
  6
CONTINUOUS
  0
LAYER
  2
50
 70
     0
 62
     7
  6
CONTINUOUS
  0
LAYER
  2
51
 70
     0
 62
     7
  6
CONTINUOUS
  0
LAYER
  2
52
 70
     0
 62
     7
  6
CONTINUOUS
  0
LAYER
  2
53
 70
     0
 62
     7
  6
CONTINUOUS
  0
LAYER
  2
54
 70
     0
 62
     7
  6
CONTINUOUS
  0
LAYER
  2
55
 70
     0
 62
     7
  6
CONTINUOUS
  0
LAYER
  2
56
 70
     0
 62
     7
  6
CONTINUOUS
  0
LAYER
  2
57
 70
     0
 62
     7
  6
CONTINUOUS
  0
LAYER
  2
58
 70
     0
 62
     7
  6
CONTINUOUS
  0
LAYER
  2
59
 70
     0
 62
     7
  6
CONTINUOUS
  0
LAYER
  2
60
 70
     0
 62
     7
  6
CONTINUOUS
  0
LAYER
  2
61
 70
     0
 62
     7
  6
CONTINUOUS
  0
LAYER
  2
62
 70
     0
 62
     7
  6
CONTINUOUS
  0
LAYER
  2
63
 70
     0
 62
     7
  6
CONTINUOUS
  0
LAYER
  2
64
 70
     0
 62
     7
  6
CONTINUOUS
  0
LAYER
  2
65
 70
     0
 62
     7
  6
CONTINUOUS
  0
LAYER
  2
66
 70
     0
 62
     7
  6
CONTINUOUS
  0
LAYER
  2
67
 70
     0
 62
     7
  6
CONTINUOUS
  0
LAYER
  2
68
 70
     0
 62
     7
  6
CONTINUOUS
  0
LAYER
  2
69
 70
     0
 62
     7
  6
CONTINUOUS
  0
LAYER
  2
70
 70
     0
 62
     7
  6
CONTINUOUS
  0
LAYER
  2
71
 70
     0
 62
     7
  6
CONTINUOUS
  0
LAYER
  2
72
 70
     0
 62
     7
  6
CONTINUOUS
  0
LAYER
  2
73
 70
     0
 62
     7
  6
CONTINUOUS
  0
LAYER
  2
74
 70
     0
 62
     7
  6
CONTINUOUS
  0
LAYER
  2
75
 70
     0
 62
     7
  6
CONTINUOUS
  0
LAYER
  2
76
 70
     0
 62
     7
  6
CONTINUOUS
  0
LAYER
  2
77
 70
     0
 62
     7
  6
CONTINUOUS
  0
LAYER
  2
78
 70
     0
 62
     7
  6
CONTINUOUS
  0
LAYER
  2
79
 70
     0
 62
     7
  6
CONTINUOUS
  0
LAYER
  2
80
 70
     0
 62
     7
  6
CONTINUOUS
  0
LAYER
  2
81
 70
     0
 62
     7
  6
CONTINUOUS
  0
LAYER
  2
82
 70
     0
 62
     7
  6
CONTINUOUS
  0
LAYER
  2
83
 70
     0
 62
     7
  6
CONTINUOUS
  0
LAYER
  2
84
 70
     0
 62
     7
  6
CONTINUOUS
  0
LAYER
  2
85
 70
     0
 62
     7
  6
CONTINUOUS
  0
LAYER
  2
86
 70
     0
 62
     7
  6
CONTINUOUS
  0
LAYER
  2
87
 70
     0
 62
     7
  6
CONTINUOUS
  0
LAYER
  2
88
 70
     0
 62
     7
  6
CONTINUOUS
  0
LAYER
  2
89
 70
     0
 62
     7
  6
CONTINUOUS
  0
LAYER
  2
90
 70
     0
 62
     7
  6
CONTINUOUS
  0
LAYER
  2
91
 70
     0
 62
     7
  6
CONTINUOUS
  0
LAYER
  2
92
 70
     0
 62
     7
  6
CONTINUOUS
  0
LAYER
  2
93
 70
     0
 62
     7
  6
CONTINUOUS
  0
LAYER
  2
94
 70
     0
 62
     7
  6
CONTINUOUS
  0
LAYER
  2
95
 70
     0
 62
     7
  6
CONTINUOUS
  0
LAYER
  2
96
 70
     0
 62
     7
  6
CONTINUOUS
  0
LAYER
  2
97
 70
     0
 62
     7
  6
CONTINUOUS
  0
LAYER
  2
98
 70
     0
 62
     7
  6
CONTINUOUS
  0
LAYER
  2
99
 70
     0
 62
     7
  6
CONTINUOUS
  0
LAYER
  2
100
 70
     0
 62
     7
  6
CONTINUOUS
  0
LAYER
  2
101
 70
     0
 62
     7
  6
CONTINUOUS
  0
LAYER
  2
102
 70
     0
 62
     7
  6
CONTINUOUS
  0
LAYER
  2
103
 70
     0
 62
     7
  6
CONTINUOUS
  0
LAYER
  2
104
 70
     0
 62
     7
  6
CONTINUOUS
  0
LAYER
  2
105
 70
     0
 62
     7
  6
CONTINUOUS
  0
LAYER
  2
106
 70
     0
 62
     7
  6
CONTINUOUS
  0
LAYER
  2
107
 70
     0
 62
     7
  6
CONTINUOUS
  0
LAYER
  2
108
 70
     0
 62
     7
  6
CONTINUOUS
  0
LAYER
  2
109
 70
     0
 62
     7
  6
CONTINUOUS
  0
LAYER
  2
110
 70
     0
 62
     7
  6
CONTINUOUS
  0
LAYER
  2
111
 70
     0
 62
     7
  6
CONTINUOUS
  0
LAYER
  2
112
 70
     0
 62
     7
  6
CONTINUOUS
  0
LAYER
  2
113
 70
     0
 62
     7
  6
CONTINUOUS
  0
LAYER
  2
114
 70
     0
 62
     7
  6
CONTINUOUS
  0
LAYER
  2
115
 70
     0
 62
     7
  6
CONTINUOUS
  0
LAYER
  2
116
 70
     0
 62
     7
  6
CONTINUOUS
  0
LAYER
  2
117
 70
     0
 62
     7
  6
CONTINUOUS
  0
LAYER
  2
118
 70
     0
 62
     7
  6
CONTINUOUS
  0
LAYER
  2
119
 70
     0
 62
     7
  6
CONTINUOUS
  0
LAYER
  2
120
 70
     0
 62
     7
  6
CONTINUOUS
  0
LAYER
  2
121
 70
     0
 62
     7
  6
CONTINUOUS
  0
LAYER
  2
122
 70
     0
 62
     7
  6
CONTINUOUS
  0
LAYER
  2
123
 70
     0
 62
     7
  6
CONTINUOUS
  0
LAYER
  2
124
 70
     0
 62
     7
  6
CONTINUOUS
  0
LAYER
  2
125
 70
     0
 62
     7
  6
CONTINUOUS
  0
LAYER
  2
126
 70
     0
 62
     7
  6
CONTINUOUS
  0
LAYER
  2
127
 70
     0
 62
     7
  6
CONTINUOUS
  0
LAYER
  2
128
 70
     0
 62
     7
  6
CONTINUOUS
  0
ENDTAB
  0
TABLE
  2
STYLE
 70
    10
  0
STYLE
  2
STANDARD
 70
     0
 40
0.0
 41
1.0
 50
0.0
 71
     0
 42
0.2
  3
txt.shx
  4
extfont.shx
  0
STYLE
  2
KANJI0
 70
     0
 40
6.0
 41
0.6
 50
0.0
 71
     0
 42
6.0
  3
txt.shx
  4
extfont.shx
  0
STYLE
  2
KANJI1
 70
     0
 40
3.6
 41
0.6
 50
0.0
 71
     0
 42
3.6
  3
txt.shx
  4
extfont.shx
  0
STYLE
  2
KANJI2
 70
     0
 40
3.932544
 41
0.45
 50
0.0
 71
     0
 42
3.932544
  3
txt.shx
  4
extfont.shx
  0
STYLE
  2
KANJI3
 70
     0
 40
7.2
 41
0.666666667
 50
0.0
 71
     0
 42
7.2
  3
txt.shx
  4
extfont.shx
  0
STYLE
  2
KANJI4
 70
     0
 40
6.0
 41
0.9
 50
0.0
 71
     0
 42
6.0
  3
txt.shx
  4
extfont.shx
  0
STYLE
  2
KANJI5
 70
     0
 40
3.932544
 41
0.9
 50
0.0
 71
     0
 42
3.932544
  3
txt.shx
  4
extfont.shx
  0
STYLE
  2
KANJI6
 70
     0
 40
11.7
 41
0.664615385
 50
0.0
 71
     0
 42
11.7
  3
txt.shx
  4
extfont.shx
  0
STYLE
  2
KANJI7
 70
     0
 40
8.32
 41
0.9
 50
0.0
 71
     0
 42
8.32
  3
txt.shx
  4
extfont.shx
  0
STYLE
  2
KANJI8
 70
     0
 40
10.0
 41
0.9
 50
0.0
 71
     0
 42
10.0
  3
txt.shx
  4
extfont.shx
  0
ENDTAB
  0
TABLE
  2
VIEW
 70
     0
  0
ENDTAB
  0
ENDSEC
  0
SECTION
  2
BLOCKS
  0
ENDSEC
  0
SECTION
  2
ENTITIES
  0
CIRCLE
  8
0
  6
CONTINUOUS
 62
     1
 10
145.990115011
 20
190.674848
 30
0.0
 40
3.440976
  0
LINE
  8
0
  6
CONTINUOUS
 62
     1
 10
88.968227011
 20
256.54496
 30
0.0
 11
88.968227011
 21
237.865376
 31
0.0
  0
LINE
  8
0
  6
CONTINUOUS
 62
     1
 10
88.968227011
 20
237.865376
 30
0.0
 11
97.816451011
 21
237.865376
 31
0.0
  0
LINE
  8
0
  6
CONTINUOUS
 62
     1
 10
97.816451011
 20
237.865376
 30
0.0
 11
97.816451011
 21
252.612416
 31
0.0
  0
LINE
  8
0
  6
CONTINUOUS
 62
     1
 10
97.816451011
 20
252.612416
 30
0.0
 11
99.782723011
 21
252.612416
 31
0.0
  0
LINE
  8
0
  6
CONTINUOUS
 62
     1
 10
99.782723011
 20
252.612416
 30
0.0
 11
99.782723011
 21
237.865376
 31
0.0
  0
LINE
  8
0
  6
CONTINUOUS
 62
     1
 10
99.782723011
 20
237.865376
 30
0.0
 11
108.630947011
 21
237.865376
 31
0.0
  0
LINE
  8
0
  6
CONTINUOUS
 62
     1
 10
108.630947011
 20
237.865376
 30
0.0
 11
108.630947011
 21
252.612416
 31
0.0
  0
LINE
  8
0
  6
CONTINUOUS
 62
     1
 10
108.630947011
 20
252.612416
 30
0.0
 11
110.597219011
 21
252.612416
 31
0.0
  0
LINE
  8
0
  6
CONTINUOUS
 62
     1
 10
110.597219011
 20
252.612416
 30
0.0
 11
110.597219011
 21
237.865376
 31
0.0
  0
LINE
  8
0
  6
CONTINUOUS
 62
     1
 10
110.597219011
 20
237.865376
 30
0.0
 11
119.445443011
 21
237.865376
 31
0.0
  0
LINE
  8
0
  6
CONTINUOUS
 62
     1
 10
119.445443011
 20
237.865376
 30
0.0
 11
119.445443011
 21
252.612416
 31
0.0
  0
LINE
  8
0
  6
CONTINUOUS
 62
     1
 10
119.445443011
 20
252.612416
 30
0.0
 11
121.411715011
 21
252.612416
 31
0.0
  0
LINE
  8
0
  6
CONTINUOUS
 62
     1
 10
121.411715011
 20
252.612416
 30
0.0
 11
121.411715011
 21
237.865376
 31
0.0
  0
LINE
  8
0
  6
CONTINUOUS
 62
     1
 10
121.411715011
 20
237.865376
 30
0.0
 11
130.259939011
 21
237.865376
 31
0.0
  0
LINE
  8
0
  6
CONTINUOUS
 62
     1
 10
130.259939011
 20
237.865376
 30
0.0
 11
130.259939011
 21
252.612416
 31
0.0
  0
LINE
  8
0
  6
CONTINUOUS
 62
     1
 10
130.259939011
 20
252.612416
 30
0.0
 11
132.226211011
 21
252.612416
 31
0.0
  0
LINE
  8
0
  6
CONTINUOUS
 62
     1
 10
132.226211011
 20
252.612416
 30
0.0
 11
132.226211011
 21
237.865376
 31
0.0
  0
POINT
  8
0
  6
CONTINUOUS
 62
     1
 10
132.226211011
 20
237.865376
 30
0.0
  0
LINE
  8
0
  6
CONTINUOUS
 62
     1
 10
132.226211011
 20
237.865376
 30
0.0
 11
141.074435011
 21
237.865376
 31
0.0
  0
LINE
  8
0
  6
CONTINUOUS
 62
     1
 10
141.074435011
 20
237.865376
 30
0.0
 11
141.074435011
 21
252.612416
 31
0.0
  0
LINE
  8
0
  6
CONTINUOUS
 62
     1
 10
141.074435011
 20
252.612416
 30
0.0
 11
143.040707011
 21
252.612416
 31
0.0
  0
LINE
  8
0
  6
CONTINUOUS
 62
     1
 10
143.040707011
 20
252.612416
 30
0.0
 11
143.040707011
 21
237.865376
 31
0.0
  0
LINE
  8
0
  6
CONTINUOUS
 62
     1
 10
143.040707011
 20
237.865376
 30
0.0
 11
151.888931011
 21
237.865376
 31
0.0
  0
LINE
  8
0
  6
CONTINUOUS
 62
     1
 10
151.888931011
 20
237.865376
 30
0.0
 11
151.888931011
 21
256.54496
 31
0.0
  0
LINE
  8
0
  6
CONTINUOUS
 62
     1
 10
151.888931011
 20
248.679872
 30
0.0
 11
143.040707011
 21
248.679872
 31
0.0
  0
LINE
  8
0
  6
CONTINUOUS
 62
     1
 10
141.074435011
 20
248.679872
 30
0.0
 11
132.226211011
 21
248.679872
 31
0.0
  0
LINE
  8
0
  6
CONTINUOUS
 62
     1
 10
130.259939011
 20
248.679872
 30
0.0
 11
121.411715011
 21
248.679872
 31
0.0
  0
LINE
  8
0
  6
CONTINUOUS
 62
     1
 10
119.445443011
 20
248.679872
 30
0.0
 11
110.597219011
 21
248.679872
 31
0.0
  0
LINE
  8
0
  6
CONTINUOUS
 62
     1
 10
108.630947011
 20
248.679872
 30
0.0
 11
99.782723011
 21
248.679872
 31
0.0
  0
LINE
  8
0
  6
CONTINUOUS
 62
     1
 10
97.816451011
 20
248.679872
 30
0.0
 11
88.968227011
 21
248.679872
 31
0.0
  0
LINE
  8
0
  6
CONTINUOUS
 62
     1
 10
94.375475011
 20
237.865376
 30
0.0
 11
94.375475011
 21
220.168928
 31
0.0
  0
LINE
  8
0
  6
CONTINUOUS
 62
     1
 10
94.375475011
 20
220.168928
 30
0.0
 11
103.223699011
 21
220.168928
 31
0.0
  0
LINE
  8
0
  6
CONTINUOUS
 62
     1
 10
103.223699011
 20
220.168928
 30
0.0
 11
103.223699011
 21
234.915968
 31
0.0
  0
LINE
  8
0
  6
CONTINUOUS
 62
     1
 10
103.223699011
 20
234.915968
 30
0.0
 11
105.189971011
 21
234.915968
 31
0.0
  0
LINE
  8
0
  6
CONTINUOUS
 62
     1
 10
105.189971011
 20
234.915968
 30
0.0
 11
105.189971011
 21
220.168928
 31
0.0
  0
LINE
  8
0
  6
CONTINUOUS
 62
     1
 10
105.189971011
 20
220.168928
 30
0.0
 11
114.038195011
 21
220.168928
 31
0.0
  0
LINE
  8
0
  6
CONTINUOUS
 62
     1
 10
114.038195011
 20
220.168928
 30
0.0
 11
114.038195011
 21
234.915968
 31
0.0
  0
LINE
  8
0
  6
CONTINUOUS
 62
     1
 10
114.038195011
 20
234.915968
 30
0.0
 11
116.004467011
 21
234.915968
 31
0.0
  0
LINE
  8
0
  6
CONTINUOUS
 62
     1
 10
116.004467011
 20
234.915968
 30
0.0
 11
116.004467011
 21
220.168928
 31
0.0
  0
LINE
  8
0
  6
CONTINUOUS
 62
     1
 10
116.004467011
 20
220.168928
 30
0.0
 11
124.852691011
 21
220.168928
 31
0.0
  0
LINE
  8
0
  6
CONTINUOUS
 62
     1
 10
124.852691011
 20
220.168928
 30
0.0
 11
124.852691011
 21
234.915968
 31
0.0
  0
LINE
  8
0
  6
CONTINUOUS
 62
     1
 10
124.852691011
 20
234.915968
 30
0.0
 11
126.818963011
 21
234.915968
 31
0.0
  0
LINE
  8
0
  6
CONTINUOUS
 62
     1
 10
126.818963011
 20
234.915968
 30
0.0
 11
126.818963011
 21
220.168928
 31
0.0
  0
LINE
  8
0
  6
CONTINUOUS
 62
     1
 10
126.818963011
 20
220.168928
 30
0.0
 11
135.667187011
 21
220.168928
 31
0.0
  0
LINE
  8
0
  6
CONTINUOUS
 62
     1
 10
135.667187011
 20
220.168928
 30
0.0
 11
135.667187011
 21
234.915968
 31
0.0
  0
LINE
  8
0
  6
CONTINUOUS
 62
     1
 10
135.667187011
 20
234.915968
 30
0.0
 11
137.633459011
 21
234.915968
 31
0.0
  0
LINE
  8
0
  6
CONTINUOUS
 62
     1
 10
137.633459011
 20
234.915968
 30
0.0
 11
137.633459011
 21
220.168928
 31
0.0
  0
LINE
  8
0
  6
CONTINUOUS
 62
     1
 10
137.633459011
 20
220.168928
 30
0.0
 11
146.481683011
 21
220.168928
 31
0.0
  0
LINE
  8
0
  6
CONTINUOUS
 62
     1
 10
146.481683011
 20
220.168928
 30
0.0
 11
146.481683011
 21
237.865376
 31
0.0
  0
LINE
  8
0
  6
CONTINUOUS
 62
     1
 10
146.481683011
 20
230.983424
 30
0.0
 11
137.633459011
 21
230.983424
 31
0.0
  0
LINE
  8
0
  6
CONTINUOUS
 62
     1
 10
135.667187011
 20
230.983424
 30
0.0
 11
126.818963011
 21
230.983424
 31
0.0
  0
LINE
  8
0
  6
CONTINUOUS
 62
     1
 10
124.852691011
 20
230.983424
 30
0.0
 11
116.004467011
 21
230.983424
 31
0.0
  0
LINE
  8
0
  6
CONTINUOUS
 62
     1
 10
114.038195011
 20
230.983424
 30
0.0
 11
105.189971011
 21
230.983424
 31
0.0
  0
LINE
  8
0
  6
CONTINUOUS
 62
     1
 10
103.223699011
 20
230.983424
 30
0.0
 11
94.375475011
 21
230.983424
 31
0.0
  0
LINE
  8
0
  6
CONTINUOUS
 62
     1
 10
105.189971011
 20
164.130176
 30
0.0
 11
105.189971011
 21
182.80976
 31
0.0
  0
LINE
  8
0
  6
CONTINUOUS
 62
     1
 10
105.189971011
 20
182.80976
 30
0.0
 11
114.038195011
 21
182.80976
 31
0.0
  0
LINE
  8
0
  6
CONTINUOUS
 62
     1
 10
114.038195011
 20
182.80976
 30
0.0
 11
114.038195011
 21
168.06272
 31
0.0
  0
LINE
  8
0
  6
CONTINUOUS
 62
     1
 10
114.038195011
 20
168.06272
 30
0.0
 11
116.004467011
 21
168.06272
 31
0.0
  0
LINE
  8
0
  6
CONTINUOUS
 62
     1
 10
116.004467011
 20
168.06272
 30
0.0
 11
116.004467011
 21
182.80976
 31
0.0
  0
LINE
  8
0
  6
CONTINUOUS
 62
     1
 10
116.004467011
 20
182.80976
 30
0.0
 11
124.852691011
 21
182.80976
 31
0.0
  0
LINE
  8
0
  6
CONTINUOUS
 62
     1
 10
124.852691011
 20
182.80976
 30
0.0
 11
124.852691011
 21
168.06272
 31
0.0
  0
LINE
  8
0
  6
CONTINUOUS
 62
     1
 10
124.852691011
 20
168.06272
 30
0.0
 11
126.818963011
 21
168.06272
 31
0.0
  0
LINE
  8
0
  6
CONTINUOUS
 62
     1
 10
126.818963011
 20
168.06272
 30
0.0
 11
126.818963011
 21
182.80976
 31
0.0
  0
LINE
  8
0
  6
CONTINUOUS
 62
     1
 10
126.818963011
 20
182.80976
 30
0.0
 11
135.667187011
 21
182.80976
 31
0.0
  0
LINE
  8
0
  6
CONTINUOUS
 62
     1
 10
135.667187011
 20
182.80976
 30
0.0
 11
135.667187011
 21
164.130176
 31
0.0
  0
LINE
  8
0
  6
CONTINUOUS
 62
     1
 10
135.667187011
 20
171.995264
 30
0.0
 11
126.818963011
 21
171.995264
 31
0.0
  0
LINE
  8
0
  6
CONTINUOUS
 62
     1
 10
124.852691011
 20
171.995264
 30
0.0
 11
116.004467011
 21
171.995264
 31
0.0
  0
LINE
  8
0
  6
CONTINUOUS
 62
     1
 10
114.038195011
 20
171.995264
 30
0.0
 11
105.189971011
 21
171.995264
 31
0.0
  0
ARC
  8
0
  6
CONTINUOUS
 62
     1
 10
120.428579011
 20
156.265088
 30
0.0
 40
2.949408
 50
0.0
 51
180.0
  0
CIRCLE
  8
0
  6
CONTINUOUS
 62
     1
 10
104.206835011
 20
243.272624
 30
0.0
 40
3.932544
  0
ARC
  8
0
  6
CONTINUOUS
 62
     1
 10
104.206835011
 20
246.05335253
 30
0.0
 40
1.474704
 50
225.0
 51
315.0
  0
ARC
  8
0
  6
CONTINUOUS
 62
     1
 10
101.426106482
 20
243.272624
 30
0.0
 40
1.474704
 50
315.0
 51
45.0
  0
ARC
  8
0
  6
CONTINUOUS
 62
     1
 10
104.206835011
 20
240.49189547
 30
0.0
 40
1.474704
 50
45.0
 51
135.0
  0
ARC
  8
0
  6
CONTINUOUS
 62
     1
 10
106.987563541
 20
243.272624
 30
0.0
 40
1.474704
 50
135.0
 51
225.0
  0
LINE
  8
0
  6
CONTINUOUS
 62
     1
 10
105.944790343
 20
244.315397199
 30
0.0
 11
106.431417835
 21
244.941061118
 31
0.0
  0
LINE
  8
0
  6
CONTINUOUS
 62
     1
 10
106.431417835
 20
244.941061118
 30
0.0
 11
105.875272129
 21
245.497206824
 31
0.0
  0
LINE
  8
0
  6
CONTINUOUS
 62
     1
 10
105.875272129
 20
245.497206824
 30
0.0
 11
105.24960821
 21
245.010579331
 31
0.0
  0
LINE
  8
0
  6
CONTINUOUS
 62
     1
 10
103.164061813
 20
245.010579331
 30
0.0
 11
102.538397894
 21
245.497206824
 31
0.0
  0
LINE
  8
0
  6
CONTINUOUS
 62
     1
 10
102.538397894
 20
245.497206824
 30
0.0
 11
101.982252188
 21
244.941061118
 31
0.0
  0
LINE
  8
0
  6
CONTINUOUS
 62
     1
 10
101.982252188
 20
244.941061118
 30
0.0
 11
102.46887968
 21
244.315397199
 31
0.0
  0
LINE
  8
0
  6
CONTINUOUS
 62
     1
 10
102.46887968
 20
242.229850801
 30
0.0
 11
101.982252188
 21
241.604186882
 31
0.0
  0
LINE
  8
0
  6
CONTINUOUS
 62
     1
 10
101.982252188
 20
241.604186882
 30
0.0
 11
102.538397894
 21
241.048041176
 31
0.0
  0
LINE
  8
0
  6
CONTINUOUS
 62
     1
 10
102.538397894
 20
241.048041176
 30
0.0
 11
103.164061813
 21
241.534668669
 31
0.0
  0
LINE
  8
0
  6
CONTINUOUS
 62
     1
 10
105.24960821
 20
241.534668669
 30
0.0
 11
105.875272129
 21
241.048041176
 31
0.0
  0
LINE
  8
0
  6
CONTINUOUS
 62
     1
 10
105.875272129
 20
241.048041176
 30
0.0
 11
106.431417835
 21
241.604186882
 31
0.0
  0
LINE
  8
0
  6
CONTINUOUS
 62
     1
 10
106.431417835
 20
241.604186882
 30
0.0
 11
105.944790343
 21
242.229850801
 31
0.0
  0
CIRCLE
  8
0
  6
CONTINUOUS
 62
     1
 10
93.392339011
 20
243.272624
 30
0.0
 40
3.932544
  0
ARC
  8
0
  6
CONTINUOUS
 62
     1
 10
93.392339011
 20
246.05335253
 30
0.0
 40
1.474704
 50
225.0
 51
315.0
  0
ARC
  8
0
  6
CONTINUOUS
 62
     1
 10
90.611610482
 20
243.272624
 30
0.0
 40
1.474704
 50
315.0
 51
45.0
  0
ARC
  8
0
  6
CONTINUOUS
 62
     1
 10
93.392339011
 20
240.49189547
 30
0.0
 40
1.474704
 50
45.0
 51
135.0
  0
ARC
  8
0
  6
CONTINUOUS
 62
     1
 10
96.173067541
 20
243.272624
 30
0.0
 40
1.474704
 50
135.0
 51
225.0
  0
LINE
  8
0
  6
CONTINUOUS
 62
     1
 10
95.130294343
 20
244.315397199
 30
0.0
 11
95.616921835
 21
244.941061118
 31
0.0
  0
LINE
  8
0
  6
CONTINUOUS
 62
     1
 10
95.616921835
 20
244.941061118
 30
0.0
 11
95.060776129
 21
245.497206824
 31
0.0
  0
LINE
  8
0
  6
CONTINUOUS
 62
     1
 10
95.060776129
 20
245.497206824
 30
0.0
 11
94.43511221
 21
245.010579331
 31
0.0
  0
LINE
  8
0
  6
CONTINUOUS
 62
     1
 10
92.349565813
 20
245.010579331
 30
0.0
 11
91.723901894
 21
245.497206824
 31
0.0
  0
LINE
  8
0
  6
CONTINUOUS
 62
     1
 10
91.723901894
 20
245.497206824
 30
0.0
 11
91.167756188
 21
244.941061118
 31
0.0
  0
LINE
  8
0
  6
CONTINUOUS
 62
     1
 10
91.167756188
 20
244.941061118
 30
0.0
 11
91.65438368
 21
244.315397199
 31
0.0
  0
LINE
  8
0
  6
CONTINUOUS
 62
     1
 10
91.65438368
 20
242.229850801
 30
0.0
 11
91.167756188
 21
241.604186882
 31
0.0
  0
LINE
  8
0
  6
CONTINUOUS
 62
     1
 10
91.167756188
 20
241.604186882
 30
0.0
 11
91.723901894
 21
241.048041176
 31
0.0
  0
LINE
  8
0
  6
CONTINUOUS
 62
     1
 10
91.723901894
 20
241.048041176
 30
0.0
 11
92.349565813
 21
241.534668669
 31
0.0
  0
LINE
  8
0
  6
CONTINUOUS
 62
     1
 10
94.43511221
 20
241.534668669
 30
0.0
 11
95.060776129
 21
241.048041176
 31
0.0
  0
LINE
  8
0
  6
CONTINUOUS
 62
     1
 10
95.060776129
 20
241.048041176
 30
0.0
 11
95.616921835
 21
241.604186882
 31
0.0
  0
LINE
  8
0
  6
CONTINUOUS
 62
     1
 10
95.616921835
 20
241.604186882
 30
0.0
 11
95.130294343
 21
242.229850801
 31
0.0
  0
CIRCLE
  8
0
  6
CONTINUOUS
 62
     1
 10
109.515769411
 20
177.402512
 30
0.0
 40
3.932544
  0
ARC
  8
0
  6
CONTINUOUS
 62
     1
 10
109.515769411
 20
180.18324053
 30
0.0
 40
1.474704
 50
225.0
 51
315.0
  0
ARC
  8
0
  6
CONTINUOUS
 62
     1
 10
106.735040882
 20
177.402512
 30
0.0
 40
1.474704
 50
315.0
 51
45.0
  0
ARC
  8
0
  6
CONTINUOUS
 62
     1
 10
109.515769411
 20
174.62178347
 30
0.0
 40
1.474704
 50
45.0
 51
135.0
  0
ARC
  8
0
  6
CONTINUOUS
 62
     1
 10
112.296497941
 20
177.402512
 30
0.0
 40
1.474704
 50
135.0
 51
225.0
  0
LINE
  8
0
  6
CONTINUOUS
 62
     1
 10
111.253724743
 20
178.445285199
 30
0.0
 11
111.740352235
 21
179.070949118
 31
0.0
  0
LINE
  8
0
  6
CONTINUOUS
 62
     1
 10
111.740352235
 20
179.070949118
 30
0.0
 11
111.184206529
 21
179.627094824
 31
0.0
  0
LINE
  8
0
  6
CONTINUOUS
 62
     1
 10
111.184206529
 20
179.627094824
 30
0.0
 11
110.55854261
 21
179.140467331
 31
0.0
  0
LINE
  8
0
  6
CONTINUOUS
 62
     1
 10
108.472996213
 20
179.140467331
 30
0.0
 11
107.847332294
 21
179.627094824
 31
0.0
  0
LINE
  8
0
  6
CONTINUOUS
 62
     1
 10
107.847332294
 20
179.627094824
 30
0.0
 11
107.291186588
 21
179.070949118
 31
0.0
  0
LINE
  8
0
  6
CONTINUOUS
 62
     1
 10
107.291186588
 20
179.070949118
 30
0.0
 11
107.77781408
 21
178.445285199
 31
0.0
  0
LINE
  8
0
  6
CONTINUOUS
 62
     1
 10
107.77781408
 20
176.359738801
 30
0.0
 11
107.291186588
 21
175.734074882
 31
0.0
  0
LINE
  8
0
  6
CONTINUOUS
 62
     1
 10
107.291186588
 20
175.734074882
 30
0.0
 11
107.847332294
 21
175.177929176
 31
0.0
  0
LINE
  8
0
  6
CONTINUOUS
 62
     1
 10
107.847332294
 20
175.177929176
 30
0.0
 11
108.472996213
 21
175.664556669
 31
0.0
  0
LINE
  8
0
  6
CONTINUOUS
 62
     1
 10
110.55854261
 20
175.664556669
 30
0.0
 11
111.184206529
 21
175.177929176
 31
0.0
  0
LINE
  8
0
  6
CONTINUOUS
 62
     1
 10
111.184206529
 20
175.177929176
 30
0.0
 11
111.740352235
 21
175.734074882
 31
0.0
  0
LINE
  8
0
  6
CONTINUOUS
 62
     1
 10
111.740352235
 20
175.734074882
 30
0.0
 11
111.253724743
 21
176.359738801
 31
0.0
  0
ARC
  8
0
  6
CONTINUOUS
 62
     1
 10
86.412073411
 20
164.5234304
 30
0.0
 40
0.3932544
 50
180.0
 51
270.0
  0
ARC
  8
0
  6
CONTINUOUS
 62
     1
 10
154.838339011
 20
164.130176
 30
0.0
 40
0.983136
 50
270.0
 51
0.0
  0
LINE
  8
0
  6
CONTINUOUS
 62
     1
 10
86.412073411
 20
164.130176
 30
0.0
 11
154.445084611
 21
164.130176
 31
0.0
  0
ARC
  8
0
  6
CONTINUOUS
 62
     1
 10
154.445084611
 20
164.5234304
 30
0.0
 40
0.3932544
 50
270.0
 51
0.0
  0
LINE
  8
0
  6
CONTINUOUS
 62
     1
 10
155.821475011
 20
164.130176
 30
0.0
 11
155.821475011
 21
256.54496
 31
0.0
  0
ARC
  8
0
  6
CONTINUOUS
 62
     1
 10
154.838339011
 20
256.54496
 30
0.0
 40
0.983136
 50
360.0
 51
90.0
  0
LINE
  8
0
  6
CONTINUOUS
 62
     1
 10
154.838339011
 20
164.5234304
 30
0.0
 11
154.838339011
 21
256.1517056
 31
0.0
  0
ARC
  8
0
  6
CONTINUOUS
 62
     1
 10
154.445084611
 20
256.1517056
 30
0.0
 40
0.3932544
 50
0.0
 51
90.0
  0
LINE
  8
0
  6
CONTINUOUS
 62
     1
 10
154.838339011
 20
257.528096
 30
0.0
 11
86.018819011
 21
257.528096
 31
0.0
  0
ARC
  8
0
  6
CONTINUOUS
 62
     1
 10
86.018819011
 20
256.54496
 30
0.0
 40
0.983136
 50
90.0
 51
180.0
  0
LINE
  8
0
  6
CONTINUOUS
 62
     1
 10
86.018819011
 20
256.1517056
 30
0.0
 11
86.018819011
 21
164.5234304
 31
0.0
  0
LINE
  8
0
  6
CONTINUOUS
 62
     1
 10
154.445084611
 20
256.54496
 30
0.0
 11
86.412073411
 21
256.54496
 31
0.0
  0
ARC
  8
0
  6
CONTINUOUS
 62
     1
 10
86.412073411
 20
256.1517056
 30
0.0
 40
0.3932544
 50
90.0
 51
180.0
  0
LINE
  8
0
  6
CONTINUOUS
 62
     1
 10
85.035683011
 20
256.54496
 30
0.0
 11
85.035683011
 21
164.130176
 31
0.0
  0
LINE
  8
0
  6
CONTINUOUS
 62
     1
 10
86.018819011
 20
163.14704
 30
0.0
 11
154.838339011
 21
163.14704
 31
0.0
  0
ARC
  8
0
  6
CONTINUOUS
 62
     1
 10
86.018819011
 20
164.130176
 30
0.0
 40
0.983136
 50
180.0
 51
270.0
  0
LINE
  8
0
  6
CONTINUOUS
 62
     1
 10
110.105651011
 20
257.528096
 30
0.0
 11
110.584547238
 21
271.894982804
 31
0.0
  0
ARC
  8
0
  6
CONTINUOUS
 62
     1
 10
110.977583345
 20
271.8818816
 30
0.0
 40
0.3932544
 50
90.0
 51
178.090847567
  0
LINE
  8
0
  6
CONTINUOUS
 62
     1
 10
110.977583345
 20
272.275136
 30
0.0
 11
117.085916611
 21
272.275136
 31
0.0
  0
ARC
  8
0
  6
CONTINUOUS
 62
     1
 10
117.085916611
 20
271.8818816
 30
0.0
 40
0.3932544
 50
0.0
 51
90.0
  0
ARC
  8
0
  6
CONTINUOUS
 62
     1
 10
123.771241411
 20
271.8818816
 30
0.0
 40
0.3932544
 50
90.0
 51
180.0
  0
LINE
  8
0
  6
CONTINUOUS
 62
     1
 10
130.272610785
 20
271.894982804
 30
0.0
 11
130.751507011
 21
257.528096
 31
0.0
  0
LINE
  8
0
  6
CONTINUOUS
 62
     1
 10
123.771241411
 20
272.275136
 30
0.0
 11
129.879574677
 21
272.275136
 31
0.0
  0
ARC
  8
0
  6
CONTINUOUS
 62
     1
 10
129.879574677
 20
271.8818816
 30
0.0
 40
0.3932544
 50
1.909152433
 51
90.0
  0
LINE
  8
0
  6
CONTINUOUS
 62
     1
 10
110.105651011
 20
163.14704
 30
0.0
 11
110.584547238
 21
148.780153196
 31
0.0
  0
ARC
  8
0
  6
CONTINUOUS
 62
     1
 10
110.977583345
 20
148.7932544
 30
0.0
 40
0.3932544
 50
181.909152433
 51
270.0
  0
LINE
  8
0
  6
CONTINUOUS
 62
     1
 10
117.479171011
 20
148.7932544
 30
0.0
 11
117.479171011
 21
156.265088
 31
0.0
  0
LINE
  8
0
  6
CONTINUOUS
 62
     1
 10
110.977583345
 20
148.4
 30
0.0
 11
117.085916611
 21
148.4
 31
0.0
  0
ARC
  8
0
  6
CONTINUOUS
 62
     1
 10
117.085916611
 20
148.7932544
 30
0.0
 40
0.3932544
 50
270.0
 51
0.0
  0
LINE
  8
0
  6
CONTINUOUS
 62
     1
 10
123.377987011
 20
156.265088
 30
0.0
 11
123.377987011
 21
148.7932544
 31
0.0
  0
ARC
  8
0
  6
CONTINUOUS
 62
     1
 10
123.771241411
 20
148.7932544
 30
0.0
 40
0.3932544
 50
180.0
 51
270.0
  0
LINE
  8
0
  6
CONTINUOUS
 62
     1
 10
130.272610785
 20
148.780153196
 30
0.0
 11
130.751507011
 21
163.14704
 31
0.0
  0
LINE
  8
0
  6
CONTINUOUS
 62
     1
 10
123.771241411
 20
148.4
 30
0.0
 11
129.879574677
 21
148.4
 31
0.0
  0
ARC
  8
0
  6
CONTINUOUS
 62
     1
 10
129.879574677
 20
148.7932544
 30
0.0
 40
0.3932544
 50
270.0
 51
358.090847567
  0
CIRCLE
  8
0
  6
CONTINUOUS
 62
     1
 10
136.650323011
 20
243.272624
 30
0.0
 40
3.932544
  0
ARC
  8
0
  6
CONTINUOUS
 62
     1
 10
136.650323011
 20
246.05335253
 30
0.0
 40
1.474704
 50
225.0
 51
315.0
  0
ARC
  8
0
  6
CONTINUOUS
 62
     1
 10
133.869594482
 20
243.272624
 30
0.0
 40
1.474704
 50
315.0
 51
45.0
  0
ARC
  8
0
  6
CONTINUOUS
 62
     1
 10
136.650323011
 20
240.49189547
 30
0.0
 40
1.474704
 50
45.0
 51
135.0
  0
ARC
  8
0
  6
CONTINUOUS
 62
     1
 10
139.431051541
 20
243.272624
 30
0.0
 40
1.474704
 50
135.0
 51
225.0
  0
LINE
  8
0
  6
CONTINUOUS
 62
     1
 10
138.388278343
 20
244.315397199
 30
0.0
 11
138.874905835
 21
244.941061118
 31
0.0
  0
LINE
  8
0
  6
CONTINUOUS
 62
     1
 10
138.874905835
 20
244.941061118
 30
0.0
 11
138.318760129
 21
245.497206824
 31
0.0
  0
LINE
  8
0
  6
CONTINUOUS
 62
     1
 10
138.318760129
 20
245.497206824
 30
0.0
 11
137.69309621
 21
245.010579331
 31
0.0
  0
LINE
  8
0
  6
CONTINUOUS
 62
     1
 10
135.607549813
 20
245.010579331
 30
0.0
 11
134.981885894
 21
245.497206824
 31
0.0
  0
LINE
  8
0
  6
CONTINUOUS
 62
     1
 10
134.981885894
 20
245.497206824
 30
0.0
 11
134.425740188
 21
244.941061118
 31
0.0
  0
LINE
  8
0
  6
CONTINUOUS
 62
     1
 10
134.425740188
 20
244.941061118
 30
0.0
 11
134.91236768
 21
244.315397199
 31
0.0
  0
LINE
  8
0
  6
CONTINUOUS
 62
     1
 10
134.91236768
 20
242.229850801
 30
0.0
 11
134.425740188
 21
241.604186882
 31
0.0
  0
LINE
  8
0
  6
CONTINUOUS
 62
     1
 10
134.425740188
 20
241.604186882
 30
0.0
 11
134.981885894
 21
241.048041176
 31
0.0
  0
LINE
  8
0
  6
CONTINUOUS
 62
     1
 10
134.981885894
 20
241.048041176
 30
0.0
 11
135.607549813
 21
241.534668669
 31
0.0
  0
LINE
  8
0
  6
CONTINUOUS
 62
     1
 10
137.69309621
 20
241.534668669
 30
0.0
 11
138.318760129
 21
241.048041176
 31
0.0
  0
LINE
  8
0
  6
CONTINUOUS
 62
     1
 10
138.318760129
 20
241.048041176
 30
0.0
 11
138.874905835
 21
241.604186882
 31
0.0
  0
LINE
  8
0
  6
CONTINUOUS
 62
     1
 10
138.874905835
 20
241.604186882
 30
0.0
 11
138.388278343
 21
242.229850801
 31
0.0
  0
CIRCLE
  8
0
  6
CONTINUOUS
 62
     1
 10
147.464819011
 20
243.272624
 30
0.0
 40
3.932544
  0
ARC
  8
0
  6
CONTINUOUS
 62
     1
 10
147.464819011
 20
246.05335253
 30
0.0
 40
1.474704
 50
225.0
 51
315.0
  0
ARC
  8
0
  6
CONTINUOUS
 62
     1
 10
144.684090482
 20
243.272624
 30
0.0
 40
1.474704
 50
315.0
 51
45.0
  0
ARC
  8
0
  6
CONTINUOUS
 62
     1
 10
147.464819011
 20
240.49189547
 30
0.0
 40
1.474704
 50
45.0
 51
135.0
  0
ARC
  8
0
  6
CONTINUOUS
 62
     1
 10
150.245547541
 20
243.272624
 30
0.0
 40
1.474704
 50
135.0
 51
225.0
  0
LINE
  8
0
  6
CONTINUOUS
 62
     1
 10
149.202774343
 20
244.315397199
 30
0.0
 11
149.689401835
 21
244.941061118
 31
0.0
  0
LINE
  8
0
  6
CONTINUOUS
 62
     1
 10
149.689401835
 20
244.941061118
 30
0.0
 11
149.133256129
 21
245.497206824
 31
0.0
  0
LINE
  8
0
  6
CONTINUOUS
 62
     1
 10
149.133256129
 20
245.497206824
 30
0.0
 11
148.50759221
 21
245.010579331
 31
0.0
  0
LINE
  8
0
  6
CONTINUOUS
 62
     1
 10
146.422045813
 20
245.010579331
 30
0.0
 11
145.796381894
 21
245.497206824
 31
0.0
  0
LINE
  8
0
  6
CONTINUOUS
 62
     1
 10
145.796381894
 20
245.497206824
 30
0.0
 11
145.240236188
 21
244.941061118
 31
0.0
  0
LINE
  8
0
  6
CONTINUOUS
 62
     1
 10
145.240236188
 20
244.941061118
 30
0.0
 11
145.72686368
 21
244.315397199
 31
0.0
  0
LINE
  8
0
  6
CONTINUOUS
 62
     1
 10
145.72686368
 20
242.229850801
 30
0.0
 11
145.240236188
 21
241.604186882
 31
0.0
  0
LINE
  8
0
  6
CONTINUOUS
 62
     1
 10
145.240236188
 20
241.604186882
 30
0.0
 11
145.796381894
 21
241.048041176
 31
0.0
  0
LINE
  8
0
  6
CONTINUOUS
 62
     1
 10
145.796381894
 20
241.048041176
 30
0.0
 11
146.422045813
 21
241.534668669
 31
0.0
  0
LINE
  8
0
  6
CONTINUOUS
 62
     1
 10
148.50759221
 20
241.534668669
 30
0.0
 11
149.133256129
 21
241.048041176
 31
0.0
  0
LINE
  8
0
  6
CONTINUOUS
 62
     1
 10
149.133256129
 20
241.048041176
 30
0.0
 11
149.689401835
 21
241.604186882
 31
0.0
  0
LINE
  8
0
  6
CONTINUOUS
 62
     1
 10
149.689401835
 20
241.604186882
 30
0.0
 11
149.202774343
 21
242.229850801
 31
0.0
  0
CIRCLE
  8
0
  6
CONTINUOUS
 62
     1
 10
120.428579011
 20
225.576176
 30
0.0
 40
3.932544
  0
ARC
  8
0
  6
CONTINUOUS
 62
     1
 10
120.428579011
 20
228.35690453
 30
0.0
 40
1.474704
 50
225.0
 51
315.0
  0
ARC
  8
0
  6
CONTINUOUS
 62
     1
 10
117.647850482
 20
225.576176
 30
0.0
 40
1.474704
 50
315.0
 51
45.0
  0
ARC
  8
0
  6
CONTINUOUS
 62
     1
 10
120.428579011
 20
222.79544747
 30
0.0
 40
1.474704
 50
45.0
 51
135.0
  0
ARC
  8
0
  6
CONTINUOUS
 62
     1
 10
123.209307541
 20
225.576176
 30
0.0
 40
1.474704
 50
135.0
 51
225.0
  0
LINE
  8
0
  6
CONTINUOUS
 62
     1
 10
122.166534343
 20
226.618949199
 30
0.0
 11
122.653161835
 21
227.244613118
 31
0.0
  0
LINE
  8
0
  6
CONTINUOUS
 62
     1
 10
122.653161835
 20
227.244613118
 30
0.0
 11
122.097016129
 21
227.800758824
 31
0.0
  0
LINE
  8
0
  6
CONTINUOUS
 62
     1
 10
122.097016129
 20
227.800758824
 30
0.0
 11
121.47135221
 21
227.314131331
 31
0.0
  0
LINE
  8
0
  6
CONTINUOUS
 62
     1
 10
119.385805813
 20
227.314131331
 30
0.0
 11
118.760141894
 21
227.800758824
 31
0.0
  0
LINE
  8
0
  6
CONTINUOUS
 62
     1
 10
118.760141894
 20
227.800758824
 30
0.0
 11
118.203996188
 21
227.244613118
 31
0.0
  0
LINE
  8
0
  6
CONTINUOUS
 62
     1
 10
118.203996188
 20
227.244613118
 30
0.0
 11
118.69062368
 21
226.618949199
 31
0.0
  0
LINE
  8
0
  6
CONTINUOUS
 62
     1
 10
118.69062368
 20
224.533402801
 30
0.0
 11
118.203996188
 21
223.907738882
 31
0.0
  0
LINE
  8
0
  6
CONTINUOUS
 62
     1
 10
118.203996188
 20
223.907738882
 30
0.0
 11
118.760141894
 21
223.351593176
 31
0.0
  0
LINE
  8
0
  6
CONTINUOUS
 62
     1
 10
118.760141894
 20
223.351593176
 30
0.0
 11
119.385805813
 21
223.838220669
 31
0.0
  0
LINE
  8
0
  6
CONTINUOUS
 62
     1
 10
121.47135221
 20
223.838220669
 30
0.0
 11
122.097016129
 21
223.351593176
 31
0.0
  0
LINE
  8
0
  6
CONTINUOUS
 62
     1
 10
122.097016129
 20
223.351593176
 30
0.0
 11
122.653161835
 21
223.907738882
 31
0.0
  0
LINE
  8
0
  6
CONTINUOUS
 62
     1
 10
122.653161835
 20
223.907738882
 30
0.0
 11
122.166534343
 21
224.533402801
 31
0.0
  0
CIRCLE
  8
0
  6
CONTINUOUS
 62
     1
 10
131.243075011
 20
177.402512
 30
0.0
 40
3.932544
  0
ARC
  8
0
  6
CONTINUOUS
 62
     1
 10
131.243075011
 20
180.18324053
 30
0.0
 40
1.474704
 50
225.0
 51
315.0
  0
ARC
  8
0
  6
CONTINUOUS
 62
     1
 10
128.462346482
 20
177.402512
 30
0.0
 40
1.474704
 50
315.0
 51
45.0
  0
ARC
  8
0
  6
CONTINUOUS
 62
     1
 10
131.243075011
 20
174.62178347
 30
0.0
 40
1.474704
 50
45.0
 51
135.0
  0
ARC
  8
0
  6
CONTINUOUS
 62
     1
 10
134.023803541
 20
177.402512
 30
0.0
 40
1.474704
 50
135.0
 51
225.0
  0
LINE
  8
0
  6
CONTINUOUS
 62
     1
 10
132.981030343
 20
178.445285199
 30
0.0
 11
133.467657835
 21
179.070949118
 31
0.0
  0
LINE
  8
0
  6
CONTINUOUS
 62
     1
 10
133.467657835
 20
179.070949118
 30
0.0
 11
132.911512129
 21
179.627094824
 31
0.0
  0
LINE
  8
0
  6
CONTINUOUS
 62
     1
 10
132.911512129
 20
179.627094824
 30
0.0
 11
132.28584821
 21
179.140467331
 31
0.0
  0
LINE
  8
0
  6
CONTINUOUS
 62
     1
 10
130.200301813
 20
179.140467331
 30
0.0
 11
129.574637894
 21
179.627094824
 31
0.0
  0
LINE
  8
0
  6
CONTINUOUS
 62
     1
 10
129.574637894
 20
179.627094824
 30
0.0
 11
129.018492188
 21
179.070949118
 31
0.0
  0
LINE
  8
0
  6
CONTINUOUS
 62
     1
 10
129.018492188
 20
179.070949118
 30
0.0
 11
129.50511968
 21
178.445285199
 31
0.0
  0
LINE
  8
0
  6
CONTINUOUS
 62
     1
 10
129.50511968
 20
176.359738801
 30
0.0
 11
129.018492188
 21
175.734074882
 31
0.0
  0
LINE
  8
0
  6
CONTINUOUS
 62
     1
 10
129.018492188
 20
175.734074882
 30
0.0
 11
129.574637894
 21
175.177929176
 31
0.0
  0
LINE
  8
0
  6
CONTINUOUS
 62
     1
 10
129.574637894
 20
175.177929176
 30
0.0
 11
130.200301813
 21
175.664556669
 31
0.0
  0
LINE
  8
0
  6
CONTINUOUS
 62
     1
 10
132.28584821
 20
175.664556669
 30
0.0
 11
132.911512129
 21
175.177929176
 31
0.0
  0
LINE
  8
0
  6
CONTINUOUS
 62
     1
 10
132.911512129
 20
175.177929176
 30
0.0
 11
133.467657835
 21
175.734074882
 31
0.0
  0
LINE
  8
0
  6
CONTINUOUS
 62
     1
 10
133.467657835
 20
175.734074882
 30
0.0
 11
132.981030343
 21
176.359738801
 31
0.0
  0
CIRCLE
  8
0
  6
CONTINUOUS
 62
     1
 10
145.990115011
 20
200.997776
 30
0.0
 40
3.440976
  0
CIRCLE
  8
0
  6
CONTINUOUS
 62
     1
 10
142.057571011
 20
225.576176
 30
0.0
 40
3.932544
  0
ARC
  8
0
  6
CONTINUOUS
 62
     1
 10
142.057571011
 20
228.35690453
 30
0.0
 40
1.474704
 50
225.0
 51
315.0
  0
ARC
  8
0
  6
CONTINUOUS
 62
     1
 10
139.276842482
 20
225.576176
 30
0.0
 40
1.474704
 50
315.0
 51
45.0
  0
ARC
  8
0
  6
CONTINUOUS
 62
     1
 10
142.057571011
 20
222.79544747
 30
0.0
 40
1.474704
 50
45.0
 51
135.0
  0
ARC
  8
0
  6
CONTINUOUS
 62
     1
 10
144.838299541
 20
225.576176
 30
0.0
 40
1.474704
 50
135.0
 51
225.0
  0
LINE
  8
0
  6
CONTINUOUS
 62
     1
 10
143.795526343
 20
226.618949199
 30
0.0
 11
144.282153835
 21
227.244613118
 31
0.0
  0
LINE
  8
0
  6
CONTINUOUS
 62
     1
 10
144.282153835
 20
227.244613118
 30
0.0
 11
143.726008129
 21
227.800758824
 31
0.0
  0
LINE
  8
0
  6
CONTINUOUS
 62
     1
 10
143.726008129
 20
227.800758824
 30
0.0
 11
143.10034421
 21
227.314131331
 31
0.0
  0
LINE
  8
0
  6
CONTINUOUS
 62
     1
 10
141.014797813
 20
227.314131331
 30
0.0
 11
140.389133894
 21
227.800758824
 31
0.0
  0
LINE
  8
0
  6
CONTINUOUS
 62
     1
 10
140.389133894
 20
227.800758824
 30
0.0
 11
139.832988188
 21
227.244613118
 31
0.0
  0
LINE
  8
0
  6
CONTINUOUS
 62
     1
 10
139.832988188
 20
227.244613118
 30
0.0
 11
140.31961568
 21
226.618949199
 31
0.0
  0
LINE
  8
0
  6
CONTINUOUS
 62
     1
 10
140.31961568
 20
224.533402801
 30
0.0
 11
139.832988188
 21
223.907738882
 31
0.0
  0
LINE
  8
0
  6
CONTINUOUS
 62
     1
 10
139.832988188
 20
223.907738882
 30
0.0
 11
140.389133894
 21
223.351593176
 31
0.0
  0
LINE
  8
0
  6
CONTINUOUS
 62
     1
 10
140.389133894
 20
223.351593176
 30
0.0
 11
141.014797813
 21
223.838220669
 31
0.0
  0
LINE
  8
0
  6
CONTINUOUS
 62
     1
 10
143.10034421
 20
223.838220669
 30
0.0
 11
143.726008129
 21
223.351593176
 31
0.0
  0
LINE
  8
0
  6
CONTINUOUS
 62
     1
 10
143.726008129
 20
223.351593176
 30
0.0
 11
144.282153835
 21
223.907738882
 31
0.0
  0
LINE
  8
0
  6
CONTINUOUS
 62
     1
 10
144.282153835
 20
223.907738882
 30
0.0
 11
143.795526343
 21
224.533402801
 31
0.0
  0
CIRCLE
  8
0
  6
CONTINUOUS
 62
     1
 10
115.021331011
 20
243.272624
 30
0.0
 40
3.932544
  0
CIRCLE
  8
0
  6
CONTINUOUS
 62
     1
 10
125.835827011
 20
243.272624
 30
0.0
 40
3.932544
  0
ARC
  8
0
  6
CONTINUOUS
 62
     1
 10
125.835827011
 20
246.05335253
 30
0.0
 40
1.474704
 50
225.0
 51
315.0
  0
ARC
  8
0
  6
CONTINUOUS
 62
     1
 10
123.055098482
 20
243.272624
 30
0.0
 40
1.474704
 50
315.0
 51
45.0
  0
ARC
  8
0
  6
CONTINUOUS
 62
     1
 10
125.835827011
 20
240.49189547
 30
0.0
 40
1.474704
 50
45.0
 51
135.0
  0
ARC
  8
0
  6
CONTINUOUS
 62
     1
 10
128.616555541
 20
243.272624
 30
0.0
 40
1.474704
 50
135.0
 51
225.0
  0
LINE
  8
0
  6
CONTINUOUS
 62
     1
 10
127.573782343
 20
244.315397199
 30
0.0
 11
128.060409835
 21
244.941061118
 31
0.0
  0
LINE
  8
0
  6
CONTINUOUS
 62
     1
 10
128.060409835
 20
244.941061118
 30
0.0
 11
127.504264129
 21
245.497206824
 31
0.0
  0
LINE
  8
0
  6
CONTINUOUS
 62
     1
 10
127.504264129
 20
245.497206824
 30
0.0
 11
126.87860021
 21
245.010579331
 31
0.0
  0
LINE
  8
0
  6
CONTINUOUS
 62
     1
 10
124.793053813
 20
245.010579331
 30
0.0
 11
124.167389894
 21
245.497206824
 31
0.0
  0
LINE
  8
0
  6
CONTINUOUS
 62
     1
 10
124.167389894
 20
245.497206824
 30
0.0
 11
123.611244188
 21
244.941061118
 31
0.0
  0
LINE
  8
0
  6
CONTINUOUS
 62
     1
 10
123.611244188
 20
244.941061118
 30
0.0
 11
124.09787168
 21
244.315397199
 31
0.0
  0
LINE
  8
0
  6
CONTINUOUS
 62
     1
 10
124.09787168
 20
242.229850801
 30
0.0
 11
123.611244188
 21
241.604186882
 31
0.0
  0
LINE
  8
0
  6
CONTINUOUS
 62
     1
 10
123.611244188
 20
241.604186882
 30
0.0
 11
124.167389894
 21
241.048041176
 31
0.0
  0
LINE
  8
0
  6
CONTINUOUS
 62
     1
 10
124.167389894
 20
241.048041176
 30
0.0
 11
124.793053813
 21
241.534668669
 31
0.0
  0
LINE
  8
0
  6
CONTINUOUS
 62
     1
 10
126.87860021
 20
241.534668669
 30
0.0
 11
127.504264129
 21
241.048041176
 31
0.0
  0
LINE
  8
0
  6
CONTINUOUS
 62
     1
 10
127.504264129
 20
241.048041176
 30
0.0
 11
128.060409835
 21
241.604186882
 31
0.0
  0
LINE
  8
0
  6
CONTINUOUS
 62
     1
 10
128.060409835
 20
241.604186882
 30
0.0
 11
127.573782343
 21
242.229850801
 31
0.0
  0
CIRCLE
  8
0
  6
CONTINUOUS
 62
     1
 10
98.799587011
 20
225.576176
 30
0.0
 40
3.932544
  0
CIRCLE
  8
0
  6
CONTINUOUS
 62
     1
 10
109.614083011
 20
225.576176
 30
0.0
 40
3.932544
  0
CIRCLE
  8
0
  6
CONTINUOUS
 62
     1
 10
131.243075011
 20
225.576176
 30
0.0
 40
3.932544
  0
CIRCLE
  8
0
  6
CONTINUOUS
 62
     1
 10
120.526892611
 20
177.402512
 30
0.0
 40
3.932544
  0
TEXT
  8
0
  6
CONTINUOUS
 62
     2
 10
111.668579011
 20
321.7
 30
0.6
 40
6.0
  1
７２
 50
0.0
 41
0.6
 51
0.0
  7
KANJI0
  0
TEXT
  8
0
  6
CONTINUOUS
 62
     2
 10
120.368579011
 20
325.3
 30
0.36
 40
3.6
  1
±０．５
 50
0.0
 41
0.6
 51
0.0
  7
KANJI1
  0
TEXT
  8
0
  6
CONTINUOUS
 62
     2
 10
118.628579011
 20
296.844963815
 30
0.6
 40
6.0
  1
６
 50
0.0
 41
0.6
 51
0.0
  7
KANJI0
  0
TEXT
  8
0
  6
CONTINUOUS
 62
     2
 10
138.157571011
 20
310.172624
 30
0.6
 40
6.0
  1
１１
 50
0.0
 41
0.6
 51
0.0
  7
KANJI0
  0
TEXT
  8
0
  6
CONTINUOUS
 62
     2
 10
103.128579011
 20
310.172624
 30
0.6
 40
6.0
  1
９
 50
0.0
 41
0.6
 51
0.0
  7
KANJI0
  0
TEXT
  8
0
  6
CONTINUOUS
 62
     2
 10
92.900771011
 20
186.742304
 30
0.3932544
 40
3.932544
  1
Ｎ．Ｐ．
 50
0.0
 41
0.45
 51
0.0
  7
KANJI2
  0
TEXT
  8
0
  6
CONTINUOUS
 62
     2
 10
62.179171011
 20
206.437568
 30
0.6
 40
6.0
  1
９６
 50
90.0
 41
0.6
 51
0.0
  7
KANJI0
  0
LINE
  8
0
  6
CONTINUOUS
 62
     2
 10
52.318821144
 20
156.265088
 30
0.0
 11
53.612916369
 21
161.094717131
 31
0.0
  0
LINE
  8
0
  6
CONTINUOUS
 62
     2
 10
52.318821144
 20
156.265088
 30
0.0
 11
51.024725918
 21
161.094717131
 31
0.0
  0
TEXT
  8
0
  6
CONTINUOUS
 62
     2
 10
50.318821144
 20
199.477568
 30
0.6
 40
6.0
  1
１１０
 50
90.0
 41
0.6
 51
0.0
  7
KANJI0
  0
TEXT
  8
0
  6
CONTINUOUS
 62
     2
 10
46.718821144
 20
212.377568
 30
0.36
 40
3.6
  1
±０．５
 50
90.0
 41
0.6
 51
0.0
  7
KANJI1
  0
LINE
  8
0
  6
CONTINUOUS
 62
     2
 10
178.956243011
 20
166.080864
 30
0.0
 11
259.356243011
 21
166.080864
 31
0.0
  0
LINE
  8
0
  6
CONTINUOUS
 62
     2
 10
178.456243011
 20
200.080864
 30
0.0
 11
242.656243011
 21
200.080864
 31
0.0
  0
TEXT
  8
0
  6
CONTINUOUS
 62
     2
 10
178.456243011
 20
202.080864
 30
0.6
 40
7.2
  1
電源表示灯（緑色ＬＥＤ）
 50
0.0
 41
0.666666667
 51
0.0
  7
KANJI3
  0
LINE
  8
0
  6
CONTINUOUS
 62
     2
 10
177.856243011
 20
214.380864
 30
0.0
 11
242.056243011
 21
214.380864
 31
0.0
  0
TEXT
  8
0
  6
CONTINUOUS
 62
     2
 10
177.856243011
 20
216.380864
 30
0.6
 40
7.2
  1
検出表示灯（赤色ＬＥＤ）
 50
0.0
 41
0.666666667
 51
0.0
  7
KANJI3
  0
LINE
  8
0
  6
CONTINUOUS
 62
     1
 10
400.7
 20
258.4
 30
0.0
 11
400.7
 21
162.4
 31
0.0
  0
LINE
  8
0
  6
CONTINUOUS
 62
     1
 10
299.698634066
 20
257.565277967
 30
0.0
 11
299.698634066
 21
163.265277967
 31
0.0
  0
LINE
  8
0
  6
CONTINUOUS
 62
     1
 10
279.7
 20
186.9
 30
0.0
 11
278.7
 21
186.9
 31
0.0
  0
LINE
  8
0
  6
CONTINUOUS
 62
     1
 10
278.7
 20
186.9
 30
0.0
 11
278.7
 21
193.9
 31
0.0
  0
LINE
  8
0
  6
CONTINUOUS
 62
     1
 10
278.7
 20
193.9
 30
0.0
 11
279.7
 21
193.9
 31
0.0
  0
LINE
  8
0
  6
CONTINUOUS
 62
     1
 10
400.7
 20
162.4
 30
0.0
 11
299.698634066
 21
163.234722033
 31
0.0
  0
LINE
  8
0
  6
CONTINUOUS
 62
     1
 10
299.698634066
 20
257.565277967
 30
0.0
 11
400.7
 21
258.4
 31
0.0
  0
LINE
  8
0
  6
CONTINUOUS
 62
     1
 10
299.698634066
 20
186.4
 30
0.0
 11
298.698634066
 21
186.4
 31
0.0
  0
LINE
  8
0
  6
CONTINUOUS
 62
     1
 10
298.698634066
 20
186.4
 30
0.0
 11
298.698634066
 21
184.4
 31
0.0
  0
LINE
  8
0
  6
CONTINUOUS
 62
     1
 10
298.698634066
 20
184.4
 30
0.0
 11
299.698634066
 21
184.4
 31
0.0
  0
LINE
  8
0
  6
CONTINUOUS
 62
     1
 10
299.698634066
 20
234.4
 30
0.0
 11
298.698634066
 21
234.4
 31
0.0
  0
LINE
  8
0
  6
CONTINUOUS
 62
     1
 10
298.698634066
 20
234.4
 30
0.0
 11
298.698634066
 21
236.4
 31
0.0
  0
LINE
  8
0
  6
CONTINUOUS
 62
     1
 10
298.698634066
 20
236.4
 30
0.0
 11
299.698634066
 21
236.4
 31
0.0
  0
LINE
  8
0
  6
CONTINUOUS
 62
     1
 10
280.7
 20
257.4
 30
0.0
 11
299.698634066
 21
257.4
 31
0.0
  0
ARC
  8
0
  6
CONTINUOUS
 62
     1
 10
280.7
 20
256.4
 30
0.0
 40
1.0
 50
90.0
 51
180.0
  0
LINE
  8
0
  6
CONTINUOUS
 62
     1
 10
280.7
 20
163.4
 30
0.0
 11
299.698634066
 21
163.4
 31
0.0
  0
LINE
  8
0
  6
CONTINUOUS
 62
     1
 10
279.7
 20
164.4
 30
0.0
 11
279.7
 21
256.4
 31
0.0
  0
ARC
  8
0
  6
CONTINUOUS
 62
     1
 10
280.7
 20
164.4
 30
0.0
 40
1.0
 50
180.0
 51
270.0
  0
LINE
  8
0
  6
CONTINUOUS
 62
     1
 10
393.7
 20
148.8
 30
0.0
 11
393.7
 21
162.4
 31
0.0
  0
ARC
  8
0
  6
CONTINUOUS
 62
     1
 10
394.1
 20
148.8
 30
0.0
 40
0.4
 50
180.0
 51
270.0
  0
LINE
  8
0
  6
CONTINUOUS
 62
     1
 10
400.7
 20
162.4
 30
0.0
 11
400.7
 21
148.8
 31
0.0
  0
LINE
  8
0
  6
CONTINUOUS
 62
     1
 10
400.3
 20
148.4
 30
0.0
 11
394.1
 21
148.4
 31
0.0
  0
ARC
  8
0
  6
CONTINUOUS
 62
     1
 10
400.3
 20
148.8
 30
0.0
 40
0.4
 50
270.0
 51
0.0
  0
LINE
  8
0
  6
CONTINUOUS
 62
     1
 10
393.700478077
 20
258.342152711
 30
0.0
 11
393.700478077
 21
272.0
 31
0.0
  0
ARC
  8
0
  6
CONTINUOUS
 62
     1
 10
394.100478077
 20
272.0
 30
0.0
 40
0.4
 50
90.0
 51
180.0
  0
LINE
  8
0
  6
CONTINUOUS
 62
     1
 10
400.700464417
 20
271.999986341
 30
0.0
 11
400.7
 21
258.4
 31
0.0
  0
LINE
  8
0
  6
CONTINUOUS
 62
     1
 10
394.100478077
 20
272.4
 30
0.0
 11
400.300464417
 21
272.4
 31
0.0
  0
ARC
  8
0
  6
CONTINUOUS
 62
     1
 10
400.300464417
 20
272.0
 30
0.0
 40
0.4
 50
359.998043444
 51
90.0
  0
TEXT
  8
0
  6
CONTINUOUS
 62
     2
 10
331.120232208
 20
321.7
 30
0.6
 40
6.0
  1
１２５
 50
0.0
 41
0.6
 51
0.0
  7
KANJI0
  0
TEXT
  8
0
  6
CONTINUOUS
 62
     2
 10
344.020232208
 20
325.3
 30
0.36
 40
3.6
  1
±０．５
 50
0.0
 41
0.6
 51
0.0
  7
KANJI1
  0
TEXT
  8
0
  6
CONTINUOUS
 62
     2
 10
395.400471247
 20
309.199986341
 30
0.6
 40
6.0
  1
７
 50
0.0
 41
0.6
 51
0.0
  7
KANJI0
  0
TEXT
  8
0
  6
CONTINUOUS
 62
     2
 10
330.700239038
 20
309.199986341
 30
0.6
 40
6.0
  1
１１４
 50
0.0
 41
0.6
 51
0.0
  7
KANJI0
  0
TEXT
  8
0
  6
CONTINUOUS
 62
     2
 10
306.9
 20
279.100003815
 30
0.6
 40
7.2
  1
端子カバー
 50
0.0
 41
0.666666667
 51
0.0
  7
KANJI3
  0
LINE
  8
0
  6
CONTINUOUS
 62
     1
 10
299.7
 20
257.4
 30
0.0
 11
276.1
 21
257.4
 31
0.0
  0
ARC
  8
0
  6
CONTINUOUS
 62
     1
 10
276.1
 20
257.0
 30
0.0
 40
0.4
 50
90.0
 51
180.0
  0
LINE
  8
0
  6
CONTINUOUS
 62
     1
 10
276.1
 20
163.4
 30
0.0
 11
299.698634066
 21
163.4
 31
0.0
  0
ARC
  8
0
  6
CONTINUOUS
 62
     1
 10
276.1
 20
163.8
 30
0.0
 40
0.4
 50
180.0
 51
270.0
  0
LINE
  8
0
  6
CONTINUOUS
 62
     1
 10
275.7
 20
257.0
 30
0.0
 11
275.7
 21
163.8
 31
0.0
  0
LINE
  8
0
  6
LTYPE1
 62
     1
 10
279.7
 20
169.4
 30
0.0
 11
277.2
 21
169.4
 31
0.0
  0
LINE
  8
0
  6
LTYPE1
 62
     1
 10
277.2
 20
251.4
 30
0.0
 11
279.7
 21
251.4
 31
0.0
  0
LINE
  8
0
  6
LTYPE1
 62
     1
 10
277.2
 20
169.4
 30
0.0
 11
277.2
 21
251.4
 31
0.0
  0
TEXT
  8
0
  6
CONTINUOUS
 62
     2
 10
427.1
 20
199.54
 30
0.6
 40
6.0
  1
１２４
 50
90.0
 41
0.6
 51
0.0
  7
KANJI0
  0
TEXT
  8
0
  6
CONTINUOUS
 62
     2
 10
423.5
 20
212.44
 30
0.36
 40
3.6
  1
±０．５
 50
90.0
 41
0.6
 51
0.0
  7
KANJI1
  0
ARC
  8
0
  6
CONTINUOUS
 62
     1
 10
115.021331011
 20
246.05335253
 30
0.0
 40
1.474704
 50
225.0
 51
315.0
  0
ARC
  8
0
  6
CONTINUOUS
 62
     1
 10
112.240602482
 20
243.272624
 30
0.0
 40
1.474704
 50
315.0
 51
45.0
  0
ARC
  8
0
  6
CONTINUOUS
 62
     1
 10
115.021331011
 20
240.49189547
 30
0.0
 40
1.474704
 50
45.0
 51
135.0
  0
ARC
  8
0
  6
CONTINUOUS
 62
     1
 10
117.802059541
 20
243.272624
 30
0.0
 40
1.474704
 50
135.0
 51
225.0
  0
LINE
  8
0
  6
CONTINUOUS
 62
     1
 10
116.759286343
 20
244.315397199
 30
0.0
 11
117.245913835
 21
244.941061118
 31
0.0
  0
LINE
  8
0
  6
CONTINUOUS
 62
     1
 10
117.245913835
 20
244.941061118
 30
0.0
 11
116.689768129
 21
245.497206824
 31
0.0
  0
LINE
  8
0
  6
CONTINUOUS
 62
     1
 10
116.689768129
 20
245.497206824
 30
0.0
 11
116.06410421
 21
245.010579331
 31
0.0
  0
LINE
  8
0
  6
CONTINUOUS
 62
     1
 10
113.978557813
 20
245.010579331
 30
0.0
 11
113.352893894
 21
245.497206824
 31
0.0
  0
LINE
  8
0
  6
CONTINUOUS
 62
     1
 10
113.352893894
 20
245.497206824
 30
0.0
 11
112.796748188
 21
244.941061118
 31
0.0
  0
LINE
  8
0
  6
CONTINUOUS
 62
     1
 10
112.796748188
 20
244.941061118
 30
0.0
 11
113.28337568
 21
244.315397199
 31
0.0
  0
LINE
  8
0
  6
CONTINUOUS
 62
     1
 10
113.28337568
 20
242.229850801
 30
0.0
 11
112.796748188
 21
241.604186882
 31
0.0
  0
LINE
  8
0
  6
CONTINUOUS
 62
     1
 10
112.796748188
 20
241.604186882
 30
0.0
 11
113.352893894
 21
241.048041176
 31
0.0
  0
LINE
  8
0
  6
CONTINUOUS
 62
     1
 10
113.352893894
 20
241.048041176
 30
0.0
 11
113.978557813
 21
241.534668669
 31
0.0
  0
LINE
  8
0
  6
CONTINUOUS
 62
     1
 10
116.06410421
 20
241.534668669
 30
0.0
 11
116.689768129
 21
241.048041176
 31
0.0
  0
LINE
  8
0
  6
CONTINUOUS
 62
     1
 10
116.689768129
 20
241.048041176
 30
0.0
 11
117.245913835
 21
241.604186882
 31
0.0
  0
LINE
  8
0
  6
CONTINUOUS
 62
     1
 10
117.245913835
 20
241.604186882
 30
0.0
 11
116.759286343
 21
242.229850801
 31
0.0
  0
ARC
  8
0
  6
CONTINUOUS
 62
     1
 10
131.243075011
 20
228.35690453
 30
0.0
 40
1.474704
 50
225.0
 51
315.0
  0
ARC
  8
0
  6
CONTINUOUS
 62
     1
 10
128.462346482
 20
225.576176
 30
0.0
 40
1.474704
 50
315.0
 51
45.0
  0
ARC
  8
0
  6
CONTINUOUS
 62
     1
 10
131.243075011
 20
222.79544747
 30
0.0
 40
1.474704
 50
45.0
 51
135.0
  0
ARC
  8
0
  6
CONTINUOUS
 62
     1
 10
134.023803541
 20
225.576176
 30
0.0
 40
1.474704
 50
135.0
 51
225.0
  0
LINE
  8
0
  6
CONTINUOUS
 62
     1
 10
132.981030343
 20
226.618949199
 30
0.0
 11
133.467657835
 21
227.244613118
 31
0.0
  0
LINE
  8
0
  6
CONTINUOUS
 62
     1
 10
133.467657835
 20
227.244613118
 30
0.0
 11
132.911512129
 21
227.800758824
 31
0.0
  0
LINE
  8
0
  6
CONTINUOUS
 62
     1
 10
132.911512129
 20
227.800758824
 30
0.0
 11
132.28584821
 21
227.314131331
 31
0.0
  0
LINE
  8
0
  6
CONTINUOUS
 62
     1
 10
130.200301813
 20
227.314131331
 30
0.0
 11
129.574637894
 21
227.800758824
 31
0.0
  0
LINE
  8
0
  6
CONTINUOUS
 62
     1
 10
129.574637894
 20
227.800758824
 30
0.0
 11
129.018492188
 21
227.244613118
 31
0.0
  0
LINE
  8
0
  6
CONTINUOUS
 62
     1
 10
129.018492188
 20
227.244613118
 30
0.0
 11
129.50511968
 21
226.618949199
 31
0.0
  0
LINE
  8
0
  6
CONTINUOUS
 62
     1
 10
129.50511968
 20
224.533402801
 30
0.0
 11
129.018492188
 21
223.907738882
 31
0.0
  0
LINE
  8
0
  6
CONTINUOUS
 62
     1
 10
129.018492188
 20
223.907738882
 30
0.0
 11
129.574637894
 21
223.351593176
 31
0.0
  0
LINE
  8
0
  6
CONTINUOUS
 62
     1
 10
129.574637894
 20
223.351593176
 30
0.0
 11
130.200301813
 21
223.838220669
 31
0.0
  0
LINE
  8
0
  6
CONTINUOUS
 62
     1
 10
132.28584821
 20
223.838220669
 30
0.0
 11
132.911512129
 21
223.351593176
 31
0.0
  0
LINE
  8
0
  6
CONTINUOUS
 62
     1
 10
132.911512129
 20
223.351593176
 30
0.0
 11
133.467657835
 21
223.907738882
 31
0.0
  0
LINE
  8
0
  6
CONTINUOUS
 62
     1
 10
133.467657835
 20
223.907738882
 30
0.0
 11
132.981030343
 21
224.533402801
 31
0.0
  0
ARC
  8
0
  6
CONTINUOUS
 62
     1
 10
109.614083011
 20
228.35690453
 30
0.0
 40
1.474704
 50
225.0
 51
315.0
  0
ARC
  8
0
  6
CONTINUOUS
 62
     1
 10
106.833354482
 20
225.576176
 30
0.0
 40
1.474704
 50
315.0
 51
45.0
  0
ARC
  8
0
  6
CONTINUOUS
 62
     1
 10
109.614083011
 20
222.79544747
 30
0.0
 40
1.474704
 50
45.0
 51
135.0
  0
LINE
  8
0
  6
CONTINUOUS
 62
     1
 10
111.352038343
 20
226.618949199
 30
0.0
 11
111.838665835
 21
227.244613118
 31
0.0
  0
LINE
  8
0
  6
CONTINUOUS
 62
     1
 10
111.838665835
 20
227.244613118
 30
0.0
 11
111.282520129
 21
227.800758824
 31
0.0
  0
LINE
  8
0
  6
CONTINUOUS
 62
     1
 10
111.282520129
 20
227.800758824
 30
0.0
 11
110.65685621
 21
227.314131331
 31
0.0
  0
LINE
  8
0
  6
CONTINUOUS
 62
     1
 10
108.571309813
 20
227.314131331
 30
0.0
 11
107.945645894
 21
227.800758824
 31
0.0
  0
LINE
  8
0
  6
CONTINUOUS
 62
     1
 10
107.945645894
 20
227.800758824
 30
0.0
 11
107.389500188
 21
227.244613118
 31
0.0
  0
LINE
  8
0
  6
CONTINUOUS
 62
     1
 10
107.389500188
 20
227.244613118
 30
0.0
 11
107.87612768
 21
226.618949199
 31
0.0
  0
LINE
  8
0
  6
CONTINUOUS
 62
     1
 10
107.87612768
 20
224.533402801
 30
0.0
 11
107.389500188
 21
223.907738882
 31
0.0
  0
LINE
  8
0
  6
CONTINUOUS
 62
     1
 10
107.389500188
 20
223.907738882
 30
0.0
 11
107.945645894
 21
223.351593176
 31
0.0
  0
LINE
  8
0
  6
CONTINUOUS
 62
     1
 10
107.945645894
 20
223.351593176
 30
0.0
 11
108.571309813
 21
223.838220669
 31
0.0
  0
LINE
  8
0
  6
CONTINUOUS
 62
     1
 10
110.65685621
 20
223.838220669
 30
0.0
 11
111.282520129
 21
223.351593176
 31
0.0
  0
LINE
  8
0
  6
CONTINUOUS
 62
     1
 10
111.282520129
 20
223.351593176
 30
0.0
 11
111.838665835
 21
223.907738882
 31
0.0
  0
LINE
  8
0
  6
CONTINUOUS
 62
     1
 10
111.838665835
 20
223.907738882
 30
0.0
 11
111.352038343
 21
224.533402801
 31
0.0
  0
ARC
  8
0
  6
CONTINUOUS
 62
     1
 10
98.799587011
 20
228.35690453
 30
0.0
 40
1.474704
 50
225.0
 51
315.0
  0
ARC
  8
0
  6
CONTINUOUS
 62
     1
 10
96.018858482
 20
225.576176
 30
0.0
 40
1.474704
 50
315.0
 51
45.0
  0
ARC
  8
0
  6
CONTINUOUS
 62
     1
 10
98.799587011
 20
222.79544747
 30
0.0
 40
1.474704
 50
45.0
 51
135.0
  0
ARC
  8
0
  6
CONTINUOUS
 62
     1
 10
101.580315541
 20
225.576176
 30
0.0
 40
1.474704
 50
135.0
 51
225.0
  0
LINE
  8
0
  6
CONTINUOUS
 62
     1
 10
100.537542343
 20
226.618949199
 30
0.0
 11
101.024169835
 21
227.244613118
 31
0.0
  0
LINE
  8
0
  6
CONTINUOUS
 62
     1
 10
101.024169835
 20
227.244613118
 30
0.0
 11
100.468024129
 21
227.800758824
 31
0.0
  0
LINE
  8
0
  6
CONTINUOUS
 62
     1
 10
100.468024129
 20
227.800758824
 30
0.0
 11
99.84236021
 21
227.314131331
 31
0.0
  0
LINE
  8
0
  6
CONTINUOUS
 62
     1
 10
97.756813813
 20
227.314131331
 30
0.0
 11
97.131149894
 21
227.800758824
 31
0.0
  0
LINE
  8
0
  6
CONTINUOUS
 62
     1
 10
97.131149894
 20
227.800758824
 30
0.0
 11
96.575004188
 21
227.244613118
 31
0.0
  0
LINE
  8
0
  6
CONTINUOUS
 62
     1
 10
96.575004188
 20
227.244613118
 30
0.0
 11
97.06163168
 21
226.618949199
 31
0.0
  0
LINE
  8
0
  6
CONTINUOUS
 62
     1
 10
97.06163168
 20
224.533402801
 30
0.0
 11
96.575004188
 21
223.907738882
 31
0.0
  0
LINE
  8
0
  6
CONTINUOUS
 62
     1
 10
96.575004188
 20
223.907738882
 30
0.0
 11
97.131149894
 21
223.351593176
 31
0.0
  0
LINE
  8
0
  6
CONTINUOUS
 62
     1
 10
97.131149894
 20
223.351593176
 30
0.0
 11
97.756813813
 21
223.838220669
 31
0.0
  0
LINE
  8
0
  6
CONTINUOUS
 62
     1
 10
99.84236021
 20
223.838220669
 30
0.0
 11
100.468024129
 21
223.351593176
 31
0.0
  0
LINE
  8
0
  6
CONTINUOUS
 62
     1
 10
100.468024129
 20
223.351593176
 30
0.0
 11
101.024169835
 21
223.907738882
 31
0.0
  0
LINE
  8
0
  6
CONTINUOUS
 62
     1
 10
101.024169835
 20
223.907738882
 30
0.0
 11
100.537542343
 21
224.533402801
 31
0.0
  0
ARC
  8
0
  6
CONTINUOUS
 62
     1
 10
120.526892611
 20
180.18324053
 30
0.0
 40
1.474704
 50
225.0
 51
315.0
  0
ARC
  8
0
  6
CONTINUOUS
 62
     1
 10
117.746164082
 20
177.402512
 30
0.0
 40
1.474704
 50
315.0
 51
45.0
  0
ARC
  8
0
  6
CONTINUOUS
 62
     1
 10
120.526892611
 20
174.62178347
 30
0.0
 40
1.474704
 50
45.0
 51
135.0
  0
ARC
  8
0
  6
CONTINUOUS
 62
     1
 10
123.307621141
 20
177.402512
 30
0.0
 40
1.474704
 50
135.0
 51
225.0
  0
LINE
  8
0
  6
CONTINUOUS
 62
     1
 10
122.264847943
 20
178.445285199
 30
0.0
 11
122.751475435
 21
179.070949118
 31
0.0
  0
LINE
  8
0
  6
CONTINUOUS
 62
     1
 10
122.751475435
 20
179.070949118
 30
0.0
 11
122.195329729
 21
179.627094824
 31
0.0
  0
LINE
  8
0
  6
CONTINUOUS
 62
     1
 10
122.195329729
 20
179.627094824
 30
0.0
 11
121.56966581
 21
179.140467331
 31
0.0
  0
LINE
  8
0
  6
CONTINUOUS
 62
     1
 10
119.484119413
 20
179.140467331
 30
0.0
 11
118.858455494
 21
179.627094824
 31
0.0
  0
LINE
  8
0
  6
CONTINUOUS
 62
     1
 10
118.302309788
 20
179.070949118
 30
0.0
 11
118.78893728
 21
178.445285199
 31
0.0
  0
LINE
  8
0
  6
CONTINUOUS
 62
     1
 10
118.78893728
 20
176.359738801
 30
0.0
 11
118.302309788
 21
175.734074882
 31
0.0
  0
LINE
  8
0
  6
CONTINUOUS
 62
     1
 10
118.302309788
 20
175.734074882
 30
0.0
 11
118.858455494
 21
175.177929176
 31
0.0
  0
LINE
  8
0
  6
CONTINUOUS
 62
     1
 10
118.858455494
 20
175.177929176
 30
0.0
 11
119.484119413
 21
175.664556669
 31
0.0
  0
LINE
  8
0
  6
CONTINUOUS
 62
     1
 10
121.56966581
 20
175.664556669
 30
0.0
 11
122.195329729
 21
175.177929176
 31
0.0
  0
LINE
  8
0
  6
CONTINUOUS
 62
     1
 10
122.751475435
 20
175.734074882
 30
0.0
 11
122.264847943
 21
176.359738801
 31
0.0
  0
TEXT
  8
0
  6
CONTINUOUS
 62
     2
 10
178.956243011
 20
168.080864
 30
0.6
 40
7.2
  1
ＭΩ（１２）設定ディップスイッチ
 50
0.0
 41
0.666666667
 51
0.0
  7
KANJI3
  0
LINE
  8
0
  6
CONTINUOUS
 62
     1
 10
120.428579011
 20
197.5568
 30
0.0
 11
120.428579011
 21
186.250736
 31
0.0
  0
LINE
  8
0
  6
CONTINUOUS
 62
     1
 10
120.428579011
 20
186.250736
 30
0.0
 11
109.122515011
 21
186.250736
 31
0.0
  0
LINE
  8
0
  6
CONTINUOUS
 62
     1
 10
109.122515011
 20
186.250736
 30
0.0
 11
109.122515011
 21
197.5568
 31
0.0
  0
LINE
  8
0
  6
CONTINUOUS
 62
     1
 10
109.122515011
 20
197.5568
 30
0.0
 11
120.428579011
 21
197.5568
 31
0.0
  0
CIRCLE
  8
0
  6
CONTINUOUS
 62
     1
 10
114.775547011
 20
191.903768
 30
0.0
 40
2.45784
  0
LINE
  8
0
  6
CONTINUOUS
 62
     1
 10
112.401455879
 20
192.539903802
 30
0.0
 11
111.451819425
 21
192.794358123
 31
0.0
  0
LINE
  8
0
  6
CONTINUOUS
 62
     1
 10
113.03759168
 20
193.641723331
 30
0.0
 11
112.342409548
 21
194.336905463
 31
0.0
  0
LINE
  8
0
  6
CONTINUOUS
 62
     1
 10
114.13941121
 20
194.277859133
 30
0.0
 11
113.884956889
 21
195.227495586
 31
0.0
  0
LINE
  8
0
  6
CONTINUOUS
 62
     1
 10
115.411682813
 20
194.277859133
 30
0.0
 11
115.666137134
 21
195.227495586
 31
0.0
  0
LINE
  8
0
  6
CONTINUOUS
 62
     1
 10
116.513502343
 20
193.641723331
 30
0.0
 11
117.208684475
 21
194.336905463
 31
0.0
  0
LINE
  8
0
  6
CONTINUOUS
 62
     1
 10
117.149638144
 20
192.539903802
 30
0.0
 11
118.099274597
 21
192.794358123
 31
0.0
  0
LINE
  8
0
  6
CONTINUOUS
 62
     1
 10
120.428579011
 20
186.250736
 30
0.0
 11
131.734643011
 21
186.250736
 31
0.0
  0
LINE
  8
0
  6
CONTINUOUS
 62
     1
 10
131.734643011
 20
186.250736
 30
0.0
 11
131.734643011
 21
197.5568
 31
0.0
  0
LINE
  8
0
  6
CONTINUOUS
 62
     1
 10
131.734643011
 20
197.5568
 30
0.0
 11
120.428579011
 21
197.5568
 31
0.0
  0
CIRCLE
  8
0
  6
CONTINUOUS
 62
     1
 10
126.081611011
 20
191.903768
 30
0.0
 40
2.45784
  0
LINE
  8
0
  6
CONTINUOUS
 62
     1
 10
128.455702144
 20
192.539903802
 30
0.0
 11
129.405338597
 21
192.794358123
 31
0.0
  0
LINE
  8
0
  6
CONTINUOUS
 62
     1
 10
127.819566343
 20
193.641723331
 30
0.0
 11
128.514748475
 21
194.336905463
 31
0.0
  0
LINE
  8
0
  6
CONTINUOUS
 62
     1
 10
126.717746813
 20
194.277859133
 30
0.0
 11
126.972201134
 21
195.227495586
 31
0.0
  0
LINE
  8
0
  6
CONTINUOUS
 62
     1
 10
125.44547521
 20
194.277859133
 30
0.0
 11
125.191020889
 21
195.227495586
 31
0.0
  0
LINE
  8
0
  6
CONTINUOUS
 62
     1
 10
124.34365568
 20
193.641723331
 30
0.0
 11
123.648473548
 21
194.336905463
 31
0.0
  0
LINE
  8
0
  6
CONTINUOUS
 62
     1
 10
123.707519879
 20
192.539903802
 30
0.0
 11
122.757883425
 21
192.794358123
 31
0.0
  0
LINE
  8
0
  6
CONTINUOUS
 62
     2
 10
120.428579011
 20
178.753941775
 30
0.0
 11
120.389580372
 21
178.714943136
 31
0.0
  0
LINE
  8
0
  6
CONTINUOUS
 62
     2
 10
176.456243011
 20
145.780864
 30
0.0
 11
235.856243011
 21
145.780864
 31
0.0
  0
TEXT
  8
0
  6
CONTINUOUS
 62
     2
 10
176.456243011
 20
147.780864
 30
0.6
 40
6.0
  1
４－Ｍ４ブロンズネジ
 50
0.0
 41
0.9
 51
0.0
  7
KANJI4
  0
LINE
  8
0
  6
CONTINUOUS
 62
     2
 10
111.142281434
 20
243.919057822
 30
0.0
 11
114.374897189
 21
247.151673578
 31
0.0
  0
LINE
  8
0
  6
CONTINUOUS
 62
     2
 10
115.527102727
 20
247.172508265
 30
0.0
 11
111.121446746
 21
242.766852284
 31
0.0
  0
LINE
  8
0
  6
CONTINUOUS
 62
     2
 10
111.349792617
 20
241.863827305
 30
0.0
 11
116.430127706
 21
246.944162395
 31
0.0
  0
LINE
  8
0
  6
CONTINUOUS
 62
     2
 10
117.178227294
 20
246.560891133
 30
0.0
 11
111.733063879
 21
241.115727717
 31
0.0
  0
LINE
  8
0
  6
CONTINUOUS
 62
     2
 10
112.240602482
 20
240.49189547
 30
0.0
 11
117.802059541
 21
246.05335253
 31
0.0
  0
LINE
  8
0
  6
CONTINUOUS
 62
     2
 10
118.309598144
 20
245.429520283
 30
0.0
 11
112.864434729
 21
239.984356867
 31
0.0
  0
LINE
  8
0
  6
CONTINUOUS
 62
     2
 10
113.612534316
 20
239.601085605
 30
0.0
 11
118.692869406
 21
244.681420695
 31
0.0
  0
LINE
  8
0
  6
CONTINUOUS
 62
     2
 10
118.921215277
 20
243.778395716
 30
0.0
 11
114.515559296
 21
239.372739735
 31
0.0
  0
LINE
  8
0
  6
CONTINUOUS
 62
     2
 10
115.667764833
 20
239.393574422
 30
0.0
 11
118.900380589
 21
242.626190178
 31
0.0
  0
LINE
  8
0
  6
CONTINUOUS
 62
     2
 10
98.153153189
 20
229.455225578
 30
0.0
 11
94.920537434
 21
226.222609822
 31
0.0
  0
LINE
  8
0
  6
CONTINUOUS
 62
     2
 10
94.899702746
 20
225.070404284
 30
0.0
 11
99.305358727
 21
229.476060265
 31
0.0
  0
LINE
  8
0
  6
CONTINUOUS
 62
     2
 10
100.208383706
 20
229.247714395
 30
0.0
 11
95.128048617
 21
224.167379305
 31
0.0
  0
LINE
  8
0
  6
CONTINUOUS
 62
     2
 10
95.511319879
 20
223.419279717
 30
0.0
 11
100.956483294
 21
228.864443133
 31
0.0
  0
LINE
  8
0
  6
CONTINUOUS
 62
     2
 10
101.580315541
 20
228.35690453
 30
0.0
 11
96.018858482
 21
222.79544747
 31
0.0
  0
LINE
  8
0
  6
CONTINUOUS
 62
     2
 10
96.642690729
 20
222.287908867
 30
0.0
 11
102.087854144
 21
227.733072283
 31
0.0
  0
LINE
  8
0
  6
CONTINUOUS
 62
     2
 10
102.471125406
 20
226.984972695
 30
0.0
 11
97.390790316
 21
221.904637605
 31
0.0
  0
LINE
  8
0
  6
CONTINUOUS
 62
     2
 10
98.293815296
 20
221.676291735
 30
0.0
 11
102.699471277
 21
226.081947716
 31
0.0
  0
LINE
  8
0
  6
CONTINUOUS
 62
     2
 10
102.678636589
 20
224.929742178
 30
0.0
 11
99.446020833
 21
221.697126422
 31
0.0
  0
LINE
  8
0
  6
CONTINUOUS
 62
     2
 10
105.735033434
 20
226.222609822
 30
0.0
 11
108.967649189
 21
229.455225578
 31
0.0
  0
LINE
  8
0
  6
CONTINUOUS
 62
     2
 10
110.119854727
 20
229.476060265
 30
0.0
 11
105.714198746
 21
225.070404284
 31
0.0
  0
LINE
  8
0
  6
CONTINUOUS
 62
     2
 10
105.942544617
 20
224.167379305
 30
0.0
 11
111.022879706
 21
229.247714395
 31
0.0
  0
LINE
  8
0
  6
CONTINUOUS
 62
     2
 10
111.770979294
 20
228.864443133
 30
0.0
 11
106.325815879
 21
223.419279717
 31
0.0
  0
LINE
  8
0
  6
CONTINUOUS
 62
     2
 10
106.833354482
 20
222.79544747
 30
0.0
 11
112.394811541
 21
228.35690453
 31
0.0
  0
LINE
  8
0
  6
CONTINUOUS
 62
     2
 10
112.902350144
 20
227.733072283
 30
0.0
 11
107.457186729
 21
222.287908867
 31
0.0
  0
LINE
  8
0
  6
CONTINUOUS
 62
     2
 10
108.205286316
 20
221.904637605
 30
0.0
 11
113.285621406
 21
226.984972695
 31
0.0
  0
LINE
  8
0
  6
CONTINUOUS
 62
     2
 10
113.513967277
 20
226.081947716
 30
0.0
 11
109.108311296
 21
221.676291735
 31
0.0
  0
LINE
  8
0
  6
CONTINUOUS
 62
     2
 10
110.260516833
 20
221.697126422
 30
0.0
 11
113.493132589
 21
224.929742178
 31
0.0
  0
LINE
  8
0
  6
CONTINUOUS
 62
     1
 10
118.302309788
 20
179.070949118
 30
0.0
 11
118.858455494
 21
179.627094824
 31
0.0
  0
LINE
  8
0
  6
CONTINUOUS
 62
     1
 10
122.751475435
 20
175.734074882
 30
0.0
 11
122.195329729
 21
175.177929176
 31
0.0
  0
LINE
  8
0
  6
CONTINUOUS
 62
     2
 10
116.647843034
 20
178.048945822
 30
0.0
 11
119.880458789
 21
181.281561578
 31
0.0
  0
LINE
  8
0
  6
CONTINUOUS
 62
     2
 10
121.032664327
 20
181.302396265
 30
0.0
 11
116.627008346
 21
176.896740284
 31
0.0
  0
LINE
  8
0
  6
CONTINUOUS
 62
     2
 10
116.855354217
 20
175.993715305
 30
0.0
 11
121.935689306
 21
181.074050395
 31
0.0
  0
LINE
  8
0
  6
CONTINUOUS
 62
     2
 10
122.683788894
 20
180.690779133
 30
0.0
 11
117.238625479
 21
175.245615717
 31
0.0
  0
LINE
  8
0
  6
CONTINUOUS
 62
     2
 10
117.746164082
 20
174.62178347
 30
0.0
 11
123.307621141
 21
180.18324053
 31
0.0
  0
LINE
  8
0
  6
CONTINUOUS
 62
     2
 10
123.815159744
 20
179.559408283
 30
0.0
 11
118.369996329
 21
174.114244867
 31
0.0
  0
LINE
  8
0
  6
CONTINUOUS
 62
     2
 10
119.118095916
 20
173.730973605
 30
0.0
 11
124.198431006
 21
178.811308695
 31
0.0
  0
LINE
  8
0
  6
CONTINUOUS
 62
     2
 10
124.426776877
 20
177.908283716
 30
0.0
 11
120.021120896
 21
173.502627735
 31
0.0
  0
LINE
  8
0
  6
CONTINUOUS
 62
     2
 10
121.173326433
 20
173.523462422
 30
0.0
 11
124.405942189
 21
176.756078178
 31
0.0
  0
TEXT
  8
0
  6
CONTINUOUS
 62
     2
 10
108.600771011
 20
199.142304
 30
0.3932544
 40
3.932544
  1
ＳＷ１
 50
0.0
 41
0.9
 51
0.0
  7
KANJI5
  0
TEXT
  8
0
  6
CONTINUOUS
 62
     2
 10
122.100771011
 20
199.442304
 30
0.3932544
 40
3.932544
  1
ＳＷ２
 50
0.0
 41
0.9
 51
0.0
  7
KANJI5
  0
TEXT
  8
0
  6
CONTINUOUS
 62
     3
 10
468.4248
 20
34.358
 30
0.864
 40
11.7
  1
ＭＳ－１２４１６Ｃ
 50
0.0
 41
0.664615385
 51
0.0
  7
KANJI6
  0
TEXT
  8
0
  6
CONTINUOUS
 62
     2
 10
150.355
 20
111.735
 30
0.832
 40
8.32
  1
使わない端子は黒ネジを付けるものとします。
 50
0.0
 41
0.9
 51
0.0
  7
KANJI7
  0
ARC
  8
0
  6
LTYPE2
 62
     5
 10
120.428579011
 20
264.410048
 30
0.0
 40
2.949408
 50
180.0
 51
0.0
  0
LINE
  8
0
  6
LTYPE2
 62
     5
 10
117.479171011
 20
271.8818816
 30
0.0
 11
117.479171011
 21
264.410048
 31
0.0
  0
LINE
  8
0
  6
LTYPE2
 62
     5
 10
123.377987011
 20
264.410048
 30
0.0
 11
123.377987011
 21
271.8818816
 31
0.0
  0
LINE
  8
0
  6
LTYPE3
 62
     5
 10
88.968227011
 20
184.776032
 30
0.0
 11
151.888931011
 21
184.776032
 31
0.0
  0
LINE
  8
0
  6
LTYPE3
 62
     5
 10
88.968227011
 20
218.202656
 30
0.0
 11
88.968227011
 21
184.776032
 31
0.0
  0
LINE
  8
0
  6
LTYPE3
 62
     5
 10
151.888931011
 20
218.202656
 30
0.0
 11
88.968227011
 21
218.202656
 31
0.0
  0
LINE
  8
0
  6
LTYPE3
 62
     5
 10
151.888931011
 20
184.776032
 30
0.0
 11
151.888931011
 21
218.202656
 31
0.0
  0
LINE
  8
0
  6
CONTINUOUS
 62
     5
 10
120.428579011
 20
197.5568
 30
0.0
 11
120.428579011
 21
186.250736
 31
0.0
  0
TEXT
  8
0
  6
CONTINUOUS
 62
     6
 10
475.3
 20
71.7
 30
1.0
 40
10.0
  1
ＩＳ－２
 50
0.0
 41
0.9
 51
0.0
  7
KANJI8
  0
TEXT
  8
0
  6
CONTINUOUS
 62
     2
 10
473.755
 20
53.035
 30
0.832
 40
8.32
  1
絶縁抵抗モニタ　外形図
 50
0.0
 41
0.9
 51
0.0
  7
KANJI7
  0
TEXT
  8
0
  6
CONTINUOUS
 62
     2
 10
177.156586513
 20
285.965088
 30
0.6
 40
7.2
  1
１０－Ｍ４端子ネジ
 50
0.0
 41
0.666666667
 51
0.0
  7
KANJI3
  0
LINE
  8
0
  6
CONTINUOUS
 62
     2
 10
177.156586513
 20
283.965088
 30
0.0
 11
227.756586513
 21
283.965088
 31
0.0
  0
LINE
  8
0
  6
CONTINUOUS
 62
     2
 10
275.7
 20
259.000003815
 30
0.0
 11
275.7
 21
323.7
 31
0.0
  0
LINE
  8
0
  6
CONTINUOUS
 62
     2
 10
275.7
 20
319.7
 30
0.0
 11
280.529629131
 21
318.405904774
 31
0.0
  0
LINE
  8
0
  6
CONTINUOUS
 62
     2
 10
275.7
 20
319.7
 30
0.0
 11
280.529629131
 21
320.994095226
 31
0.0
  0
LINE
  8
0
  6
CONTINUOUS
 62
     2
 10
279.7
 20
307.199986341
 30
0.0
 11
284.529629131
 21
305.905891115
 31
0.0
  0
LINE
  8
0
  6
CONTINUOUS
 62
     2
 10
279.7
 20
307.199986341
 30
0.0
 11
284.529629131
 21
308.494081566
 31
0.0
  0
LINE
  8
0
  6
CONTINUOUS
 62
     2
 10
279.7
 20
258.400003815
 30
0.0
 11
279.7
 21
311.199986341
 31
0.0
  0
LINE
  8
0
  6
CONTINUOUS
 62
     2
 10
306.9
 20
277.100003815
 30
0.0
 11
333.3
 21
277.100003815
 31
0.0
  0
LINE
  8
0
  6
CONTINUOUS
 62
     2
 10
393.700478077
 20
307.199986341
 30
0.0
 11
279.7
 21
307.199986341
 31
0.0
  0
LINE
  8
0
  6
CONTINUOUS
 62
     2
 10
275.7
 20
319.7
 30
0.0
 11
400.700464417
 21
319.7
 31
0.0
  0
LINE
  8
0
  6
CONTINUOUS
 62
     2
 10
287.6
 20
247.800003815
 30
0.0
 11
291.337426801
 21
251.121395227
 31
0.0
  0
LINE
  8
0
  6
CONTINUOUS
 62
     2
 10
287.6
 20
247.800003815
 30
0.0
 11
289.176010848
 21
252.545126554
 31
0.0
  0
LINE
  8
0
  6
CONTINUOUS
 62
     2
 10
287.6
 20
247.800003815
 30
0.0
 11
306.9
 21
277.100003815
 31
0.0
  0
LINE
  8
0
  6
CONTINUOUS
 62
     2
 10
400.7
 20
274.1875
 30
0.0
 11
400.7
 21
291.1875
 31
0.0
  0
LINE
  8
0
  6
CONTINUOUS
 62
     2
 10
393.700478077
 20
274.4
 30
0.0
 11
393.700478077
 21
311.199986341
 31
0.0
  0
POLYLINE
  8
0
  6
CONTINUOUS
 62
     2
 66
     1
  0
VERTEX
  8
0
  6
CONTINUOUS
 62
     2
 10
393.700478077
 20
307.199986341
 30
0.0
  0
VERTEX
  8
0
  6
CONTINUOUS
 62
     2
 10
400.700464417
 20
307.199986341
 30
0.0
  0
VERTEX
  8
0
  6
CONTINUOUS
 62
     2
 10
408.200464417
 20
307.199986341
 30
0.0
  0
SEQEND
  0
LINE
  8
0
  6
CONTINUOUS
 62
     2
 10
400.700464417
 20
307.199986341
 30
0.0
 11
405.530093548
 21
305.905891115
 31
0.0
  0
LINE
  8
0
  6
CONTINUOUS
 62
     2
 10
400.700464417
 20
307.199986341
 30
0.0
 11
405.530093548
 21
308.494081566
 31
0.0
  0
LINE
  8
0
  6
CONTINUOUS
 62
     2
 10
400.700464417
 20
273.999986341
 30
0.0
 11
400.700464417
 21
311.199986341
 31
0.0
  0
LINE
  8
0
  6
CONTINUOUS
 62
     2
 10
393.700478077
 20
307.199986341
 30
0.0
 11
388.870848945
 21
308.494081566
 31
0.0
  0
LINE
  8
0
  6
CONTINUOUS
 62
     2
 10
393.700478077
 20
307.199986341
 30
0.0
 11
388.870848945
 21
305.905891115
 31
0.0
  0
LINE
  8
0
  6
CONTINUOUS
 62
     2
 10
400.700464417
 20
319.7
 30
0.0
 11
395.870835286
 21
320.994095226
 31
0.0
  0
LINE
  8
0
  6
CONTINUOUS
 62
     2
 10
400.700464417
 20
319.7
 30
0.0
 11
395.870835286
 21
318.405904774
 31
0.0
  0
LINE
  8
0
  6
CONTINUOUS
 62
     2
 10
400.700464417
 20
273.999986341
 30
0.0
 11
400.700464417
 21
323.7
 31
0.0
  0
LINE
  8
0
  6
CONTINUOUS
 62
     2
 10
402.700478077
 20
272.4
 30
0.0
 11
433.1
 21
272.4
 31
0.0
  0
LINE
  8
0
  6
CONTINUOUS
 62
     2
 10
429.1
 20
272.4
 30
0.0
 11
427.805904774
 21
267.570370869
 31
0.0
  0
LINE
  8
0
  6
CONTINUOUS
 62
     2
 10
429.1
 20
272.4
 30
0.0
 11
430.394095226
 21
267.570370869
 31
0.0
  0
LINE
  8
0
  6
CONTINUOUS
 62
     2
 10
429.1
 20
148.4
 30
0.0
 11
430.394095226
 21
153.229629131
 31
0.0
  0
LINE
  8
0
  6
CONTINUOUS
 62
     2
 10
429.1
 20
148.4
 30
0.0
 11
427.805904774
 21
153.229629131
 31
0.0
  0
LINE
  8
0
  6
CONTINUOUS
 62
     2
 10
402.7
 20
148.4
 30
0.0
 11
433.1
 21
148.4
 31
0.0
  0
LINE
  8
0
  6
CONTINUOUS
 62
     2
 10
429.1
 20
272.4
 30
0.0
 11
429.1
 21
148.4
 31
0.0
  0
LINE
  8
0
  6
CONTINUOUS
 62
     2
 10
64.179171011
 20
257.528096
 30
0.0
 11
62.885075786
 21
252.698466869
 31
0.0
  0
LINE
  8
0
  6
CONTINUOUS
 62
     2
 10
64.179171011
 20
257.528096
 30
0.0
 11
65.473266237
 21
252.698466869
 31
0.0
  0
LINE
  8
0
  6
CONTINUOUS
 62
     2
 10
52.318821144
 20
264.410048
 30
0.0
 11
51.024725918
 21
259.580418869
 31
0.0
  0
LINE
  8
0
  6
CONTINUOUS
 62
     2
 10
52.318821144
 20
264.410048
 30
0.0
 11
53.612916369
 21
259.580418869
 31
0.0
  0
LINE
  8
0
  6
CONTINUOUS
 62
     2
 10
52.318821144
 20
264.410048
 30
0.0
 11
52.318821144
 21
156.265088
 31
0.0
  0
LINE
  8
0
  6
CONTINUOUS
 62
     2
 10
105.598654211
 20
264.410048
 30
0.0
 11
48.656586513
 21
264.410048
 31
0.0
  0
LINE
  8
0
  6
CONTINUOUS
 62
     2
 10
84.018821535
 20
257.528096
 30
0.0
 11
60.756586513
 21
257.528096
 31
0.0
  0
LINE
  8
0
  6
CONTINUOUS
 62
     2
 10
64.179171011
 20
163.14704
 30
0.0
 11
65.473266237
 21
167.976669131
 31
0.0
  0
LINE
  8
0
  6
CONTINUOUS
 62
     2
 10
64.179171011
 20
163.14704
 30
0.0
 11
62.885075786
 21
167.976669131
 31
0.0
  0
LINE
  8
0
  6
CONTINUOUS
 62
     2
 10
84.018821144
 20
163.14704
 30
0.0
 11
60.256586513
 21
163.14704
 31
0.0
  0
LINE
  8
0
  6
CONTINUOUS
 62
     2
 10
105.056586513
 20
156.265088
 30
0.0
 11
48.956586513
 21
156.265088
 31
0.0
  0
LINE
  8
0
  6
CONTINUOUS
 62
     2
 10
64.179171011
 20
257.528096
 30
0.0
 11
64.179171011
 21
163.14704
 31
0.0
  0
LINE
  8
0
  6
CONTINUOUS
 62
     2
 10
85.035683011
 20
258.54496
 30
0.0
 11
85.035683011
 21
323.7
 31
0.0
  0
LINE
  8
0
  6
CONTINUOUS
 62
     2
 10
85.035683011
 20
319.7
 30
0.0
 11
89.865312143
 21
318.405904774
 31
0.0
  0
LINE
  8
0
  6
CONTINUOUS
 62
     2
 10
85.035683011
 20
319.7
 30
0.0
 11
89.865312143
 21
320.994095226
 31
0.0
  0
LINE
  8
0
  6
CONTINUOUS
 62
     2
 10
99.782723011
 20
308.172624
 30
0.0
 11
92.282723011
 21
308.172624
 31
0.0
  0
LINE
  8
0
  6
CONTINUOUS
 62
     2
 10
99.782723011
 20
308.172624
 30
0.0
 11
94.95309388
 21
309.466719226
 31
0.0
  0
LINE
  8
0
  6
CONTINUOUS
 62
     2
 10
99.782723011
 20
308.172624
 30
0.0
 11
94.95309388
 21
306.878528774
 31
0.0
  0
LINE
  8
0
  6
CONTINUOUS
 62
     2
 10
99.782723011
 20
254.612416
 30
0.0
 11
99.782723011
 21
312.172624
 31
0.0
  0
LINE
  8
0
  6
CONTINUOUS
 62
     2
 10
108.630947011
 20
308.172624
 30
0.0
 11
113.460576143
 21
306.878528774
 31
0.0
  0
LINE
  8
0
  6
CONTINUOUS
 62
     2
 10
108.630947011
 20
308.172624
 30
0.0
 11
113.460576143
 21
309.466719226
 31
0.0
  0
LINE
  8
0
  6
CONTINUOUS
 62
     2
 10
116.130947011
 20
308.172624
 30
0.0
 11
108.630947011
 21
308.172624
 31
0.0
  0
LINE
  8
0
  6
CONTINUOUS
 62
     2
 10
108.630947011
 20
308.172624
 30
0.0
 11
99.782723011
 21
308.172624
 31
0.0
  0
LINE
  8
0
  6
CONTINUOUS
 62
     2
 10
108.630947011
 20
254.612416
 30
0.0
 11
108.630947011
 21
312.172624
 31
0.0
  0
POLYLINE
  8
0
  6
CONTINUOUS
 62
     2
 66
     1
  0
VERTEX
  8
0
  6
CONTINUOUS
 62
     2
 10
117.479171011
 20
294.844963815
 30
0.0
  0
VERTEX
  8
0
  6
CONTINUOUS
 62
     2
 10
123.377987011
 20
294.844963815
 30
0.0
  0
VERTEX
  8
0
  6
CONTINUOUS
 62
     2
 10
128.207616143
 20
293.550868589
 30
0.0
  0
SEQEND
  0
LINE
  8
0
  6
CONTINUOUS
 62
     2
 10
123.377987011
 20
294.844963815
 30
0.0
 11
128.207616143
 21
296.13905904
 31
0.0
  0
LINE
  8
0
  6
CONTINUOUS
 62
     2
 10
123.377987011
 20
294.844963815
 30
0.0
 11
130.877987011
 21
294.844963815
 31
0.0
  0
LINE
  8
0
  6
CONTINUOUS
 62
     2
 10
117.479171011
 20
294.844963815
 30
0.0
 11
112.64954188
 21
296.13905904
 31
0.0
  0
LINE
  8
0
  6
CONTINUOUS
 62
     2
 10
117.479171011
 20
294.844963815
 30
0.0
 11
112.64954188
 21
293.550868589
 31
0.0
  0
LINE
  8
0
  6
CONTINUOUS
 62
     2
 10
109.979171011
 20
294.844963815
 30
0.0
 11
117.479171011
 21
294.844963815
 31
0.0
  0
LINE
  8
0
  6
CONTINUOUS
 62
     2
 10
117.479171011
 20
273.544963815
 30
0.0
 11
117.479171011
 21
298.844963815
 31
0.0
  0
LINE
  8
0
  6
CONTINUOUS
 62
     2
 10
123.377987011
 20
273.644963815
 30
0.0
 11
123.377987011
 21
298.844963815
 31
0.0
  0
LINE
  8
0
  6
CONTINUOUS
 62
     2
 10
155.821475011
 20
319.7
 30
0.0
 11
150.99184588
 21
320.994095226
 31
0.0
  0
LINE
  8
0
  6
CONTINUOUS
 62
     2
 10
155.821475011
 20
319.7
 30
0.0
 11
150.99184588
 21
318.405904774
 31
0.0
  0
LINE
  8
0
  6
CONTINUOUS
 62
     2
 10
85.035683011
 20
319.7
 30
0.0
 11
155.821475011
 21
319.7
 31
0.0
  0
LINE
  8
0
  6
CONTINUOUS
 62
     2
 10
155.821475011
 20
258.544963815
 30
0.0
 11
155.821475011
 21
323.7
 31
0.0
  0
LINE
  8
0
  6
CONTINUOUS
 62
     2
 10
136.650323011
 20
308.172624
 30
0.0
 11
141.479952143
 21
306.878528774
 31
0.0
  0
LINE
  8
0
  6
CONTINUOUS
 62
     2
 10
136.650323011
 20
308.172624
 30
0.0
 11
141.479952143
 21
309.466719226
 31
0.0
  0
POLYLINE
  8
0
  6
CONTINUOUS
 62
     2
 66
     1
  0
VERTEX
  8
0
  6
CONTINUOUS
 62
     2
 10
136.650323011
 20
308.172624
 30
0.0
  0
VERTEX
  8
0
  6
CONTINUOUS
 62
     2
 10
147.464819011
 20
308.172624
 30
0.0
  0
VERTEX
  8
0
  6
CONTINUOUS
 62
     2
 10
142.63518988
 20
309.466719226
 30
0.0
  0
SEQEND
  0
LINE
  8
0
  6
CONTINUOUS
 62
     2
 10
147.464819011
 20
308.172624
 30
0.0
 11
142.63518988
 21
306.878528774
 31
0.0
  0
LINE
  8
0
  6
CONTINUOUS
 62
     2
 10
136.650323011
 20
252.072624
 30
0.0
 11
136.650323011
 21
312.172624
 31
0.0
  0
LINE
  8
0
  6
CONTINUOUS
 62
     2
 10
147.464819011
 20
251.972624
 30
0.0
 11
147.464819011
 21
312.172624
 31
0.0
  0
LINE
  8
0
  6
CONTINUOUS
 62
     2
 10
149.856586513
 20
246.665088
 30
0.0
 11
177.156586513
 21
283.965088
 31
0.0
  0
LINE
  8
0
  6
CONTINUOUS
 62
     2
 10
149.856586513
 20
246.665088
 30
0.0
 11
153.753305152
 21
249.798071218
 31
0.0
  0
LINE
  8
0
  6
CONTINUOUS
 62
     2
 10
149.856586513
 20
246.665088
 30
0.0
 11
151.664752237
 21
251.326690376
 31
0.0
  0
LINE
  8
0
  6
CONTINUOUS
 62
     2
 10
149.356243011
 20
203.680864
 30
0.0
 11
177.856243011
 21
214.380864
 31
0.0
  0
LINE
  8
0
  6
CONTINUOUS
 62
     2
 10
150.256243011
 20
191.480864
 30
0.0
 11
178.456243011
 21
200.080864
 31
0.0
  0
LINE
  8
0
  6
CONTINUOUS
 62
     2
 10
130.539451011
 20
190.903768
 30
0.0
 11
178.956243011
 21
166.080864
 31
0.0
  0
LINE
  8
0
  6
CONTINUOUS
 62
     2
 10
118.856243011
 20
189.780864
 30
0.0
 11
178.956243011
 21
166.080864
 31
0.0
  0
LINE
  8
0
  6
CONTINUOUS
 62
     2
 10
123.856243011
 20
174.180864
 30
0.0
 11
176.456243011
 21
145.780864
 31
0.0
  0
LINE
  8
0
  6
CONTINUOUS
 62
     2
 10
130.539451011
 20
190.903768
 30
0.0
 11
134.246763459
 21
187.548796403
 31
0.0
  0
LINE
  8
0
  6
CONTINUOUS
 62
     2
 10
130.539451011
 20
190.903768
 30
0.0
 11
135.427563569
 21
189.851933592
 31
0.0
  0
LINE
  8
0
  6
CONTINUOUS
 62
     2
 10
118.856243011
 20
189.780864
 30
0.0
 11
122.874414223
 21
186.805246398
 31
0.0
  0
LINE
  8
0
  6
CONTINUOUS
 62
     2
 10
118.856243011
 20
189.780864
 30
0.0
 11
123.823890159
 21
189.212989171
 31
0.0
  0
LINE
  8
0
  6
CONTINUOUS
 62
     2
 10
149.356243011
 20
203.680864
 30
0.0
 11
154.332566366
 21
204.166874154
 31
0.0
  0
LINE
  8
0
  6
CONTINUOUS
 62
     2
 10
150.256243011
 20
191.480864
 30
0.0
 11
155.253318208
 21
191.651859567
 31
0.0
  0
LINE
  8
0
  6
CONTINUOUS
 62
     2
 10
150.256243011
 20
191.480864
 30
0.0
 11
154.498339292
 21
194.127488103
 31
0.0
  0
LINE
  8
0
  6
CONTINUOUS
 62
     2
 10
149.356243011
 20
203.680864
 30
0.0
 11
153.422860377
 21
206.589922818
 31
0.0
  0
LINE
  8
0
  6
CONTINUOUS
 62
     2
 10
123.856243011
 20
174.180864
 30
0.0
 11
127.491173964
 21
170.747603601
 31
0.0
  0
LINE
  8
0
  6
CONTINUOUS
 62
     2
 10
123.856243011
 20
174.180864
 30
0.0
 11
128.720815757
 21
173.025038753
 31
0.0
  0
LINE
  8
0
  6
LTYPE4
 62
     2
 10
120.428579011
 20
270.308864
 30
0.0
 11
120.428579011
 21
182.377929176
 31
0.0
  0
LINE
  8
0
  6
LTYPE4
 62
     2
 10
120.428579011
 20
182.377929176
 30
0.0
 11
120.428579011
 21
162.9667984
 31
0.0
  0
LINE
  8
0
  6
LTYPE4
 62
     2
 10
135.175619011
 20
156.265088
 30
0.0
 11
107.056586513
 21
156.265088
 31
0.0
  0
LINE
  8
0
  6
LTYPE4
 62
     2
 10
120.428579011
 20
162.163904
 30
0.0
 11
120.428579011
 21
150.366272
 31
0.0
  0
LINE
  8
0
  6
LTYPE4
 62
     2
 10
107.598654211
 20
264.410048
 30
0.0
 11
135.175619011
 21
264.410048
 31
0.0
  0
LINE
  8
0
  6
LTYPE4
 62
     2
 10
130.850323011
 20
243.272624
 30
0.0
 11
153.350323011
 21
243.272624
 31
0.0
  0
LINE
  8
0
  6
LTYPE4
 62
     2
 10
136.650323011
 20
250.072624
 30
0.0
 11
136.650323011
 21
237.772624
 31
0.0
  0
LINE
  8
0
  6
LTYPE4
 62
     2
 10
147.464819011
 20
236.772624
 30
0.0
 11
147.464819011
 21
249.972624
 31
0.0
  0
LINE
  8
0
  6
LTYPE4
 62
     2
 10
265.698634066
 20
210.565277967
 30
0.0
 11
411.698634066
 21
210.565277967
 31
0.0
  0
LINE
  8
0
  6
LTYPE4
 62
     2
 10
385.700478077
 20
265.4
 30
0.0
 11
409.700478077
 21
265.4
 31
0.0
  0
LINE
  8
0
  6
LTYPE4
 62
     2
 10
387.7
 20
155.4
 30
0.0
 11
407.7
 21
155.4
 31
0.0
  0
ENDSEC
  0
EOF
