  0
SECTION
  2
HEADER
  9
$ACADVER
  1
AC1009
  9
$DWGCODEPAGE
  3
dos932
  9
$EXTMIN
 10
0.0
 20
0.0
 30
0.0
  9
$EXTMAX
 10
297.0
 20
210.0
 30
0.0
  9
$LIMMIN
 10
0.0
 20
0.0
  9
$LIMMAX
 10
297.0
 20
210.0
  9
$LTSCALE
 40
1.0
  9
$PDMODE
 70
     0
  0
ENDSEC
  0
SECTION
  2
TABLES
  0
TABLE
  2
VPORT
 70
     1
  0
VPORT
  2
*ACTIVE
 70
     0
 10
0.0
 20
0.0
 11
1.0
 21
1.0
 12
148.5
 22
105.0
 13
0.0
 23
0.0
 14
10.0
 24
10.0
 15
10.0
 25
10.0
 16
0.0
 26
0.0
 36
1.0
 17
0.0
 27
0.0
 37
0.0
 40
297.0
 41
1.414285714
 42
50.0
 43
0.0
 44
0.0
 50
0.0
 51
0.0
 71
     0
 72
  1000
 73
     1
 74
     3
 75
     0
 76
     0
 77
     0
 78
     0
  0
ENDTAB
  0
TABLE
  2
LTYPE
 70
     5
  0
LTYPE
  2
CONTINUOUS
 70
    64
  3
Solid line
 72
    65
 73
     0
 40
0.0
  0
LTYPE
  2
LTYPE1
 70
    64
  3
CENTER
 72
    65
 73
     4
 40
15.0
 49
10.5
 49
-1.5
 49
1.5
 49
-1.5
  0
LTYPE
  2
LTYPE2
 70
    64
  3
CENTER
 72
    65
 73
     4
 40
5.0
 49
3.5
 49
-0.5
 49
0.5
 49
-0.5
  0
LTYPE
  2
LTYPE3
 70
    64
  3
HIDDEN
 72
    65
 73
     2
 40
2.0
 49
1.2
 49
-0.8
  0
LTYPE
  2
LTYPE4
 70
    64
  3
CENTER
 72
    65
 73
     4
 40
8.0
 49
5.6
 49
-0.8
 49
0.8
 49
-0.8
  0
ENDTAB
  0
TABLE
  2
LAYER
 70
   128
  0
LAYER
  2
0
 70
     0
 62
     7
  6
CONTINUOUS
  0
LAYER
  2
2
 70
     0
 62
     7
  6
CONTINUOUS
  0
LAYER
  2
3
 70
     0
 62
     7
  6
CONTINUOUS
  0
LAYER
  2
4
 70
     0
 62
     7
  6
CONTINUOUS
  0
LAYER
  2
5
 70
     0
 62
     7
  6
CONTINUOUS
  0
LAYER
  2
6
 70
     0
 62
     7
  6
CONTINUOUS
  0
LAYER
  2
7
 70
     0
 62
     7
  6
CONTINUOUS
  0
LAYER
  2
8
 70
     0
 62
     7
  6
CONTINUOUS
  0
LAYER
  2
9
 70
     0
 62
     7
  6
CONTINUOUS
  0
LAYER
  2
10
 70
     0
 62
     7
  6
CONTINUOUS
  0
LAYER
  2
11
 70
     0
 62
     7
  6
CONTINUOUS
  0
LAYER
  2
12
 70
     0
 62
     7
  6
CONTINUOUS
  0
LAYER
  2
13
 70
     0
 62
     7
  6
CONTINUOUS
  0
LAYER
  2
14
 70
     0
 62
     7
  6
CONTINUOUS
  0
LAYER
  2
15
 70
     0
 62
     7
  6
CONTINUOUS
  0
LAYER
  2
16
 70
     0
 62
     7
  6
CONTINUOUS
  0
LAYER
  2
17
 70
     0
 62
     7
  6
CONTINUOUS
  0
LAYER
  2
18
 70
     0
 62
     7
  6
CONTINUOUS
  0
LAYER
  2
19
 70
     0
 62
     7
  6
CONTINUOUS
  0
LAYER
  2
20
 70
     0
 62
     7
  6
CONTINUOUS
  0
LAYER
  2
21
 70
     0
 62
     7
  6
CONTINUOUS
  0
LAYER
  2
22
 70
     0
 62
     7
  6
CONTINUOUS
  0
LAYER
  2
23
 70
     0
 62
     7
  6
CONTINUOUS
  0
LAYER
  2
24
 70
     0
 62
     7
  6
CONTINUOUS
  0
LAYER
  2
25
 70
     0
 62
     7
  6
CONTINUOUS
  0
LAYER
  2
26
 70
     0
 62
     7
  6
CONTINUOUS
  0
LAYER
  2
27
 70
     0
 62
     7
  6
CONTINUOUS
  0
LAYER
  2
28
 70
     0
 62
     7
  6
CONTINUOUS
  0
LAYER
  2
29
 70
     0
 62
     7
  6
CONTINUOUS
  0
LAYER
  2
30
 70
     0
 62
     7
  6
CONTINUOUS
  0
LAYER
  2
31
 70
     0
 62
     7
  6
CONTINUOUS
  0
LAYER
  2
32
 70
     0
 62
     7
  6
CONTINUOUS
  0
LAYER
  2
33
 70
     0
 62
     7
  6
CONTINUOUS
  0
LAYER
  2
34
 70
     0
 62
     7
  6
CONTINUOUS
  0
LAYER
  2
35
 70
     0
 62
     7
  6
CONTINUOUS
  0
LAYER
  2
36
 70
     0
 62
     7
  6
CONTINUOUS
  0
LAYER
  2
37
 70
     0
 62
     7
  6
CONTINUOUS
  0
LAYER
  2
38
 70
     0
 62
     7
  6
CONTINUOUS
  0
LAYER
  2
39
 70
     0
 62
     7
  6
CONTINUOUS
  0
LAYER
  2
40
 70
     0
 62
     7
  6
CONTINUOUS
  0
LAYER
  2
41
 70
     0
 62
     7
  6
CONTINUOUS
  0
LAYER
  2
42
 70
     0
 62
     7
  6
CONTINUOUS
  0
LAYER
  2
43
 70
     0
 62
     7
  6
CONTINUOUS
  0
LAYER
  2
44
 70
     0
 62
     7
  6
CONTINUOUS
  0
LAYER
  2
45
 70
     0
 62
     7
  6
CONTINUOUS
  0
LAYER
  2
46
 70
     0
 62
     7
  6
CONTINUOUS
  0
LAYER
  2
47
 70
     0
 62
     7
  6
CONTINUOUS
  0
LAYER
  2
48
 70
     0
 62
     7
  6
CONTINUOUS
  0
LAYER
  2
49
 70
     0
 62
     7
  6
CONTINUOUS
  0
LAYER
  2
50
 70
     0
 62
     7
  6
CONTINUOUS
  0
LAYER
  2
51
 70
     0
 62
     7
  6
CONTINUOUS
  0
LAYER
  2
52
 70
     0
 62
     7
  6
CONTINUOUS
  0
LAYER
  2
53
 70
     0
 62
     7
  6
CONTINUOUS
  0
LAYER
  2
54
 70
     0
 62
     7
  6
CONTINUOUS
  0
LAYER
  2
55
 70
     0
 62
     7
  6
CONTINUOUS
  0
LAYER
  2
56
 70
     0
 62
     7
  6
CONTINUOUS
  0
LAYER
  2
57
 70
     0
 62
     7
  6
CONTINUOUS
  0
LAYER
  2
58
 70
     0
 62
     7
  6
CONTINUOUS
  0
LAYER
  2
59
 70
     0
 62
     7
  6
CONTINUOUS
  0
LAYER
  2
60
 70
     0
 62
     7
  6
CONTINUOUS
  0
LAYER
  2
61
 70
     0
 62
     7
  6
CONTINUOUS
  0
LAYER
  2
62
 70
     0
 62
     7
  6
CONTINUOUS
  0
LAYER
  2
63
 70
     0
 62
     7
  6
CONTINUOUS
  0
LAYER
  2
64
 70
     0
 62
     7
  6
CONTINUOUS
  0
LAYER
  2
65
 70
     0
 62
     7
  6
CONTINUOUS
  0
LAYER
  2
66
 70
     0
 62
     7
  6
CONTINUOUS
  0
LAYER
  2
67
 70
     0
 62
     7
  6
CONTINUOUS
  0
LAYER
  2
68
 70
     0
 62
     7
  6
CONTINUOUS
  0
LAYER
  2
69
 70
     0
 62
     7
  6
CONTINUOUS
  0
LAYER
  2
70
 70
     0
 62
     7
  6
CONTINUOUS
  0
LAYER
  2
71
 70
     0
 62
     7
  6
CONTINUOUS
  0
LAYER
  2
72
 70
     0
 62
     7
  6
CONTINUOUS
  0
LAYER
  2
73
 70
     0
 62
     7
  6
CONTINUOUS
  0
LAYER
  2
74
 70
     0
 62
     7
  6
CONTINUOUS
  0
LAYER
  2
75
 70
     0
 62
     7
  6
CONTINUOUS
  0
LAYER
  2
76
 70
     0
 62
     7
  6
CONTINUOUS
  0
LAYER
  2
77
 70
     0
 62
     7
  6
CONTINUOUS
  0
LAYER
  2
78
 70
     0
 62
     7
  6
CONTINUOUS
  0
LAYER
  2
79
 70
     0
 62
     7
  6
CONTINUOUS
  0
LAYER
  2
80
 70
     0
 62
     7
  6
CONTINUOUS
  0
LAYER
  2
81
 70
     0
 62
     7
  6
CONTINUOUS
  0
LAYER
  2
82
 70
     0
 62
     7
  6
CONTINUOUS
  0
LAYER
  2
83
 70
     0
 62
     7
  6
CONTINUOUS
  0
LAYER
  2
84
 70
     0
 62
     7
  6
CONTINUOUS
  0
LAYER
  2
85
 70
     0
 62
     7
  6
CONTINUOUS
  0
LAYER
  2
86
 70
     0
 62
     7
  6
CONTINUOUS
  0
LAYER
  2
87
 70
     0
 62
     7
  6
CONTINUOUS
  0
LAYER
  2
88
 70
     0
 62
     7
  6
CONTINUOUS
  0
LAYER
  2
89
 70
     0
 62
     7
  6
CONTINUOUS
  0
LAYER
  2
90
 70
     0
 62
     7
  6
CONTINUOUS
  0
LAYER
  2
91
 70
     0
 62
     7
  6
CONTINUOUS
  0
LAYER
  2
92
 70
     0
 62
     7
  6
CONTINUOUS
  0
LAYER
  2
93
 70
     0
 62
     7
  6
CONTINUOUS
  0
LAYER
  2
94
 70
     0
 62
     7
  6
CONTINUOUS
  0
LAYER
  2
95
 70
     0
 62
     7
  6
CONTINUOUS
  0
LAYER
  2
96
 70
     0
 62
     7
  6
CONTINUOUS
  0
LAYER
  2
97
 70
     0
 62
     7
  6
CONTINUOUS
  0
LAYER
  2
98
 70
     0
 62
     7
  6
CONTINUOUS
  0
LAYER
  2
99
 70
     0
 62
     7
  6
CONTINUOUS
  0
LAYER
  2
100
 70
     0
 62
     7
  6
CONTINUOUS
  0
LAYER
  2
101
 70
     0
 62
     7
  6
CONTINUOUS
  0
LAYER
  2
102
 70
     0
 62
     7
  6
CONTINUOUS
  0
LAYER
  2
103
 70
     0
 62
     7
  6
CONTINUOUS
  0
LAYER
  2
104
 70
     0
 62
     7
  6
CONTINUOUS
  0
LAYER
  2
105
 70
     0
 62
     7
  6
CONTINUOUS
  0
LAYER
  2
106
 70
     0
 62
     7
  6
CONTINUOUS
  0
LAYER
  2
107
 70
     0
 62
     7
  6
CONTINUOUS
  0
LAYER
  2
108
 70
     0
 62
     7
  6
CONTINUOUS
  0
LAYER
  2
109
 70
     0
 62
     7
  6
CONTINUOUS
  0
LAYER
  2
110
 70
     0
 62
     7
  6
CONTINUOUS
  0
LAYER
  2
111
 70
     0
 62
     7
  6
CONTINUOUS
  0
LAYER
  2
112
 70
     0
 62
     7
  6
CONTINUOUS
  0
LAYER
  2
113
 70
     0
 62
     7
  6
CONTINUOUS
  0
LAYER
  2
114
 70
     0
 62
     7
  6
CONTINUOUS
  0
LAYER
  2
115
 70
     0
 62
     7
  6
CONTINUOUS
  0
LAYER
  2
116
 70
     0
 62
     7
  6
CONTINUOUS
  0
LAYER
  2
117
 70
     0
 62
     7
  6
CONTINUOUS
  0
LAYER
  2
118
 70
     0
 62
     7
  6
CONTINUOUS
  0
LAYER
  2
119
 70
     0
 62
     7
  6
CONTINUOUS
  0
LAYER
  2
120
 70
     0
 62
     7
  6
CONTINUOUS
  0
LAYER
  2
121
 70
     0
 62
     7
  6
CONTINUOUS
  0
LAYER
  2
122
 70
     0
 62
     7
  6
CONTINUOUS
  0
LAYER
  2
123
 70
     0
 62
     7
  6
CONTINUOUS
  0
LAYER
  2
124
 70
     0
 62
     7
  6
CONTINUOUS
  0
LAYER
  2
125
 70
     0
 62
     7
  6
CONTINUOUS
  0
LAYER
  2
126
 70
     0
 62
     7
  6
CONTINUOUS
  0
LAYER
  2
127
 70
     0
 62
     7
  6
CONTINUOUS
  0
LAYER
  2
128
 70
     0
 62
     7
  6
CONTINUOUS
  0
ENDTAB
  0
TABLE
  2
STYLE
 70
     6
  0
STYLE
  2
STANDARD
 70
     0
 40
0.0
 41
1.0
 50
0.0
 71
     0
 42
0.2
  3
txt.shx
  4
extfont.shx
  0
STYLE
  2
KANJI0
 70
     0
 40
6.0
 41
0.9
 50
0.0
 71
     0
 42
6.0
  3
txt.shx
  4
extfont.shx
  0
STYLE
  2
KANJI1
 70
     0
 40
3.0
 41
0.9
 50
0.0
 71
     0
 42
3.0
  3
txt.shx
  4
extfont.shx
  0
STYLE
  2
KANJI2
 70
     0
 40
3.0
 41
0.6
 50
0.0
 71
     0
 42
3.0
  3
txt.shx
  4
extfont.shx
  0
STYLE
  2
KANJI3
 70
     0
 40
1.8
 41
0.6
 50
0.0
 71
     0
 42
1.8
  3
txt.shx
  4
extfont.shx
  0
STYLE
  2
KANJI4
 70
     0
 40
4.0
 41
0.9
 50
0.0
 71
     0
 42
4.0
  3
txt.shx
  4
extfont.shx
  0
ENDTAB
  0
TABLE
  2
VIEW
 70
     0
  0
ENDTAB
  0
ENDSEC
  0
SECTION
  2
BLOCKS
  0
ENDSEC
  0
SECTION
  2
ENTITIES
  0
TEXT
  8
0
  6
CONTINUOUS
 62
     3
 10
235.0
 20
17.0
 30
0.6
 40
6.0
  1
ＭＳ－７６４２Ａ
 50
0.0
 41
0.9
 51
0.0
  7
KANJI0
  0
LINE
  8
0
  6
CONTINUOUS
 62
     2
 10
155.964101615
 20
126.0
 30
0.0
 11
185.664101615
 21
126.0
 31
0.0
  0
TEXT
  8
0
  6
CONTINUOUS
 62
     2
 10
155.964101615
 20
127.0
 30
0.3
 40
3.0
  1
ＡＭＰファストン端子
 50
0.0
 41
0.9
 51
0.0
  7
KANJI1
  0
TEXT
  8
0
  6
CONTINUOUS
 62
     2
 10
155.964101615
 20
122.0
 30
0.3
 40
3.0
  1
（１８７シリ－ズ　タブ　黄銅板）
 50
0.0
 41
0.9
 51
0.0
  7
KANJI1
  0
LINE
  8
0
  6
CONTINUOUS
 62
     2
 10
155.964101615
 20
121.0
 30
0.0
 11
199.664101615
 21
121.0
 31
0.0
  0
ARC
  8
0
  6
CONTINUOUS
 62
     1
 10
120.0
 20
119.0
 30
0.0
 40
4.0
 50
180.0
 51
0.0
  0
LINE
  8
0
  6
CONTINUOUS
 62
     1
 10
116.0
 20
119.0
 30
0.0
 11
116.0
 21
123.0
 31
0.0
  0
ARC
  8
0
  6
CONTINUOUS
 62
     1
 10
114.0
 20
123.0
 30
0.0
 40
2.0
 50
0.0
 51
90.0
  0
LINE
  8
0
  6
CONTINUOUS
 62
     1
 10
124.0
 20
119.0
 30
0.0
 11
124.0
 21
123.0
 31
0.0
  0
ARC
  8
0
  6
CONTINUOUS
 62
     1
 10
126.0
 20
123.0
 30
0.0
 40
2.0
 50
90.0
 51
180.0
  0
LINE
  8
0
  6
CONTINUOUS
 62
     1
 10
116.0
 20
151.0
 30
0.0
 11
116.0
 21
147.0
 31
0.0
  0
ARC
  8
0
  6
CONTINUOUS
 62
     1
 10
114.0
 20
147.0
 30
0.0
 40
2.0
 50
270.0
 51
0.0
  0
ARC
  8
0
  6
CONTINUOUS
 62
     1
 10
120.0
 20
151.0
 30
0.0
 40
4.0
 50
0.0
 51
180.0
  0
LINE
  8
0
  6
CONTINUOUS
 62
     1
 10
124.0
 20
151.0
 30
0.0
 11
124.0
 21
147.0
 31
0.0
  0
ARC
  8
0
  6
CONTINUOUS
 62
     1
 10
126.0
 20
147.0
 30
0.0
 40
2.0
 50
180.0
 51
270.0
  0
ARC
  8
0
  6
CONTINUOUS
 62
     1
 10
96.0
 20
144.0
 30
0.0
 40
1.0
 50
90.0
 51
180.0
  0
LINE
  8
0
  6
CONTINUOUS
 62
     1
 10
95.0
 20
144.0
 30
0.0
 11
95.0
 21
126.0
 31
0.0
  0
ARC
  8
0
  6
CONTINUOUS
 62
     1
 10
96.0
 20
126.0
 30
0.0
 40
1.0
 50
180.0
 51
270.0
  0
ARC
  8
0
  6
CONTINUOUS
 62
     1
 10
144.0
 20
126.0
 30
0.0
 40
1.0
 50
270.0
 51
0.0
  0
LINE
  8
0
  6
CONTINUOUS
 62
     1
 10
145.0
 20
126.0
 30
0.0
 11
145.0
 21
144.0
 31
0.0
  0
ARC
  8
0
  6
CONTINUOUS
 62
     1
 10
144.0
 20
144.0
 30
0.0
 40
1.0
 50
0.0
 51
90.0
  0
LINE
  8
0
  6
CONTINUOUS
 62
     1
 10
96.0
 20
125.0
 30
0.0
 11
144.0
 21
125.0
 31
0.0
  0
LINE
  8
0
  6
CONTINUOUS
 62
     1
 10
144.0
 20
145.0
 30
0.0
 11
96.0
 21
145.0
 31
0.0
  0
LINE
  8
0
  6
LTYPE1
 62
     2
 10
123.0
 20
119.0
 30
0.0
 11
117.0
 21
119.0
 31
0.0
  0
LINE
  8
0
  6
LTYPE1
 62
     2
 10
118.2
 20
151.0
 30
0.0
 11
123.0
 21
151.0
 31
0.0
  0
LINE
  8
0
  6
CONTINUOUS
 62
     1
 10
95.0
 20
144.0
 30
0.0
 11
95.0
 21
126.0
 31
0.0
  0
ARC
  8
0
  6
CONTINUOUS
 62
     1
 10
96.0
 20
126.0
 30
0.0
 40
1.0
 50
180.0
 51
270.0
  0
ARC
  8
0
  6
CONTINUOUS
 62
     1
 10
96.0
 20
144.0
 30
0.0
 40
1.0
 50
90.0
 51
180.0
  0
ARC
  8
0
  6
CONTINUOUS
 62
     1
 10
144.0
 20
144.0
 30
0.0
 40
1.0
 50
0.0
 51
90.0
  0
LINE
  8
0
  6
CONTINUOUS
 62
     1
 10
145.0
 20
126.0
 30
0.0
 11
145.0
 21
144.0
 31
0.0
  0
ARC
  8
0
  6
CONTINUOUS
 62
     1
 10
144.0
 20
126.0
 30
0.0
 40
1.0
 50
270.0
 51
0.0
  0
LINE
  8
0
  6
CONTINUOUS
 62
     1
 10
144.0
 20
145.0
 30
0.0
 11
96.0
 21
145.0
 31
0.0
  0
LINE
  8
0
  6
CONTINUOUS
 62
     1
 10
96.0
 20
125.0
 30
0.0
 11
144.0
 21
125.0
 31
0.0
  0
LINE
  8
0
  6
LTYPE1
 62
     2
 10
120.0
 20
112.9
 30
0.0
 11
120.0
 21
156.9
 31
0.0
  0
CIRCLE
  8
0
  6
CONTINUOUS
 62
     2
 10
152.0
 20
132.0
 30
0.0
 40
0.5
  0
LINE
  8
0
  6
LTYPE2
 62
     2
 10
158.5
 20
132.0
 30
0.0
 11
142.0
 21
132.0
 31
0.0
  0
CIRCLE
  8
0
  6
CONTINUOUS
 62
     2
 10
88.0
 20
138.0
 30
0.0
 40
0.5
  0
LINE
  8
0
  6
LTYPE2
 62
     2
 10
81.5
 20
138.0
 30
0.0
 11
98.0
 21
138.0
 31
0.0
  0
LINE
  8
0
  6
CONTINUOUS
 62
     2
 10
152.5
 20
131.5
 30
0.0
 11
153.239446333
 21
129.111858647
 31
0.0
  0
LINE
  8
0
  6
CONTINUOUS
 62
     2
 10
152.5
 20
131.5
 30
0.0
 11
154.334449986
 21
129.801532088
 31
0.0
  0
LINE
  8
0
  6
CONTINUOUS
 62
     2
 10
152.5
 20
131.5
 30
0.0
 11
155.964101615
 21
126.0
 31
0.0
  0
LINE
  8
0
  6
CONTINUOUS
 62
     2
 10
121.2
 20
117.8
 30
0.0
 11
121.939446333
 21
115.411858647
 31
0.0
  0
LINE
  8
0
  6
CONTINUOUS
 62
     2
 10
121.2
 20
117.8
 30
0.0
 11
123.034449986
 21
116.101532088
 31
0.0
  0
LINE
  8
0
  6
CONTINUOUS
 62
     2
 10
121.2
 20
117.8
 30
0.0
 11
126.588026269
 21
109.245359354
 31
0.0
  0
TEXT
  8
0
  6
CONTINUOUS
 62
     2
 10
126.588026269
 20
110.245359354
 30
0.3
 40
3.0
  1
２－φ３．２穴
 50
0.0
 41
0.6
 51
0.0
  7
KANJI2
  0
LINE
  8
0
  6
CONTINUOUS
 62
     2
 10
140.988026269
 20
109.245359354
 30
0.0
 11
126.588026269
 21
109.245359354
 31
0.0
  0
LINE
  8
0
  6
CONTINUOUS
 62
     2
 10
116.0
 20
152.000001907
 30
0.0
 11
116.0
 21
167.0
 31
0.0
  0
LINE
  8
0
  6
CONTINUOUS
 62
     2
 10
116.0
 20
165.0
 30
0.0
 11
118.414814566
 21
164.352952387
 31
0.0
  0
LINE
  8
0
  6
CONTINUOUS
 62
     2
 10
116.0
 20
165.0
 30
0.0
 11
118.414814566
 21
165.647047613
 31
0.0
  0
LINE
  8
0
  6
CONTINUOUS
 62
     2
 10
116.0
 20
165.0
 30
0.0
 11
124.0
 21
165.0
 31
0.0
  0
LINE
  8
0
  6
CONTINUOUS
 62
     2
 10
124.0
 20
165.0
 30
0.0
 11
121.585185434
 21
165.647047613
 31
0.0
  0
LINE
  8
0
  6
CONTINUOUS
 62
     2
 10
124.0
 20
165.0
 30
0.0
 11
121.585185434
 21
164.352952387
 31
0.0
  0
LINE
  8
0
  6
CONTINUOUS
 62
     2
 10
124.0
 20
152.000001907
 30
0.0
 11
124.0
 21
167.0
 31
0.0
  0
TEXT
  8
0
  6
CONTINUOUS
 62
     2
 10
119.1
 20
166.0
 30
0.3
 40
3.0
  1
８
 50
0.0
 41
0.6
 51
0.0
  7
KANJI2
  0
LINE
  8
0
  6
CONTINUOUS
 62
     2
 10
95.0
 20
145.0
 30
0.0
 11
95.0
 21
171.92820323
 31
0.0
  0
LINE
  8
0
  6
CONTINUOUS
 62
     2
 10
95.0
 20
169.92820323
 30
0.0
 11
97.414814566
 21
169.281155618
 31
0.0
  0
LINE
  8
0
  6
CONTINUOUS
 62
     2
 10
95.0
 20
169.92820323
 30
0.0
 11
97.414814566
 21
170.575250843
 31
0.0
  0
LINE
  8
0
  6
CONTINUOUS
 62
     2
 10
95.0
 20
169.92820323
 30
0.0
 11
145.0
 21
169.92820323
 31
0.0
  0
LINE
  8
0
  6
CONTINUOUS
 62
     2
 10
145.0
 20
169.92820323
 30
0.0
 11
142.585185434
 21
170.575250843
 31
0.0
  0
LINE
  8
0
  6
CONTINUOUS
 62
     2
 10
145.0
 20
169.92820323
 30
0.0
 11
142.585185434
 21
169.281155618
 31
0.0
  0
LINE
  8
0
  6
CONTINUOUS
 62
     2
 10
145.0
 20
145.0
 30
0.0
 11
145.0
 21
171.92820323
 31
0.0
  0
TEXT
  8
0
  6
CONTINUOUS
 62
     2
 10
118.05
 20
170.92820323
 30
0.3
 40
3.0
  1
５０
 50
0.0
 41
0.6
 51
0.0
  7
KANJI2
  0
LINE
  8
0
  6
CONTINUOUS
 62
     2
 10
84.5
 20
140.9
 30
0.0
 11
84.5
 21
176.92820323
 31
0.0
  0
LINE
  8
0
  6
CONTINUOUS
 62
     2
 10
84.5
 20
174.92820323
 30
0.0
 11
86.914814566
 21
174.281155618
 31
0.0
  0
LINE
  8
0
  6
CONTINUOUS
 62
     2
 10
84.5
 20
174.92820323
 30
0.0
 11
86.914814566
 21
175.575250843
 31
0.0
  0
LINE
  8
0
  6
CONTINUOUS
 62
     2
 10
84.5
 20
174.92820323
 30
0.0
 11
155.5
 21
174.92820323
 31
0.0
  0
LINE
  8
0
  6
CONTINUOUS
 62
     2
 10
155.5
 20
174.92820323
 30
0.0
 11
153.085185434
 21
175.575250843
 31
0.0
  0
LINE
  8
0
  6
CONTINUOUS
 62
     2
 10
155.5
 20
174.92820323
 30
0.0
 11
153.085185434
 21
174.281155618
 31
0.0
  0
LINE
  8
0
  6
CONTINUOUS
 62
     2
 10
155.5
 20
134.9
 30
0.0
 11
155.5
 21
176.92820323
 31
0.0
  0
TEXT
  8
0
  6
CONTINUOUS
 62
     2
 10
118.05
 20
175.92820323
 30
0.3
 40
3.0
  1
７１
 50
0.0
 41
0.6
 51
0.0
  7
KANJI2
  0
LINE
  8
0
  6
CONTINUOUS
 62
     2
 10
95.0
 20
145.0
 30
0.0
 11
73.0
 21
145.0
 31
0.0
  0
LINE
  8
0
  6
CONTINUOUS
 62
     2
 10
75.0
 20
145.0
 30
0.0
 11
74.352952387
 21
142.585185434
 31
0.0
  0
LINE
  8
0
  6
CONTINUOUS
 62
     2
 10
75.0
 20
145.0
 30
0.0
 11
75.647047613
 21
142.585185434
 31
0.0
  0
LINE
  8
0
  6
CONTINUOUS
 62
     2
 10
75.0
 20
145.0
 30
0.0
 11
75.0
 21
125.0
 31
0.0
  0
LINE
  8
0
  6
CONTINUOUS
 62
     2
 10
75.0
 20
125.0
 30
0.0
 11
75.647047613
 21
127.414814566
 31
0.0
  0
LINE
  8
0
  6
CONTINUOUS
 62
     2
 10
75.0
 20
125.0
 30
0.0
 11
74.352952387
 21
127.414814566
 31
0.0
  0
LINE
  8
0
  6
CONTINUOUS
 62
     2
 10
95.0
 20
125.0
 30
0.0
 11
73.0
 21
125.0
 31
0.0
  0
TEXT
  8
0
  6
CONTINUOUS
 62
     2
 10
74.0
 20
133.05
 30
0.3
 40
3.0
  1
２０
 50
90.0
 41
0.6
 51
0.0
  7
KANJI2
  0
LINE
  8
0
  6
CONTINUOUS
 62
     2
 10
119.0
 20
151.0
 30
0.0
 11
68.0
 21
151.0
 31
0.0
  0
LINE
  8
0
  6
CONTINUOUS
 62
     2
 10
70.0
 20
151.0
 30
0.0
 11
69.352952387
 21
148.585185434
 31
0.0
  0
LINE
  8
0
  6
CONTINUOUS
 62
     2
 10
70.0
 20
151.0
 30
0.0
 11
70.647047613
 21
148.585185434
 31
0.0
  0
LINE
  8
0
  6
CONTINUOUS
 62
     2
 10
70.0
 20
151.0
 30
0.0
 11
70.0
 21
119.0
 31
0.0
  0
LINE
  8
0
  6
CONTINUOUS
 62
     2
 10
70.0
 20
119.0
 30
0.0
 11
70.647047613
 21
121.414814566
 31
0.0
  0
LINE
  8
0
  6
CONTINUOUS
 62
     2
 10
70.0
 20
119.0
 30
0.0
 11
69.352952387
 21
121.414814566
 31
0.0
  0
LINE
  8
0
  6
CONTINUOUS
 62
     2
 10
119.0
 20
119.0
 30
0.0
 11
68.0
 21
119.0
 31
0.0
  0
TEXT
  8
0
  6
CONTINUOUS
 62
     2
 10
69.0
 20
130.62
 30
0.3
 40
3.0
  1
３２
 50
90.0
 41
0.6
 51
0.0
  7
KANJI2
  0
TEXT
  8
0
  6
CONTINUOUS
 62
     2
 10
69.0
 20
134.97
 30
0.18
 40
1.8
  1
±０．５
 50
90.0
 41
0.6
 51
0.0
  7
KANJI3
  0
LINE
  8
0
  6
CONTINUOUS
 62
     2
 10
119.0
 20
155.0
 30
0.0
 11
63.0
 21
155.0
 31
0.0
  0
LINE
  8
0
  6
CONTINUOUS
 62
     2
 10
65.0
 20
155.0
 30
0.0
 11
64.352952387
 21
152.585185434
 31
0.0
  0
LINE
  8
0
  6
CONTINUOUS
 62
     2
 10
65.0
 20
155.0
 30
0.0
 11
65.647047613
 21
152.585185434
 31
0.0
  0
LINE
  8
0
  6
CONTINUOUS
 62
     2
 10
65.0
 20
155.0
 30
0.0
 11
65.0
 21
115.0
 31
0.0
  0
LINE
  8
0
  6
CONTINUOUS
 62
     2
 10
65.0
 20
115.0
 30
0.0
 11
65.647047613
 21
117.414814566
 31
0.0
  0
LINE
  8
0
  6
CONTINUOUS
 62
     2
 10
65.0
 20
115.0
 30
0.0
 11
64.352952387
 21
117.414814566
 31
0.0
  0
LINE
  8
0
  6
CONTINUOUS
 62
     2
 10
119.0
 20
115.0
 30
0.0
 11
63.0
 21
115.0
 31
0.0
  0
TEXT
  8
0
  6
CONTINUOUS
 62
     2
 10
64.0
 20
133.05
 30
0.3
 40
3.0
  1
４０
 50
90.0
 41
0.6
 51
0.0
  7
KANJI2
  0
LINE
  8
0
  6
CONTINUOUS
 62
     1
 10
101.0
 20
126.5
 30
0.0
 11
139.0
 21
126.5
 31
0.0
  0
LINE
  8
0
  6
CONTINUOUS
 62
     1
 10
139.0
 20
143.5
 30
0.0
 11
101.0
 21
143.5
 31
0.0
  0
LINE
  8
0
  6
CONTINUOUS
 62
     1
 10
101.0
 20
143.5
 30
0.0
 11
101.0
 21
126.5
 31
0.0
  0
LINE
  8
0
  6
CONTINUOUS
 62
     1
 10
139.0
 20
126.5
 30
0.0
 11
139.0
 21
143.5
 31
0.0
  0
TEXT
  8
0
  6
CONTINUOUS
 62
     1
 10
114.3
 20
133.0
 30
0.4
 40
4.0
  1
銘　板
 50
0.0
 41
0.9
 51
0.0
  7
KANJI4
  0
ARC
  8
0
  6
CONTINUOUS
 62
     1
 10
105.0
 20
70.0
 30
0.0
 40
1.0
 50
180.0
 51
0.0
  0
ARC
  8
0
  6
CONTINUOUS
 62
     1
 10
111.0
 20
70.0
 30
0.0
 40
1.0
 50
180.0
 51
0.0
  0
ARC
  8
0
  6
CONTINUOUS
 62
     1
 10
129.0
 20
70.0
 30
0.0
 40
1.0
 50
180.0
 51
0.0
  0
ARC
  8
0
  6
CONTINUOUS
 62
     1
 10
135.0
 20
70.0
 30
0.0
 40
1.0
 50
180.0
 51
0.0
  0
ARC
  8
0
  6
CONTINUOUS
 62
     1
 10
123.0
 20
69.0
 30
0.0
 40
1.0
 50
0.0
 51
90.0
  0
LINE
  8
0
  6
CONTINUOUS
 62
     1
 10
124.0
 20
66.0
 30
0.0
 11
124.0
 21
69.0
 31
0.0
  0
ARC
  8
0
  6
CONTINUOUS
 62
     1
 10
117.0
 20
72.0
 30
0.0
 40
1.0
 50
180.0
 51
0.0
  0
ARC
  8
0
  6
CONTINUOUS
 62
     1
 10
123.0
 20
72.0
 30
0.0
 40
1.0
 50
180.0
 51
0.0
  0
LINE
  8
0
  6
CONTINUOUS
 62
     1
 10
95.0
 20
66.0
 30
0.0
 11
145.0
 21
66.0
 31
0.0
  0
LINE
  8
0
  6
CONTINUOUS
 62
     1
 10
134.0
 20
78.0
 30
0.0
 11
130.0
 21
78.0
 31
0.0
  0
LINE
  8
0
  6
CONTINUOUS
 62
     1
 10
122.0
 20
78.0
 30
0.0
 11
118.0
 21
78.0
 31
0.0
  0
LINE
  8
0
  6
CONTINUOUS
 62
     1
 10
128.0
 20
78.0
 30
0.0
 11
124.0
 21
78.0
 31
0.0
  0
LINE
  8
0
  6
CONTINUOUS
 62
     1
 10
145.0
 20
78.0
 30
0.0
 11
136.0
 21
78.0
 31
0.0
  0
LINE
  8
0
  6
CONTINUOUS
 62
     1
 10
95.0
 20
78.0
 30
0.0
 11
95.0
 21
66.0
 31
0.0
  0
LINE
  8
0
  6
CONTINUOUS
 62
     1
 10
104.0
 20
70.0
 30
0.0
 11
104.0
 21
78.0
 31
0.0
  0
LINE
  8
0
  6
CONTINUOUS
 62
     1
 10
118.0
 20
78.0
 30
0.0
 11
118.0
 21
72.0
 31
0.0
  0
LINE
  8
0
  6
CONTINUOUS
 62
     1
 10
122.0
 20
72.0
 30
0.0
 11
122.0
 21
78.0
 31
0.0
  0
LINE
  8
0
  6
CONTINUOUS
 62
     1
 10
124.0
 20
78.0
 30
0.0
 11
124.0
 21
72.0
 31
0.0
  0
LINE
  8
0
  6
CONTINUOUS
 62
     1
 10
128.0
 20
70.0
 30
0.0
 11
128.0
 21
78.0
 31
0.0
  0
LINE
  8
0
  6
CONTINUOUS
 62
     1
 10
130.0
 20
78.0
 30
0.0
 11
130.0
 21
70.0
 31
0.0
  0
LINE
  8
0
  6
CONTINUOUS
 62
     1
 10
134.0
 20
70.0
 30
0.0
 11
134.0
 21
78.0
 31
0.0
  0
LINE
  8
0
  6
CONTINUOUS
 62
     1
 10
136.0
 20
78.0
 30
0.0
 11
136.0
 21
70.0
 31
0.0
  0
LINE
  8
0
  6
CONTINUOUS
 62
     1
 10
145.0
 20
66.0
 30
0.0
 11
145.0
 21
78.0
 31
0.0
  0
LINE
  8
0
  6
LTYPE3
 62
     2
 10
121.6
 20
70.0
 30
0.0
 11
121.6
 21
66.0
 31
0.0
  0
LINE
  8
0
  6
CONTINUOUS
 62
     1
 10
106.0
 20
78.0
 30
0.0
 11
110.0
 21
78.0
 31
0.0
  0
LINE
  8
0
  6
CONTINUOUS
 62
     1
 10
112.0
 20
78.0
 30
0.0
 11
116.0
 21
78.0
 31
0.0
  0
LINE
  8
0
  6
CONTINUOUS
 62
     1
 10
116.0
 20
78.0
 30
0.0
 11
116.0
 21
72.0
 31
0.0
  0
LINE
  8
0
  6
CONTINUOUS
 62
     1
 10
112.0
 20
70.0
 30
0.0
 11
112.0
 21
78.0
 31
0.0
  0
LINE
  8
0
  6
CONTINUOUS
 62
     1
 10
110.0
 20
78.0
 30
0.0
 11
110.0
 21
70.0
 31
0.0
  0
LINE
  8
0
  6
CONTINUOUS
 62
     1
 10
106.0
 20
70.0
 30
0.0
 11
106.0
 21
78.0
 31
0.0
  0
LINE
  8
0
  6
CONTINUOUS
 62
     1
 10
95.0
 20
78.0
 30
0.0
 11
104.0
 21
78.0
 31
0.0
  0
ARC
  8
0
  6
CONTINUOUS
 62
     1
 10
117.0
 20
69.0
 30
0.0
 40
1.0
 50
90.0
 51
180.0
  0
LINE
  8
0
  6
CONTINUOUS
 62
     1
 10
116.0
 20
66.0
 30
0.0
 11
116.0
 21
69.0
 31
0.0
  0
LINE
  8
0
  6
CONTINUOUS
 62
     1
 10
123.0
 20
70.0
 30
0.0
 11
117.0
 21
70.0
 31
0.0
  0
LINE
  8
0
  6
LTYPE3
 62
     2
 10
118.4
 20
70.0
 30
0.0
 11
118.4
 21
66.0
 31
0.0
  0
ARC
  8
0
  6
CONTINUOUS
 62
     1
 10
143.0
 20
82.0
 30
0.0
 40
2.0
 50
0.0
 51
90.0
  0
ARC
  8
0
  6
CONTINUOUS
 62
     1
 10
97.0
 20
82.0
 30
0.0
 40
2.0
 50
90.0
 51
180.0
  0
LINE
  8
0
  6
CONTINUOUS
 62
     1
 10
143.0
 20
84.0
 30
0.0
 11
97.0
 21
84.0
 31
0.0
  0
LINE
  8
0
  6
CONTINUOUS
 62
     1
 10
145.0
 20
78.0
 30
0.0
 11
145.0
 21
82.0
 31
0.0
  0
LINE
  8
0
  6
CONTINUOUS
 62
     1
 10
95.0
 20
82.0
 30
0.0
 11
95.0
 21
78.0
 31
0.0
  0
LINE
  8
0
  6
CONTINUOUS
 62
     1
 10
145.0
 20
78.0
 30
0.0
 11
95.0
 21
78.0
 31
0.0
  0
LINE
  8
0
  6
LTYPE4
 62
     2
 10
120.0
 20
87.0
 30
0.0
 11
120.0
 21
61.0
 31
0.0
  0
LINE
  8
0
  6
CONTINUOUS
 62
     2
 10
145.0
 20
73.5
 30
0.0
 11
155.5
 21
73.5
 31
0.0
  0
LINE
  8
0
  6
CONTINUOUS
 62
     2
 10
155.5
 20
73.5
 30
0.0
 11
155.5
 21
74.0
 31
0.0
  0
LINE
  8
0
  6
CONTINUOUS
 62
     2
 10
155.5
 20
74.0
 30
0.0
 11
145.0
 21
74.0
 31
0.0
  0
LINE
  8
0
  6
CONTINUOUS
 62
     2
 10
148.5
 20
74.0
 30
0.0
 11
148.5
 21
73.5
 31
0.0
  0
LINE
  8
0
  6
CONTINUOUS
 62
     2
 10
95.0
 20
73.5
 30
0.0
 11
84.5
 21
73.5
 31
0.0
  0
LINE
  8
0
  6
CONTINUOUS
 62
     2
 10
84.5
 20
73.5
 30
0.0
 11
84.5
 21
74.0
 31
0.0
  0
LINE
  8
0
  6
CONTINUOUS
 62
     2
 10
84.5
 20
74.0
 30
0.0
 11
95.0
 21
74.0
 31
0.0
  0
LINE
  8
0
  6
CONTINUOUS
 62
     2
 10
91.5
 20
74.0
 30
0.0
 11
91.5
 21
73.5
 31
0.0
  0
LINE
  8
0
  6
CONTINUOUS
 62
     2
 10
111.0
 20
66.0
 30
0.0
 11
110.352952387
 21
63.585185434
 31
0.0
  0
LINE
  8
0
  6
CONTINUOUS
 62
     2
 10
111.0
 20
66.0
 30
0.0
 11
111.647047613
 21
63.585185434
 31
0.0
  0
LINE
  8
0
  6
CONTINUOUS
 62
     2
 10
111.0
 20
62.25
 30
0.0
 11
111.0
 21
66.0
 31
0.0
  0
LINE
  8
0
  6
CONTINUOUS
 62
     2
 10
111.0
 20
66.0
 30
0.0
 11
111.0
 21
70.0
 31
0.0
  0
LINE
  8
0
  6
CONTINUOUS
 62
     2
 10
111.0
 20
70.0
 30
0.0
 11
111.0
 21
73.75
 31
0.0
  0
LINE
  8
0
  6
CONTINUOUS
 62
     2
 10
111.0
 20
70.0
 30
0.0
 11
111.647047613
 21
72.414814566
 31
0.0
  0
LINE
  8
0
  6
CONTINUOUS
 62
     2
 10
111.0
 20
70.0
 30
0.0
 11
110.352952387
 21
72.414814566
 31
0.0
  0
LINE
  8
0
  6
CONTINUOUS
 62
     2
 10
116.0
 20
70.0
 30
0.0
 11
109.0
 21
70.0
 31
0.0
  0
TEXT
  8
0
  6
CONTINUOUS
 62
     2
 10
110.0
 20
67.1
 30
0.3
 40
3.0
  1
４
 50
90.0
 41
0.6
 51
0.0
  7
KANJI2
  0
LINE
  8
0
  6
CONTINUOUS
 62
     2
 10
96.0
 20
84.0
 30
0.0
 11
72.5
 21
84.0
 31
0.0
  0
LINE
  8
0
  6
CONTINUOUS
 62
     2
 10
74.5
 20
84.0
 30
0.0
 11
73.852952387
 21
81.585185434
 31
0.0
  0
LINE
  8
0
  6
CONTINUOUS
 62
     2
 10
74.5
 20
84.0
 30
0.0
 11
75.147047613
 21
81.585185434
 31
0.0
  0
LINE
  8
0
  6
CONTINUOUS
 62
     2
 10
74.5
 20
84.0
 30
0.0
 11
74.5
 21
66.0
 31
0.0
  0
LINE
  8
0
  6
CONTINUOUS
 62
     2
 10
74.5
 20
66.0
 30
0.0
 11
75.147047613
 21
68.414814566
 31
0.0
  0
LINE
  8
0
  6
CONTINUOUS
 62
     2
 10
74.5
 20
66.0
 30
0.0
 11
73.852952387
 21
68.414814566
 31
0.0
  0
LINE
  8
0
  6
CONTINUOUS
 62
     2
 10
94.0
 20
66.0
 30
0.0
 11
72.5
 21
66.0
 31
0.0
  0
TEXT
  8
0
  6
CONTINUOUS
 62
     2
 10
73.5
 20
73.05
 30
0.3
 40
3.0
  1
１８
 50
90.0
 41
0.6
 51
0.0
  7
KANJI2
  0
LINE
  8
0
  6
CONTINUOUS
 62
     2
 10
140.0
 20
69.3
 30
0.0
 11
140.739446333
 21
66.911858647
 31
0.0
  0
LINE
  8
0
  6
CONTINUOUS
 62
     2
 10
140.0
 20
69.3
 30
0.0
 11
141.834449986
 21
67.601532088
 31
0.0
  0
LINE
  8
0
  6
CONTINUOUS
 62
     2
 10
140.0
 20
69.3
 30
0.0
 11
145.227644256
 21
61.0
 31
0.0
  0
CIRCLE
  8
0
  6
CONTINUOUS
 62
     1
 10
120.0
 20
119.0
 30
0.0
 40
1.6
  0
CIRCLE
  8
0
  6
CONTINUOUS
 62
     1
 10
120.0
 20
151.0
 30
0.0
 40
1.6
  0
LINE
  8
0
  6
CONTINUOUS
 62
     1
 10
106.0
 20
77.0
 30
0.0
 11
104.0
 21
77.0
 31
0.0
  0
LINE
  8
0
  6
CONTINUOUS
 62
     1
 10
112.0
 20
77.0
 30
0.0
 11
110.0
 21
77.0
 31
0.0
  0
LINE
  8
0
  6
CONTINUOUS
 62
     1
 10
118.0
 20
77.0
 30
0.0
 11
116.0
 21
77.0
 31
0.0
  0
LINE
  8
0
  6
CONTINUOUS
 62
     1
 10
124.0
 20
77.0
 30
0.0
 11
122.0
 21
77.0
 31
0.0
  0
LINE
  8
0
  6
CONTINUOUS
 62
     1
 10
130.0
 20
77.0
 30
0.0
 11
128.0
 21
77.0
 31
0.0
  0
LINE
  8
0
  6
CONTINUOUS
 62
     1
 10
136.0
 20
77.0
 30
0.0
 11
134.0
 21
77.0
 31
0.0
  0
TEXT
  8
0
  6
CONTINUOUS
 62
     2
 10
145.860791264
 20
62.0
 30
0.3
 40
3.0
  1
難燃性ＰＢＴ樹脂（ガラス入り）
 50
0.0
 41
0.9
 51
0.0
  7
KANJI1
  0
LINE
  8
0
  6
CONTINUOUS
 62
     2
 10
145.227644256
 20
61.0
 30
0.0
 11
188.7
 21
61.0
 31
0.0
  0
POLYLINE
  8
0
  6
CONTINUOUS
 62
     1
 66
     1
  0
VERTEX
  8
0
  6
CONTINUOUS
 62
     1
 10
145.0
 20
129.0
 30
0.0
  0
VERTEX
  8
0
  6
CONTINUOUS
 62
     1
 10
148.5
 20
129.0
 30
0.0
  0
VERTEX
  8
0
  6
CONTINUOUS
 62
     1
 10
148.5
 20
129.625
 30
0.0
  0
SEQEND
  0
LINE
  8
0
  6
CONTINUOUS
 62
     1
 10
155.025
 20
129.625
 30
0.0
 11
148.5
 21
129.625
 31
0.0
  0
LINE
  8
0
  6
CONTINUOUS
 62
     1
 10
155.025
 20
129.625
 30
0.0
 11
155.5
 21
130.1
 31
0.0
  0
LINE
  8
0
  6
CONTINUOUS
 62
     1
 10
155.5
 20
133.9
 30
0.0
 11
155.025
 21
134.375
 31
0.0
  0
LINE
  8
0
  6
CONTINUOUS
 62
     1
 10
155.5
 20
133.9
 30
0.0
 11
155.5
 21
130.1
 31
0.0
  0
LINE
  8
0
  6
CONTINUOUS
 62
     1
 10
155.025
 20
134.375
 30
0.0
 11
155.025
 21
129.625
 31
0.0
  0
LINE
  8
0
  6
CONTINUOUS
 62
     1
 10
148.5
 20
135.0
 30
0.0
 11
148.5
 21
134.375
 31
0.0
  0
LINE
  8
0
  6
CONTINUOUS
 62
     1
 10
148.5
 20
134.375
 30
0.0
 11
155.025
 21
134.375
 31
0.0
  0
LINE
  8
0
  6
CONTINUOUS
 62
     1
 10
145.0
 20
135.0
 30
0.0
 11
148.5
 21
135.0
 31
0.0
  0
LINE
  8
0
  6
CONTINUOUS
 62
     1
 10
84.975
 20
140.375
 30
0.0
 11
84.5
 21
139.9
 31
0.0
  0
POLYLINE
  8
0
  6
CONTINUOUS
 62
     1
 66
     1
  0
VERTEX
  8
0
  6
CONTINUOUS
 62
     1
 10
95.0
 20
141.0
 30
0.0
  0
VERTEX
  8
0
  6
CONTINUOUS
 62
     1
 10
91.5
 20
141.0
 30
0.0
  0
VERTEX
  8
0
  6
CONTINUOUS
 62
     1
 10
91.5
 20
140.375
 30
0.0
  0
SEQEND
  0
LINE
  8
0
  6
CONTINUOUS
 62
     1
 10
84.975
 20
140.375
 30
0.0
 11
91.5
 21
140.375
 31
0.0
  0
POLYLINE
  8
0
  6
CONTINUOUS
 62
     1
 66
     1
  0
VERTEX
  8
0
  6
CONTINUOUS
 62
     1
 10
95.0
 20
135.0
 30
0.0
  0
VERTEX
  8
0
  6
CONTINUOUS
 62
     1
 10
91.5
 20
135.0
 30
0.0
  0
VERTEX
  8
0
  6
CONTINUOUS
 62
     1
 10
91.5
 20
135.625
 30
0.0
  0
SEQEND
  0
LINE
  8
0
  6
CONTINUOUS
 62
     1
 10
84.5
 20
136.1
 30
0.0
 11
84.975
 21
135.625
 31
0.0
  0
LINE
  8
0
  6
CONTINUOUS
 62
     1
 10
91.5
 20
135.625
 30
0.0
 11
84.975
 21
135.625
 31
0.0
  0
LINE
  8
0
  6
CONTINUOUS
 62
     1
 10
84.5
 20
136.1
 30
0.0
 11
84.5
 21
139.9
 31
0.0
  0
LINE
  8
0
  6
CONTINUOUS
 62
     1
 10
84.975
 20
135.625
 30
0.0
 11
84.975
 21
140.375
 31
0.0
  0
LINE
  8
0
  6
LTYPE1
 62
     2
 10
152.5
 20
135.0
 30
0.0
 11
89.5
 21
135.0
 31
0.0
  0
TEXT
  8
0
  6
CONTINUOUS
 62
     2
 10
236.2
 20
38.6
 30
0.4
 40
4.0
  1
Ｍ－１
 50
0.0
 41
0.9
 51
0.0
  7
KANJI4
  0
TEXT
  8
0
  6
CONTINUOUS
 62
     2
 10
236.2
 20
28.6
 30
0.4
 40
4.0
  1
直列抵抗器　外形図
 50
0.0
 41
0.9
 51
0.0
  7
KANJI4
  0
ENDSEC
  0
EOF
