  0
SECTION
  2
HEADER
  9
$ACADVER
  1
AC1009
  9
$DWGCODEPAGE
  3
dos932
  9
$EXTMIN
 10
0.0
 20
0.0
 30
0.0
  9
$EXTMAX
 10
297.0
 20
210.0
 30
0.0
  9
$LIMMIN
 10
0.0
 20
0.0
  9
$LIMMAX
 10
297.0
 20
210.0
  9
$LTSCALE
 40
1.0
  9
$PDMODE
 70
     0
  0
ENDSEC
  0
SECTION
  2
TABLES
  0
TABLE
  2
VPORT
 70
     1
  0
VPORT
  2
*ACTIVE
 70
     0
 10
0.0
 20
0.0
 11
1.0
 21
1.0
 12
148.5
 22
105.0
 13
0.0
 23
0.0
 14
10.0
 24
10.0
 15
10.0
 25
10.0
 16
0.0
 26
0.0
 36
1.0
 17
0.0
 27
0.0
 37
0.0
 40
297.0
 41
1.414285714
 42
50.0
 43
0.0
 44
0.0
 50
0.0
 51
0.0
 71
     0
 72
  1000
 73
     1
 74
     3
 75
     0
 76
     0
 77
     0
 78
     0
  0
ENDTAB
  0
TABLE
  2
LTYPE
 70
     3
  0
LTYPE
  2
CONTINUOUS
 70
    64
  3
Solid line
 72
    65
 73
     0
 40
0.0
  0
LTYPE
  2
LTYPE1
 70
    64
  3
HIDDEN
 72
    65
 73
     2
 40
2.0
 49
1.2
 49
-0.8
  0
LTYPE
  2
LTYPE2
 70
    64
  3
CENTER
 72
    65
 73
     4
 40
5.0
 49
3.5
 49
-0.5
 49
0.5
 49
-0.5
  0
ENDTAB
  0
TABLE
  2
LAYER
 70
   128
  0
LAYER
  2
0
 70
     0
 62
     7
  6
CONTINUOUS
  0
LAYER
  2
2
 70
     0
 62
     7
  6
CONTINUOUS
  0
LAYER
  2
3
 70
     0
 62
     7
  6
CONTINUOUS
  0
LAYER
  2
4
 70
     0
 62
     7
  6
CONTINUOUS
  0
LAYER
  2
5
 70
     0
 62
     7
  6
CONTINUOUS
  0
LAYER
  2
6
 70
     0
 62
     7
  6
CONTINUOUS
  0
LAYER
  2
7
 70
     0
 62
     7
  6
CONTINUOUS
  0
LAYER
  2
8
 70
     0
 62
     7
  6
CONTINUOUS
  0
LAYER
  2
9
 70
     0
 62
     7
  6
CONTINUOUS
  0
LAYER
  2
10
 70
     0
 62
     7
  6
CONTINUOUS
  0
LAYER
  2
11
 70
     0
 62
     7
  6
CONTINUOUS
  0
LAYER
  2
12
 70
     0
 62
     7
  6
CONTINUOUS
  0
LAYER
  2
13
 70
     0
 62
     7
  6
CONTINUOUS
  0
LAYER
  2
14
 70
     0
 62
     7
  6
CONTINUOUS
  0
LAYER
  2
15
 70
     0
 62
     7
  6
CONTINUOUS
  0
LAYER
  2
16
 70
     0
 62
     7
  6
CONTINUOUS
  0
LAYER
  2
17
 70
     0
 62
     7
  6
CONTINUOUS
  0
LAYER
  2
18
 70
     0
 62
     7
  6
CONTINUOUS
  0
LAYER
  2
19
 70
     0
 62
     7
  6
CONTINUOUS
  0
LAYER
  2
20
 70
     0
 62
     7
  6
CONTINUOUS
  0
LAYER
  2
21
 70
     0
 62
     7
  6
CONTINUOUS
  0
LAYER
  2
22
 70
     0
 62
     7
  6
CONTINUOUS
  0
LAYER
  2
23
 70
     0
 62
     7
  6
CONTINUOUS
  0
LAYER
  2
24
 70
     0
 62
     7
  6
CONTINUOUS
  0
LAYER
  2
25
 70
     0
 62
     7
  6
CONTINUOUS
  0
LAYER
  2
26
 70
     0
 62
     7
  6
CONTINUOUS
  0
LAYER
  2
27
 70
     0
 62
     7
  6
CONTINUOUS
  0
LAYER
  2
28
 70
     0
 62
     7
  6
CONTINUOUS
  0
LAYER
  2
29
 70
     0
 62
     7
  6
CONTINUOUS
  0
LAYER
  2
30
 70
     0
 62
     7
  6
CONTINUOUS
  0
LAYER
  2
31
 70
     0
 62
     7
  6
CONTINUOUS
  0
LAYER
  2
32
 70
     0
 62
     7
  6
CONTINUOUS
  0
LAYER
  2
33
 70
     0
 62
     7
  6
CONTINUOUS
  0
LAYER
  2
34
 70
     0
 62
     7
  6
CONTINUOUS
  0
LAYER
  2
35
 70
     0
 62
     7
  6
CONTINUOUS
  0
LAYER
  2
36
 70
     0
 62
     7
  6
CONTINUOUS
  0
LAYER
  2
37
 70
     0
 62
     7
  6
CONTINUOUS
  0
LAYER
  2
38
 70
     0
 62
     7
  6
CONTINUOUS
  0
LAYER
  2
39
 70
     0
 62
     7
  6
CONTINUOUS
  0
LAYER
  2
40
 70
     0
 62
     7
  6
CONTINUOUS
  0
LAYER
  2
41
 70
     0
 62
     7
  6
CONTINUOUS
  0
LAYER
  2
42
 70
     0
 62
     7
  6
CONTINUOUS
  0
LAYER
  2
43
 70
     0
 62
     7
  6
CONTINUOUS
  0
LAYER
  2
44
 70
     0
 62
     7
  6
CONTINUOUS
  0
LAYER
  2
45
 70
     0
 62
     7
  6
CONTINUOUS
  0
LAYER
  2
46
 70
     0
 62
     7
  6
CONTINUOUS
  0
LAYER
  2
47
 70
     0
 62
     7
  6
CONTINUOUS
  0
LAYER
  2
48
 70
     0
 62
     7
  6
CONTINUOUS
  0
LAYER
  2
49
 70
     0
 62
     7
  6
CONTINUOUS
  0
LAYER
  2
50
 70
     0
 62
     7
  6
CONTINUOUS
  0
LAYER
  2
51
 70
     0
 62
     7
  6
CONTINUOUS
  0
LAYER
  2
52
 70
     0
 62
     7
  6
CONTINUOUS
  0
LAYER
  2
53
 70
     0
 62
     7
  6
CONTINUOUS
  0
LAYER
  2
54
 70
     0
 62
     7
  6
CONTINUOUS
  0
LAYER
  2
55
 70
     0
 62
     7
  6
CONTINUOUS
  0
LAYER
  2
56
 70
     0
 62
     7
  6
CONTINUOUS
  0
LAYER
  2
57
 70
     0
 62
     7
  6
CONTINUOUS
  0
LAYER
  2
58
 70
     0
 62
     7
  6
CONTINUOUS
  0
LAYER
  2
59
 70
     0
 62
     7
  6
CONTINUOUS
  0
LAYER
  2
60
 70
     0
 62
     7
  6
CONTINUOUS
  0
LAYER
  2
61
 70
     0
 62
     7
  6
CONTINUOUS
  0
LAYER
  2
62
 70
     0
 62
     7
  6
CONTINUOUS
  0
LAYER
  2
63
 70
     0
 62
     7
  6
CONTINUOUS
  0
LAYER
  2
64
 70
     0
 62
     7
  6
CONTINUOUS
  0
LAYER
  2
65
 70
     0
 62
     7
  6
CONTINUOUS
  0
LAYER
  2
66
 70
     0
 62
     7
  6
CONTINUOUS
  0
LAYER
  2
67
 70
     0
 62
     7
  6
CONTINUOUS
  0
LAYER
  2
68
 70
     0
 62
     7
  6
CONTINUOUS
  0
LAYER
  2
69
 70
     0
 62
     7
  6
CONTINUOUS
  0
LAYER
  2
70
 70
     0
 62
     7
  6
CONTINUOUS
  0
LAYER
  2
71
 70
     0
 62
     7
  6
CONTINUOUS
  0
LAYER
  2
72
 70
     0
 62
     7
  6
CONTINUOUS
  0
LAYER
  2
73
 70
     0
 62
     7
  6
CONTINUOUS
  0
LAYER
  2
74
 70
     0
 62
     7
  6
CONTINUOUS
  0
LAYER
  2
75
 70
     0
 62
     7
  6
CONTINUOUS
  0
LAYER
  2
76
 70
     0
 62
     7
  6
CONTINUOUS
  0
LAYER
  2
77
 70
     0
 62
     7
  6
CONTINUOUS
  0
LAYER
  2
78
 70
     0
 62
     7
  6
CONTINUOUS
  0
LAYER
  2
79
 70
     0
 62
     7
  6
CONTINUOUS
  0
LAYER
  2
80
 70
     0
 62
     7
  6
CONTINUOUS
  0
LAYER
  2
81
 70
     0
 62
     7
  6
CONTINUOUS
  0
LAYER
  2
82
 70
     0
 62
     7
  6
CONTINUOUS
  0
LAYER
  2
83
 70
     0
 62
     7
  6
CONTINUOUS
  0
LAYER
  2
84
 70
     0
 62
     7
  6
CONTINUOUS
  0
LAYER
  2
85
 70
     0
 62
     7
  6
CONTINUOUS
  0
LAYER
  2
86
 70
     0
 62
     7
  6
CONTINUOUS
  0
LAYER
  2
87
 70
     0
 62
     7
  6
CONTINUOUS
  0
LAYER
  2
88
 70
     0
 62
     7
  6
CONTINUOUS
  0
LAYER
  2
89
 70
     0
 62
     7
  6
CONTINUOUS
  0
LAYER
  2
90
 70
     0
 62
     7
  6
CONTINUOUS
  0
LAYER
  2
91
 70
     0
 62
     7
  6
CONTINUOUS
  0
LAYER
  2
92
 70
     0
 62
     7
  6
CONTINUOUS
  0
LAYER
  2
93
 70
     0
 62
     7
  6
CONTINUOUS
  0
LAYER
  2
94
 70
     0
 62
     7
  6
CONTINUOUS
  0
LAYER
  2
95
 70
     0
 62
     7
  6
CONTINUOUS
  0
LAYER
  2
96
 70
     0
 62
     7
  6
CONTINUOUS
  0
LAYER
  2
97
 70
     0
 62
     7
  6
CONTINUOUS
  0
LAYER
  2
98
 70
     0
 62
     7
  6
CONTINUOUS
  0
LAYER
  2
99
 70
     0
 62
     7
  6
CONTINUOUS
  0
LAYER
  2
100
 70
     0
 62
     7
  6
CONTINUOUS
  0
LAYER
  2
101
 70
     0
 62
     7
  6
CONTINUOUS
  0
LAYER
  2
102
 70
     0
 62
     7
  6
CONTINUOUS
  0
LAYER
  2
103
 70
     0
 62
     7
  6
CONTINUOUS
  0
LAYER
  2
104
 70
     0
 62
     7
  6
CONTINUOUS
  0
LAYER
  2
105
 70
     0
 62
     7
  6
CONTINUOUS
  0
LAYER
  2
106
 70
     0
 62
     7
  6
CONTINUOUS
  0
LAYER
  2
107
 70
     0
 62
     7
  6
CONTINUOUS
  0
LAYER
  2
108
 70
     0
 62
     7
  6
CONTINUOUS
  0
LAYER
  2
109
 70
     0
 62
     7
  6
CONTINUOUS
  0
LAYER
  2
110
 70
     0
 62
     7
  6
CONTINUOUS
  0
LAYER
  2
111
 70
     0
 62
     7
  6
CONTINUOUS
  0
LAYER
  2
112
 70
     0
 62
     7
  6
CONTINUOUS
  0
LAYER
  2
113
 70
     0
 62
     7
  6
CONTINUOUS
  0
LAYER
  2
114
 70
     0
 62
     7
  6
CONTINUOUS
  0
LAYER
  2
115
 70
     0
 62
     7
  6
CONTINUOUS
  0
LAYER
  2
116
 70
     0
 62
     7
  6
CONTINUOUS
  0
LAYER
  2
117
 70
     0
 62
     7
  6
CONTINUOUS
  0
LAYER
  2
118
 70
     0
 62
     7
  6
CONTINUOUS
  0
LAYER
  2
119
 70
     0
 62
     7
  6
CONTINUOUS
  0
LAYER
  2
120
 70
     0
 62
     7
  6
CONTINUOUS
  0
LAYER
  2
121
 70
     0
 62
     7
  6
CONTINUOUS
  0
LAYER
  2
122
 70
     0
 62
     7
  6
CONTINUOUS
  0
LAYER
  2
123
 70
     0
 62
     7
  6
CONTINUOUS
  0
LAYER
  2
124
 70
     0
 62
     7
  6
CONTINUOUS
  0
LAYER
  2
125
 70
     0
 62
     7
  6
CONTINUOUS
  0
LAYER
  2
126
 70
     0
 62
     7
  6
CONTINUOUS
  0
LAYER
  2
127
 70
     0
 62
     7
  6
CONTINUOUS
  0
LAYER
  2
128
 70
     0
 62
     7
  6
CONTINUOUS
  0
ENDTAB
  0
TABLE
  2
STYLE
 70
    14
  0
STYLE
  2
STANDARD
 70
     0
 40
0.0
 41
1.0
 50
0.0
 71
     0
 42
0.2
  3
txt.shx
  4
extfont.shx
  0
STYLE
  2
KANJI0
 70
     0
 40
3.0
 41
0.8
 50
0.0
 71
     0
 42
3.0
  3
txt.shx
  4
extfont.shx
  0
STYLE
  2
KANJI1
 70
     0
 40
3.5
 41
0.9
 50
0.0
 71
     0
 42
3.5
  3
txt.shx
  4
extfont.shx
  0
STYLE
  2
KANJI2
 70
     0
 40
3.5
 41
0.45
 50
0.0
 71
     0
 42
3.5
  3
txt.shx
  4
extfont.shx
  0
STYLE
  2
KANJI3
 70
     0
 40
4.0
 41
0.9
 50
0.0
 71
     0
 42
4.0
  3
txt.shx
  4
extfont.shx
  0
STYLE
  2
KANJI4
 70
     0
 40
3.0
 41
0.9
 50
0.0
 71
     0
 42
3.0
  3
txt.shx
  4
extfont.shx
  0
STYLE
  2
KANJI5
 70
     0
 40
2.0
 41
0.9
 50
0.0
 71
     0
 42
2.0
  3
txt.shx
  4
extfont.shx
  0
STYLE
  2
KANJI6
 70
     0
 40
3.0
 41
0.6
 50
0.0
 71
     0
 42
3.0
  3
txt.shx
  4
extfont.shx
  0
STYLE
  2
KANJI7
 70
     0
 40
3.75
 41
0.6
 50
0.0
 71
     0
 42
3.75
  3
txt.shx
  4
extfont.shx
  0
STYLE
  2
KANJI8
 70
     0
 40
3.0
 41
0.8
 50
0.0
 71
     0
 42
3.0
  3
txt.shx
  4
extfont.shx
  0
STYLE
  2
KANJI9
 70
     0
 40
3.0
 41
0.75
 50
0.0
 71
     0
 42
3.0
  3
txt.shx
  4
extfont.shx
  0
STYLE
  2
KANJI10
 70
     0
 40
3.0
 41
0.45
 50
0.0
 71
     0
 42
3.0
  3
txt.shx
  4
extfont.shx
  0
STYLE
  2
KANJI11
 70
     0
 40
6.0
 41
0.8
 50
0.0
 71
     0
 42
6.0
  3
txt.shx
  4
extfont.shx
  0
STYLE
  2
KANJI12
 70
     0
 40
4.0
 41
0.9
 50
0.0
 71
     0
 42
4.0
  3
txt.shx
  4
extfont.shx
  0
ENDTAB
  0
TABLE
  2
VIEW
 70
     0
  0
ENDTAB
  0
ENDSEC
  0
SECTION
  2
BLOCKS
  0
ENDSEC
  0
SECTION
  2
ENTITIES
  0
TEXT
  8
0
  6
CONTINUOUS
 62
     2
 10
175.9
 20
113.8
 30
0.3
 40
3.0
  1
端子部材質：ガラス繊維強化ＰＢＴ樹脂
 50
0.0
 41
0.8
 51
0.0
  7
KANJI0
  0
TEXT
  8
0
  6
CONTINUOUS
 62
     2
 10
175.9
 20
109.8
 30
0.3
 40
3.0
  1
カバー材質：透明ポリカーボネート樹脂
 50
0.0
 41
0.8
 51
0.0
  7
KANJI0
  0
LINE
  8
0
  6
CONTINUOUS
 62
     2
 10
24.85
 20
66.6
 30
0.0
 11
29.05
 21
66.6
 31
0.0
  0
LINE
  8
0
  6
CONTINUOUS
 62
     2
 10
31.15
 20
66.6
 30
0.0
 11
35.35
 21
66.6
 31
0.0
  0
LINE
  8
0
  6
CONTINUOUS
 62
     2
 10
37.45
 20
66.6
 30
0.0
 11
41.65
 21
66.6
 31
0.0
  0
LINE
  8
0
  6
CONTINUOUS
 62
     2
 10
43.75
 20
66.6
 30
0.0
 11
47.95
 21
66.6
 31
0.0
  0
LINE
  8
0
  6
CONTINUOUS
 62
     2
 10
50.05
 20
66.6
 30
0.0
 11
54.25
 21
66.6
 31
0.0
  0
LINE
  8
0
  6
CONTINUOUS
 62
     2
 10
31.15
 20
56.1
 30
0.0
 11
35.35
 21
56.1
 31
0.0
  0
LINE
  8
0
  6
CONTINUOUS
 62
     2
 10
35.35
 20
56.1
 30
0.0
 11
35.35
 21
60.3
 31
0.0
  0
LINE
  8
0
  6
CONTINUOUS
 62
     2
 10
35.35
 20
60.3
 30
0.0
 11
31.15
 21
60.3
 31
0.0
  0
LINE
  8
0
  6
CONTINUOUS
 62
     2
 10
31.15
 20
60.3
 30
0.0
 11
31.15
 21
56.1
 31
0.0
  0
LINE
  8
0
  6
CONTINUOUS
 62
     2
 10
37.45
 20
56.1
 30
0.0
 11
41.65
 21
56.1
 31
0.0
  0
LINE
  8
0
  6
CONTINUOUS
 62
     2
 10
41.65
 20
56.1
 30
0.0
 11
41.65
 21
60.3
 31
0.0
  0
LINE
  8
0
  6
CONTINUOUS
 62
     2
 10
41.65
 20
60.3
 30
0.0
 11
37.45
 21
60.3
 31
0.0
  0
LINE
  8
0
  6
CONTINUOUS
 62
     2
 10
37.45
 20
60.3
 30
0.0
 11
37.45
 21
56.1
 31
0.0
  0
LINE
  8
0
  6
CONTINUOUS
 62
     2
 10
43.75
 20
56.1
 30
0.0
 11
47.95
 21
56.1
 31
0.0
  0
LINE
  8
0
  6
CONTINUOUS
 62
     2
 10
47.95
 20
56.1
 30
0.0
 11
47.95
 21
60.3
 31
0.0
  0
LINE
  8
0
  6
CONTINUOUS
 62
     2
 10
47.95
 20
60.3
 30
0.0
 11
43.75
 21
60.3
 31
0.0
  0
LINE
  8
0
  6
CONTINUOUS
 62
     2
 10
43.75
 20
60.3
 30
0.0
 11
43.75
 21
56.1
 31
0.0
  0
LINE
  8
0
  6
CONTINUOUS
 62
     2
 10
20.3
 20
54.7
 30
0.0
 11
58.8
 21
54.7
 31
0.0
  0
TEXT
  8
0
  6
CONTINUOUS
 62
     2
 10
31.5
 20
56.45
 30
0.35
 40
3.5
  1
－
 50
0.0
 41
0.9
 51
0.0
  7
KANJI1
  0
TEXT
  8
0
  6
CONTINUOUS
 62
     2
 10
37.8
 20
56.45
 30
0.35
 40
3.5
  1
＋
 50
0.0
 41
0.9
 51
0.0
  7
KANJI1
  0
LINE
  8
0
  6
CONTINUOUS
 62
     2
 10
21.7
 20
72.2
 30
0.0
 11
25.9
 21
72.2
 31
0.0
  0
LINE
  8
0
  6
CONTINUOUS
 62
     2
 10
25.9
 20
72.2
 30
0.0
 11
25.9
 21
76.4
 31
0.0
  0
LINE
  8
0
  6
CONTINUOUS
 62
     2
 10
25.9
 20
76.4
 30
0.0
 11
21.7
 21
76.4
 31
0.0
  0
LINE
  8
0
  6
CONTINUOUS
 62
     2
 10
21.7
 20
76.4
 30
0.0
 11
21.7
 21
72.2
 31
0.0
  0
LINE
  8
0
  6
CONTINUOUS
 62
     2
 10
28.0
 20
72.2
 30
0.0
 11
32.2
 21
72.2
 31
0.0
  0
LINE
  8
0
  6
CONTINUOUS
 62
     2
 10
32.2
 20
72.2
 30
0.0
 11
32.2
 21
76.4
 31
0.0
  0
LINE
  8
0
  6
CONTINUOUS
 62
     2
 10
32.2
 20
76.4
 30
0.0
 11
28.0
 21
76.4
 31
0.0
  0
LINE
  8
0
  6
CONTINUOUS
 62
     2
 10
28.0
 20
76.4
 30
0.0
 11
28.0
 21
72.2
 31
0.0
  0
LINE
  8
0
  6
CONTINUOUS
 62
     2
 10
34.3
 20
72.2
 30
0.0
 11
38.5
 21
72.2
 31
0.0
  0
LINE
  8
0
  6
CONTINUOUS
 62
     2
 10
38.5
 20
72.2
 30
0.0
 11
38.5
 21
76.4
 31
0.0
  0
LINE
  8
0
  6
CONTINUOUS
 62
     2
 10
38.5
 20
76.4
 30
0.0
 11
34.3
 21
76.4
 31
0.0
  0
LINE
  8
0
  6
CONTINUOUS
 62
     2
 10
34.3
 20
76.4
 30
0.0
 11
34.3
 21
72.2
 31
0.0
  0
LINE
  8
0
  6
CONTINUOUS
 62
     2
 10
40.6
 20
72.2
 30
0.0
 11
44.8
 21
72.2
 31
0.0
  0
LINE
  8
0
  6
CONTINUOUS
 62
     2
 10
44.8
 20
72.2
 30
0.0
 11
44.8
 21
76.4
 31
0.0
  0
LINE
  8
0
  6
CONTINUOUS
 62
     2
 10
44.8
 20
76.4
 30
0.0
 11
40.6
 21
76.4
 31
0.0
  0
LINE
  8
0
  6
CONTINUOUS
 62
     2
 10
40.6
 20
76.4
 30
0.0
 11
40.6
 21
72.2
 31
0.0
  0
LINE
  8
0
  6
CONTINUOUS
 62
     2
 10
46.9
 20
72.2
 30
0.0
 11
51.1
 21
72.2
 31
0.0
  0
LINE
  8
0
  6
CONTINUOUS
 62
     2
 10
51.1
 20
72.2
 30
0.0
 11
51.1
 21
76.4
 31
0.0
  0
LINE
  8
0
  6
CONTINUOUS
 62
     2
 10
51.1
 20
76.4
 30
0.0
 11
46.9
 21
76.4
 31
0.0
  0
LINE
  8
0
  6
CONTINUOUS
 62
     2
 10
46.9
 20
76.4
 30
0.0
 11
46.9
 21
72.2
 31
0.0
  0
LINE
  8
0
  6
CONTINUOUS
 62
     2
 10
53.2
 20
72.2
 30
0.0
 11
57.4
 21
72.2
 31
0.0
  0
LINE
  8
0
  6
CONTINUOUS
 62
     2
 10
57.4
 20
72.2
 30
0.0
 11
57.4
 21
76.4
 31
0.0
  0
LINE
  8
0
  6
CONTINUOUS
 62
     2
 10
57.4
 20
76.4
 30
0.0
 11
53.2
 21
76.4
 31
0.0
  0
LINE
  8
0
  6
CONTINUOUS
 62
     2
 10
53.2
 20
76.4
 30
0.0
 11
53.2
 21
72.2
 31
0.0
  0
LINE
  8
0
  6
CONTINUOUS
 62
     2
 10
29.05
 20
66.6
 30
0.0
 11
29.05
 21
70.8
 31
0.0
  0
LINE
  8
0
  6
CONTINUOUS
 62
     2
 10
29.05
 20
70.8
 30
0.0
 11
24.85
 21
70.8
 31
0.0
  0
LINE
  8
0
  6
CONTINUOUS
 62
     2
 10
24.85
 20
70.8
 30
0.0
 11
24.85
 21
66.6
 31
0.0
  0
LINE
  8
0
  6
CONTINUOUS
 62
     2
 10
35.35
 20
66.6
 30
0.0
 11
35.35
 21
70.8
 31
0.0
  0
LINE
  8
0
  6
CONTINUOUS
 62
     2
 10
35.35
 20
70.8
 30
0.0
 11
31.15
 21
70.8
 31
0.0
  0
LINE
  8
0
  6
CONTINUOUS
 62
     2
 10
31.15
 20
70.8
 30
0.0
 11
31.15
 21
66.6
 31
0.0
  0
LINE
  8
0
  6
CONTINUOUS
 62
     2
 10
41.65
 20
66.6
 30
0.0
 11
41.65
 21
70.8
 31
0.0
  0
LINE
  8
0
  6
CONTINUOUS
 62
     2
 10
41.65
 20
70.8
 30
0.0
 11
37.45
 21
70.8
 31
0.0
  0
LINE
  8
0
  6
CONTINUOUS
 62
     2
 10
37.45
 20
70.8
 30
0.0
 11
37.45
 21
66.6
 31
0.0
  0
LINE
  8
0
  6
CONTINUOUS
 62
     2
 10
47.95
 20
66.6
 30
0.0
 11
47.95
 21
70.8
 31
0.0
  0
LINE
  8
0
  6
CONTINUOUS
 62
     2
 10
47.95
 20
70.8
 30
0.0
 11
43.75
 21
70.8
 31
0.0
  0
LINE
  8
0
  6
CONTINUOUS
 62
     2
 10
43.75
 20
70.8
 30
0.0
 11
43.75
 21
66.6
 31
0.0
  0
LINE
  8
0
  6
CONTINUOUS
 62
     2
 10
54.25
 20
66.6
 30
0.0
 11
54.25
 21
70.8
 31
0.0
  0
LINE
  8
0
  6
CONTINUOUS
 62
     2
 10
54.25
 20
70.8
 30
0.0
 11
50.05
 21
70.8
 31
0.0
  0
LINE
  8
0
  6
CONTINUOUS
 62
     2
 10
50.05
 20
70.8
 30
0.0
 11
50.05
 21
66.6
 31
0.0
  0
LINE
  8
0
  6
CONTINUOUS
 62
     2
 10
58.8
 20
54.7
 30
0.0
 11
58.8
 21
77.8
 31
0.0
  0
LINE
  8
0
  6
CONTINUOUS
 62
     2
 10
58.8
 20
77.8
 30
0.0
 11
20.3
 21
77.8
 31
0.0
  0
LINE
  8
0
  6
CONTINUOUS
 62
     2
 10
20.3
 20
77.8
 30
0.0
 11
20.3
 21
54.7
 31
0.0
  0
TEXT
  8
0
  6
CONTINUOUS
 62
     2
 10
22.05
 20
72.55
 30
0.35
 40
3.5
  1
１Ｓ
 50
0.0
 41
0.45
 51
0.0
  7
KANJI2
  0
TEXT
  8
0
  6
CONTINUOUS
 62
     2
 10
28.35
 20
72.55
 30
0.35
 40
3.5
  1
１Ｌ
 50
0.0
 41
0.45
 51
0.0
  7
KANJI2
  0
TEXT
  8
0
  6
CONTINUOUS
 62
     2
 10
25.2
 20
66.95
 30
0.35
 40
3.5
  1
Ｐ１
 50
0.0
 41
0.45
 51
0.0
  7
KANJI2
  0
TEXT
  8
0
  6
CONTINUOUS
 62
     2
 10
31.5
 20
66.95
 30
0.35
 40
3.5
  1
Ｐ２
 50
0.0
 41
0.45
 51
0.0
  7
KANJI2
  0
TEXT
  8
0
  6
CONTINUOUS
 62
     1
 10
19.3
 20
94.3
 30
0.4
 40
4.0
  1
端子配置図
 50
0.0
 41
0.9
 51
0.0
  7
KANJI3
  0
LINE
  8
0
  6
CONTINUOUS
 62
     1
 10
18.3
 20
93.3
 30
0.0
 11
39.3
 21
93.3
 31
0.0
  0
LINE
  8
0
  6
CONTINUOUS
 62
     2
 10
74.85
 20
66.6
 30
0.0
 11
79.05
 21
66.6
 31
0.0
  0
LINE
  8
0
  6
CONTINUOUS
 62
     2
 10
81.15
 20
66.6
 30
0.0
 11
85.35
 21
66.6
 31
0.0
  0
LINE
  8
0
  6
CONTINUOUS
 62
     2
 10
87.45
 20
66.6
 30
0.0
 11
91.65
 21
66.6
 31
0.0
  0
LINE
  8
0
  6
CONTINUOUS
 62
     2
 10
93.75
 20
66.6
 30
0.0
 11
97.95
 21
66.6
 31
0.0
  0
LINE
  8
0
  6
CONTINUOUS
 62
     2
 10
100.05
 20
66.6
 30
0.0
 11
104.25
 21
66.6
 31
0.0
  0
LINE
  8
0
  6
CONTINUOUS
 62
     2
 10
81.15
 20
56.1
 30
0.0
 11
85.35
 21
56.1
 31
0.0
  0
LINE
  8
0
  6
CONTINUOUS
 62
     2
 10
85.35
 20
56.1
 30
0.0
 11
85.35
 21
60.3
 31
0.0
  0
LINE
  8
0
  6
CONTINUOUS
 62
     2
 10
85.35
 20
60.3
 30
0.0
 11
81.15
 21
60.3
 31
0.0
  0
LINE
  8
0
  6
CONTINUOUS
 62
     2
 10
81.15
 20
60.3
 30
0.0
 11
81.15
 21
56.1
 31
0.0
  0
LINE
  8
0
  6
CONTINUOUS
 62
     2
 10
87.45
 20
56.1
 30
0.0
 11
91.65
 21
56.1
 31
0.0
  0
LINE
  8
0
  6
CONTINUOUS
 62
     2
 10
91.65
 20
56.1
 30
0.0
 11
91.65
 21
60.3
 31
0.0
  0
LINE
  8
0
  6
CONTINUOUS
 62
     2
 10
91.65
 20
60.3
 30
0.0
 11
87.45
 21
60.3
 31
0.0
  0
LINE
  8
0
  6
CONTINUOUS
 62
     2
 10
87.45
 20
60.3
 30
0.0
 11
87.45
 21
56.1
 31
0.0
  0
LINE
  8
0
  6
CONTINUOUS
 62
     2
 10
93.75
 20
56.1
 30
0.0
 11
97.95
 21
56.1
 31
0.0
  0
LINE
  8
0
  6
CONTINUOUS
 62
     2
 10
97.95
 20
56.1
 30
0.0
 11
97.95
 21
60.3
 31
0.0
  0
LINE
  8
0
  6
CONTINUOUS
 62
     2
 10
97.95
 20
60.3
 30
0.0
 11
93.75
 21
60.3
 31
0.0
  0
LINE
  8
0
  6
CONTINUOUS
 62
     2
 10
93.75
 20
60.3
 30
0.0
 11
93.75
 21
56.1
 31
0.0
  0
LINE
  8
0
  6
CONTINUOUS
 62
     2
 10
70.3
 20
54.7
 30
0.0
 11
108.8
 21
54.7
 31
0.0
  0
TEXT
  8
0
  6
CONTINUOUS
 62
     2
 10
81.5
 20
56.45
 30
0.35
 40
3.5
  1
－
 50
0.0
 41
0.9
 51
0.0
  7
KANJI1
  0
TEXT
  8
0
  6
CONTINUOUS
 62
     2
 10
87.8
 20
56.45
 30
0.35
 40
3.5
  1
＋
 50
0.0
 41
0.9
 51
0.0
  7
KANJI1
  0
LINE
  8
0
  6
CONTINUOUS
 62
     2
 10
71.7
 20
72.2
 30
0.0
 11
75.9
 21
72.2
 31
0.0
  0
LINE
  8
0
  6
CONTINUOUS
 62
     2
 10
75.9
 20
72.2
 30
0.0
 11
75.9
 21
76.4
 31
0.0
  0
LINE
  8
0
  6
CONTINUOUS
 62
     2
 10
75.9
 20
76.4
 30
0.0
 11
71.7
 21
76.4
 31
0.0
  0
LINE
  8
0
  6
CONTINUOUS
 62
     2
 10
71.7
 20
76.4
 30
0.0
 11
71.7
 21
72.2
 31
0.0
  0
LINE
  8
0
  6
CONTINUOUS
 62
     2
 10
78.0
 20
72.2
 30
0.0
 11
82.2
 21
72.2
 31
0.0
  0
LINE
  8
0
  6
CONTINUOUS
 62
     2
 10
82.2
 20
72.2
 30
0.0
 11
82.2
 21
76.4
 31
0.0
  0
LINE
  8
0
  6
CONTINUOUS
 62
     2
 10
82.2
 20
76.4
 30
0.0
 11
78.0
 21
76.4
 31
0.0
  0
LINE
  8
0
  6
CONTINUOUS
 62
     2
 10
78.0
 20
76.4
 30
0.0
 11
78.0
 21
72.2
 31
0.0
  0
LINE
  8
0
  6
CONTINUOUS
 62
     2
 10
84.3
 20
72.2
 30
0.0
 11
88.5
 21
72.2
 31
0.0
  0
LINE
  8
0
  6
CONTINUOUS
 62
     2
 10
88.5
 20
72.2
 30
0.0
 11
88.5
 21
76.4
 31
0.0
  0
LINE
  8
0
  6
CONTINUOUS
 62
     2
 10
88.5
 20
76.4
 30
0.0
 11
84.3
 21
76.4
 31
0.0
  0
LINE
  8
0
  6
CONTINUOUS
 62
     2
 10
84.3
 20
76.4
 30
0.0
 11
84.3
 21
72.2
 31
0.0
  0
LINE
  8
0
  6
CONTINUOUS
 62
     2
 10
90.6
 20
72.2
 30
0.0
 11
94.8
 21
72.2
 31
0.0
  0
LINE
  8
0
  6
CONTINUOUS
 62
     2
 10
94.8
 20
72.2
 30
0.0
 11
94.8
 21
76.4
 31
0.0
  0
LINE
  8
0
  6
CONTINUOUS
 62
     2
 10
94.8
 20
76.4
 30
0.0
 11
90.6
 21
76.4
 31
0.0
  0
LINE
  8
0
  6
CONTINUOUS
 62
     2
 10
90.6
 20
76.4
 30
0.0
 11
90.6
 21
72.2
 31
0.0
  0
LINE
  8
0
  6
CONTINUOUS
 62
     2
 10
96.9
 20
72.2
 30
0.0
 11
101.1
 21
72.2
 31
0.0
  0
LINE
  8
0
  6
CONTINUOUS
 62
     2
 10
101.1
 20
72.2
 30
0.0
 11
101.1
 21
76.4
 31
0.0
  0
LINE
  8
0
  6
CONTINUOUS
 62
     2
 10
101.1
 20
76.4
 30
0.0
 11
96.9
 21
76.4
 31
0.0
  0
LINE
  8
0
  6
CONTINUOUS
 62
     2
 10
96.9
 20
76.4
 30
0.0
 11
96.9
 21
72.2
 31
0.0
  0
LINE
  8
0
  6
CONTINUOUS
 62
     2
 10
103.2
 20
72.2
 30
0.0
 11
107.4
 21
72.2
 31
0.0
  0
LINE
  8
0
  6
CONTINUOUS
 62
     2
 10
107.4
 20
72.2
 30
0.0
 11
107.4
 21
76.4
 31
0.0
  0
LINE
  8
0
  6
CONTINUOUS
 62
     2
 10
107.4
 20
76.4
 30
0.0
 11
103.2
 21
76.4
 31
0.0
  0
LINE
  8
0
  6
CONTINUOUS
 62
     2
 10
103.2
 20
76.4
 30
0.0
 11
103.2
 21
72.2
 31
0.0
  0
LINE
  8
0
  6
CONTINUOUS
 62
     2
 10
79.05
 20
66.6
 30
0.0
 11
79.05
 21
70.8
 31
0.0
  0
LINE
  8
0
  6
CONTINUOUS
 62
     2
 10
79.05
 20
70.8
 30
0.0
 11
74.85
 21
70.8
 31
0.0
  0
LINE
  8
0
  6
CONTINUOUS
 62
     2
 10
74.85
 20
70.8
 30
0.0
 11
74.85
 21
66.6
 31
0.0
  0
LINE
  8
0
  6
CONTINUOUS
 62
     2
 10
85.35
 20
66.6
 30
0.0
 11
85.35
 21
70.8
 31
0.0
  0
LINE
  8
0
  6
CONTINUOUS
 62
     2
 10
85.35
 20
70.8
 30
0.0
 11
81.15
 21
70.8
 31
0.0
  0
LINE
  8
0
  6
CONTINUOUS
 62
     2
 10
81.15
 20
70.8
 30
0.0
 11
81.15
 21
66.6
 31
0.0
  0
LINE
  8
0
  6
CONTINUOUS
 62
     2
 10
91.65
 20
66.6
 30
0.0
 11
91.65
 21
70.8
 31
0.0
  0
LINE
  8
0
  6
CONTINUOUS
 62
     2
 10
91.65
 20
70.8
 30
0.0
 11
87.45
 21
70.8
 31
0.0
  0
LINE
  8
0
  6
CONTINUOUS
 62
     2
 10
87.45
 20
70.8
 30
0.0
 11
87.45
 21
66.6
 31
0.0
  0
LINE
  8
0
  6
CONTINUOUS
 62
     2
 10
97.95
 20
66.6
 30
0.0
 11
97.95
 21
70.8
 31
0.0
  0
LINE
  8
0
  6
CONTINUOUS
 62
     2
 10
97.95
 20
70.8
 30
0.0
 11
93.75
 21
70.8
 31
0.0
  0
LINE
  8
0
  6
CONTINUOUS
 62
     2
 10
93.75
 20
70.8
 30
0.0
 11
93.75
 21
66.6
 31
0.0
  0
LINE
  8
0
  6
CONTINUOUS
 62
     2
 10
104.25
 20
66.6
 30
0.0
 11
104.25
 21
70.8
 31
0.0
  0
LINE
  8
0
  6
CONTINUOUS
 62
     2
 10
104.25
 20
70.8
 30
0.0
 11
100.05
 21
70.8
 31
0.0
  0
LINE
  8
0
  6
CONTINUOUS
 62
     2
 10
100.05
 20
70.8
 30
0.0
 11
100.05
 21
66.6
 31
0.0
  0
LINE
  8
0
  6
CONTINUOUS
 62
     2
 10
108.8
 20
54.7
 30
0.0
 11
108.8
 21
77.8
 31
0.0
  0
LINE
  8
0
  6
CONTINUOUS
 62
     2
 10
108.8
 20
77.8
 30
0.0
 11
70.3
 21
77.8
 31
0.0
  0
LINE
  8
0
  6
CONTINUOUS
 62
     2
 10
70.3
 20
77.8
 30
0.0
 11
70.3
 21
54.7
 31
0.0
  0
TEXT
  8
0
  6
CONTINUOUS
 62
     2
 10
72.05
 20
72.55
 30
0.35
 40
3.5
  1
１Ｓ
 50
0.0
 41
0.45
 51
0.0
  7
KANJI2
  0
TEXT
  8
0
  6
CONTINUOUS
 62
     2
 10
78.35
 20
72.55
 30
0.35
 40
3.5
  1
１Ｌ
 50
0.0
 41
0.45
 51
0.0
  7
KANJI2
  0
TEXT
  8
0
  6
CONTINUOUS
 62
     2
 10
75.2
 20
66.95
 30
0.35
 40
3.5
  1
Ｐ１
 50
0.0
 41
0.45
 51
0.0
  7
KANJI2
  0
TEXT
  8
0
  6
CONTINUOUS
 62
     2
 10
81.5
 20
66.95
 30
0.35
 40
3.5
  1
Ｐ２
 50
0.0
 41
0.45
 51
0.0
  7
KANJI2
  0
TEXT
  8
0
  6
CONTINUOUS
 62
     2
 10
94.1
 20
66.95
 30
0.35
 40
3.5
  1
Ｓ１
 50
0.0
 41
0.45
 51
0.0
  7
KANJI2
  0
TEXT
  8
0
  6
CONTINUOUS
 62
     2
 10
100.4
 20
66.95
 30
0.35
 40
3.5
  1
Ｓ２
 50
0.0
 41
0.45
 51
0.0
  7
KANJI2
  0
LINE
  8
0
  6
CONTINUOUS
 62
     2
 10
124.85
 20
66.6
 30
0.0
 11
129.05
 21
66.6
 31
0.0
  0
LINE
  8
0
  6
CONTINUOUS
 62
     2
 10
131.15
 20
66.6
 30
0.0
 11
135.35
 21
66.6
 31
0.0
  0
LINE
  8
0
  6
CONTINUOUS
 62
     2
 10
137.45
 20
66.6
 30
0.0
 11
141.65
 21
66.6
 31
0.0
  0
LINE
  8
0
  6
CONTINUOUS
 62
     2
 10
143.75
 20
66.6
 30
0.0
 11
147.95
 21
66.6
 31
0.0
  0
LINE
  8
0
  6
CONTINUOUS
 62
     2
 10
150.05
 20
66.6
 30
0.0
 11
154.25
 21
66.6
 31
0.0
  0
LINE
  8
0
  6
CONTINUOUS
 62
     2
 10
131.15
 20
56.1
 30
0.0
 11
135.35
 21
56.1
 31
0.0
  0
LINE
  8
0
  6
CONTINUOUS
 62
     2
 10
135.35
 20
56.1
 30
0.0
 11
135.35
 21
60.3
 31
0.0
  0
LINE
  8
0
  6
CONTINUOUS
 62
     2
 10
135.35
 20
60.3
 30
0.0
 11
131.15
 21
60.3
 31
0.0
  0
LINE
  8
0
  6
CONTINUOUS
 62
     2
 10
131.15
 20
60.3
 30
0.0
 11
131.15
 21
56.1
 31
0.0
  0
LINE
  8
0
  6
CONTINUOUS
 62
     2
 10
137.45
 20
56.1
 30
0.0
 11
141.65
 21
56.1
 31
0.0
  0
LINE
  8
0
  6
CONTINUOUS
 62
     2
 10
141.65
 20
56.1
 30
0.0
 11
141.65
 21
60.3
 31
0.0
  0
LINE
  8
0
  6
CONTINUOUS
 62
     2
 10
141.65
 20
60.3
 30
0.0
 11
137.45
 21
60.3
 31
0.0
  0
LINE
  8
0
  6
CONTINUOUS
 62
     2
 10
137.45
 20
60.3
 30
0.0
 11
137.45
 21
56.1
 31
0.0
  0
LINE
  8
0
  6
CONTINUOUS
 62
     2
 10
143.75
 20
56.1
 30
0.0
 11
147.95
 21
56.1
 31
0.0
  0
LINE
  8
0
  6
CONTINUOUS
 62
     2
 10
147.95
 20
56.1
 30
0.0
 11
147.95
 21
60.3
 31
0.0
  0
LINE
  8
0
  6
CONTINUOUS
 62
     2
 10
147.95
 20
60.3
 30
0.0
 11
143.75
 21
60.3
 31
0.0
  0
LINE
  8
0
  6
CONTINUOUS
 62
     2
 10
143.75
 20
60.3
 30
0.0
 11
143.75
 21
56.1
 31
0.0
  0
LINE
  8
0
  6
CONTINUOUS
 62
     2
 10
120.3
 20
54.7
 30
0.0
 11
158.8
 21
54.7
 31
0.0
  0
TEXT
  8
0
  6
CONTINUOUS
 62
     2
 10
131.5
 20
56.45
 30
0.35
 40
3.5
  1
－
 50
0.0
 41
0.9
 51
0.0
  7
KANJI1
  0
TEXT
  8
0
  6
CONTINUOUS
 62
     2
 10
137.8
 20
56.45
 30
0.35
 40
3.5
  1
＋
 50
0.0
 41
0.9
 51
0.0
  7
KANJI1
  0
LINE
  8
0
  6
CONTINUOUS
 62
     2
 10
121.7
 20
72.2
 30
0.0
 11
125.9
 21
72.2
 31
0.0
  0
LINE
  8
0
  6
CONTINUOUS
 62
     2
 10
125.9
 20
72.2
 30
0.0
 11
125.9
 21
76.4
 31
0.0
  0
LINE
  8
0
  6
CONTINUOUS
 62
     2
 10
125.9
 20
76.4
 30
0.0
 11
121.7
 21
76.4
 31
0.0
  0
LINE
  8
0
  6
CONTINUOUS
 62
     2
 10
121.7
 20
76.4
 30
0.0
 11
121.7
 21
72.2
 31
0.0
  0
LINE
  8
0
  6
CONTINUOUS
 62
     2
 10
128.0
 20
72.2
 30
0.0
 11
132.2
 21
72.2
 31
0.0
  0
LINE
  8
0
  6
CONTINUOUS
 62
     2
 10
132.2
 20
72.2
 30
0.0
 11
132.2
 21
76.4
 31
0.0
  0
LINE
  8
0
  6
CONTINUOUS
 62
     2
 10
132.2
 20
76.4
 30
0.0
 11
128.0
 21
76.4
 31
0.0
  0
LINE
  8
0
  6
CONTINUOUS
 62
     2
 10
128.0
 20
76.4
 30
0.0
 11
128.0
 21
72.2
 31
0.0
  0
LINE
  8
0
  6
CONTINUOUS
 62
     2
 10
134.3
 20
72.2
 30
0.0
 11
138.5
 21
72.2
 31
0.0
  0
LINE
  8
0
  6
CONTINUOUS
 62
     2
 10
138.5
 20
72.2
 30
0.0
 11
138.5
 21
76.4
 31
0.0
  0
LINE
  8
0
  6
CONTINUOUS
 62
     2
 10
138.5
 20
76.4
 30
0.0
 11
134.3
 21
76.4
 31
0.0
  0
LINE
  8
0
  6
CONTINUOUS
 62
     2
 10
134.3
 20
76.4
 30
0.0
 11
134.3
 21
72.2
 31
0.0
  0
LINE
  8
0
  6
CONTINUOUS
 62
     2
 10
140.6
 20
72.2
 30
0.0
 11
144.8
 21
72.2
 31
0.0
  0
LINE
  8
0
  6
CONTINUOUS
 62
     2
 10
144.8
 20
72.2
 30
0.0
 11
144.8
 21
76.4
 31
0.0
  0
LINE
  8
0
  6
CONTINUOUS
 62
     2
 10
144.8
 20
76.4
 30
0.0
 11
140.6
 21
76.4
 31
0.0
  0
LINE
  8
0
  6
CONTINUOUS
 62
     2
 10
140.6
 20
76.4
 30
0.0
 11
140.6
 21
72.2
 31
0.0
  0
LINE
  8
0
  6
CONTINUOUS
 62
     2
 10
146.9
 20
72.2
 30
0.0
 11
151.1
 21
72.2
 31
0.0
  0
LINE
  8
0
  6
CONTINUOUS
 62
     2
 10
151.1
 20
72.2
 30
0.0
 11
151.1
 21
76.4
 31
0.0
  0
LINE
  8
0
  6
CONTINUOUS
 62
     2
 10
151.1
 20
76.4
 30
0.0
 11
146.9
 21
76.4
 31
0.0
  0
LINE
  8
0
  6
CONTINUOUS
 62
     2
 10
146.9
 20
76.4
 30
0.0
 11
146.9
 21
72.2
 31
0.0
  0
LINE
  8
0
  6
CONTINUOUS
 62
     2
 10
153.2
 20
72.2
 30
0.0
 11
157.4
 21
72.2
 31
0.0
  0
LINE
  8
0
  6
CONTINUOUS
 62
     2
 10
157.4
 20
72.2
 30
0.0
 11
157.4
 21
76.4
 31
0.0
  0
LINE
  8
0
  6
CONTINUOUS
 62
     2
 10
157.4
 20
76.4
 30
0.0
 11
153.2
 21
76.4
 31
0.0
  0
LINE
  8
0
  6
CONTINUOUS
 62
     2
 10
153.2
 20
76.4
 30
0.0
 11
153.2
 21
72.2
 31
0.0
  0
LINE
  8
0
  6
CONTINUOUS
 62
     2
 10
129.05
 20
66.6
 30
0.0
 11
129.05
 21
70.8
 31
0.0
  0
LINE
  8
0
  6
CONTINUOUS
 62
     2
 10
129.05
 20
70.8
 30
0.0
 11
124.85
 21
70.8
 31
0.0
  0
LINE
  8
0
  6
CONTINUOUS
 62
     2
 10
124.85
 20
70.8
 30
0.0
 11
124.85
 21
66.6
 31
0.0
  0
LINE
  8
0
  6
CONTINUOUS
 62
     2
 10
135.35
 20
66.6
 30
0.0
 11
135.35
 21
70.8
 31
0.0
  0
LINE
  8
0
  6
CONTINUOUS
 62
     2
 10
135.35
 20
70.8
 30
0.0
 11
131.15
 21
70.8
 31
0.0
  0
LINE
  8
0
  6
CONTINUOUS
 62
     2
 10
131.15
 20
70.8
 30
0.0
 11
131.15
 21
66.6
 31
0.0
  0
LINE
  8
0
  6
CONTINUOUS
 62
     2
 10
141.65
 20
66.6
 30
0.0
 11
141.65
 21
70.8
 31
0.0
  0
LINE
  8
0
  6
CONTINUOUS
 62
     2
 10
141.65
 20
70.8
 30
0.0
 11
137.45
 21
70.8
 31
0.0
  0
LINE
  8
0
  6
CONTINUOUS
 62
     2
 10
137.45
 20
70.8
 30
0.0
 11
137.45
 21
66.6
 31
0.0
  0
LINE
  8
0
  6
CONTINUOUS
 62
     2
 10
147.95
 20
66.6
 30
0.0
 11
147.95
 21
70.8
 31
0.0
  0
LINE
  8
0
  6
CONTINUOUS
 62
     2
 10
147.95
 20
70.8
 30
0.0
 11
143.75
 21
70.8
 31
0.0
  0
LINE
  8
0
  6
CONTINUOUS
 62
     2
 10
143.75
 20
70.8
 30
0.0
 11
143.75
 21
66.6
 31
0.0
  0
LINE
  8
0
  6
CONTINUOUS
 62
     2
 10
154.25
 20
66.6
 30
0.0
 11
154.25
 21
70.8
 31
0.0
  0
LINE
  8
0
  6
CONTINUOUS
 62
     2
 10
154.25
 20
70.8
 30
0.0
 11
150.05
 21
70.8
 31
0.0
  0
LINE
  8
0
  6
CONTINUOUS
 62
     2
 10
150.05
 20
70.8
 30
0.0
 11
150.05
 21
66.6
 31
0.0
  0
LINE
  8
0
  6
CONTINUOUS
 62
     2
 10
158.8
 20
54.7
 30
0.0
 11
158.8
 21
77.8
 31
0.0
  0
LINE
  8
0
  6
CONTINUOUS
 62
     2
 10
158.8
 20
77.8
 30
0.0
 11
120.3
 21
77.8
 31
0.0
  0
LINE
  8
0
  6
CONTINUOUS
 62
     2
 10
120.3
 20
77.8
 30
0.0
 11
120.3
 21
54.7
 31
0.0
  0
TEXT
  8
0
  6
CONTINUOUS
 62
     2
 10
122.05
 20
72.55
 30
0.35
 40
3.5
  1
１Ｓ
 50
0.0
 41
0.45
 51
0.0
  7
KANJI2
  0
TEXT
  8
0
  6
CONTINUOUS
 62
     2
 10
128.35
 20
72.55
 30
0.35
 40
3.5
  1
１Ｌ
 50
0.0
 41
0.45
 51
0.0
  7
KANJI2
  0
TEXT
  8
0
  6
CONTINUOUS
 62
     2
 10
125.2
 20
66.95
 30
0.35
 40
3.5
  1
Ｐ１
 50
0.0
 41
0.45
 51
0.0
  7
KANJI2
  0
TEXT
  8
0
  6
CONTINUOUS
 62
     2
 10
147.25
 20
72.55
 30
0.35
 40
3.5
  1
２Ｓ
 50
0.0
 41
0.45
 51
0.0
  7
KANJI2
  0
TEXT
  8
0
  6
CONTINUOUS
 62
     2
 10
153.55
 20
72.55
 30
0.35
 40
3.5
  1
２Ｌ
 50
0.0
 41
0.45
 51
0.0
  7
KANJI2
  0
TEXT
  8
0
  6
CONTINUOUS
 62
     2
 10
131.5
 20
66.95
 30
0.35
 40
3.5
  1
Ｐ０
 50
0.0
 41
0.45
 51
0.0
  7
KANJI2
  0
TEXT
  8
0
  6
CONTINUOUS
 62
     2
 10
137.8
 20
66.95
 30
0.35
 40
3.5
  1
Ｐ２
 50
0.0
 41
0.45
 51
0.0
  7
KANJI2
  0
LINE
  8
0
  6
CONTINUOUS
 62
     2
 10
174.85
 20
66.6
 30
0.0
 11
179.05
 21
66.6
 31
0.0
  0
LINE
  8
0
  6
CONTINUOUS
 62
     2
 10
181.15
 20
66.6
 30
0.0
 11
185.35
 21
66.6
 31
0.0
  0
LINE
  8
0
  6
CONTINUOUS
 62
     2
 10
187.45
 20
66.6
 30
0.0
 11
191.65
 21
66.6
 31
0.0
  0
LINE
  8
0
  6
CONTINUOUS
 62
     2
 10
193.75
 20
66.6
 30
0.0
 11
197.95
 21
66.6
 31
0.0
  0
LINE
  8
0
  6
CONTINUOUS
 62
     2
 10
200.05
 20
66.6
 30
0.0
 11
204.25
 21
66.6
 31
0.0
  0
LINE
  8
0
  6
CONTINUOUS
 62
     2
 10
181.15
 20
56.1
 30
0.0
 11
185.35
 21
56.1
 31
0.0
  0
LINE
  8
0
  6
CONTINUOUS
 62
     2
 10
185.35
 20
56.1
 30
0.0
 11
185.35
 21
60.3
 31
0.0
  0
LINE
  8
0
  6
CONTINUOUS
 62
     2
 10
185.35
 20
60.3
 30
0.0
 11
181.15
 21
60.3
 31
0.0
  0
LINE
  8
0
  6
CONTINUOUS
 62
     2
 10
181.15
 20
60.3
 30
0.0
 11
181.15
 21
56.1
 31
0.0
  0
LINE
  8
0
  6
CONTINUOUS
 62
     2
 10
187.45
 20
56.1
 30
0.0
 11
191.65
 21
56.1
 31
0.0
  0
LINE
  8
0
  6
CONTINUOUS
 62
     2
 10
191.65
 20
56.1
 30
0.0
 11
191.65
 21
60.3
 31
0.0
  0
LINE
  8
0
  6
CONTINUOUS
 62
     2
 10
191.65
 20
60.3
 30
0.0
 11
187.45
 21
60.3
 31
0.0
  0
LINE
  8
0
  6
CONTINUOUS
 62
     2
 10
187.45
 20
60.3
 30
0.0
 11
187.45
 21
56.1
 31
0.0
  0
LINE
  8
0
  6
CONTINUOUS
 62
     2
 10
193.75
 20
56.1
 30
0.0
 11
197.95
 21
56.1
 31
0.0
  0
LINE
  8
0
  6
CONTINUOUS
 62
     2
 10
197.95
 20
56.1
 30
0.0
 11
197.95
 21
60.3
 31
0.0
  0
LINE
  8
0
  6
CONTINUOUS
 62
     2
 10
197.95
 20
60.3
 30
0.0
 11
193.75
 21
60.3
 31
0.0
  0
LINE
  8
0
  6
CONTINUOUS
 62
     2
 10
193.75
 20
60.3
 30
0.0
 11
193.75
 21
56.1
 31
0.0
  0
LINE
  8
0
  6
CONTINUOUS
 62
     2
 10
170.3
 20
54.7
 30
0.0
 11
208.8
 21
54.7
 31
0.0
  0
TEXT
  8
0
  6
CONTINUOUS
 62
     2
 10
181.5
 20
56.45
 30
0.35
 40
3.5
  1
－
 50
0.0
 41
0.9
 51
0.0
  7
KANJI1
  0
TEXT
  8
0
  6
CONTINUOUS
 62
     2
 10
187.8
 20
56.45
 30
0.35
 40
3.5
  1
＋
 50
0.0
 41
0.9
 51
0.0
  7
KANJI1
  0
LINE
  8
0
  6
CONTINUOUS
 62
     2
 10
171.7
 20
72.2
 30
0.0
 11
175.9
 21
72.2
 31
0.0
  0
LINE
  8
0
  6
CONTINUOUS
 62
     2
 10
175.9
 20
72.2
 30
0.0
 11
175.9
 21
76.4
 31
0.0
  0
LINE
  8
0
  6
CONTINUOUS
 62
     2
 10
175.9
 20
76.4
 30
0.0
 11
171.7
 21
76.4
 31
0.0
  0
LINE
  8
0
  6
CONTINUOUS
 62
     2
 10
171.7
 20
76.4
 30
0.0
 11
171.7
 21
72.2
 31
0.0
  0
LINE
  8
0
  6
CONTINUOUS
 62
     2
 10
178.0
 20
72.2
 30
0.0
 11
182.2
 21
72.2
 31
0.0
  0
LINE
  8
0
  6
CONTINUOUS
 62
     2
 10
182.2
 20
72.2
 30
0.0
 11
182.2
 21
76.4
 31
0.0
  0
LINE
  8
0
  6
CONTINUOUS
 62
     2
 10
182.2
 20
76.4
 30
0.0
 11
178.0
 21
76.4
 31
0.0
  0
LINE
  8
0
  6
CONTINUOUS
 62
     2
 10
178.0
 20
76.4
 30
0.0
 11
178.0
 21
72.2
 31
0.0
  0
LINE
  8
0
  6
CONTINUOUS
 62
     2
 10
184.3
 20
72.2
 30
0.0
 11
188.5
 21
72.2
 31
0.0
  0
LINE
  8
0
  6
CONTINUOUS
 62
     2
 10
188.5
 20
72.2
 30
0.0
 11
188.5
 21
76.4
 31
0.0
  0
LINE
  8
0
  6
CONTINUOUS
 62
     2
 10
188.5
 20
76.4
 30
0.0
 11
184.3
 21
76.4
 31
0.0
  0
LINE
  8
0
  6
CONTINUOUS
 62
     2
 10
184.3
 20
76.4
 30
0.0
 11
184.3
 21
72.2
 31
0.0
  0
LINE
  8
0
  6
CONTINUOUS
 62
     2
 10
190.6
 20
72.2
 30
0.0
 11
194.8
 21
72.2
 31
0.0
  0
LINE
  8
0
  6
CONTINUOUS
 62
     2
 10
194.8
 20
72.2
 30
0.0
 11
194.8
 21
76.4
 31
0.0
  0
LINE
  8
0
  6
CONTINUOUS
 62
     2
 10
194.8
 20
76.4
 30
0.0
 11
190.6
 21
76.4
 31
0.0
  0
LINE
  8
0
  6
CONTINUOUS
 62
     2
 10
190.6
 20
76.4
 30
0.0
 11
190.6
 21
72.2
 31
0.0
  0
LINE
  8
0
  6
CONTINUOUS
 62
     2
 10
196.9
 20
72.2
 30
0.0
 11
201.1
 21
72.2
 31
0.0
  0
LINE
  8
0
  6
CONTINUOUS
 62
     2
 10
201.1
 20
72.2
 30
0.0
 11
201.1
 21
76.4
 31
0.0
  0
LINE
  8
0
  6
CONTINUOUS
 62
     2
 10
201.1
 20
76.4
 30
0.0
 11
196.9
 21
76.4
 31
0.0
  0
LINE
  8
0
  6
CONTINUOUS
 62
     2
 10
196.9
 20
76.4
 30
0.0
 11
196.9
 21
72.2
 31
0.0
  0
LINE
  8
0
  6
CONTINUOUS
 62
     2
 10
203.2
 20
72.2
 30
0.0
 11
207.4
 21
72.2
 31
0.0
  0
LINE
  8
0
  6
CONTINUOUS
 62
     2
 10
207.4
 20
72.2
 30
0.0
 11
207.4
 21
76.4
 31
0.0
  0
LINE
  8
0
  6
CONTINUOUS
 62
     2
 10
207.4
 20
76.4
 30
0.0
 11
203.2
 21
76.4
 31
0.0
  0
LINE
  8
0
  6
CONTINUOUS
 62
     2
 10
203.2
 20
76.4
 30
0.0
 11
203.2
 21
72.2
 31
0.0
  0
LINE
  8
0
  6
CONTINUOUS
 62
     2
 10
179.05
 20
66.6
 30
0.0
 11
179.05
 21
70.8
 31
0.0
  0
LINE
  8
0
  6
CONTINUOUS
 62
     2
 10
179.05
 20
70.8
 30
0.0
 11
174.85
 21
70.8
 31
0.0
  0
LINE
  8
0
  6
CONTINUOUS
 62
     2
 10
174.85
 20
70.8
 30
0.0
 11
174.85
 21
66.6
 31
0.0
  0
LINE
  8
0
  6
CONTINUOUS
 62
     2
 10
185.35
 20
66.6
 30
0.0
 11
185.35
 21
70.8
 31
0.0
  0
LINE
  8
0
  6
CONTINUOUS
 62
     2
 10
185.35
 20
70.8
 30
0.0
 11
181.15
 21
70.8
 31
0.0
  0
LINE
  8
0
  6
CONTINUOUS
 62
     2
 10
181.15
 20
70.8
 30
0.0
 11
181.15
 21
66.6
 31
0.0
  0
LINE
  8
0
  6
CONTINUOUS
 62
     2
 10
191.65
 20
66.6
 30
0.0
 11
191.65
 21
70.8
 31
0.0
  0
LINE
  8
0
  6
CONTINUOUS
 62
     2
 10
191.65
 20
70.8
 30
0.0
 11
187.45
 21
70.8
 31
0.0
  0
LINE
  8
0
  6
CONTINUOUS
 62
     2
 10
187.45
 20
70.8
 30
0.0
 11
187.45
 21
66.6
 31
0.0
  0
LINE
  8
0
  6
CONTINUOUS
 62
     2
 10
197.95
 20
66.6
 30
0.0
 11
197.95
 21
70.8
 31
0.0
  0
LINE
  8
0
  6
CONTINUOUS
 62
     2
 10
197.95
 20
70.8
 30
0.0
 11
193.75
 21
70.8
 31
0.0
  0
LINE
  8
0
  6
CONTINUOUS
 62
     2
 10
193.75
 20
70.8
 30
0.0
 11
193.75
 21
66.6
 31
0.0
  0
LINE
  8
0
  6
CONTINUOUS
 62
     2
 10
204.25
 20
66.6
 30
0.0
 11
204.25
 21
70.8
 31
0.0
  0
LINE
  8
0
  6
CONTINUOUS
 62
     2
 10
204.25
 20
70.8
 30
0.0
 11
200.05
 21
70.8
 31
0.0
  0
LINE
  8
0
  6
CONTINUOUS
 62
     2
 10
200.05
 20
70.8
 30
0.0
 11
200.05
 21
66.6
 31
0.0
  0
LINE
  8
0
  6
CONTINUOUS
 62
     2
 10
208.8
 20
54.7
 30
0.0
 11
208.8
 21
77.8
 31
0.0
  0
LINE
  8
0
  6
CONTINUOUS
 62
     2
 10
208.8
 20
77.8
 30
0.0
 11
170.3
 21
77.8
 31
0.0
  0
LINE
  8
0
  6
CONTINUOUS
 62
     2
 10
170.3
 20
77.8
 30
0.0
 11
170.3
 21
54.7
 31
0.0
  0
TEXT
  8
0
  6
CONTINUOUS
 62
     2
 10
172.05
 20
72.55
 30
0.35
 40
3.5
  1
１Ｓ
 50
0.0
 41
0.45
 51
0.0
  7
KANJI2
  0
TEXT
  8
0
  6
CONTINUOUS
 62
     2
 10
178.35
 20
72.55
 30
0.35
 40
3.5
  1
１Ｌ
 50
0.0
 41
0.45
 51
0.0
  7
KANJI2
  0
TEXT
  8
0
  6
CONTINUOUS
 62
     2
 10
175.2
 20
66.95
 30
0.35
 40
3.5
  1
Ｐ１
 50
0.0
 41
0.45
 51
0.0
  7
KANJI2
  0
TEXT
  8
0
  6
CONTINUOUS
 62
     2
 10
197.25
 20
72.55
 30
0.35
 40
3.5
  1
３Ｓ
 50
0.0
 41
0.45
 51
0.0
  7
KANJI2
  0
TEXT
  8
0
  6
CONTINUOUS
 62
     2
 10
203.55
 20
72.55
 30
0.35
 40
3.5
  1
３Ｌ
 50
0.0
 41
0.45
 51
0.0
  7
KANJI2
  0
TEXT
  8
0
  6
CONTINUOUS
 62
     2
 10
181.5
 20
66.95
 30
0.35
 40
3.5
  1
Ｐ２
 50
0.0
 41
0.45
 51
0.0
  7
KANJI2
  0
TEXT
  8
0
  6
CONTINUOUS
 62
     2
 10
187.8
 20
66.95
 30
0.35
 40
3.5
  1
Ｐ３
 50
0.0
 41
0.45
 51
0.0
  7
KANJI2
  0
LINE
  8
0
  6
CONTINUOUS
 62
     2
 10
24.85
 20
29.6
 30
0.0
 11
29.05
 21
29.6
 31
0.0
  0
LINE
  8
0
  6
CONTINUOUS
 62
     2
 10
31.15
 20
29.6
 30
0.0
 11
35.35
 21
29.6
 31
0.0
  0
LINE
  8
0
  6
CONTINUOUS
 62
     2
 10
37.45
 20
29.6
 30
0.0
 11
41.65
 21
29.6
 31
0.0
  0
LINE
  8
0
  6
CONTINUOUS
 62
     2
 10
43.75
 20
29.6
 30
0.0
 11
47.95
 21
29.6
 31
0.0
  0
LINE
  8
0
  6
CONTINUOUS
 62
     2
 10
50.05
 20
29.6
 30
0.0
 11
54.25
 21
29.6
 31
0.0
  0
LINE
  8
0
  6
CONTINUOUS
 62
     2
 10
31.15
 20
19.1
 30
0.0
 11
35.35
 21
19.1
 31
0.0
  0
LINE
  8
0
  6
CONTINUOUS
 62
     2
 10
35.35
 20
19.1
 30
0.0
 11
35.35
 21
23.3
 31
0.0
  0
LINE
  8
0
  6
CONTINUOUS
 62
     2
 10
35.35
 20
23.3
 30
0.0
 11
31.15
 21
23.3
 31
0.0
  0
LINE
  8
0
  6
CONTINUOUS
 62
     2
 10
31.15
 20
23.3
 30
0.0
 11
31.15
 21
19.1
 31
0.0
  0
LINE
  8
0
  6
CONTINUOUS
 62
     2
 10
37.45
 20
19.1
 30
0.0
 11
41.65
 21
19.1
 31
0.0
  0
LINE
  8
0
  6
CONTINUOUS
 62
     2
 10
41.65
 20
19.1
 30
0.0
 11
41.65
 21
23.3
 31
0.0
  0
LINE
  8
0
  6
CONTINUOUS
 62
     2
 10
41.65
 20
23.3
 30
0.0
 11
37.45
 21
23.3
 31
0.0
  0
LINE
  8
0
  6
CONTINUOUS
 62
     2
 10
37.45
 20
23.3
 30
0.0
 11
37.45
 21
19.1
 31
0.0
  0
LINE
  8
0
  6
CONTINUOUS
 62
     2
 10
43.75
 20
19.1
 30
0.0
 11
47.95
 21
19.1
 31
0.0
  0
LINE
  8
0
  6
CONTINUOUS
 62
     2
 10
47.95
 20
19.1
 30
0.0
 11
47.95
 21
23.3
 31
0.0
  0
LINE
  8
0
  6
CONTINUOUS
 62
     2
 10
47.95
 20
23.3
 30
0.0
 11
43.75
 21
23.3
 31
0.0
  0
LINE
  8
0
  6
CONTINUOUS
 62
     2
 10
43.75
 20
23.3
 30
0.0
 11
43.75
 21
19.1
 31
0.0
  0
LINE
  8
0
  6
CONTINUOUS
 62
     2
 10
20.3
 20
17.7
 30
0.0
 11
58.8
 21
17.7
 31
0.0
  0
TEXT
  8
0
  6
CONTINUOUS
 62
     2
 10
31.5
 20
19.45
 30
0.35
 40
3.5
  1
－
 50
0.0
 41
0.9
 51
0.0
  7
KANJI1
  0
TEXT
  8
0
  6
CONTINUOUS
 62
     2
 10
37.8
 20
19.45
 30
0.35
 40
3.5
  1
＋
 50
0.0
 41
0.9
 51
0.0
  7
KANJI1
  0
LINE
  8
0
  6
CONTINUOUS
 62
     2
 10
21.7
 20
35.2
 30
0.0
 11
25.9
 21
35.2
 31
0.0
  0
LINE
  8
0
  6
CONTINUOUS
 62
     2
 10
25.9
 20
35.2
 30
0.0
 11
25.9
 21
39.4
 31
0.0
  0
LINE
  8
0
  6
CONTINUOUS
 62
     2
 10
25.9
 20
39.4
 30
0.0
 11
21.7
 21
39.4
 31
0.0
  0
LINE
  8
0
  6
CONTINUOUS
 62
     2
 10
21.7
 20
39.4
 30
0.0
 11
21.7
 21
35.2
 31
0.0
  0
LINE
  8
0
  6
CONTINUOUS
 62
     2
 10
28.0
 20
35.2
 30
0.0
 11
32.2
 21
35.2
 31
0.0
  0
LINE
  8
0
  6
CONTINUOUS
 62
     2
 10
32.2
 20
35.2
 30
0.0
 11
32.2
 21
39.4
 31
0.0
  0
LINE
  8
0
  6
CONTINUOUS
 62
     2
 10
32.2
 20
39.4
 30
0.0
 11
28.0
 21
39.4
 31
0.0
  0
LINE
  8
0
  6
CONTINUOUS
 62
     2
 10
28.0
 20
39.4
 30
0.0
 11
28.0
 21
35.2
 31
0.0
  0
LINE
  8
0
  6
CONTINUOUS
 62
     2
 10
34.3
 20
35.2
 30
0.0
 11
38.5
 21
35.2
 31
0.0
  0
LINE
  8
0
  6
CONTINUOUS
 62
     2
 10
38.5
 20
35.2
 30
0.0
 11
38.5
 21
39.4
 31
0.0
  0
LINE
  8
0
  6
CONTINUOUS
 62
     2
 10
38.5
 20
39.4
 30
0.0
 11
34.3
 21
39.4
 31
0.0
  0
LINE
  8
0
  6
CONTINUOUS
 62
     2
 10
34.3
 20
39.4
 30
0.0
 11
34.3
 21
35.2
 31
0.0
  0
LINE
  8
0
  6
CONTINUOUS
 62
     2
 10
40.6
 20
35.2
 30
0.0
 11
44.8
 21
35.2
 31
0.0
  0
LINE
  8
0
  6
CONTINUOUS
 62
     2
 10
44.8
 20
35.2
 30
0.0
 11
44.8
 21
39.4
 31
0.0
  0
LINE
  8
0
  6
CONTINUOUS
 62
     2
 10
44.8
 20
39.4
 30
0.0
 11
40.6
 21
39.4
 31
0.0
  0
LINE
  8
0
  6
CONTINUOUS
 62
     2
 10
40.6
 20
39.4
 30
0.0
 11
40.6
 21
35.2
 31
0.0
  0
LINE
  8
0
  6
CONTINUOUS
 62
     2
 10
46.9
 20
35.2
 30
0.0
 11
51.1
 21
35.2
 31
0.0
  0
LINE
  8
0
  6
CONTINUOUS
 62
     2
 10
51.1
 20
35.2
 30
0.0
 11
51.1
 21
39.4
 31
0.0
  0
LINE
  8
0
  6
CONTINUOUS
 62
     2
 10
51.1
 20
39.4
 30
0.0
 11
46.9
 21
39.4
 31
0.0
  0
LINE
  8
0
  6
CONTINUOUS
 62
     2
 10
46.9
 20
39.4
 30
0.0
 11
46.9
 21
35.2
 31
0.0
  0
LINE
  8
0
  6
CONTINUOUS
 62
     2
 10
53.2
 20
35.2
 30
0.0
 11
57.4
 21
35.2
 31
0.0
  0
LINE
  8
0
  6
CONTINUOUS
 62
     2
 10
57.4
 20
35.2
 30
0.0
 11
57.4
 21
39.4
 31
0.0
  0
LINE
  8
0
  6
CONTINUOUS
 62
     2
 10
57.4
 20
39.4
 30
0.0
 11
53.2
 21
39.4
 31
0.0
  0
LINE
  8
0
  6
CONTINUOUS
 62
     2
 10
53.2
 20
39.4
 30
0.0
 11
53.2
 21
35.2
 31
0.0
  0
LINE
  8
0
  6
CONTINUOUS
 62
     2
 10
29.05
 20
29.6
 30
0.0
 11
29.05
 21
33.8
 31
0.0
  0
LINE
  8
0
  6
CONTINUOUS
 62
     2
 10
29.05
 20
33.8
 30
0.0
 11
24.85
 21
33.8
 31
0.0
  0
LINE
  8
0
  6
CONTINUOUS
 62
     2
 10
24.85
 20
33.8
 30
0.0
 11
24.85
 21
29.6
 31
0.0
  0
LINE
  8
0
  6
CONTINUOUS
 62
     2
 10
35.35
 20
29.6
 30
0.0
 11
35.35
 21
33.8
 31
0.0
  0
LINE
  8
0
  6
CONTINUOUS
 62
     2
 10
35.35
 20
33.8
 30
0.0
 11
31.15
 21
33.8
 31
0.0
  0
LINE
  8
0
  6
CONTINUOUS
 62
     2
 10
31.15
 20
33.8
 30
0.0
 11
31.15
 21
29.6
 31
0.0
  0
LINE
  8
0
  6
CONTINUOUS
 62
     2
 10
41.65
 20
29.6
 30
0.0
 11
41.65
 21
33.8
 31
0.0
  0
LINE
  8
0
  6
CONTINUOUS
 62
     2
 10
41.65
 20
33.8
 30
0.0
 11
37.45
 21
33.8
 31
0.0
  0
LINE
  8
0
  6
CONTINUOUS
 62
     2
 10
37.45
 20
33.8
 30
0.0
 11
37.45
 21
29.6
 31
0.0
  0
LINE
  8
0
  6
CONTINUOUS
 62
     2
 10
47.95
 20
29.6
 30
0.0
 11
47.95
 21
33.8
 31
0.0
  0
LINE
  8
0
  6
CONTINUOUS
 62
     2
 10
47.95
 20
33.8
 30
0.0
 11
43.75
 21
33.8
 31
0.0
  0
LINE
  8
0
  6
CONTINUOUS
 62
     2
 10
43.75
 20
33.8
 30
0.0
 11
43.75
 21
29.6
 31
0.0
  0
LINE
  8
0
  6
CONTINUOUS
 62
     2
 10
54.25
 20
29.6
 30
0.0
 11
54.25
 21
33.8
 31
0.0
  0
LINE
  8
0
  6
CONTINUOUS
 62
     2
 10
54.25
 20
33.8
 30
0.0
 11
50.05
 21
33.8
 31
0.0
  0
LINE
  8
0
  6
CONTINUOUS
 62
     2
 10
50.05
 20
33.8
 30
0.0
 11
50.05
 21
29.6
 31
0.0
  0
LINE
  8
0
  6
CONTINUOUS
 62
     2
 10
58.8
 20
17.7
 30
0.0
 11
58.8
 21
40.8
 31
0.0
  0
LINE
  8
0
  6
CONTINUOUS
 62
     2
 10
58.8
 20
40.8
 30
0.0
 11
20.3
 21
40.8
 31
0.0
  0
LINE
  8
0
  6
CONTINUOUS
 62
     2
 10
20.3
 20
40.8
 30
0.0
 11
20.3
 21
17.7
 31
0.0
  0
TEXT
  8
0
  6
CONTINUOUS
 62
     2
 10
22.05
 20
35.55
 30
0.35
 40
3.5
  1
１Ｓ
 50
0.0
 41
0.45
 51
0.0
  7
KANJI2
  0
TEXT
  8
0
  6
CONTINUOUS
 62
     2
 10
28.35
 20
35.55
 30
0.35
 40
3.5
  1
１Ｌ
 50
0.0
 41
0.45
 51
0.0
  7
KANJI2
  0
TEXT
  8
0
  6
CONTINUOUS
 62
     2
 10
25.2
 20
29.95
 30
0.35
 40
3.5
  1
Ｐ１
 50
0.0
 41
0.45
 51
0.0
  7
KANJI2
  0
TEXT
  8
0
  6
CONTINUOUS
 62
     2
 10
31.5
 20
29.95
 30
0.35
 40
3.5
  1
Ｐ２
 50
0.0
 41
0.45
 51
0.0
  7
KANJI2
  0
TEXT
  8
0
  6
CONTINUOUS
 62
     2
 10
34.65
 20
35.55
 30
0.35
 40
3.5
  1
２Ｓ
 50
0.0
 41
0.45
 51
0.0
  7
KANJI2
  0
TEXT
  8
0
  6
CONTINUOUS
 62
     2
 10
40.95
 20
35.55
 30
0.35
 40
3.5
  1
２Ｌ
 50
0.0
 41
0.45
 51
0.0
  7
KANJI2
  0
TEXT
  8
0
  6
CONTINUOUS
 62
     2
 10
47.25
 20
35.55
 30
0.35
 40
3.5
  1
３Ｓ
 50
0.0
 41
0.45
 51
0.0
  7
KANJI2
  0
TEXT
  8
0
  6
CONTINUOUS
 62
     2
 10
53.55
 20
35.55
 30
0.35
 40
3.5
  1
３Ｌ
 50
0.0
 41
0.45
 51
0.0
  7
KANJI2
  0
TEXT
  8
0
  6
CONTINUOUS
 62
     2
 10
37.8
 20
29.95
 30
0.35
 40
3.5
  1
Ｐ３
 50
0.0
 41
0.45
 51
0.0
  7
KANJI2
  0
TEXT
  8
0
  6
CONTINUOUS
 62
     2
 10
44.1
 20
29.95
 30
0.35
 40
3.5
  1
Ｐ０
 50
0.0
 41
0.45
 51
0.0
  7
KANJI2
  0
LINE
  8
0
  6
CONTINUOUS
 62
     2
 10
74.85
 20
29.6
 30
0.0
 11
79.05
 21
29.6
 31
0.0
  0
LINE
  8
0
  6
CONTINUOUS
 62
     2
 10
81.15
 20
29.6
 30
0.0
 11
85.35
 21
29.6
 31
0.0
  0
LINE
  8
0
  6
CONTINUOUS
 62
     2
 10
87.45
 20
29.6
 30
0.0
 11
91.65
 21
29.6
 31
0.0
  0
LINE
  8
0
  6
CONTINUOUS
 62
     2
 10
93.75
 20
29.6
 30
0.0
 11
97.95
 21
29.6
 31
0.0
  0
LINE
  8
0
  6
CONTINUOUS
 62
     2
 10
100.05
 20
29.6
 30
0.0
 11
104.25
 21
29.6
 31
0.0
  0
LINE
  8
0
  6
CONTINUOUS
 62
     2
 10
81.15
 20
19.1
 30
0.0
 11
85.35
 21
19.1
 31
0.0
  0
LINE
  8
0
  6
CONTINUOUS
 62
     2
 10
85.35
 20
19.1
 30
0.0
 11
85.35
 21
23.3
 31
0.0
  0
LINE
  8
0
  6
CONTINUOUS
 62
     2
 10
85.35
 20
23.3
 30
0.0
 11
81.15
 21
23.3
 31
0.0
  0
LINE
  8
0
  6
CONTINUOUS
 62
     2
 10
81.15
 20
23.3
 30
0.0
 11
81.15
 21
19.1
 31
0.0
  0
LINE
  8
0
  6
CONTINUOUS
 62
     2
 10
87.45
 20
19.1
 30
0.0
 11
91.65
 21
19.1
 31
0.0
  0
LINE
  8
0
  6
CONTINUOUS
 62
     2
 10
91.65
 20
19.1
 30
0.0
 11
91.65
 21
23.3
 31
0.0
  0
LINE
  8
0
  6
CONTINUOUS
 62
     2
 10
91.65
 20
23.3
 30
0.0
 11
87.45
 21
23.3
 31
0.0
  0
LINE
  8
0
  6
CONTINUOUS
 62
     2
 10
87.45
 20
23.3
 30
0.0
 11
87.45
 21
19.1
 31
0.0
  0
LINE
  8
0
  6
CONTINUOUS
 62
     2
 10
93.75
 20
19.1
 30
0.0
 11
97.95
 21
19.1
 31
0.0
  0
LINE
  8
0
  6
CONTINUOUS
 62
     2
 10
97.95
 20
19.1
 30
0.0
 11
97.95
 21
23.3
 31
0.0
  0
LINE
  8
0
  6
CONTINUOUS
 62
     2
 10
97.95
 20
23.3
 30
0.0
 11
93.75
 21
23.3
 31
0.0
  0
LINE
  8
0
  6
CONTINUOUS
 62
     2
 10
93.75
 20
23.3
 30
0.0
 11
93.75
 21
19.1
 31
0.0
  0
LINE
  8
0
  6
CONTINUOUS
 62
     2
 10
70.3
 20
17.7
 30
0.0
 11
108.8
 21
17.7
 31
0.0
  0
TEXT
  8
0
  6
CONTINUOUS
 62
     2
 10
81.5
 20
19.45
 30
0.35
 40
3.5
  1
－
 50
0.0
 41
0.9
 51
0.0
  7
KANJI1
  0
TEXT
  8
0
  6
CONTINUOUS
 62
     2
 10
87.8
 20
19.45
 30
0.35
 40
3.5
  1
＋
 50
0.0
 41
0.9
 51
0.0
  7
KANJI1
  0
LINE
  8
0
  6
CONTINUOUS
 62
     2
 10
71.7
 20
35.2
 30
0.0
 11
75.9
 21
35.2
 31
0.0
  0
LINE
  8
0
  6
CONTINUOUS
 62
     2
 10
75.9
 20
35.2
 30
0.0
 11
75.9
 21
39.4
 31
0.0
  0
LINE
  8
0
  6
CONTINUOUS
 62
     2
 10
75.9
 20
39.4
 30
0.0
 11
71.7
 21
39.4
 31
0.0
  0
LINE
  8
0
  6
CONTINUOUS
 62
     2
 10
71.7
 20
39.4
 30
0.0
 11
71.7
 21
35.2
 31
0.0
  0
LINE
  8
0
  6
CONTINUOUS
 62
     2
 10
78.0
 20
35.2
 30
0.0
 11
82.2
 21
35.2
 31
0.0
  0
LINE
  8
0
  6
CONTINUOUS
 62
     2
 10
82.2
 20
35.2
 30
0.0
 11
82.2
 21
39.4
 31
0.0
  0
LINE
  8
0
  6
CONTINUOUS
 62
     2
 10
82.2
 20
39.4
 30
0.0
 11
78.0
 21
39.4
 31
0.0
  0
LINE
  8
0
  6
CONTINUOUS
 62
     2
 10
78.0
 20
39.4
 30
0.0
 11
78.0
 21
35.2
 31
0.0
  0
LINE
  8
0
  6
CONTINUOUS
 62
     2
 10
84.3
 20
35.2
 30
0.0
 11
88.5
 21
35.2
 31
0.0
  0
LINE
  8
0
  6
CONTINUOUS
 62
     2
 10
88.5
 20
35.2
 30
0.0
 11
88.5
 21
39.4
 31
0.0
  0
LINE
  8
0
  6
CONTINUOUS
 62
     2
 10
88.5
 20
39.4
 30
0.0
 11
84.3
 21
39.4
 31
0.0
  0
LINE
  8
0
  6
CONTINUOUS
 62
     2
 10
84.3
 20
39.4
 30
0.0
 11
84.3
 21
35.2
 31
0.0
  0
LINE
  8
0
  6
CONTINUOUS
 62
     2
 10
90.6
 20
35.2
 30
0.0
 11
94.8
 21
35.2
 31
0.0
  0
LINE
  8
0
  6
CONTINUOUS
 62
     2
 10
94.8
 20
35.2
 30
0.0
 11
94.8
 21
39.4
 31
0.0
  0
LINE
  8
0
  6
CONTINUOUS
 62
     2
 10
94.8
 20
39.4
 30
0.0
 11
90.6
 21
39.4
 31
0.0
  0
LINE
  8
0
  6
CONTINUOUS
 62
     2
 10
90.6
 20
39.4
 30
0.0
 11
90.6
 21
35.2
 31
0.0
  0
LINE
  8
0
  6
CONTINUOUS
 62
     2
 10
96.9
 20
35.2
 30
0.0
 11
101.1
 21
35.2
 31
0.0
  0
LINE
  8
0
  6
CONTINUOUS
 62
     2
 10
101.1
 20
35.2
 30
0.0
 11
101.1
 21
39.4
 31
0.0
  0
LINE
  8
0
  6
CONTINUOUS
 62
     2
 10
101.1
 20
39.4
 30
0.0
 11
96.9
 21
39.4
 31
0.0
  0
LINE
  8
0
  6
CONTINUOUS
 62
     2
 10
96.9
 20
39.4
 30
0.0
 11
96.9
 21
35.2
 31
0.0
  0
LINE
  8
0
  6
CONTINUOUS
 62
     2
 10
103.2
 20
35.2
 30
0.0
 11
107.4
 21
35.2
 31
0.0
  0
LINE
  8
0
  6
CONTINUOUS
 62
     2
 10
107.4
 20
35.2
 30
0.0
 11
107.4
 21
39.4
 31
0.0
  0
LINE
  8
0
  6
CONTINUOUS
 62
     2
 10
107.4
 20
39.4
 30
0.0
 11
103.2
 21
39.4
 31
0.0
  0
LINE
  8
0
  6
CONTINUOUS
 62
     2
 10
103.2
 20
39.4
 30
0.0
 11
103.2
 21
35.2
 31
0.0
  0
LINE
  8
0
  6
CONTINUOUS
 62
     2
 10
79.05
 20
29.6
 30
0.0
 11
79.05
 21
33.8
 31
0.0
  0
LINE
  8
0
  6
CONTINUOUS
 62
     2
 10
79.05
 20
33.8
 30
0.0
 11
74.85
 21
33.8
 31
0.0
  0
LINE
  8
0
  6
CONTINUOUS
 62
     2
 10
74.85
 20
33.8
 30
0.0
 11
74.85
 21
29.6
 31
0.0
  0
LINE
  8
0
  6
CONTINUOUS
 62
     2
 10
85.35
 20
29.6
 30
0.0
 11
85.35
 21
33.8
 31
0.0
  0
LINE
  8
0
  6
CONTINUOUS
 62
     2
 10
85.35
 20
33.8
 30
0.0
 11
81.15
 21
33.8
 31
0.0
  0
LINE
  8
0
  6
CONTINUOUS
 62
     2
 10
81.15
 20
33.8
 30
0.0
 11
81.15
 21
29.6
 31
0.0
  0
LINE
  8
0
  6
CONTINUOUS
 62
     2
 10
91.65
 20
29.6
 30
0.0
 11
91.65
 21
33.8
 31
0.0
  0
LINE
  8
0
  6
CONTINUOUS
 62
     2
 10
91.65
 20
33.8
 30
0.0
 11
87.45
 21
33.8
 31
0.0
  0
LINE
  8
0
  6
CONTINUOUS
 62
     2
 10
87.45
 20
33.8
 30
0.0
 11
87.45
 21
29.6
 31
0.0
  0
LINE
  8
0
  6
CONTINUOUS
 62
     2
 10
97.95
 20
29.6
 30
0.0
 11
97.95
 21
33.8
 31
0.0
  0
LINE
  8
0
  6
CONTINUOUS
 62
     2
 10
97.95
 20
33.8
 30
0.0
 11
93.75
 21
33.8
 31
0.0
  0
LINE
  8
0
  6
CONTINUOUS
 62
     2
 10
93.75
 20
33.8
 30
0.0
 11
93.75
 21
29.6
 31
0.0
  0
LINE
  8
0
  6
CONTINUOUS
 62
     2
 10
104.25
 20
29.6
 30
0.0
 11
104.25
 21
33.8
 31
0.0
  0
LINE
  8
0
  6
CONTINUOUS
 62
     2
 10
104.25
 20
33.8
 30
0.0
 11
100.05
 21
33.8
 31
0.0
  0
LINE
  8
0
  6
CONTINUOUS
 62
     2
 10
100.05
 20
33.8
 30
0.0
 11
100.05
 21
29.6
 31
0.0
  0
LINE
  8
0
  6
CONTINUOUS
 62
     2
 10
108.8
 20
17.7
 30
0.0
 11
108.8
 21
40.8
 31
0.0
  0
LINE
  8
0
  6
CONTINUOUS
 62
     2
 10
108.8
 20
40.8
 30
0.0
 11
70.3
 21
40.8
 31
0.0
  0
LINE
  8
0
  6
CONTINUOUS
 62
     2
 10
70.3
 20
40.8
 30
0.0
 11
70.3
 21
17.7
 31
0.0
  0
TEXT
  8
0
  6
CONTINUOUS
 62
     2
 10
72.05
 20
35.55
 30
0.35
 40
3.5
  1
１Ｓ
 50
0.0
 41
0.45
 51
0.0
  7
KANJI2
  0
TEXT
  8
0
  6
CONTINUOUS
 62
     2
 10
78.35
 20
35.55
 30
0.35
 40
3.5
  1
１Ｌ
 50
0.0
 41
0.45
 51
0.0
  7
KANJI2
  0
TEXT
  8
0
  6
CONTINUOUS
 62
     2
 10
81.5
 20
29.95
 30
0.35
 40
3.5
  1
Ｐ２
 50
0.0
 41
0.45
 51
0.0
  7
KANJI2
  0
TEXT
  8
0
  6
CONTINUOUS
 62
     2
 10
87.8
 20
29.95
 30
0.35
 40
3.5
  1
Ｐ３
 50
0.0
 41
0.45
 51
0.0
  7
KANJI2
  0
LINE
  8
0
  6
CONTINUOUS
 62
     2
 10
124.85
 20
29.6
 30
0.0
 11
129.05
 21
29.6
 31
0.0
  0
LINE
  8
0
  6
CONTINUOUS
 62
     2
 10
131.15
 20
29.6
 30
0.0
 11
135.35
 21
29.6
 31
0.0
  0
LINE
  8
0
  6
CONTINUOUS
 62
     2
 10
137.45
 20
29.6
 30
0.0
 11
141.65
 21
29.6
 31
0.0
  0
LINE
  8
0
  6
CONTINUOUS
 62
     2
 10
143.75
 20
29.6
 30
0.0
 11
147.95
 21
29.6
 31
0.0
  0
LINE
  8
0
  6
CONTINUOUS
 62
     2
 10
150.05
 20
29.6
 30
0.0
 11
154.25
 21
29.6
 31
0.0
  0
LINE
  8
0
  6
CONTINUOUS
 62
     2
 10
131.15
 20
19.1
 30
0.0
 11
135.35
 21
19.1
 31
0.0
  0
LINE
  8
0
  6
CONTINUOUS
 62
     2
 10
135.35
 20
19.1
 30
0.0
 11
135.35
 21
23.3
 31
0.0
  0
LINE
  8
0
  6
CONTINUOUS
 62
     2
 10
135.35
 20
23.3
 30
0.0
 11
131.15
 21
23.3
 31
0.0
  0
LINE
  8
0
  6
CONTINUOUS
 62
     2
 10
131.15
 20
23.3
 30
0.0
 11
131.15
 21
19.1
 31
0.0
  0
LINE
  8
0
  6
CONTINUOUS
 62
     2
 10
137.45
 20
19.1
 30
0.0
 11
141.65
 21
19.1
 31
0.0
  0
LINE
  8
0
  6
CONTINUOUS
 62
     2
 10
141.65
 20
19.1
 30
0.0
 11
141.65
 21
23.3
 31
0.0
  0
LINE
  8
0
  6
CONTINUOUS
 62
     2
 10
141.65
 20
23.3
 30
0.0
 11
137.45
 21
23.3
 31
0.0
  0
LINE
  8
0
  6
CONTINUOUS
 62
     2
 10
137.45
 20
23.3
 30
0.0
 11
137.45
 21
19.1
 31
0.0
  0
LINE
  8
0
  6
CONTINUOUS
 62
     2
 10
143.75
 20
19.1
 30
0.0
 11
147.95
 21
19.1
 31
0.0
  0
LINE
  8
0
  6
CONTINUOUS
 62
     2
 10
147.95
 20
19.1
 30
0.0
 11
147.95
 21
23.3
 31
0.0
  0
LINE
  8
0
  6
CONTINUOUS
 62
     2
 10
147.95
 20
23.3
 30
0.0
 11
143.75
 21
23.3
 31
0.0
  0
LINE
  8
0
  6
CONTINUOUS
 62
     2
 10
143.75
 20
23.3
 30
0.0
 11
143.75
 21
19.1
 31
0.0
  0
LINE
  8
0
  6
CONTINUOUS
 62
     2
 10
120.3
 20
17.7
 30
0.0
 11
158.8
 21
17.7
 31
0.0
  0
TEXT
  8
0
  6
CONTINUOUS
 62
     2
 10
131.5
 20
19.45
 30
0.35
 40
3.5
  1
－
 50
0.0
 41
0.9
 51
0.0
  7
KANJI1
  0
TEXT
  8
0
  6
CONTINUOUS
 62
     2
 10
137.8
 20
19.45
 30
0.35
 40
3.5
  1
＋
 50
0.0
 41
0.9
 51
0.0
  7
KANJI1
  0
LINE
  8
0
  6
CONTINUOUS
 62
     2
 10
121.7
 20
35.2
 30
0.0
 11
125.9
 21
35.2
 31
0.0
  0
LINE
  8
0
  6
CONTINUOUS
 62
     2
 10
125.9
 20
35.2
 30
0.0
 11
125.9
 21
39.4
 31
0.0
  0
LINE
  8
0
  6
CONTINUOUS
 62
     2
 10
125.9
 20
39.4
 30
0.0
 11
121.7
 21
39.4
 31
0.0
  0
LINE
  8
0
  6
CONTINUOUS
 62
     2
 10
121.7
 20
39.4
 30
0.0
 11
121.7
 21
35.2
 31
0.0
  0
LINE
  8
0
  6
CONTINUOUS
 62
     2
 10
128.0
 20
35.2
 30
0.0
 11
132.2
 21
35.2
 31
0.0
  0
LINE
  8
0
  6
CONTINUOUS
 62
     2
 10
132.2
 20
35.2
 30
0.0
 11
132.2
 21
39.4
 31
0.0
  0
LINE
  8
0
  6
CONTINUOUS
 62
     2
 10
132.2
 20
39.4
 30
0.0
 11
128.0
 21
39.4
 31
0.0
  0
LINE
  8
0
  6
CONTINUOUS
 62
     2
 10
128.0
 20
39.4
 30
0.0
 11
128.0
 21
35.2
 31
0.0
  0
LINE
  8
0
  6
CONTINUOUS
 62
     2
 10
134.3
 20
35.2
 30
0.0
 11
138.5
 21
35.2
 31
0.0
  0
LINE
  8
0
  6
CONTINUOUS
 62
     2
 10
138.5
 20
35.2
 30
0.0
 11
138.5
 21
39.4
 31
0.0
  0
LINE
  8
0
  6
CONTINUOUS
 62
     2
 10
138.5
 20
39.4
 30
0.0
 11
134.3
 21
39.4
 31
0.0
  0
LINE
  8
0
  6
CONTINUOUS
 62
     2
 10
134.3
 20
39.4
 30
0.0
 11
134.3
 21
35.2
 31
0.0
  0
LINE
  8
0
  6
CONTINUOUS
 62
     2
 10
140.6
 20
35.2
 30
0.0
 11
144.8
 21
35.2
 31
0.0
  0
LINE
  8
0
  6
CONTINUOUS
 62
     2
 10
144.8
 20
35.2
 30
0.0
 11
144.8
 21
39.4
 31
0.0
  0
LINE
  8
0
  6
CONTINUOUS
 62
     2
 10
144.8
 20
39.4
 30
0.0
 11
140.6
 21
39.4
 31
0.0
  0
LINE
  8
0
  6
CONTINUOUS
 62
     2
 10
140.6
 20
39.4
 30
0.0
 11
140.6
 21
35.2
 31
0.0
  0
LINE
  8
0
  6
CONTINUOUS
 62
     2
 10
146.9
 20
35.2
 30
0.0
 11
151.1
 21
35.2
 31
0.0
  0
LINE
  8
0
  6
CONTINUOUS
 62
     2
 10
151.1
 20
35.2
 30
0.0
 11
151.1
 21
39.4
 31
0.0
  0
LINE
  8
0
  6
CONTINUOUS
 62
     2
 10
151.1
 20
39.4
 30
0.0
 11
146.9
 21
39.4
 31
0.0
  0
LINE
  8
0
  6
CONTINUOUS
 62
     2
 10
146.9
 20
39.4
 30
0.0
 11
146.9
 21
35.2
 31
0.0
  0
LINE
  8
0
  6
CONTINUOUS
 62
     2
 10
153.2
 20
35.2
 30
0.0
 11
157.4
 21
35.2
 31
0.0
  0
LINE
  8
0
  6
CONTINUOUS
 62
     2
 10
157.4
 20
35.2
 30
0.0
 11
157.4
 21
39.4
 31
0.0
  0
LINE
  8
0
  6
CONTINUOUS
 62
     2
 10
157.4
 20
39.4
 30
0.0
 11
153.2
 21
39.4
 31
0.0
  0
LINE
  8
0
  6
CONTINUOUS
 62
     2
 10
153.2
 20
39.4
 30
0.0
 11
153.2
 21
35.2
 31
0.0
  0
LINE
  8
0
  6
CONTINUOUS
 62
     2
 10
129.05
 20
29.6
 30
0.0
 11
129.05
 21
33.8
 31
0.0
  0
LINE
  8
0
  6
CONTINUOUS
 62
     2
 10
129.05
 20
33.8
 30
0.0
 11
124.85
 21
33.8
 31
0.0
  0
LINE
  8
0
  6
CONTINUOUS
 62
     2
 10
124.85
 20
33.8
 30
0.0
 11
124.85
 21
29.6
 31
0.0
  0
LINE
  8
0
  6
CONTINUOUS
 62
     2
 10
135.35
 20
29.6
 30
0.0
 11
135.35
 21
33.8
 31
0.0
  0
LINE
  8
0
  6
CONTINUOUS
 62
     2
 10
135.35
 20
33.8
 30
0.0
 11
131.15
 21
33.8
 31
0.0
  0
LINE
  8
0
  6
CONTINUOUS
 62
     2
 10
131.15
 20
33.8
 30
0.0
 11
131.15
 21
29.6
 31
0.0
  0
LINE
  8
0
  6
CONTINUOUS
 62
     2
 10
141.65
 20
29.6
 30
0.0
 11
141.65
 21
33.8
 31
0.0
  0
LINE
  8
0
  6
CONTINUOUS
 62
     2
 10
141.65
 20
33.8
 30
0.0
 11
137.45
 21
33.8
 31
0.0
  0
LINE
  8
0
  6
CONTINUOUS
 62
     2
 10
137.45
 20
33.8
 30
0.0
 11
137.45
 21
29.6
 31
0.0
  0
LINE
  8
0
  6
CONTINUOUS
 62
     2
 10
147.95
 20
29.6
 30
0.0
 11
147.95
 21
33.8
 31
0.0
  0
LINE
  8
0
  6
CONTINUOUS
 62
     2
 10
147.95
 20
33.8
 30
0.0
 11
143.75
 21
33.8
 31
0.0
  0
LINE
  8
0
  6
CONTINUOUS
 62
     2
 10
143.75
 20
33.8
 30
0.0
 11
143.75
 21
29.6
 31
0.0
  0
LINE
  8
0
  6
CONTINUOUS
 62
     2
 10
154.25
 20
29.6
 30
0.0
 11
154.25
 21
33.8
 31
0.0
  0
LINE
  8
0
  6
CONTINUOUS
 62
     2
 10
154.25
 20
33.8
 30
0.0
 11
150.05
 21
33.8
 31
0.0
  0
LINE
  8
0
  6
CONTINUOUS
 62
     2
 10
150.05
 20
33.8
 30
0.0
 11
150.05
 21
29.6
 31
0.0
  0
LINE
  8
0
  6
CONTINUOUS
 62
     2
 10
158.8
 20
17.7
 30
0.0
 11
158.8
 21
40.8
 31
0.0
  0
LINE
  8
0
  6
CONTINUOUS
 62
     2
 10
158.8
 20
40.8
 30
0.0
 11
120.3
 21
40.8
 31
0.0
  0
LINE
  8
0
  6
CONTINUOUS
 62
     2
 10
120.3
 20
40.8
 30
0.0
 11
120.3
 21
17.7
 31
0.0
  0
TEXT
  8
0
  6
CONTINUOUS
 62
     2
 10
122.05
 20
35.55
 30
0.35
 40
3.5
  1
１Ｓ
 50
0.0
 41
0.45
 51
0.0
  7
KANJI2
  0
TEXT
  8
0
  6
CONTINUOUS
 62
     2
 10
128.35
 20
35.55
 30
0.35
 40
3.5
  1
１Ｌ
 50
0.0
 41
0.45
 51
0.0
  7
KANJI2
  0
TEXT
  8
0
  6
CONTINUOUS
 62
     2
 10
125.2
 20
29.95
 30
0.35
 40
3.5
  1
Ｐ１
 50
0.0
 41
0.45
 51
0.0
  7
KANJI2
  0
TEXT
  8
0
  6
CONTINUOUS
 62
     2
 10
131.5
 20
29.95
 30
0.35
 40
3.5
  1
Ｐ２
 50
0.0
 41
0.45
 51
0.0
  7
KANJI2
  0
TEXT
  8
0
  6
CONTINUOUS
 62
     2
 10
147.25
 20
35.55
 30
0.35
 40
3.5
  1
３Ｓ
 50
0.0
 41
0.45
 51
0.0
  7
KANJI2
  0
TEXT
  8
0
  6
CONTINUOUS
 62
     2
 10
153.55
 20
35.55
 30
0.35
 40
3.5
  1
３Ｌ
 50
0.0
 41
0.45
 51
0.0
  7
KANJI2
  0
TEXT
  8
0
  6
CONTINUOUS
 62
     2
 10
137.8
 20
29.95
 30
0.35
 40
3.5
  1
Ｐ３
 50
0.0
 41
0.45
 51
0.0
  7
KANJI2
  0
LINE
  8
0
  6
CONTINUOUS
 62
     2
 10
174.85
 20
29.6
 30
0.0
 11
179.05
 21
29.6
 31
0.0
  0
LINE
  8
0
  6
CONTINUOUS
 62
     2
 10
181.15
 20
29.6
 30
0.0
 11
185.35
 21
29.6
 31
0.0
  0
LINE
  8
0
  6
CONTINUOUS
 62
     2
 10
187.45
 20
29.6
 30
0.0
 11
191.65
 21
29.6
 31
0.0
  0
LINE
  8
0
  6
CONTINUOUS
 62
     2
 10
193.75
 20
29.6
 30
0.0
 11
197.95
 21
29.6
 31
0.0
  0
LINE
  8
0
  6
CONTINUOUS
 62
     2
 10
200.05
 20
29.6
 30
0.0
 11
204.25
 21
29.6
 31
0.0
  0
LINE
  8
0
  6
CONTINUOUS
 62
     2
 10
181.15
 20
19.1
 30
0.0
 11
185.35
 21
19.1
 31
0.0
  0
LINE
  8
0
  6
CONTINUOUS
 62
     2
 10
185.35
 20
19.1
 30
0.0
 11
185.35
 21
23.3
 31
0.0
  0
LINE
  8
0
  6
CONTINUOUS
 62
     2
 10
185.35
 20
23.3
 30
0.0
 11
181.15
 21
23.3
 31
0.0
  0
LINE
  8
0
  6
CONTINUOUS
 62
     2
 10
181.15
 20
23.3
 30
0.0
 11
181.15
 21
19.1
 31
0.0
  0
LINE
  8
0
  6
CONTINUOUS
 62
     2
 10
187.45
 20
19.1
 30
0.0
 11
191.65
 21
19.1
 31
0.0
  0
LINE
  8
0
  6
CONTINUOUS
 62
     2
 10
191.65
 20
19.1
 30
0.0
 11
191.65
 21
23.3
 31
0.0
  0
LINE
  8
0
  6
CONTINUOUS
 62
     2
 10
191.65
 20
23.3
 30
0.0
 11
187.45
 21
23.3
 31
0.0
  0
LINE
  8
0
  6
CONTINUOUS
 62
     2
 10
187.45
 20
23.3
 30
0.0
 11
187.45
 21
19.1
 31
0.0
  0
LINE
  8
0
  6
CONTINUOUS
 62
     2
 10
193.75
 20
19.1
 30
0.0
 11
197.95
 21
19.1
 31
0.0
  0
LINE
  8
0
  6
CONTINUOUS
 62
     2
 10
197.95
 20
19.1
 30
0.0
 11
197.95
 21
23.3
 31
0.0
  0
LINE
  8
0
  6
CONTINUOUS
 62
     2
 10
197.95
 20
23.3
 30
0.0
 11
193.75
 21
23.3
 31
0.0
  0
LINE
  8
0
  6
CONTINUOUS
 62
     2
 10
193.75
 20
23.3
 30
0.0
 11
193.75
 21
19.1
 31
0.0
  0
LINE
  8
0
  6
CONTINUOUS
 62
     2
 10
170.3
 20
17.7
 30
0.0
 11
208.8
 21
17.7
 31
0.0
  0
TEXT
  8
0
  6
CONTINUOUS
 62
     2
 10
181.5
 20
19.45
 30
0.35
 40
3.5
  1
－
 50
0.0
 41
0.9
 51
0.0
  7
KANJI1
  0
TEXT
  8
0
  6
CONTINUOUS
 62
     2
 10
187.8
 20
19.45
 30
0.35
 40
3.5
  1
＋
 50
0.0
 41
0.9
 51
0.0
  7
KANJI1
  0
LINE
  8
0
  6
CONTINUOUS
 62
     2
 10
171.7
 20
35.2
 30
0.0
 11
175.9
 21
35.2
 31
0.0
  0
LINE
  8
0
  6
CONTINUOUS
 62
     2
 10
175.9
 20
35.2
 30
0.0
 11
175.9
 21
39.4
 31
0.0
  0
LINE
  8
0
  6
CONTINUOUS
 62
     2
 10
175.9
 20
39.4
 30
0.0
 11
171.7
 21
39.4
 31
0.0
  0
LINE
  8
0
  6
CONTINUOUS
 62
     2
 10
171.7
 20
39.4
 30
0.0
 11
171.7
 21
35.2
 31
0.0
  0
LINE
  8
0
  6
CONTINUOUS
 62
     2
 10
178.0
 20
35.2
 30
0.0
 11
182.2
 21
35.2
 31
0.0
  0
LINE
  8
0
  6
CONTINUOUS
 62
     2
 10
182.2
 20
35.2
 30
0.0
 11
182.2
 21
39.4
 31
0.0
  0
LINE
  8
0
  6
CONTINUOUS
 62
     2
 10
182.2
 20
39.4
 30
0.0
 11
178.0
 21
39.4
 31
0.0
  0
LINE
  8
0
  6
CONTINUOUS
 62
     2
 10
178.0
 20
39.4
 30
0.0
 11
178.0
 21
35.2
 31
0.0
  0
LINE
  8
0
  6
CONTINUOUS
 62
     2
 10
184.3
 20
35.2
 30
0.0
 11
188.5
 21
35.2
 31
0.0
  0
LINE
  8
0
  6
CONTINUOUS
 62
     2
 10
188.5
 20
35.2
 30
0.0
 11
188.5
 21
39.4
 31
0.0
  0
LINE
  8
0
  6
CONTINUOUS
 62
     2
 10
188.5
 20
39.4
 30
0.0
 11
184.3
 21
39.4
 31
0.0
  0
LINE
  8
0
  6
CONTINUOUS
 62
     2
 10
184.3
 20
39.4
 30
0.0
 11
184.3
 21
35.2
 31
0.0
  0
LINE
  8
0
  6
CONTINUOUS
 62
     2
 10
190.6
 20
35.2
 30
0.0
 11
194.8
 21
35.2
 31
0.0
  0
LINE
  8
0
  6
CONTINUOUS
 62
     2
 10
194.8
 20
35.2
 30
0.0
 11
194.8
 21
39.4
 31
0.0
  0
LINE
  8
0
  6
CONTINUOUS
 62
     2
 10
194.8
 20
39.4
 30
0.0
 11
190.6
 21
39.4
 31
0.0
  0
LINE
  8
0
  6
CONTINUOUS
 62
     2
 10
190.6
 20
39.4
 30
0.0
 11
190.6
 21
35.2
 31
0.0
  0
LINE
  8
0
  6
CONTINUOUS
 62
     2
 10
196.9
 20
35.2
 30
0.0
 11
201.1
 21
35.2
 31
0.0
  0
LINE
  8
0
  6
CONTINUOUS
 62
     2
 10
201.1
 20
35.2
 30
0.0
 11
201.1
 21
39.4
 31
0.0
  0
LINE
  8
0
  6
CONTINUOUS
 62
     2
 10
201.1
 20
39.4
 30
0.0
 11
196.9
 21
39.4
 31
0.0
  0
LINE
  8
0
  6
CONTINUOUS
 62
     2
 10
196.9
 20
39.4
 30
0.0
 11
196.9
 21
35.2
 31
0.0
  0
LINE
  8
0
  6
CONTINUOUS
 62
     2
 10
203.2
 20
35.2
 30
0.0
 11
207.4
 21
35.2
 31
0.0
  0
LINE
  8
0
  6
CONTINUOUS
 62
     2
 10
207.4
 20
35.2
 30
0.0
 11
207.4
 21
39.4
 31
0.0
  0
LINE
  8
0
  6
CONTINUOUS
 62
     2
 10
207.4
 20
39.4
 30
0.0
 11
203.2
 21
39.4
 31
0.0
  0
LINE
  8
0
  6
CONTINUOUS
 62
     2
 10
203.2
 20
39.4
 30
0.0
 11
203.2
 21
35.2
 31
0.0
  0
LINE
  8
0
  6
CONTINUOUS
 62
     2
 10
179.05
 20
29.6
 30
0.0
 11
179.05
 21
33.8
 31
0.0
  0
LINE
  8
0
  6
CONTINUOUS
 62
     2
 10
179.05
 20
33.8
 30
0.0
 11
174.85
 21
33.8
 31
0.0
  0
LINE
  8
0
  6
CONTINUOUS
 62
     2
 10
174.85
 20
33.8
 30
0.0
 11
174.85
 21
29.6
 31
0.0
  0
LINE
  8
0
  6
CONTINUOUS
 62
     2
 10
185.35
 20
29.6
 30
0.0
 11
185.35
 21
33.8
 31
0.0
  0
LINE
  8
0
  6
CONTINUOUS
 62
     2
 10
185.35
 20
33.8
 30
0.0
 11
181.15
 21
33.8
 31
0.0
  0
LINE
  8
0
  6
CONTINUOUS
 62
     2
 10
181.15
 20
33.8
 30
0.0
 11
181.15
 21
29.6
 31
0.0
  0
LINE
  8
0
  6
CONTINUOUS
 62
     2
 10
191.65
 20
29.6
 30
0.0
 11
191.65
 21
33.8
 31
0.0
  0
LINE
  8
0
  6
CONTINUOUS
 62
     2
 10
191.65
 20
33.8
 30
0.0
 11
187.45
 21
33.8
 31
0.0
  0
LINE
  8
0
  6
CONTINUOUS
 62
     2
 10
187.45
 20
33.8
 30
0.0
 11
187.45
 21
29.6
 31
0.0
  0
LINE
  8
0
  6
CONTINUOUS
 62
     2
 10
197.95
 20
29.6
 30
0.0
 11
197.95
 21
33.8
 31
0.0
  0
LINE
  8
0
  6
CONTINUOUS
 62
     2
 10
197.95
 20
33.8
 30
0.0
 11
193.75
 21
33.8
 31
0.0
  0
LINE
  8
0
  6
CONTINUOUS
 62
     2
 10
193.75
 20
33.8
 30
0.0
 11
193.75
 21
29.6
 31
0.0
  0
LINE
  8
0
  6
CONTINUOUS
 62
     2
 10
204.25
 20
29.6
 30
0.0
 11
204.25
 21
33.8
 31
0.0
  0
LINE
  8
0
  6
CONTINUOUS
 62
     2
 10
204.25
 20
33.8
 30
0.0
 11
200.05
 21
33.8
 31
0.0
  0
LINE
  8
0
  6
CONTINUOUS
 62
     2
 10
200.05
 20
33.8
 30
0.0
 11
200.05
 21
29.6
 31
0.0
  0
LINE
  8
0
  6
CONTINUOUS
 62
     2
 10
208.8
 20
17.7
 30
0.0
 11
208.8
 21
40.8
 31
0.0
  0
LINE
  8
0
  6
CONTINUOUS
 62
     2
 10
208.8
 20
40.8
 30
0.0
 11
170.3
 21
40.8
 31
0.0
  0
LINE
  8
0
  6
CONTINUOUS
 62
     2
 10
170.3
 20
40.8
 30
0.0
 11
170.3
 21
17.7
 31
0.0
  0
TEXT
  8
0
  6
CONTINUOUS
 62
     2
 10
172.05
 20
35.55
 30
0.35
 40
3.5
  1
１Ｓ
 50
0.0
 41
0.45
 51
0.0
  7
KANJI2
  0
TEXT
  8
0
  6
CONTINUOUS
 62
     2
 10
178.35
 20
35.55
 30
0.35
 40
3.5
  1
１Ｌ
 50
0.0
 41
0.45
 51
0.0
  7
KANJI2
  0
TEXT
  8
0
  6
CONTINUOUS
 62
     2
 10
181.5
 20
29.95
 30
0.35
 40
3.5
  1
Ｐ２
 50
0.0
 41
0.45
 51
0.0
  7
KANJI2
  0
TEXT
  8
0
  6
CONTINUOUS
 62
     2
 10
184.65
 20
35.55
 30
0.35
 40
3.5
  1
２Ｓ
 50
0.0
 41
0.45
 51
0.0
  7
KANJI2
  0
TEXT
  8
0
  6
CONTINUOUS
 62
     2
 10
190.95
 20
35.55
 30
0.35
 40
3.5
  1
２Ｌ
 50
0.0
 41
0.45
 51
0.0
  7
KANJI2
  0
TEXT
  8
0
  6
CONTINUOUS
 62
     2
 10
197.25
 20
35.55
 30
0.35
 40
3.5
  1
３Ｓ
 50
0.0
 41
0.45
 51
0.0
  7
KANJI2
  0
TEXT
  8
0
  6
CONTINUOUS
 62
     2
 10
203.55
 20
35.55
 30
0.35
 40
3.5
  1
３Ｌ
 50
0.0
 41
0.45
 51
0.0
  7
KANJI2
  0
TEXT
  8
0
  6
CONTINUOUS
 62
     2
 10
187.8
 20
29.95
 30
0.35
 40
3.5
  1
Ｐ３
 50
0.0
 41
0.45
 51
0.0
  7
KANJI2
  0
TEXT
  8
0
  6
CONTINUOUS
 62
     2
 10
20.6
 20
88.5
 30
0.3
 40
3.0
  1
単相電力
 50
0.0
 41
0.9
 51
0.0
  7
KANJI4
  0
TEXT
  8
0
  6
CONTINUOUS
 62
     2
 10
20.6
 20
84.5
 30
0.3
 40
3.0
  1
単相無効電力
 50
0.0
 41
0.9
 51
0.0
  7
KANJI4
  0
TEXT
  8
0
  6
CONTINUOUS
 62
     2
 10
20.6
 20
80.5
 30
0.3
 40
3.0
  1
単相力率
 50
0.0
 41
0.9
 51
0.0
  7
KANJI4
  0
TEXT
  8
0
  6
CONTINUOUS
 62
     2
 10
20.6
 20
47.5
 30
0.3
 40
3.0
  1
三相４線式電力
 50
0.0
 41
0.9
 51
0.0
  7
KANJI4
  0
TEXT
  8
0
  6
CONTINUOUS
 62
     2
 10
20.6
 20
43.5
 30
0.3
 40
3.0
  1
三相４線式無効電力
 50
0.0
 41
0.9
 51
0.0
  7
KANJI4
  0
TEXT
  8
0
  6
CONTINUOUS
 62
     2
 10
70.6
 20
43.5
 30
0.3
 40
3.0
  1
三相平衡力率
 50
0.0
 41
0.9
 51
0.0
  7
KANJI4
  0
TEXT
  8
0
  6
CONTINUOUS
 62
     2
 10
120.6
 20
43.5
 30
0.3
 40
3.0
  1
三相不平衡力率
 50
0.0
 41
0.9
 51
0.0
  7
KANJI4
  0
TEXT
  8
0
  6
CONTINUOUS
 62
     2
 10
170.6
 20
43.5
 30
0.3
 40
3.0
  1
三相４線式力率
 50
0.0
 41
0.9
 51
0.0
  7
KANJI4
  0
LINE
  8
0
  6
CONTINUOUS
 62
     1
 10
32.0
 20
162.7
 30
0.0
 11
32.0
 21
153.2
 31
0.0
  0
LINE
  8
0
  6
CONTINUOUS
 62
     1
 10
32.0
 20
153.2
 30
0.0
 11
36.5
 21
153.2
 31
0.0
  0
LINE
  8
0
  6
CONTINUOUS
 62
     1
 10
36.5
 20
153.2
 30
0.0
 11
36.5
 21
160.7
 31
0.0
  0
LINE
  8
0
  6
CONTINUOUS
 62
     1
 10
36.5
 20
160.7
 30
0.0
 11
37.5
 21
160.7
 31
0.0
  0
LINE
  8
0
  6
CONTINUOUS
 62
     1
 10
37.5
 20
160.7
 30
0.0
 11
37.5
 21
153.2
 31
0.0
  0
LINE
  8
0
  6
CONTINUOUS
 62
     1
 10
37.5
 20
153.2
 30
0.0
 11
42.0
 21
153.2
 31
0.0
  0
LINE
  8
0
  6
CONTINUOUS
 62
     1
 10
42.0
 20
153.2
 30
0.0
 11
42.0
 21
160.7
 31
0.0
  0
LINE
  8
0
  6
CONTINUOUS
 62
     1
 10
42.0
 20
160.7
 30
0.0
 11
43.0
 21
160.7
 31
0.0
  0
LINE
  8
0
  6
CONTINUOUS
 62
     1
 10
43.0
 20
160.7
 30
0.0
 11
43.0
 21
153.2
 31
0.0
  0
LINE
  8
0
  6
CONTINUOUS
 62
     1
 10
43.0
 20
153.2
 30
0.0
 11
47.5
 21
153.2
 31
0.0
  0
LINE
  8
0
  6
CONTINUOUS
 62
     1
 10
47.5
 20
153.2
 30
0.0
 11
47.5
 21
160.7
 31
0.0
  0
LINE
  8
0
  6
CONTINUOUS
 62
     1
 10
47.5
 20
160.7
 30
0.0
 11
48.5
 21
160.7
 31
0.0
  0
LINE
  8
0
  6
CONTINUOUS
 62
     1
 10
48.5
 20
160.7
 30
0.0
 11
48.5
 21
153.2
 31
0.0
  0
LINE
  8
0
  6
CONTINUOUS
 62
     1
 10
48.5
 20
153.2
 30
0.0
 11
53.0
 21
153.2
 31
0.0
  0
LINE
  8
0
  6
CONTINUOUS
 62
     1
 10
53.0
 20
153.2
 30
0.0
 11
53.0
 21
160.7
 31
0.0
  0
LINE
  8
0
  6
CONTINUOUS
 62
     1
 10
53.0
 20
160.7
 30
0.0
 11
54.0
 21
160.7
 31
0.0
  0
LINE
  8
0
  6
CONTINUOUS
 62
     1
 10
54.0
 20
160.7
 30
0.0
 11
54.0
 21
153.2
 31
0.0
  0
POINT
  8
0
  6
CONTINUOUS
 62
     1
 10
54.0
 20
153.2
 30
0.0
  0
LINE
  8
0
  6
CONTINUOUS
 62
     1
 10
54.0
 20
153.2
 30
0.0
 11
58.5
 21
153.2
 31
0.0
  0
LINE
  8
0
  6
CONTINUOUS
 62
     1
 10
58.5
 20
153.2
 30
0.0
 11
58.5
 21
160.7
 31
0.0
  0
LINE
  8
0
  6
CONTINUOUS
 62
     1
 10
58.5
 20
160.7
 30
0.0
 11
59.5
 21
160.7
 31
0.0
  0
LINE
  8
0
  6
CONTINUOUS
 62
     1
 10
59.5
 20
160.7
 30
0.0
 11
59.5
 21
153.2
 31
0.0
  0
LINE
  8
0
  6
CONTINUOUS
 62
     1
 10
59.5
 20
153.2
 30
0.0
 11
64.0
 21
153.2
 31
0.0
  0
LINE
  8
0
  6
CONTINUOUS
 62
     1
 10
64.0
 20
153.2
 30
0.0
 11
64.0
 21
162.7
 31
0.0
  0
LINE
  8
0
  6
CONTINUOUS
 62
     1
 10
64.0
 20
158.7
 30
0.0
 11
59.5
 21
158.7
 31
0.0
  0
LINE
  8
0
  6
CONTINUOUS
 62
     1
 10
58.5
 20
158.7
 30
0.0
 11
54.0
 21
158.7
 31
0.0
  0
LINE
  8
0
  6
CONTINUOUS
 62
     1
 10
53.0
 20
158.7
 30
0.0
 11
48.5
 21
158.7
 31
0.0
  0
LINE
  8
0
  6
CONTINUOUS
 62
     1
 10
47.5
 20
158.7
 30
0.0
 11
43.0
 21
158.7
 31
0.0
  0
LINE
  8
0
  6
CONTINUOUS
 62
     1
 10
42.0
 20
158.7
 30
0.0
 11
37.5
 21
158.7
 31
0.0
  0
LINE
  8
0
  6
CONTINUOUS
 62
     1
 10
36.5
 20
158.7
 30
0.0
 11
32.0
 21
158.7
 31
0.0
  0
LINE
  8
0
  6
CONTINUOUS
 62
     1
 10
34.75
 20
153.2
 30
0.0
 11
34.75
 21
144.2
 31
0.0
  0
LINE
  8
0
  6
CONTINUOUS
 62
     1
 10
34.75
 20
144.2
 30
0.0
 11
39.25
 21
144.2
 31
0.0
  0
LINE
  8
0
  6
CONTINUOUS
 62
     1
 10
39.25
 20
144.2
 30
0.0
 11
39.25
 21
151.7
 31
0.0
  0
LINE
  8
0
  6
CONTINUOUS
 62
     1
 10
39.25
 20
151.7
 30
0.0
 11
40.25
 21
151.7
 31
0.0
  0
LINE
  8
0
  6
CONTINUOUS
 62
     1
 10
40.25
 20
151.7
 30
0.0
 11
40.25
 21
144.2
 31
0.0
  0
LINE
  8
0
  6
CONTINUOUS
 62
     1
 10
40.25
 20
144.2
 30
0.0
 11
44.75
 21
144.2
 31
0.0
  0
LINE
  8
0
  6
CONTINUOUS
 62
     1
 10
44.75
 20
144.2
 30
0.0
 11
44.75
 21
151.7
 31
0.0
  0
LINE
  8
0
  6
CONTINUOUS
 62
     1
 10
44.75
 20
151.7
 30
0.0
 11
45.75
 21
151.7
 31
0.0
  0
LINE
  8
0
  6
CONTINUOUS
 62
     1
 10
45.75
 20
151.7
 30
0.0
 11
45.75
 21
144.2
 31
0.0
  0
LINE
  8
0
  6
CONTINUOUS
 62
     1
 10
45.75
 20
144.2
 30
0.0
 11
50.25
 21
144.2
 31
0.0
  0
LINE
  8
0
  6
CONTINUOUS
 62
     1
 10
50.25
 20
144.2
 30
0.0
 11
50.25
 21
151.7
 31
0.0
  0
LINE
  8
0
  6
CONTINUOUS
 62
     1
 10
50.25
 20
151.7
 30
0.0
 11
51.25
 21
151.7
 31
0.0
  0
LINE
  8
0
  6
CONTINUOUS
 62
     1
 10
51.25
 20
151.7
 30
0.0
 11
51.25
 21
144.2
 31
0.0
  0
LINE
  8
0
  6
CONTINUOUS
 62
     1
 10
51.25
 20
144.2
 30
0.0
 11
55.75
 21
144.2
 31
0.0
  0
LINE
  8
0
  6
CONTINUOUS
 62
     1
 10
55.75
 20
144.2
 30
0.0
 11
55.75
 21
151.7
 31
0.0
  0
LINE
  8
0
  6
CONTINUOUS
 62
     1
 10
55.75
 20
151.7
 30
0.0
 11
56.75
 21
151.7
 31
0.0
  0
LINE
  8
0
  6
CONTINUOUS
 62
     1
 10
56.75
 20
151.7
 30
0.0
 11
56.75
 21
144.2
 31
0.0
  0
LINE
  8
0
  6
CONTINUOUS
 62
     1
 10
56.75
 20
144.2
 30
0.0
 11
61.25
 21
144.2
 31
0.0
  0
LINE
  8
0
  6
CONTINUOUS
 62
     1
 10
61.25
 20
144.2
 30
0.0
 11
61.25
 21
153.2
 31
0.0
  0
LINE
  8
0
  6
CONTINUOUS
 62
     1
 10
61.25
 20
149.7
 30
0.0
 11
56.75
 21
149.7
 31
0.0
  0
LINE
  8
0
  6
CONTINUOUS
 62
     1
 10
55.75
 20
149.7
 30
0.0
 11
51.25
 21
149.7
 31
0.0
  0
LINE
  8
0
  6
CONTINUOUS
 62
     1
 10
50.25
 20
149.7
 30
0.0
 11
45.75
 21
149.7
 31
0.0
  0
LINE
  8
0
  6
CONTINUOUS
 62
     1
 10
44.75
 20
149.7
 30
0.0
 11
40.25
 21
149.7
 31
0.0
  0
LINE
  8
0
  6
CONTINUOUS
 62
     1
 10
39.25
 20
149.7
 30
0.0
 11
34.75
 21
149.7
 31
0.0
  0
LINE
  8
0
  6
CONTINUOUS
 62
     1
 10
40.25
 20
115.7
 30
0.0
 11
40.25
 21
125.2
 31
0.0
  0
LINE
  8
0
  6
CONTINUOUS
 62
     1
 10
40.25
 20
125.2
 30
0.0
 11
44.75
 21
125.2
 31
0.0
  0
LINE
  8
0
  6
CONTINUOUS
 62
     1
 10
44.75
 20
125.2
 30
0.0
 11
44.75
 21
117.7
 31
0.0
  0
LINE
  8
0
  6
CONTINUOUS
 62
     1
 10
44.75
 20
117.7
 30
0.0
 11
45.75
 21
117.7
 31
0.0
  0
LINE
  8
0
  6
CONTINUOUS
 62
     1
 10
45.75
 20
117.7
 30
0.0
 11
45.75
 21
125.2
 31
0.0
  0
LINE
  8
0
  6
CONTINUOUS
 62
     1
 10
45.75
 20
125.2
 30
0.0
 11
50.25
 21
125.2
 31
0.0
  0
LINE
  8
0
  6
CONTINUOUS
 62
     1
 10
50.25
 20
125.2
 30
0.0
 11
50.25
 21
117.7
 31
0.0
  0
LINE
  8
0
  6
CONTINUOUS
 62
     1
 10
50.25
 20
117.7
 30
0.0
 11
51.25
 21
117.7
 31
0.0
  0
LINE
  8
0
  6
CONTINUOUS
 62
     1
 10
51.25
 20
117.7
 30
0.0
 11
51.25
 21
125.2
 31
0.0
  0
LINE
  8
0
  6
CONTINUOUS
 62
     1
 10
51.25
 20
125.2
 30
0.0
 11
55.75
 21
125.2
 31
0.0
  0
LINE
  8
0
  6
CONTINUOUS
 62
     1
 10
55.75
 20
125.2
 30
0.0
 11
55.75
 21
115.7
 31
0.0
  0
LINE
  8
0
  6
CONTINUOUS
 62
     1
 10
55.75
 20
119.7
 30
0.0
 11
51.25
 21
119.7
 31
0.0
  0
LINE
  8
0
  6
CONTINUOUS
 62
     1
 10
50.25
 20
119.7
 30
0.0
 11
45.75
 21
119.7
 31
0.0
  0
LINE
  8
0
  6
CONTINUOUS
 62
     1
 10
44.75
 20
119.7
 30
0.0
 11
40.25
 21
119.7
 31
0.0
  0
ARC
  8
0
  6
CONTINUOUS
 62
     1
 10
48.0
 20
166.7
 30
0.0
 40
1.5
 50
180.0
 51
0.0
  0
ARC
  8
0
  6
CONTINUOUS
 62
     1
 10
48.0
 20
111.7
 30
0.0
 40
1.5
 50
0.0
 51
180.0
  0
CIRCLE
  8
0
  6
CONTINUOUS
 62
     1
 10
61.75
 20
155.95
 30
0.0
 40
2.0
  0
ARC
  8
0
  6
CONTINUOUS
 62
     1
 10
61.75
 20
157.364213562
 30
0.0
 40
0.75
 50
225.0
 51
315.0
  0
ARC
  8
0
  6
CONTINUOUS
 62
     1
 10
60.335786438
 20
155.95
 30
0.0
 40
0.75
 50
315.0
 51
45.0
  0
ARC
  8
0
  6
CONTINUOUS
 62
     1
 10
61.75
 20
154.535786438
 30
0.0
 40
0.75
 50
45.0
 51
135.0
  0
ARC
  8
0
  6
CONTINUOUS
 62
     1
 10
63.164213562
 20
155.95
 30
0.0
 40
0.75
 50
135.0
 51
225.0
  0
LINE
  8
0
  6
CONTINUOUS
 62
     1
 10
62.633883476
 20
156.480330086
 30
0.0
 11
62.88137085
 21
156.798528137
 31
0.0
  0
LINE
  8
0
  6
CONTINUOUS
 62
     1
 10
62.88137085
 20
156.798528137
 30
0.0
 11
62.598528137
 21
157.08137085
 31
0.0
  0
LINE
  8
0
  6
CONTINUOUS
 62
     1
 10
62.598528137
 20
157.08137085
 30
0.0
 11
62.280330086
 21
156.833883476
 31
0.0
  0
LINE
  8
0
  6
CONTINUOUS
 62
     1
 10
61.219669914
 20
156.833883476
 30
0.0
 11
60.901471863
 21
157.08137085
 31
0.0
  0
LINE
  8
0
  6
CONTINUOUS
 62
     1
 10
60.901471863
 20
157.08137085
 30
0.0
 11
60.61862915
 21
156.798528137
 31
0.0
  0
LINE
  8
0
  6
CONTINUOUS
 62
     1
 10
60.61862915
 20
156.798528137
 30
0.0
 11
60.866116524
 21
156.480330086
 31
0.0
  0
LINE
  8
0
  6
CONTINUOUS
 62
     1
 10
60.866116524
 20
155.419669914
 30
0.0
 11
60.61862915
 21
155.101471863
 31
0.0
  0
LINE
  8
0
  6
CONTINUOUS
 62
     1
 10
60.61862915
 20
155.101471863
 30
0.0
 11
60.901471863
 21
154.81862915
 31
0.0
  0
LINE
  8
0
  6
CONTINUOUS
 62
     1
 10
60.901471863
 20
154.81862915
 30
0.0
 11
61.219669914
 21
155.066116524
 31
0.0
  0
LINE
  8
0
  6
CONTINUOUS
 62
     1
 10
62.280330086
 20
155.066116524
 30
0.0
 11
62.598528137
 21
154.81862915
 31
0.0
  0
LINE
  8
0
  6
CONTINUOUS
 62
     1
 10
62.598528137
 20
154.81862915
 30
0.0
 11
62.88137085
 21
155.101471863
 31
0.0
  0
LINE
  8
0
  6
CONTINUOUS
 62
     1
 10
62.88137085
 20
155.101471863
 30
0.0
 11
62.633883476
 21
155.419669914
 31
0.0
  0
CIRCLE
  8
0
  6
CONTINUOUS
 62
     1
 10
56.25
 20
155.95
 30
0.0
 40
2.0
  0
ARC
  8
0
  6
CONTINUOUS
 62
     1
 10
56.25
 20
157.364213562
 30
0.0
 40
0.75
 50
225.0
 51
315.0
  0
ARC
  8
0
  6
CONTINUOUS
 62
     1
 10
54.835786438
 20
155.95
 30
0.0
 40
0.75
 50
315.0
 51
45.0
  0
ARC
  8
0
  6
CONTINUOUS
 62
     1
 10
56.25
 20
154.535786438
 30
0.0
 40
0.75
 50
45.0
 51
135.0
  0
ARC
  8
0
  6
CONTINUOUS
 62
     1
 10
57.664213562
 20
155.95
 30
0.0
 40
0.75
 50
135.0
 51
225.0
  0
LINE
  8
0
  6
CONTINUOUS
 62
     1
 10
57.133883476
 20
156.480330086
 30
0.0
 11
57.38137085
 21
156.798528137
 31
0.0
  0
LINE
  8
0
  6
CONTINUOUS
 62
     1
 10
57.38137085
 20
156.798528137
 30
0.0
 11
57.098528137
 21
157.08137085
 31
0.0
  0
LINE
  8
0
  6
CONTINUOUS
 62
     1
 10
57.098528137
 20
157.08137085
 30
0.0
 11
56.780330086
 21
156.833883476
 31
0.0
  0
LINE
  8
0
  6
CONTINUOUS
 62
     1
 10
55.719669914
 20
156.833883476
 30
0.0
 11
55.401471863
 21
157.08137085
 31
0.0
  0
LINE
  8
0
  6
CONTINUOUS
 62
     1
 10
55.401471863
 20
157.08137085
 30
0.0
 11
55.11862915
 21
156.798528137
 31
0.0
  0
LINE
  8
0
  6
CONTINUOUS
 62
     1
 10
55.11862915
 20
156.798528137
 30
0.0
 11
55.366116524
 21
156.480330086
 31
0.0
  0
LINE
  8
0
  6
CONTINUOUS
 62
     1
 10
55.366116524
 20
155.419669914
 30
0.0
 11
55.11862915
 21
155.101471863
 31
0.0
  0
LINE
  8
0
  6
CONTINUOUS
 62
     1
 10
55.11862915
 20
155.101471863
 30
0.0
 11
55.401471863
 21
154.81862915
 31
0.0
  0
LINE
  8
0
  6
CONTINUOUS
 62
     1
 10
55.401471863
 20
154.81862915
 30
0.0
 11
55.719669914
 21
155.066116524
 31
0.0
  0
LINE
  8
0
  6
CONTINUOUS
 62
     1
 10
56.780330086
 20
155.066116524
 30
0.0
 11
57.098528137
 21
154.81862915
 31
0.0
  0
LINE
  8
0
  6
CONTINUOUS
 62
     1
 10
57.098528137
 20
154.81862915
 30
0.0
 11
57.38137085
 21
155.101471863
 31
0.0
  0
LINE
  8
0
  6
CONTINUOUS
 62
     1
 10
57.38137085
 20
155.101471863
 30
0.0
 11
57.133883476
 21
155.419669914
 31
0.0
  0
CIRCLE
  8
0
  6
CONTINUOUS
 62
     1
 10
39.75
 20
155.95
 30
0.0
 40
2.0
  0
ARC
  8
0
  6
CONTINUOUS
 62
     1
 10
39.75
 20
157.364213562
 30
0.0
 40
0.75
 50
225.0
 51
315.0
  0
ARC
  8
0
  6
CONTINUOUS
 62
     1
 10
38.335786438
 20
155.95
 30
0.0
 40
0.75
 50
315.0
 51
45.0
  0
ARC
  8
0
  6
CONTINUOUS
 62
     1
 10
39.75
 20
154.535786438
 30
0.0
 40
0.75
 50
45.0
 51
135.0
  0
ARC
  8
0
  6
CONTINUOUS
 62
     1
 10
41.164213562
 20
155.95
 30
0.0
 40
0.75
 50
135.0
 51
225.0
  0
LINE
  8
0
  6
CONTINUOUS
 62
     1
 10
40.633883476
 20
156.480330086
 30
0.0
 11
40.88137085
 21
156.798528137
 31
0.0
  0
LINE
  8
0
  6
CONTINUOUS
 62
     1
 10
40.88137085
 20
156.798528137
 30
0.0
 11
40.598528137
 21
157.08137085
 31
0.0
  0
LINE
  8
0
  6
CONTINUOUS
 62
     1
 10
40.598528137
 20
157.08137085
 30
0.0
 11
40.280330086
 21
156.833883476
 31
0.0
  0
LINE
  8
0
  6
CONTINUOUS
 62
     1
 10
39.219669914
 20
156.833883476
 30
0.0
 11
38.901471863
 21
157.08137085
 31
0.0
  0
LINE
  8
0
  6
CONTINUOUS
 62
     1
 10
38.901471863
 20
157.08137085
 30
0.0
 11
38.61862915
 21
156.798528137
 31
0.0
  0
LINE
  8
0
  6
CONTINUOUS
 62
     1
 10
38.61862915
 20
156.798528137
 30
0.0
 11
38.866116524
 21
156.480330086
 31
0.0
  0
LINE
  8
0
  6
CONTINUOUS
 62
     1
 10
38.866116524
 20
155.419669914
 30
0.0
 11
38.61862915
 21
155.101471863
 31
0.0
  0
LINE
  8
0
  6
CONTINUOUS
 62
     1
 10
38.61862915
 20
155.101471863
 30
0.0
 11
38.901471863
 21
154.81862915
 31
0.0
  0
LINE
  8
0
  6
CONTINUOUS
 62
     1
 10
38.901471863
 20
154.81862915
 30
0.0
 11
39.219669914
 21
155.066116524
 31
0.0
  0
LINE
  8
0
  6
CONTINUOUS
 62
     1
 10
40.280330086
 20
155.066116524
 30
0.0
 11
40.598528137
 21
154.81862915
 31
0.0
  0
LINE
  8
0
  6
CONTINUOUS
 62
     1
 10
40.598528137
 20
154.81862915
 30
0.0
 11
40.88137085
 21
155.101471863
 31
0.0
  0
LINE
  8
0
  6
CONTINUOUS
 62
     1
 10
40.88137085
 20
155.101471863
 30
0.0
 11
40.633883476
 21
155.419669914
 31
0.0
  0
CIRCLE
  8
0
  6
CONTINUOUS
 62
     1
 10
34.25
 20
155.95
 30
0.0
 40
2.0
  0
ARC
  8
0
  6
CONTINUOUS
 62
     1
 10
34.25
 20
157.364213562
 30
0.0
 40
0.75
 50
225.0
 51
315.0
  0
ARC
  8
0
  6
CONTINUOUS
 62
     1
 10
32.835786438
 20
155.95
 30
0.0
 40
0.75
 50
315.0
 51
45.0
  0
ARC
  8
0
  6
CONTINUOUS
 62
     1
 10
34.25
 20
154.535786438
 30
0.0
 40
0.75
 50
45.0
 51
135.0
  0
ARC
  8
0
  6
CONTINUOUS
 62
     1
 10
35.664213562
 20
155.95
 30
0.0
 40
0.75
 50
135.0
 51
225.0
  0
LINE
  8
0
  6
CONTINUOUS
 62
     1
 10
35.133883476
 20
156.480330086
 30
0.0
 11
35.38137085
 21
156.798528137
 31
0.0
  0
LINE
  8
0
  6
CONTINUOUS
 62
     1
 10
35.38137085
 20
156.798528137
 30
0.0
 11
35.098528137
 21
157.08137085
 31
0.0
  0
LINE
  8
0
  6
CONTINUOUS
 62
     1
 10
35.098528137
 20
157.08137085
 30
0.0
 11
34.780330086
 21
156.833883476
 31
0.0
  0
LINE
  8
0
  6
CONTINUOUS
 62
     1
 10
33.719669914
 20
156.833883476
 30
0.0
 11
33.401471863
 21
157.08137085
 31
0.0
  0
LINE
  8
0
  6
CONTINUOUS
 62
     1
 10
33.401471863
 20
157.08137085
 30
0.0
 11
33.11862915
 21
156.798528137
 31
0.0
  0
LINE
  8
0
  6
CONTINUOUS
 62
     1
 10
33.11862915
 20
156.798528137
 30
0.0
 11
33.366116524
 21
156.480330086
 31
0.0
  0
LINE
  8
0
  6
CONTINUOUS
 62
     1
 10
33.366116524
 20
155.419669914
 30
0.0
 11
33.11862915
 21
155.101471863
 31
0.0
  0
LINE
  8
0
  6
CONTINUOUS
 62
     1
 10
33.11862915
 20
155.101471863
 30
0.0
 11
33.401471863
 21
154.81862915
 31
0.0
  0
LINE
  8
0
  6
CONTINUOUS
 62
     1
 10
33.401471863
 20
154.81862915
 30
0.0
 11
33.719669914
 21
155.066116524
 31
0.0
  0
LINE
  8
0
  6
CONTINUOUS
 62
     1
 10
34.780330086
 20
155.066116524
 30
0.0
 11
35.098528137
 21
154.81862915
 31
0.0
  0
LINE
  8
0
  6
CONTINUOUS
 62
     1
 10
35.098528137
 20
154.81862915
 30
0.0
 11
35.38137085
 21
155.101471863
 31
0.0
  0
LINE
  8
0
  6
CONTINUOUS
 62
     1
 10
35.38137085
 20
155.101471863
 30
0.0
 11
35.133883476
 21
155.419669914
 31
0.0
  0
CIRCLE
  8
0
  6
CONTINUOUS
 62
     1
 10
47.95
 20
122.45
 30
0.0
 40
2.0
  0
ARC
  8
0
  6
CONTINUOUS
 62
     1
 10
47.95
 20
123.864213562
 30
0.0
 40
0.75
 50
225.0
 51
315.0
  0
ARC
  8
0
  6
CONTINUOUS
 62
     1
 10
46.535786438
 20
122.45
 30
0.0
 40
0.75
 50
315.0
 51
45.0
  0
ARC
  8
0
  6
CONTINUOUS
 62
     1
 10
47.95
 20
121.035786438
 30
0.0
 40
0.75
 50
45.0
 51
135.0
  0
ARC
  8
0
  6
CONTINUOUS
 62
     1
 10
49.364213562
 20
122.45
 30
0.0
 40
0.75
 50
135.0
 51
225.0
  0
LINE
  8
0
  6
CONTINUOUS
 62
     1
 10
48.833883476
 20
122.980330086
 30
0.0
 11
49.08137085
 21
123.298528137
 31
0.0
  0
LINE
  8
0
  6
CONTINUOUS
 62
     1
 10
49.08137085
 20
123.298528137
 30
0.0
 11
48.798528137
 21
123.58137085
 31
0.0
  0
LINE
  8
0
  6
CONTINUOUS
 62
     1
 10
48.798528137
 20
123.58137085
 30
0.0
 11
48.480330086
 21
123.333883476
 31
0.0
  0
LINE
  8
0
  6
CONTINUOUS
 62
     1
 10
47.419669914
 20
123.333883476
 30
0.0
 11
47.101471863
 21
123.58137085
 31
0.0
  0
LINE
  8
0
  6
CONTINUOUS
 62
     1
 10
47.101471863
 20
123.58137085
 30
0.0
 11
46.81862915
 21
123.298528137
 31
0.0
  0
LINE
  8
0
  6
CONTINUOUS
 62
     1
 10
46.81862915
 20
123.298528137
 30
0.0
 11
47.066116524
 21
122.980330086
 31
0.0
  0
LINE
  8
0
  6
CONTINUOUS
 62
     1
 10
47.066116524
 20
121.919669914
 30
0.0
 11
46.81862915
 21
121.601471863
 31
0.0
  0
LINE
  8
0
  6
CONTINUOUS
 62
     1
 10
46.81862915
 20
121.601471863
 30
0.0
 11
47.101471863
 21
121.31862915
 31
0.0
  0
LINE
  8
0
  6
CONTINUOUS
 62
     1
 10
47.101471863
 20
121.31862915
 30
0.0
 11
47.419669914
 21
121.566116524
 31
0.0
  0
LINE
  8
0
  6
CONTINUOUS
 62
     1
 10
48.480330086
 20
121.566116524
 30
0.0
 11
48.798528137
 21
121.31862915
 31
0.0
  0
LINE
  8
0
  6
CONTINUOUS
 62
     1
 10
48.798528137
 20
121.31862915
 30
0.0
 11
49.08137085
 21
121.601471863
 31
0.0
  0
LINE
  8
0
  6
CONTINUOUS
 62
     1
 10
49.08137085
 20
121.601471863
 30
0.0
 11
48.833883476
 21
121.919669914
 31
0.0
  0
CIRCLE
  8
0
  6
CONTINUOUS
 62
     1
 10
42.45
 20
122.45
 30
0.0
 40
2.0
  0
ARC
  8
0
  6
CONTINUOUS
 62
     1
 10
42.45
 20
123.864213562
 30
0.0
 40
0.75
 50
225.0
 51
315.0
  0
ARC
  8
0
  6
CONTINUOUS
 62
     1
 10
41.035786438
 20
122.45
 30
0.0
 40
0.75
 50
315.0
 51
45.0
  0
ARC
  8
0
  6
CONTINUOUS
 62
     1
 10
42.45
 20
121.035786438
 30
0.0
 40
0.75
 50
45.0
 51
135.0
  0
ARC
  8
0
  6
CONTINUOUS
 62
     1
 10
43.864213562
 20
122.45
 30
0.0
 40
0.75
 50
135.0
 51
225.0
  0
LINE
  8
0
  6
CONTINUOUS
 62
     1
 10
43.333883476
 20
122.980330086
 30
0.0
 11
43.58137085
 21
123.298528137
 31
0.0
  0
LINE
  8
0
  6
CONTINUOUS
 62
     1
 10
43.58137085
 20
123.298528137
 30
0.0
 11
43.298528137
 21
123.58137085
 31
0.0
  0
LINE
  8
0
  6
CONTINUOUS
 62
     1
 10
43.298528137
 20
123.58137085
 30
0.0
 11
42.980330086
 21
123.333883476
 31
0.0
  0
LINE
  8
0
  6
CONTINUOUS
 62
     1
 10
41.919669914
 20
123.333883476
 30
0.0
 11
41.601471863
 21
123.58137085
 31
0.0
  0
LINE
  8
0
  6
CONTINUOUS
 62
     1
 10
41.601471863
 20
123.58137085
 30
0.0
 11
41.31862915
 21
123.298528137
 31
0.0
  0
LINE
  8
0
  6
CONTINUOUS
 62
     1
 10
41.31862915
 20
123.298528137
 30
0.0
 11
41.566116524
 21
122.980330086
 31
0.0
  0
LINE
  8
0
  6
CONTINUOUS
 62
     1
 10
41.566116524
 20
121.919669914
 30
0.0
 11
41.31862915
 21
121.601471863
 31
0.0
  0
LINE
  8
0
  6
CONTINUOUS
 62
     1
 10
41.31862915
 20
121.601471863
 30
0.0
 11
41.601471863
 21
121.31862915
 31
0.0
  0
LINE
  8
0
  6
CONTINUOUS
 62
     1
 10
41.601471863
 20
121.31862915
 30
0.0
 11
41.919669914
 21
121.566116524
 31
0.0
  0
LINE
  8
0
  6
CONTINUOUS
 62
     1
 10
42.980330086
 20
121.566116524
 30
0.0
 11
43.298528137
 21
121.31862915
 31
0.0
  0
LINE
  8
0
  6
CONTINUOUS
 62
     1
 10
43.298528137
 20
121.31862915
 30
0.0
 11
43.58137085
 21
121.601471863
 31
0.0
  0
LINE
  8
0
  6
CONTINUOUS
 62
     1
 10
43.58137085
 20
121.601471863
 30
0.0
 11
43.333883476
 21
121.919669914
 31
0.0
  0
LINE
  8
0
  6
CONTINUOUS
 62
     1
 10
149.0
 20
163.2
 30
0.0
 11
149.0
 21
115.2
 31
0.0
  0
LINE
  8
0
  6
CONTINUOUS
 62
     1
 10
98.499317033
 20
162.782638984
 30
0.0
 11
98.499317033
 21
115.632638984
 31
0.0
  0
LINE
  8
0
  6
CONTINUOUS
 62
     1
 10
88.5
 20
127.45
 30
0.0
 11
88.0
 21
127.45
 31
0.0
  0
LINE
  8
0
  6
CONTINUOUS
 62
     1
 10
88.0
 20
127.45
 30
0.0
 11
88.0
 21
130.95
 31
0.0
  0
LINE
  8
0
  6
CONTINUOUS
 62
     1
 10
88.0
 20
130.95
 30
0.0
 11
88.5
 21
130.95
 31
0.0
  0
LINE
  8
0
  6
CONTINUOUS
 62
     1
 10
149.0
 20
115.2
 30
0.0
 11
98.499317033
 21
115.617361016
 31
0.0
  0
LINE
  8
0
  6
CONTINUOUS
 62
     1
 10
98.499317033
 20
162.782638984
 30
0.0
 11
149.0
 21
163.2
 31
0.0
  0
LINE
  8
0
  6
CONTINUOUS
 62
     1
 10
98.499317033
 20
127.2
 30
0.0
 11
97.999317033
 21
127.2
 31
0.0
  0
LINE
  8
0
  6
CONTINUOUS
 62
     1
 10
97.999317033
 20
127.2
 30
0.0
 11
97.999317033
 21
126.2
 31
0.0
  0
LINE
  8
0
  6
CONTINUOUS
 62
     1
 10
97.999317033
 20
126.2
 30
0.0
 11
98.499317033
 21
126.2
 31
0.0
  0
LINE
  8
0
  6
CONTINUOUS
 62
     1
 10
98.499317033
 20
151.2
 30
0.0
 11
97.999317033
 21
151.2
 31
0.0
  0
LINE
  8
0
  6
CONTINUOUS
 62
     1
 10
97.999317033
 20
151.2
 30
0.0
 11
97.999317033
 21
152.2
 31
0.0
  0
LINE
  8
0
  6
CONTINUOUS
 62
     1
 10
97.999317033
 20
152.2
 30
0.0
 11
98.499317033
 21
152.2
 31
0.0
  0
LINE
  8
0
  6
CONTINUOUS
 62
     1
 10
89.0
 20
162.7
 30
0.0
 11
98.499317033
 21
162.7
 31
0.0
  0
ARC
  8
0
  6
CONTINUOUS
 62
     1
 10
89.0
 20
162.2
 30
0.0
 40
0.5
 50
90.0
 51
180.0
  0
LINE
  8
0
  6
CONTINUOUS
 62
     1
 10
89.0
 20
115.7
 30
0.0
 11
98.499317033
 21
115.7
 31
0.0
  0
LINE
  8
0
  6
CONTINUOUS
 62
     1
 10
88.5
 20
116.2
 30
0.0
 11
88.5
 21
162.2
 31
0.0
  0
ARC
  8
0
  6
CONTINUOUS
 62
     1
 10
89.0
 20
116.2
 30
0.0
 40
0.5
 50
180.0
 51
270.0
  0
ARC
  8
0
  6
CONTINUOUS
 62
     1
 10
30.7
 20
115.9
 30
0.0
 40
0.2
 50
180.0
 51
270.0
  0
ARC
  8
0
  6
CONTINUOUS
 62
     1
 10
65.5
 20
115.7
 30
0.0
 40
0.5
 50
270.0
 51
0.0
  0
LINE
  8
0
  6
CONTINUOUS
 62
     1
 10
30.7
 20
115.7
 30
0.0
 11
65.3
 21
115.7
 31
0.0
  0
ARC
  8
0
  6
CONTINUOUS
 62
     1
 10
65.3
 20
115.9
 30
0.0
 40
0.2
 50
270.0
 51
0.0
  0
LINE
  8
0
  6
CONTINUOUS
 62
     1
 10
66.0
 20
115.7
 30
0.0
 11
66.0
 21
162.7
 31
0.0
  0
ARC
  8
0
  6
CONTINUOUS
 62
     1
 10
65.5
 20
162.7
 30
0.0
 40
0.5
 50
360.0
 51
90.0
  0
LINE
  8
0
  6
CONTINUOUS
 62
     1
 10
65.5
 20
115.9
 30
0.0
 11
65.5
 21
162.5
 31
0.0
  0
ARC
  8
0
  6
CONTINUOUS
 62
     1
 10
65.3
 20
162.5
 30
0.0
 40
0.2
 50
0.0
 51
90.0
  0
LINE
  8
0
  6
CONTINUOUS
 62
     1
 10
65.5
 20
163.2
 30
0.0
 11
30.5
 21
163.2
 31
0.0
  0
ARC
  8
0
  6
CONTINUOUS
 62
     1
 10
30.5
 20
162.7
 30
0.0
 40
0.5
 50
90.0
 51
180.0
  0
LINE
  8
0
  6
CONTINUOUS
 62
     1
 10
30.5
 20
162.5
 30
0.0
 11
30.5
 21
115.9
 31
0.0
  0
LINE
  8
0
  6
CONTINUOUS
 62
     1
 10
65.3
 20
162.7
 30
0.0
 11
30.7
 21
162.7
 31
0.0
  0
ARC
  8
0
  6
CONTINUOUS
 62
     1
 10
30.7
 20
162.5
 30
0.0
 40
0.2
 50
90.0
 51
180.0
  0
LINE
  8
0
  6
CONTINUOUS
 62
     1
 10
30.0
 20
162.7
 30
0.0
 11
30.0
 21
115.7
 31
0.0
  0
LINE
  8
0
  6
CONTINUOUS
 62
     1
 10
30.5
 20
115.2
 30
0.0
 11
65.5
 21
115.2
 31
0.0
  0
ARC
  8
0
  6
CONTINUOUS
 62
     1
 10
30.5
 20
115.7
 30
0.0
 40
0.5
 50
180.0
 51
270.0
  0
LINE
  8
0
  6
CONTINUOUS
 62
     1
 10
145.5
 20
108.4
 30
0.0
 11
145.5
 21
115.2
 31
0.0
  0
ARC
  8
0
  6
CONTINUOUS
 62
     1
 10
145.7
 20
108.4
 30
0.0
 40
0.2
 50
180.0
 51
270.0
  0
LINE
  8
0
  6
CONTINUOUS
 62
     1
 10
149.0
 20
115.2
 30
0.0
 11
149.0
 21
108.4
 31
0.0
  0
LINE
  8
0
  6
CONTINUOUS
 62
     1
 10
148.8
 20
108.2
 30
0.0
 11
145.7
 21
108.2
 31
0.0
  0
ARC
  8
0
  6
CONTINUOUS
 62
     1
 10
148.8
 20
108.4
 30
0.0
 40
0.2
 50
270.0
 51
0.0
  0
LINE
  8
0
  6
CONTINUOUS
 62
     1
 10
145.500239038
 20
163.171076356
 30
0.0
 11
145.500239038
 21
170.0
 31
0.0
  0
ARC
  8
0
  6
CONTINUOUS
 62
     1
 10
145.700239038
 20
170.0
 30
0.0
 40
0.2
 50
90.0
 51
180.0
  0
LINE
  8
0
  6
CONTINUOUS
 62
     1
 10
149.000232208
 20
169.99999317
 30
0.0
 11
149.0
 21
163.2
 31
0.0
  0
LINE
  8
0
  6
CONTINUOUS
 62
     1
 10
145.700239038
 20
170.2
 30
0.0
 11
148.800232209
 21
170.2
 31
0.0
  0
ARC
  8
0
  6
CONTINUOUS
 62
     1
 10
148.800232209
 20
170.0
 30
0.0
 40
0.2
 50
359.998043444
 51
90.0
  0
LINE
  8
0
  6
CONTINUOUS
 62
     1
 10
42.75
 20
163.2
 30
0.0
 11
42.993555432
 21
170.506662966
 31
0.0
  0
ARC
  8
0
  6
CONTINUOUS
 62
     1
 10
43.193444414
 20
170.5
 30
0.0
 40
0.2
 50
90.0
 51
178.090847567
  0
LINE
  8
0
  6
CONTINUOUS
 62
     1
 10
46.5
 20
170.5
 30
0.0
 11
46.5
 21
166.7
 31
0.0
  0
LINE
  8
0
  6
CONTINUOUS
 62
     1
 10
43.193444414
 20
170.7
 30
0.0
 11
46.3
 21
170.7
 31
0.0
  0
ARC
  8
0
  6
CONTINUOUS
 62
     1
 10
46.3
 20
170.5
 30
0.0
 40
0.2
 50
0.0
 51
90.0
  0
LINE
  8
0
  6
CONTINUOUS
 62
     1
 10
49.5
 20
166.7
 30
0.0
 11
49.5
 21
170.5
 31
0.0
  0
ARC
  8
0
  6
CONTINUOUS
 62
     1
 10
49.7
 20
170.5
 30
0.0
 40
0.2
 50
90.0
 51
180.0
  0
LINE
  8
0
  6
CONTINUOUS
 62
     1
 10
53.006444568
 20
170.506662966
 30
0.0
 11
53.25
 21
163.2
 31
0.0
  0
LINE
  8
0
  6
CONTINUOUS
 62
     1
 10
49.7
 20
170.7
 30
0.0
 11
52.806555586
 21
170.7
 31
0.0
  0
ARC
  8
0
  6
CONTINUOUS
 62
     1
 10
52.806555586
 20
170.5
 30
0.0
 40
0.2
 50
1.909152433
 51
90.0
  0
LINE
  8
0
  6
CONTINUOUS
 62
     1
 10
42.75
 20
115.2
 30
0.0
 11
42.993555432
 21
107.893337034
 31
0.0
  0
ARC
  8
0
  6
CONTINUOUS
 62
     1
 10
43.193444414
 20
107.9
 30
0.0
 40
0.2
 50
181.909152433
 51
270.0
  0
LINE
  8
0
  6
CONTINUOUS
 62
     1
 10
46.5
 20
107.9
 30
0.0
 11
46.5
 21
111.7
 31
0.0
  0
LINE
  8
0
  6
CONTINUOUS
 62
     1
 10
43.193444414
 20
107.7
 30
0.0
 11
46.3
 21
107.7
 31
0.0
  0
ARC
  8
0
  6
CONTINUOUS
 62
     1
 10
46.3
 20
107.9
 30
0.0
 40
0.2
 50
270.0
 51
0.0
  0
LINE
  8
0
  6
CONTINUOUS
 62
     1
 10
49.5
 20
111.7
 30
0.0
 11
49.5
 21
107.9
 31
0.0
  0
ARC
  8
0
  6
CONTINUOUS
 62
     1
 10
49.7
 20
107.9
 30
0.0
 40
0.2
 50
180.0
 51
270.0
  0
LINE
  8
0
  6
CONTINUOUS
 62
     1
 10
53.006444568
 20
107.893337034
 30
0.0
 11
53.25
 21
115.2
 31
0.0
  0
LINE
  8
0
  6
CONTINUOUS
 62
     1
 10
49.7
 20
107.7
 30
0.0
 11
52.806555586
 21
107.7
 31
0.0
  0
ARC
  8
0
  6
CONTINUOUS
 62
     1
 10
52.806555586
 20
107.9
 30
0.0
 40
0.2
 50
270.0
 51
358.090847567
  0
CIRCLE
  8
0
  6
CONTINUOUS
 62
     1
 10
48.0
 20
146.95
 30
0.0
 40
2.0
  0
ARC
  8
0
  6
CONTINUOUS
 62
     1
 10
48.0
 20
148.364213562
 30
0.0
 40
0.75
 50
225.0
 51
315.0
  0
ARC
  8
0
  6
CONTINUOUS
 62
     1
 10
46.585786438
 20
146.95
 30
0.0
 40
0.75
 50
315.0
 51
45.0
  0
ARC
  8
0
  6
CONTINUOUS
 62
     1
 10
48.0
 20
145.535786438
 30
0.0
 40
0.75
 50
45.0
 51
135.0
  0
ARC
  8
0
  6
CONTINUOUS
 62
     1
 10
49.414213562
 20
146.95
 30
0.0
 40
0.75
 50
135.0
 51
225.0
  0
LINE
  8
0
  6
CONTINUOUS
 62
     1
 10
48.883883476
 20
147.480330086
 30
0.0
 11
49.13137085
 21
147.798528137
 31
0.0
  0
LINE
  8
0
  6
CONTINUOUS
 62
     1
 10
49.13137085
 20
147.798528137
 30
0.0
 11
48.848528137
 21
148.08137085
 31
0.0
  0
LINE
  8
0
  6
CONTINUOUS
 62
     1
 10
48.848528137
 20
148.08137085
 30
0.0
 11
48.530330086
 21
147.833883476
 31
0.0
  0
LINE
  8
0
  6
CONTINUOUS
 62
     1
 10
47.469669914
 20
147.833883476
 30
0.0
 11
47.151471863
 21
148.08137085
 31
0.0
  0
LINE
  8
0
  6
CONTINUOUS
 62
     1
 10
47.151471863
 20
148.08137085
 30
0.0
 11
46.86862915
 21
147.798528137
 31
0.0
  0
LINE
  8
0
  6
CONTINUOUS
 62
     1
 10
46.86862915
 20
147.798528137
 30
0.0
 11
47.116116524
 21
147.480330086
 31
0.0
  0
LINE
  8
0
  6
CONTINUOUS
 62
     1
 10
47.116116524
 20
146.419669914
 30
0.0
 11
46.86862915
 21
146.101471863
 31
0.0
  0
LINE
  8
0
  6
CONTINUOUS
 62
     1
 10
46.86862915
 20
146.101471863
 30
0.0
 11
47.151471863
 21
145.81862915
 31
0.0
  0
LINE
  8
0
  6
CONTINUOUS
 62
     1
 10
47.151471863
 20
145.81862915
 30
0.0
 11
47.469669914
 21
146.066116524
 31
0.0
  0
LINE
  8
0
  6
CONTINUOUS
 62
     1
 10
48.530330086
 20
146.066116524
 30
0.0
 11
48.848528137
 21
145.81862915
 31
0.0
  0
LINE
  8
0
  6
CONTINUOUS
 62
     1
 10
48.848528137
 20
145.81862915
 30
0.0
 11
49.13137085
 21
146.101471863
 31
0.0
  0
LINE
  8
0
  6
CONTINUOUS
 62
     1
 10
49.13137085
 20
146.101471863
 30
0.0
 11
48.883883476
 21
146.419669914
 31
0.0
  0
CIRCLE
  8
0
  6
CONTINUOUS
 62
     1
 10
37.0
 20
146.95
 30
0.0
 40
2.0
  0
ARC
  8
0
  6
CONTINUOUS
 62
     1
 10
37.0
 20
148.364213562
 30
0.0
 40
0.75
 50
225.0
 51
315.0
  0
ARC
  8
0
  6
CONTINUOUS
 62
     1
 10
35.585786438
 20
146.95
 30
0.0
 40
0.75
 50
315.0
 51
45.0
  0
ARC
  8
0
  6
CONTINUOUS
 62
     1
 10
37.0
 20
145.535786438
 30
0.0
 40
0.75
 50
45.0
 51
135.0
  0
ARC
  8
0
  6
CONTINUOUS
 62
     1
 10
38.414213562
 20
146.95
 30
0.0
 40
0.75
 50
135.0
 51
225.0
  0
LINE
  8
0
  6
CONTINUOUS
 62
     1
 10
37.883883476
 20
147.480330086
 30
0.0
 11
38.13137085
 21
147.798528137
 31
0.0
  0
LINE
  8
0
  6
CONTINUOUS
 62
     1
 10
38.13137085
 20
147.798528137
 30
0.0
 11
37.848528137
 21
148.08137085
 31
0.0
  0
LINE
  8
0
  6
CONTINUOUS
 62
     1
 10
37.848528137
 20
148.08137085
 30
0.0
 11
37.530330086
 21
147.833883476
 31
0.0
  0
LINE
  8
0
  6
CONTINUOUS
 62
     1
 10
36.469669914
 20
147.833883476
 30
0.0
 11
36.151471863
 21
148.08137085
 31
0.0
  0
LINE
  8
0
  6
CONTINUOUS
 62
     1
 10
36.151471863
 20
148.08137085
 30
0.0
 11
35.86862915
 21
147.798528137
 31
0.0
  0
LINE
  8
0
  6
CONTINUOUS
 62
     1
 10
35.86862915
 20
147.798528137
 30
0.0
 11
36.116116524
 21
147.480330086
 31
0.0
  0
LINE
  8
0
  6
CONTINUOUS
 62
     1
 10
36.116116524
 20
146.419669914
 30
0.0
 11
35.86862915
 21
146.101471863
 31
0.0
  0
LINE
  8
0
  6
CONTINUOUS
 62
     1
 10
35.86862915
 20
146.101471863
 30
0.0
 11
36.151471863
 21
145.81862915
 31
0.0
  0
LINE
  8
0
  6
CONTINUOUS
 62
     1
 10
36.151471863
 20
145.81862915
 30
0.0
 11
36.469669914
 21
146.066116524
 31
0.0
  0
LINE
  8
0
  6
CONTINUOUS
 62
     1
 10
37.530330086
 20
146.066116524
 30
0.0
 11
37.848528137
 21
145.81862915
 31
0.0
  0
LINE
  8
0
  6
CONTINUOUS
 62
     1
 10
37.848528137
 20
145.81862915
 30
0.0
 11
38.13137085
 21
146.101471863
 31
0.0
  0
LINE
  8
0
  6
CONTINUOUS
 62
     1
 10
38.13137085
 20
146.101471863
 30
0.0
 11
37.883883476
 21
146.419669914
 31
0.0
  0
CIRCLE
  8
0
  6
CONTINUOUS
 62
     1
 10
42.5
 20
146.95
 30
0.0
 40
2.0
  0
ARC
  8
0
  6
CONTINUOUS
 62
     1
 10
42.5
 20
148.364213562
 30
0.0
 40
0.75
 50
225.0
 51
315.0
  0
ARC
  8
0
  6
CONTINUOUS
 62
     1
 10
41.085786438
 20
146.95
 30
0.0
 40
0.75
 50
315.0
 51
45.0
  0
ARC
  8
0
  6
CONTINUOUS
 62
     1
 10
42.5
 20
145.535786438
 30
0.0
 40
0.75
 50
45.0
 51
135.0
  0
ARC
  8
0
  6
CONTINUOUS
 62
     1
 10
43.914213562
 20
146.95
 30
0.0
 40
0.75
 50
135.0
 51
225.0
  0
LINE
  8
0
  6
CONTINUOUS
 62
     1
 10
43.383883476
 20
147.480330086
 30
0.0
 11
43.63137085
 21
147.798528137
 31
0.0
  0
LINE
  8
0
  6
CONTINUOUS
 62
     1
 10
43.63137085
 20
147.798528137
 30
0.0
 11
43.348528137
 21
148.08137085
 31
0.0
  0
LINE
  8
0
  6
CONTINUOUS
 62
     1
 10
43.348528137
 20
148.08137085
 30
0.0
 11
43.030330086
 21
147.833883476
 31
0.0
  0
LINE
  8
0
  6
CONTINUOUS
 62
     1
 10
41.969669914
 20
147.833883476
 30
0.0
 11
41.651471863
 21
148.08137085
 31
0.0
  0
LINE
  8
0
  6
CONTINUOUS
 62
     1
 10
41.651471863
 20
148.08137085
 30
0.0
 11
41.36862915
 21
147.798528137
 31
0.0
  0
LINE
  8
0
  6
CONTINUOUS
 62
     1
 10
41.36862915
 20
147.798528137
 30
0.0
 11
41.616116524
 21
147.480330086
 31
0.0
  0
LINE
  8
0
  6
CONTINUOUS
 62
     1
 10
41.616116524
 20
146.419669914
 30
0.0
 11
41.36862915
 21
146.101471863
 31
0.0
  0
LINE
  8
0
  6
CONTINUOUS
 62
     1
 10
41.36862915
 20
146.101471863
 30
0.0
 11
41.651471863
 21
145.81862915
 31
0.0
  0
LINE
  8
0
  6
CONTINUOUS
 62
     1
 10
41.651471863
 20
145.81862915
 30
0.0
 11
41.969669914
 21
146.066116524
 31
0.0
  0
LINE
  8
0
  6
CONTINUOUS
 62
     1
 10
43.030330086
 20
146.066116524
 30
0.0
 11
43.348528137
 21
145.81862915
 31
0.0
  0
LINE
  8
0
  6
CONTINUOUS
 62
     1
 10
43.348528137
 20
145.81862915
 30
0.0
 11
43.63137085
 21
146.101471863
 31
0.0
  0
LINE
  8
0
  6
CONTINUOUS
 62
     1
 10
43.63137085
 20
146.101471863
 30
0.0
 11
43.383883476
 21
146.419669914
 31
0.0
  0
LINE
  8
0
  6
CONTINUOUS
 62
     2
 10
19.0
 20
166.7
 30
0.0
 11
18.676476194
 21
165.492592717
 31
0.0
  0
LINE
  8
0
  6
CONTINUOUS
 62
     2
 10
19.0
 20
166.7
 30
0.0
 11
19.323523806
 21
165.492592717
 31
0.0
  0
LINE
  8
0
  6
CONTINUOUS
 62
     2
 10
19.0
 20
166.7
 30
0.0
 11
19.0
 21
111.7
 31
0.0
  0
LINE
  8
0
  6
CONTINUOUS
 62
     2
 10
19.0
 20
111.7
 30
0.0
 11
19.323523806
 21
112.907407283
 31
0.0
  0
LINE
  8
0
  6
CONTINUOUS
 62
     2
 10
19.0
 20
111.7
 30
0.0
 11
18.676476194
 21
112.907407283
 31
0.0
  0
LINE
  8
0
  6
CONTINUOUS
 62
     2
 10
49.5
 20
170.95
 30
0.0
 11
49.5
 21
179.45
 31
0.0
  0
LINE
  8
0
  6
CONTINUOUS
 62
     2
 10
49.5
 20
178.45
 30
0.0
 11
50.707407283
 21
178.126476194
 31
0.0
  0
LINE
  8
0
  6
CONTINUOUS
 62
     2
 10
49.5
 20
178.45
 30
0.0
 11
50.707407283
 21
178.773523806
 31
0.0
  0
LINE
  8
0
  6
CONTINUOUS
 62
     2
 10
52.0
 20
178.45
 30
0.0
 11
44.0
 21
178.45
 31
0.0
  0
LINE
  8
0
  6
CONTINUOUS
 62
     2
 10
46.5
 20
178.45
 30
0.0
 11
45.292592717
 21
178.773523806
 31
0.0
  0
LINE
  8
0
  6
CONTINUOUS
 62
     2
 10
46.5
 20
178.45
 30
0.0
 11
45.292592717
 21
178.126476194
 31
0.0
  0
LINE
  8
0
  6
CONTINUOUS
 62
     2
 10
46.5
 20
170.95
 30
0.0
 11
46.5
 21
179.45
 31
0.0
  0
LINE
  8
0
  6
CONTINUOUS
 62
     2
 10
32.0
 20
163.7
 30
0.0
 11
32.0
 21
175.7
 31
0.0
  0
LINE
  8
0
  6
CONTINUOUS
 62
     2
 10
32.0
 20
174.7
 30
0.0
 11
33.207407283
 21
174.376476194
 31
0.0
  0
LINE
  8
0
  6
CONTINUOUS
 62
     2
 10
32.0
 20
174.7
 30
0.0
 11
33.207407283
 21
175.023523806
 31
0.0
  0
LINE
  8
0
  6
CONTINUOUS
 62
     2
 10
32.0
 20
174.7
 30
0.0
 11
36.5
 21
174.7
 31
0.0
  0
LINE
  8
0
  6
CONTINUOUS
 62
     2
 10
36.5
 20
174.7
 30
0.0
 11
35.292592717
 21
175.023523806
 31
0.0
  0
LINE
  8
0
  6
CONTINUOUS
 62
     2
 10
36.5
 20
174.7
 30
0.0
 11
35.292592717
 21
174.376476194
 31
0.0
  0
LINE
  8
0
  6
CONTINUOUS
 62
     2
 10
36.5
 20
163.7
 30
0.0
 11
36.5
 21
175.7
 31
0.0
  0
LINE
  8
0
  6
CONTINUOUS
 62
     2
 10
56.25
 20
157.95
 30
0.0
 11
63.75
 21
178.45
 31
0.0
  0
LINE
  8
0
  6
CONTINUOUS
 62
     2
 10
56.25
 20
157.95
 30
0.0
 11
56.361014243
 21
159.195060576
 31
0.0
  0
LINE
  8
0
  6
CONTINUOUS
 62
     2
 10
56.25
 20
157.95
 30
0.0
 11
56.968671443
 21
158.972746966
 31
0.0
  0
TEXT
  8
0
  6
CONTINUOUS
 62
     2
 10
17.425
 20
144.325
 30
0.2
 40
2.0
  1
±０．５
 50
90.0
 41
0.9
 51
0.0
  7
KANJI5
  0
LINE
  8
0
  6
CONTINUOUS
 62
     2
 10
149.0
 20
171.09375
 30
0.0
 11
149.0
 21
179.59375
 31
0.0
  0
LINE
  8
0
  6
CONTINUOUS
 62
     2
 10
149.0
 20
178.59375
 30
0.0
 11
150.207407283
 21
178.270226194
 31
0.0
  0
LINE
  8
0
  6
CONTINUOUS
 62
     2
 10
149.0
 20
178.59375
 30
0.0
 11
150.207407283
 21
178.917273806
 31
0.0
  0
LINE
  8
0
  6
CONTINUOUS
 62
     2
 10
151.5
 20
178.59375
 30
0.0
 11
143.0
 21
178.59375
 31
0.0
  0
LINE
  8
0
  6
CONTINUOUS
 62
     2
 10
145.5
 20
178.59375
 30
0.0
 11
144.292592717
 21
178.917273806
 31
0.0
  0
LINE
  8
0
  6
CONTINUOUS
 62
     2
 10
145.5
 20
178.59375
 30
0.0
 11
144.292592717
 21
178.270226194
 31
0.0
  0
LINE
  8
0
  6
CONTINUOUS
 62
     2
 10
145.5
 20
171.09375
 30
0.0
 11
145.5
 21
179.59375
 31
0.0
  0
LINE
  8
0
  6
CONTINUOUS
 62
     2
 10
149.25
 20
108.2
 30
0.0
 11
165.25
 21
108.2
 31
0.0
  0
LINE
  8
0
  6
CONTINUOUS
 62
     2
 10
164.25
 20
108.2
 30
0.0
 11
164.573523806
 21
109.407407283
 31
0.0
  0
LINE
  8
0
  6
CONTINUOUS
 62
     2
 10
164.25
 20
108.2
 30
0.0
 11
163.926476194
 21
109.407407283
 31
0.0
  0
LINE
  8
0
  6
CONTINUOUS
 62
     2
 10
164.25
 20
108.2
 30
0.0
 11
164.25
 21
170.2
 31
0.0
  0
LINE
  8
0
  6
CONTINUOUS
 62
     2
 10
164.25
 20
170.2
 30
0.0
 11
163.926476194
 21
168.992592717
 31
0.0
  0
LINE
  8
0
  6
CONTINUOUS
 62
     2
 10
164.25
 20
170.2
 30
0.0
 11
164.573523806
 21
168.992592717
 31
0.0
  0
LINE
  8
0
  6
CONTINUOUS
 62
     2
 10
149.25
 20
170.2
 30
0.0
 11
165.25
 21
170.2
 31
0.0
  0
LINE
  8
0
  6
CONTINUOUS
 62
     2
 10
29.0
 20
115.2
 30
0.0
 11
22.5
 21
115.2
 31
0.0
  0
LINE
  8
0
  6
CONTINUOUS
 62
     2
 10
24.5
 20
115.2
 30
0.0
 11
25.147047613
 21
117.614814566
 31
0.0
  0
LINE
  8
0
  6
CONTINUOUS
 62
     2
 10
24.5
 20
115.2
 30
0.0
 11
23.852952387
 21
117.614814566
 31
0.0
  0
LINE
  8
0
  6
CONTINUOUS
 62
     2
 10
24.5
 20
115.2
 30
0.0
 11
24.5
 21
163.2
 31
0.0
  0
LINE
  8
0
  6
CONTINUOUS
 62
     2
 10
24.5
 20
163.2
 30
0.0
 11
23.852952387
 21
160.785185434
 31
0.0
  0
LINE
  8
0
  6
CONTINUOUS
 62
     2
 10
24.5
 20
163.2
 30
0.0
 11
25.147047613
 21
160.785185434
 31
0.0
  0
LINE
  8
0
  6
CONTINUOUS
 62
     2
 10
29.0
 20
163.2
 30
0.0
 11
22.5
 21
163.2
 31
0.0
  0
TEXT
  8
0
  6
CONTINUOUS
 62
     2
 10
23.5
 20
137.25
 30
0.3
 40
3.0
  1
９６
 50
90.0
 41
0.6
 51
0.0
  7
KANJI6
  0
TEXT
  8
0
  6
CONTINUOUS
 62
     2
 10
163.25
 20
143.8
 30
0.2
 40
2.0
  1
±０．５
 50
90.0
 41
0.9
 51
0.0
  7
KANJI5
  0
LINE
  8
0
  6
CONTINUOUS
 62
     2
 10
32.0
 20
126.2
 30
0.0
 11
64.0
 21
126.2
 31
0.0
  0
LINE
  8
0
  6
CONTINUOUS
 62
     2
 10
64.0
 20
126.2
 30
0.0
 11
64.0
 21
143.2
 31
0.0
  0
LINE
  8
0
  6
CONTINUOUS
 62
     2
 10
64.0
 20
143.2
 30
0.0
 11
32.0
 21
143.2
 31
0.0
  0
LINE
  8
0
  6
CONTINUOUS
 62
     2
 10
32.0
 20
143.2
 30
0.0
 11
32.0
 21
126.2
 31
0.0
  0
LINE
  8
0
  6
CONTINUOUS
 62
     2
 10
86.7
 20
115.7
 30
0.0
 11
98.499317033
 21
115.7
 31
0.0
  0
ARC
  8
0
  6
CONTINUOUS
 62
     2
 10
86.7
 20
115.9
 30
0.0
 40
0.2
 50
180.0
 51
270.0
  0
LINE
  8
0
  6
CONTINUOUS
 62
     2
 10
98.5
 20
162.7
 30
0.0
 11
86.7
 21
162.7
 31
0.0
  0
LINE
  8
0
  6
CONTINUOUS
 62
     2
 10
86.5
 20
162.5
 30
0.0
 11
86.5
 21
115.9
 31
0.0
  0
ARC
  8
0
  6
CONTINUOUS
 62
     2
 10
86.7
 20
162.5
 30
0.0
 40
0.2
 50
90.0
 51
180.0
  0
TEXT
  8
0
  6
CONTINUOUS
 62
     2
 10
46.8375
 20
179.45
 30
0.375
 40
3.75
  1
６
 50
0.0
 41
0.6
 51
0.0
  7
KANJI7
  0
TEXT
  8
0
  6
CONTINUOUS
 62
     2
 10
33.125
 20
175.625
 30
0.375
 40
3.75
  1
９
 50
0.0
 41
0.6
 51
0.0
  7
KANJI7
  0
TEXT
  8
0
  6
CONTINUOUS
 62
     2
 10
17.7
 20
135.375
 30
0.375
 40
3.75
  1
１１０
 50
90.0
 41
0.6
 51
0.0
  7
KANJI7
  0
TEXT
  8
0
  6
CONTINUOUS
 62
     2
 10
146.125
 20
180.009375
 30
0.375
 40
3.75
  1
７
 50
0.0
 41
0.6
 51
0.0
  7
KANJI7
  0
TEXT
  8
0
  6
CONTINUOUS
 62
     2
 10
163.5625
 20
135.45
 30
0.375
 40
3.75
  1
１２４
 50
90.0
 41
0.6
 51
0.0
  7
KANJI7
  0
LINE
  8
0
  6
CONTINUOUS
 62
     2
 10
87.399317033
 20
162.1
 30
0.0
 11
88.747900127
 21
164.205070935
 31
0.0
  0
LINE
  8
0
  6
CONTINUOUS
 62
     2
 10
87.399317033
 20
162.1
 30
0.0
 11
87.514688784
 21
164.597336453
 31
0.0
  0
LINE
  8
0
  6
CONTINUOUS
 62
     2
 10
87.399317033
 20
162.1
 30
0.0
 11
92.6
 21
178.45
 31
0.0
  0
LINE
  8
0
  6
CONTINUOUS
 62
     2
 10
92.6
 20
178.45
 30
0.0
 11
105.4
 21
178.45
 31
0.0
  0
TEXT
  8
0
  6
CONTINUOUS
 62
     2
 10
92.6
 20
179.45
 30
0.2
 40
3.0
  1
端子カバー
 50
0.0
 41
0.8
 51
0.0
  7
KANJI8
  0
LINE
  8
0
  6
LTYPE1
 62
     2
 10
88.5
 20
118.7
 30
0.0
 11
87.25
 21
118.7
 31
0.0
  0
LINE
  8
0
  6
LTYPE1
 62
     2
 10
87.25
 20
118.7
 30
0.0
 11
87.25
 21
159.7
 31
0.0
  0
LINE
  8
0
  6
LTYPE1
 62
     2
 10
87.25
 20
159.7
 30
0.0
 11
88.5
 21
159.7
 31
0.0
  0
LINE
  8
0
  6
CONTINUOUS
 62
     2
 10
33.0
 20
140.2
 30
0.0
 11
35.5
 21
140.2
 31
0.0
  0
LINE
  8
0
  6
CONTINUOUS
 62
     2
 10
35.5
 20
140.2
 30
0.0
 11
35.5
 21
142.7
 31
0.0
  0
LINE
  8
0
  6
CONTINUOUS
 62
     2
 10
35.5
 20
142.7
 30
0.0
 11
33.0
 21
142.7
 31
0.0
  0
LINE
  8
0
  6
CONTINUOUS
 62
     2
 10
33.0
 20
142.7
 30
0.0
 11
33.0
 21
140.2
 31
0.0
  0
LINE
  8
0
  6
CONTINUOUS
 62
     2
 10
38.5
 20
140.2
 30
0.0
 11
41.0
 21
140.2
 31
0.0
  0
LINE
  8
0
  6
CONTINUOUS
 62
     2
 10
41.0
 20
140.2
 30
0.0
 11
41.0
 21
142.7
 31
0.0
  0
LINE
  8
0
  6
CONTINUOUS
 62
     2
 10
41.0
 20
142.7
 30
0.0
 11
38.5
 21
142.7
 31
0.0
  0
LINE
  8
0
  6
CONTINUOUS
 62
     2
 10
38.5
 20
142.7
 30
0.0
 11
38.5
 21
140.2
 31
0.0
  0
LINE
  8
0
  6
CONTINUOUS
 62
     2
 10
44.0
 20
140.2
 30
0.0
 11
46.5
 21
140.2
 31
0.0
  0
LINE
  8
0
  6
CONTINUOUS
 62
     2
 10
46.5
 20
140.2
 30
0.0
 11
46.5
 21
142.7
 31
0.0
  0
LINE
  8
0
  6
CONTINUOUS
 62
     2
 10
46.5
 20
142.7
 30
0.0
 11
44.0
 21
142.7
 31
0.0
  0
LINE
  8
0
  6
CONTINUOUS
 62
     2
 10
44.0
 20
142.7
 30
0.0
 11
44.0
 21
140.2
 31
0.0
  0
LINE
  8
0
  6
CONTINUOUS
 62
     2
 10
49.5
 20
140.2
 30
0.0
 11
52.0
 21
140.2
 31
0.0
  0
LINE
  8
0
  6
CONTINUOUS
 62
     2
 10
52.0
 20
140.2
 30
0.0
 11
52.0
 21
142.7
 31
0.0
  0
LINE
  8
0
  6
CONTINUOUS
 62
     2
 10
52.0
 20
142.7
 30
0.0
 11
49.5
 21
142.7
 31
0.0
  0
LINE
  8
0
  6
CONTINUOUS
 62
     2
 10
49.5
 20
142.7
 30
0.0
 11
49.5
 21
140.2
 31
0.0
  0
LINE
  8
0
  6
CONTINUOUS
 62
     2
 10
55.0
 20
140.2
 30
0.0
 11
57.5
 21
140.2
 31
0.0
  0
LINE
  8
0
  6
CONTINUOUS
 62
     2
 10
57.5
 20
140.2
 30
0.0
 11
57.5
 21
142.7
 31
0.0
  0
LINE
  8
0
  6
CONTINUOUS
 62
     2
 10
57.5
 20
142.7
 30
0.0
 11
55.0
 21
142.7
 31
0.0
  0
LINE
  8
0
  6
CONTINUOUS
 62
     2
 10
55.0
 20
142.7
 30
0.0
 11
55.0
 21
140.2
 31
0.0
  0
LINE
  8
0
  6
CONTINUOUS
 62
     2
 10
60.5
 20
140.2
 30
0.0
 11
63.0
 21
140.2
 31
0.0
  0
LINE
  8
0
  6
CONTINUOUS
 62
     2
 10
63.0
 20
140.2
 30
0.0
 11
63.0
 21
142.7
 31
0.0
  0
LINE
  8
0
  6
CONTINUOUS
 62
     2
 10
63.0
 20
142.7
 30
0.0
 11
60.5
 21
142.7
 31
0.0
  0
LINE
  8
0
  6
CONTINUOUS
 62
     2
 10
60.5
 20
142.7
 30
0.0
 11
60.5
 21
140.2
 31
0.0
  0
LINE
  8
0
  6
CONTINUOUS
 62
     2
 10
54.75
 20
129.2
 30
0.0
 11
52.25
 21
129.2
 31
0.0
  0
LINE
  8
0
  6
CONTINUOUS
 62
     2
 10
52.25
 20
129.2
 30
0.0
 11
52.25
 21
126.7
 31
0.0
  0
LINE
  8
0
  6
CONTINUOUS
 62
     2
 10
52.25
 20
126.7
 30
0.0
 11
54.75
 21
126.7
 31
0.0
  0
LINE
  8
0
  6
CONTINUOUS
 62
     2
 10
54.75
 20
126.7
 30
0.0
 11
54.75
 21
129.2
 31
0.0
  0
LINE
  8
0
  6
CONTINUOUS
 62
     2
 10
49.25
 20
129.2
 30
0.0
 11
46.75
 21
129.2
 31
0.0
  0
LINE
  8
0
  6
CONTINUOUS
 62
     2
 10
46.75
 20
129.2
 30
0.0
 11
46.75
 21
126.7
 31
0.0
  0
LINE
  8
0
  6
CONTINUOUS
 62
     2
 10
46.75
 20
126.7
 30
0.0
 11
49.25
 21
126.7
 31
0.0
  0
LINE
  8
0
  6
CONTINUOUS
 62
     2
 10
49.25
 20
126.7
 30
0.0
 11
49.25
 21
129.2
 31
0.0
  0
LINE
  8
0
  6
CONTINUOUS
 62
     2
 10
43.75
 20
129.2
 30
0.0
 11
41.25
 21
129.2
 31
0.0
  0
LINE
  8
0
  6
CONTINUOUS
 62
     2
 10
41.25
 20
129.2
 30
0.0
 11
41.25
 21
126.7
 31
0.0
  0
LINE
  8
0
  6
CONTINUOUS
 62
     2
 10
41.25
 20
126.7
 30
0.0
 11
43.75
 21
126.7
 31
0.0
  0
LINE
  8
0
  6
CONTINUOUS
 62
     2
 10
43.75
 20
126.7
 30
0.0
 11
43.75
 21
129.2
 31
0.0
  0
LINE
  8
0
  6
CONTINUOUS
 62
     2
 10
35.7
 20
137.2
 30
0.0
 11
38.2
 21
137.2
 31
0.0
  0
LINE
  8
0
  6
CONTINUOUS
 62
     2
 10
38.2
 20
137.2
 30
0.0
 11
38.2
 21
139.7
 31
0.0
  0
LINE
  8
0
  6
CONTINUOUS
 62
     2
 10
38.2
 20
139.7
 30
0.0
 11
35.7
 21
139.7
 31
0.0
  0
LINE
  8
0
  6
CONTINUOUS
 62
     2
 10
35.7
 20
139.7
 30
0.0
 11
35.7
 21
137.2
 31
0.0
  0
LINE
  8
0
  6
CONTINUOUS
 62
     2
 10
41.2
 20
137.2
 30
0.0
 11
43.7
 21
137.2
 31
0.0
  0
LINE
  8
0
  6
CONTINUOUS
 62
     2
 10
43.7
 20
137.2
 30
0.0
 11
43.7
 21
139.7
 31
0.0
  0
LINE
  8
0
  6
CONTINUOUS
 62
     2
 10
43.7
 20
139.7
 30
0.0
 11
41.2
 21
139.7
 31
0.0
  0
LINE
  8
0
  6
CONTINUOUS
 62
     2
 10
41.2
 20
139.7
 30
0.0
 11
41.2
 21
137.2
 31
0.0
  0
LINE
  8
0
  6
CONTINUOUS
 62
     2
 10
46.7
 20
137.2
 30
0.0
 11
49.2
 21
137.2
 31
0.0
  0
LINE
  8
0
  6
CONTINUOUS
 62
     2
 10
49.2
 20
137.2
 30
0.0
 11
49.2
 21
139.7
 31
0.0
  0
LINE
  8
0
  6
CONTINUOUS
 62
     2
 10
49.2
 20
139.7
 30
0.0
 11
46.7
 21
139.7
 31
0.0
  0
LINE
  8
0
  6
CONTINUOUS
 62
     2
 10
46.7
 20
139.7
 30
0.0
 11
46.7
 21
137.2
 31
0.0
  0
LINE
  8
0
  6
CONTINUOUS
 62
     2
 10
52.2
 20
137.2
 30
0.0
 11
54.7
 21
137.2
 31
0.0
  0
LINE
  8
0
  6
CONTINUOUS
 62
     2
 10
54.7
 20
137.2
 30
0.0
 11
54.7
 21
139.7
 31
0.0
  0
LINE
  8
0
  6
CONTINUOUS
 62
     2
 10
54.7
 20
139.7
 30
0.0
 11
52.2
 21
139.7
 31
0.0
  0
LINE
  8
0
  6
CONTINUOUS
 62
     2
 10
52.2
 20
139.7
 30
0.0
 11
52.2
 21
137.2
 31
0.0
  0
LINE
  8
0
  6
CONTINUOUS
 62
     2
 10
57.7
 20
137.2
 30
0.0
 11
60.2
 21
137.2
 31
0.0
  0
LINE
  8
0
  6
CONTINUOUS
 62
     2
 10
60.2
 20
137.2
 30
0.0
 11
60.2
 21
139.7
 31
0.0
  0
LINE
  8
0
  6
CONTINUOUS
 62
     2
 10
60.2
 20
139.7
 30
0.0
 11
57.7
 21
139.7
 31
0.0
  0
LINE
  8
0
  6
CONTINUOUS
 62
     2
 10
57.7
 20
139.7
 30
0.0
 11
57.7
 21
137.2
 31
0.0
  0
LINE
  8
0
  6
CONTINUOUS
 62
     2
 10
88.5
 20
101.95
 30
0.0
 11
89.707407283
 21
101.626476194
 31
0.0
  0
LINE
  8
0
  6
CONTINUOUS
 62
     2
 10
88.5
 20
101.95
 30
0.0
 11
89.707407283
 21
102.273523806
 31
0.0
  0
LINE
  8
0
  6
CONTINUOUS
 62
     2
 10
88.5
 20
101.95
 30
0.0
 11
149.0
 21
101.95
 31
0.0
  0
LINE
  8
0
  6
CONTINUOUS
 62
     2
 10
149.0
 20
101.95
 30
0.0
 11
147.792592717
 21
102.273523806
 31
0.0
  0
LINE
  8
0
  6
CONTINUOUS
 62
     2
 10
149.0
 20
101.95
 30
0.0
 11
147.792592717
 21
101.626476194
 31
0.0
  0
LINE
  8
0
  6
CONTINUOUS
 62
     2
 10
30.0
 20
101.45
 30
0.0
 11
31.207407283
 21
101.126476194
 31
0.0
  0
LINE
  8
0
  6
CONTINUOUS
 62
     2
 10
30.0
 20
101.45
 30
0.0
 11
31.207407283
 21
101.773523806
 31
0.0
  0
LINE
  8
0
  6
CONTINUOUS
 62
     2
 10
30.0
 20
101.45
 30
0.0
 11
66.0
 21
101.45
 31
0.0
  0
LINE
  8
0
  6
CONTINUOUS
 62
     2
 10
66.0
 20
101.45
 30
0.0
 11
64.792592717
 21
101.773523806
 31
0.0
  0
LINE
  8
0
  6
CONTINUOUS
 62
     2
 10
66.0
 20
101.45
 30
0.0
 11
64.792592717
 21
101.126476194
 31
0.0
  0
TEXT
  8
0
  6
CONTINUOUS
 62
     2
 10
51.3
 20
102.45
 30
0.2
 40
2.0
  1
±０．５
 50
0.0
 41
0.9
 51
0.0
  7
KANJI5
  0
TEXT
  8
0
  6
CONTINUOUS
 62
     2
 10
45.6625
 20
102.475
 30
0.375
 40
3.75
  1
７２
 50
0.0
 41
0.6
 51
0.0
  7
KANJI7
  0
LINE
  8
0
  6
CONTINUOUS
 62
     2
 10
30.0
 20
114.95
 30
0.0
 11
30.0
 21
100.45
 31
0.0
  0
LINE
  8
0
  6
CONTINUOUS
 62
     2
 10
66.0
 20
114.95
 30
0.0
 11
66.0
 21
100.45
 31
0.0
  0
LINE
  8
0
  6
CONTINUOUS
 62
     2
 10
88.5
 20
115.45
 30
0.0
 11
88.5
 21
100.45
 31
0.0
  0
LINE
  8
0
  6
CONTINUOUS
 62
     2
 10
149.0
 20
107.95
 30
0.0
 11
149.0
 21
100.45
 31
0.0
  0
TEXT
  8
0
  6
CONTINUOUS
 62
     2
 10
120.5
 20
103.45
 30
0.2
 40
2.0
  1
±０．５
 50
0.0
 41
0.9
 51
0.0
  7
KANJI5
  0
TEXT
  8
0
  6
CONTINUOUS
 62
     2
 10
112.225
 20
103.425
 30
0.375
 40
3.75
  1
１２１
 50
0.0
 41
0.6
 51
0.0
  7
KANJI7
  0
LINE
  8
0
  6
CONTINUOUS
 62
     2
 10
34.25
 20
160.35
 30
0.0
 11
34.25
 21
170.45
 31
0.0
  0
LINE
  8
0
  6
CONTINUOUS
 62
     2
 10
34.25
 20
168.45
 30
0.0
 11
39.75
 21
168.45
 31
0.0
  0
LINE
  8
0
  6
CONTINUOUS
 62
     2
 10
39.75
 20
160.35
 30
0.0
 11
39.75
 21
170.45
 31
0.0
  0
LINE
  8
0
  6
CONTINUOUS
 62
     2
 10
39.75
 20
168.45
 30
0.0
 11
37.835185434
 21
168.963073017
 31
0.0
  0
LINE
  8
0
  6
CONTINUOUS
 62
     2
 10
39.75
 20
168.45
 30
0.0
 11
37.835185434
 21
167.936926983
 31
0.0
  0
LINE
  8
0
  6
CONTINUOUS
 62
     2
 10
34.25
 20
168.45
 30
0.0
 11
36.164814566
 21
167.936926983
 31
0.0
  0
LINE
  8
0
  6
CONTINUOUS
 62
     2
 10
34.25
 20
168.45
 30
0.0
 11
36.164814566
 21
168.963073017
 31
0.0
  0
TEXT
  8
0
  6
CONTINUOUS
 62
     2
 10
36.55
 20
171.55
 30
0.3
 40
3.0
  1
１１
 50
0.0
 41
0.6
 51
0.0
  7
KANJI6
  0
LINE
  8
0
  6
CONTINUOUS
 62
     2
 10
18.0
 20
166.7
 30
0.0
 11
41.0
 21
166.7
 31
0.0
  0
LINE
  8
0
  6
CONTINUOUS
 62
     2
 10
18.0
 20
111.7
 30
0.0
 11
40.0
 21
111.7
 31
0.0
  0
TEXT
  8
0
  6
CONTINUOUS
 62
     2
 10
81.7
 20
103.25
 30
0.3
 40
3.0
  1
４
 50
0.0
 41
0.6
 51
0.0
  7
KANJI6
  0
LINE
  8
0
  6
CONTINUOUS
 62
     2
 10
79.7
 20
101.95
 30
0.0
 11
88.5
 21
101.95
 31
0.0
  0
LINE
  8
0
  6
CONTINUOUS
 62
     2
 10
86.5
 20
114.9
 30
0.0
 11
86.5
 21
100.95
 31
0.0
  0
LINE
  8
0
  6
CONTINUOUS
 62
     2
 10
86.5
 20
101.95
 30
0.0
 11
85.0
 21
101.548076211
 31
0.0
  0
LINE
  8
0
  6
CONTINUOUS
 62
     2
 10
86.5
 20
101.95
 30
0.0
 11
85.0
 21
102.351923789
 31
0.0
  0
CIRCLE
  8
0
  6
CONTINUOUS
 62
     2
 10
53.45
 20
122.45
 30
0.0
 40
1.5
  0
CIRCLE
  8
0
  6
CONTINUOUS
 62
     2
 10
53.45
 20
122.45
 30
0.0
 40
1.0
  0
TEXT
  8
0
  6
CONTINUOUS
 62
     2
 10
63.75
 20
179.35
 30
0.0
 40
3.0
  1
Ｍ４　端子ネジ
 50
0.0
 41
0.75
 51
0.0
  7
KANJI9
  0
LINE
  8
0
  6
CONTINUOUS
 62
     2
 10
63.75
 20
178.45
 30
0.0
 11
79.5
 21
178.45
 31
0.0
  0
CIRCLE
  8
0
  6
CONTINUOUS
 62
     2
 10
50.7
 20
155.95
 30
0.0
 40
1.5
  0
CIRCLE
  8
0
  6
CONTINUOUS
 62
     2
 10
50.7
 20
155.95
 30
0.0
 40
1.0
  0
CIRCLE
  8
0
  6
CONTINUOUS
 62
     2
 10
45.2
 20
155.95
 30
0.0
 40
1.5
  0
CIRCLE
  8
0
  6
CONTINUOUS
 62
     2
 10
45.2
 20
155.95
 30
0.0
 40
1.0
  0
TEXT
  8
0
  6
CONTINUOUS
 62
     2
 10
33.0
 20
127.0
 30
0.3
 40
3.0
  1
Ｎ．Ｐ．
 50
0.0
 41
0.45
 51
0.0
  7
KANJI10
  0
TEXT
  8
0
  6
CONTINUOUS
 62
     2
 10
65.0
 20
171.5
 30
0.3
 40
3.0
  1
一例を示します。
 50
0.0
 41
0.9
 51
0.0
  7
KANJI4
  0
TEXT
  8
0
  6
CONTINUOUS
 62
     2
 10
65.0
 20
174.5
 30
0.3
 40
3.0
  1
端子ネジ位置は
 50
0.0
 41
0.9
 51
0.0
  7
KANJI4
  0
CIRCLE
  8
0
  6
CONTINUOUS
 62
     2
 10
53.45
 20
146.95
 30
0.0
 40
1.5
  0
CIRCLE
  8
0
  6
CONTINUOUS
 62
     2
 10
53.45
 20
146.95
 30
0.0
 40
1.0
  0
CIRCLE
  8
0
  6
CONTINUOUS
 62
     2
 10
58.95
 20
146.95
 30
0.0
 40
1.5
  0
CIRCLE
  8
0
  6
CONTINUOUS
 62
     2
 10
58.95
 20
146.95
 30
0.0
 40
1.0
  0
LINE
  8
0
  6
LTYPE2
 62
     5
 10
34.25
 20
159.45
 30
0.0
 11
34.25
 21
152.45
 31
0.0
  0
LINE
  8
0
  6
LTYPE2
 62
     5
 10
31.25
 20
155.95
 30
0.0
 11
64.75
 21
155.95
 31
0.0
  0
LINE
  8
0
  6
LTYPE2
 62
     5
 10
39.75
 20
159.45
 30
0.0
 11
39.75
 21
152.45
 31
0.0
  0
LINE
  8
0
  6
LTYPE2
 62
     5
 10
56.25
 20
159.45
 30
0.0
 11
56.25
 21
152.45
 31
0.0
  0
LINE
  8
0
  6
LTYPE2
 62
     5
 10
61.75
 20
159.45
 30
0.0
 11
61.75
 21
152.45
 31
0.0
  0
LINE
  8
0
  6
LTYPE2
 62
     5
 10
42.45
 20
125.45
 30
0.0
 11
42.45
 21
119.45
 31
0.0
  0
LINE
  8
0
  6
LTYPE2
 62
     5
 10
47.95
 20
125.45
 30
0.0
 11
47.95
 21
119.45
 31
0.0
  0
LINE
  8
0
  6
LTYPE2
 62
     5
 10
81.499317033
 20
139.282638984
 30
0.0
 11
154.499317033
 21
139.282638984
 31
0.0
  0
LINE
  8
0
  6
LTYPE2
 62
     5
 10
48.0
 20
169.7
 30
0.0
 11
48.0
 21
163.7
 31
0.0
  0
LINE
  8
0
  6
LTYPE2
 62
     5
 10
41.475
 20
166.7
 30
0.0
 11
55.5
 21
166.7
 31
0.0
  0
LINE
  8
0
  6
LTYPE2
 62
     5
 10
55.5
 20
111.7
 30
0.0
 11
41.199317033
 21
111.7
 31
0.0
  0
LINE
  8
0
  6
LTYPE2
 62
     5
 10
48.0
 20
114.7
 30
0.0
 11
48.0
 21
108.7
 31
0.0
  0
LINE
  8
0
  6
LTYPE2
 62
     5
 10
141.500239038
 20
166.7
 30
0.0
 11
153.500239038
 21
166.7
 31
0.0
  0
LINE
  8
0
  6
LTYPE2
 62
     5
 10
142.5
 20
111.7
 30
0.0
 11
152.5
 21
111.7
 31
0.0
  0
LINE
  8
0
  6
LTYPE2
 62
     5
 10
48.0
 20
150.45
 30
0.0
 11
48.0
 21
143.45
 31
0.0
  0
LINE
  8
0
  6
LTYPE2
 62
     5
 10
39.95
 20
122.45
 30
0.0
 11
50.8
 21
122.45
 31
0.0
  0
LINE
  8
0
  6
LTYPE2
 62
     5
 10
37.0
 20
150.45
 30
0.0
 11
37.0
 21
143.45
 31
0.0
  0
LINE
  8
0
  6
LTYPE2
 62
     5
 10
42.5
 20
150.45
 30
0.0
 11
42.5
 21
143.45
 31
0.0
  0
LINE
  8
0
  6
LTYPE2
 62
     5
 10
34.35
 20
146.95
 30
0.0
 11
51.2
 21
146.95
 31
0.0
  0
TEXT
  8
0
  6
CONTINUOUS
 62
     2
 10
175.9
 20
120.8
 30
0.3
 40
3.0
  1
外箱材質　：ガラス繊維強化ＰＣ樹脂
 50
0.0
 41
0.8
 51
0.0
  7
KANJI0
  0
TEXT
  8
0
  6
CONTINUOUS
 62
     3
 10
233.0
 20
12.0
 30
0.5
 40
6.0
  1
ＭＳ－１１７５０Ｂ
 50
0.0
 41
0.8
 51
0.0
  7
KANJI11
  0
TEXT
  8
0
  6
CONTINUOUS
 62
     2
 10
70.6
 20
84.5
 30
0.3
 40
3.0
  1
単相電力（補助電源付）
 50
0.0
 41
0.9
 51
0.0
  7
KANJI4
  0
TEXT
  8
0
  6
CONTINUOUS
 62
     2
 10
70.6
 20
80.5
 30
0.3
 40
3.0
  1
単相無効電力（補助電源付）
 50
0.0
 41
0.9
 51
0.0
  7
KANJI4
  0
TEXT
  8
0
  6
CONTINUOUS
 62
     2
 10
120.6
 20
84.5
 30
0.3
 40
3.0
  1
単相３線式電力
 50
0.0
 41
0.9
 51
0.0
  7
KANJI4
  0
TEXT
  8
0
  6
CONTINUOUS
 62
     2
 10
120.6
 20
80.5
 30
0.3
 40
3.0
  1
単相３線式無効電力
 50
0.0
 41
0.9
 51
0.0
  7
KANJI4
  0
TEXT
  8
0
  6
CONTINUOUS
 62
     2
 10
170.6
 20
84.5
 30
0.3
 40
3.0
  1
三相電力
 50
0.0
 41
0.9
 51
0.0
  7
KANJI4
  0
TEXT
  8
0
  6
CONTINUOUS
 62
     2
 10
170.6
 20
80.5
 30
0.3
 40
3.0
  1
三相無効電力
 50
0.0
 41
0.9
 51
0.0
  7
KANJI4
  0
TEXT
  8
0
  6
CONTINUOUS
 62
     1
 10
234.1
 20
32.0
 30
0.4
 40
4.0
  1
ＵｕＲＧ－３，ＵＲＧ－３
 50
0.0
 41
0.9
 51
0.0
  7
KANJI12
  0
TEXT
  8
0
  6
CONTINUOUS
 62
     1
 10
234.1
 20
36.5
 30
0.4
 40
4.0
  1
ＥＲＧ－３，ＲＲＧ－３
 50
0.0
 41
0.9
 51
0.0
  7
KANJI12
  0
TEXT
  8
0
  6
CONTINUOUS
 62
     2
 10
234.1
 20
26.5
 30
0.4
 40
4.0
  1
電力，無効電力，力率
 50
0.0
 41
0.9
 51
0.0
  7
KANJI12
  0
TEXT
  8
0
  6
CONTINUOUS
 62
     2
 10
234.1
 20
22.0
 30
0.4
 40
4.0
  1
変換器　外形図
 50
0.0
 41
0.9
 51
0.0
  7
KANJI12
  0
ENDSEC
  0
EOF
