  0
SECTION
  2
HEADER
  9
$ACADVER
  1
AC1009
  9
$DWGCODEPAGE
  3
dos932
  9
$EXTMIN
 10
0.0
 20
0.0
 30
0.0
  9
$EXTMAX
 10
297.0
 20
210.0
 30
0.0
  9
$LIMMIN
 10
0.0
 20
0.0
  9
$LIMMAX
 10
297.0
 20
210.0
  9
$LTSCALE
 40
1.0
  9
$PDMODE
 70
     0
  0
ENDSEC
  0
SECTION
  2
TABLES
  0
TABLE
  2
VPORT
 70
     1
  0
VPORT
  2
*ACTIVE
 70
     0
 10
0.0
 20
0.0
 11
1.0
 21
1.0
 12
148.5
 22
105.0
 13
0.0
 23
0.0
 14
10.0
 24
10.0
 15
10.0
 25
10.0
 16
0.0
 26
0.0
 36
1.0
 17
0.0
 27
0.0
 37
0.0
 40
297.0
 41
1.414285714
 42
50.0
 43
0.0
 44
0.0
 50
0.0
 51
0.0
 71
     0
 72
  1000
 73
     1
 74
     3
 75
     0
 76
     0
 77
     0
 78
     0
  0
ENDTAB
  0
TABLE
  2
LTYPE
 70
     6
  0
LTYPE
  2
CONTINUOUS
 70
    64
  3
Solid line
 72
    65
 73
     0
 40
0.0
  0
LTYPE
  2
LTYPE1
 70
    64
  3
CENTER
 72
    65
 73
     4
 40
5.0
 49
3.5
 49
-0.5
 49
0.5
 49
-0.5
  0
LTYPE
  2
LTYPE2
 70
    64
  3
CENTER
 72
    65
 73
     4
 40
3.0
 49
2.1
 49
-0.3
 49
0.3
 49
-0.3
  0
LTYPE
  2
LTYPE3
 70
    64
  3
HIDDEN
 72
    65
 73
     2
 40
1.0
 49
0.6
 49
-0.4
  0
LTYPE
  2
LTYPE4
 70
    64
  3
CENTER
 72
    65
 73
     4
 40
8.0
 49
5.6
 49
-0.8
 49
0.8
 49
-0.8
  0
LTYPE
  2
LTYPE5
 70
    64
  3
CENTER
 72
    65
 73
     4
 40
10.0
 49
7.0
 49
-1.0
 49
1.0
 49
-1.0
  0
ENDTAB
  0
TABLE
  2
LAYER
 70
   128
  0
LAYER
  2
0
 70
     0
 62
     7
  6
CONTINUOUS
  0
LAYER
  2
2
 70
     0
 62
     7
  6
CONTINUOUS
  0
LAYER
  2
3
 70
     0
 62
     7
  6
CONTINUOUS
  0
LAYER
  2
4
 70
     0
 62
     7
  6
CONTINUOUS
  0
LAYER
  2
5
 70
     0
 62
     7
  6
CONTINUOUS
  0
LAYER
  2
6
 70
     0
 62
     7
  6
CONTINUOUS
  0
LAYER
  2
7
 70
     0
 62
     7
  6
CONTINUOUS
  0
LAYER
  2
8
 70
     0
 62
     7
  6
CONTINUOUS
  0
LAYER
  2
9
 70
     0
 62
     7
  6
CONTINUOUS
  0
LAYER
  2
10
 70
     0
 62
     7
  6
CONTINUOUS
  0
LAYER
  2
11
 70
     0
 62
     7
  6
CONTINUOUS
  0
LAYER
  2
12
 70
     0
 62
     7
  6
CONTINUOUS
  0
LAYER
  2
13
 70
     0
 62
     7
  6
CONTINUOUS
  0
LAYER
  2
14
 70
     0
 62
     7
  6
CONTINUOUS
  0
LAYER
  2
15
 70
     0
 62
     7
  6
CONTINUOUS
  0
LAYER
  2
16
 70
     0
 62
     7
  6
CONTINUOUS
  0
LAYER
  2
17
 70
     0
 62
     7
  6
CONTINUOUS
  0
LAYER
  2
18
 70
     0
 62
     7
  6
CONTINUOUS
  0
LAYER
  2
19
 70
     0
 62
     7
  6
CONTINUOUS
  0
LAYER
  2
20
 70
     0
 62
     7
  6
CONTINUOUS
  0
LAYER
  2
21
 70
     0
 62
     7
  6
CONTINUOUS
  0
LAYER
  2
22
 70
     0
 62
     7
  6
CONTINUOUS
  0
LAYER
  2
23
 70
     0
 62
     7
  6
CONTINUOUS
  0
LAYER
  2
24
 70
     0
 62
     7
  6
CONTINUOUS
  0
LAYER
  2
25
 70
     0
 62
     7
  6
CONTINUOUS
  0
LAYER
  2
26
 70
     0
 62
     7
  6
CONTINUOUS
  0
LAYER
  2
27
 70
     0
 62
     7
  6
CONTINUOUS
  0
LAYER
  2
28
 70
     0
 62
     7
  6
CONTINUOUS
  0
LAYER
  2
29
 70
     0
 62
     7
  6
CONTINUOUS
  0
LAYER
  2
30
 70
     0
 62
     7
  6
CONTINUOUS
  0
LAYER
  2
31
 70
     0
 62
     7
  6
CONTINUOUS
  0
LAYER
  2
32
 70
     0
 62
     7
  6
CONTINUOUS
  0
LAYER
  2
33
 70
     0
 62
     7
  6
CONTINUOUS
  0
LAYER
  2
34
 70
     0
 62
     7
  6
CONTINUOUS
  0
LAYER
  2
35
 70
     0
 62
     7
  6
CONTINUOUS
  0
LAYER
  2
36
 70
     0
 62
     7
  6
CONTINUOUS
  0
LAYER
  2
37
 70
     0
 62
     7
  6
CONTINUOUS
  0
LAYER
  2
38
 70
     0
 62
     7
  6
CONTINUOUS
  0
LAYER
  2
39
 70
     0
 62
     7
  6
CONTINUOUS
  0
LAYER
  2
40
 70
     0
 62
     7
  6
CONTINUOUS
  0
LAYER
  2
41
 70
     0
 62
     7
  6
CONTINUOUS
  0
LAYER
  2
42
 70
     0
 62
     7
  6
CONTINUOUS
  0
LAYER
  2
43
 70
     0
 62
     7
  6
CONTINUOUS
  0
LAYER
  2
44
 70
     0
 62
     7
  6
CONTINUOUS
  0
LAYER
  2
45
 70
     0
 62
     7
  6
CONTINUOUS
  0
LAYER
  2
46
 70
     0
 62
     7
  6
CONTINUOUS
  0
LAYER
  2
47
 70
     0
 62
     7
  6
CONTINUOUS
  0
LAYER
  2
48
 70
     0
 62
     7
  6
CONTINUOUS
  0
LAYER
  2
49
 70
     0
 62
     7
  6
CONTINUOUS
  0
LAYER
  2
50
 70
     0
 62
     7
  6
CONTINUOUS
  0
LAYER
  2
51
 70
     0
 62
     7
  6
CONTINUOUS
  0
LAYER
  2
52
 70
     0
 62
     7
  6
CONTINUOUS
  0
LAYER
  2
53
 70
     0
 62
     7
  6
CONTINUOUS
  0
LAYER
  2
54
 70
     0
 62
     7
  6
CONTINUOUS
  0
LAYER
  2
55
 70
     0
 62
     7
  6
CONTINUOUS
  0
LAYER
  2
56
 70
     0
 62
     7
  6
CONTINUOUS
  0
LAYER
  2
57
 70
     0
 62
     7
  6
CONTINUOUS
  0
LAYER
  2
58
 70
     0
 62
     7
  6
CONTINUOUS
  0
LAYER
  2
59
 70
     0
 62
     7
  6
CONTINUOUS
  0
LAYER
  2
60
 70
     0
 62
     7
  6
CONTINUOUS
  0
LAYER
  2
61
 70
     0
 62
     7
  6
CONTINUOUS
  0
LAYER
  2
62
 70
     0
 62
     7
  6
CONTINUOUS
  0
LAYER
  2
63
 70
     0
 62
     7
  6
CONTINUOUS
  0
LAYER
  2
64
 70
     0
 62
     7
  6
CONTINUOUS
  0
LAYER
  2
65
 70
     0
 62
     7
  6
CONTINUOUS
  0
LAYER
  2
66
 70
     0
 62
     7
  6
CONTINUOUS
  0
LAYER
  2
67
 70
     0
 62
     7
  6
CONTINUOUS
  0
LAYER
  2
68
 70
     0
 62
     7
  6
CONTINUOUS
  0
LAYER
  2
69
 70
     0
 62
     7
  6
CONTINUOUS
  0
LAYER
  2
70
 70
     0
 62
     7
  6
CONTINUOUS
  0
LAYER
  2
71
 70
     0
 62
     7
  6
CONTINUOUS
  0
LAYER
  2
72
 70
     0
 62
     7
  6
CONTINUOUS
  0
LAYER
  2
73
 70
     0
 62
     7
  6
CONTINUOUS
  0
LAYER
  2
74
 70
     0
 62
     7
  6
CONTINUOUS
  0
LAYER
  2
75
 70
     0
 62
     7
  6
CONTINUOUS
  0
LAYER
  2
76
 70
     0
 62
     7
  6
CONTINUOUS
  0
LAYER
  2
77
 70
     0
 62
     7
  6
CONTINUOUS
  0
LAYER
  2
78
 70
     0
 62
     7
  6
CONTINUOUS
  0
LAYER
  2
79
 70
     0
 62
     7
  6
CONTINUOUS
  0
LAYER
  2
80
 70
     0
 62
     7
  6
CONTINUOUS
  0
LAYER
  2
81
 70
     0
 62
     7
  6
CONTINUOUS
  0
LAYER
  2
82
 70
     0
 62
     7
  6
CONTINUOUS
  0
LAYER
  2
83
 70
     0
 62
     7
  6
CONTINUOUS
  0
LAYER
  2
84
 70
     0
 62
     7
  6
CONTINUOUS
  0
LAYER
  2
85
 70
     0
 62
     7
  6
CONTINUOUS
  0
LAYER
  2
86
 70
     0
 62
     7
  6
CONTINUOUS
  0
LAYER
  2
87
 70
     0
 62
     7
  6
CONTINUOUS
  0
LAYER
  2
88
 70
     0
 62
     7
  6
CONTINUOUS
  0
LAYER
  2
89
 70
     0
 62
     7
  6
CONTINUOUS
  0
LAYER
  2
90
 70
     0
 62
     7
  6
CONTINUOUS
  0
LAYER
  2
91
 70
     0
 62
     7
  6
CONTINUOUS
  0
LAYER
  2
92
 70
     0
 62
     7
  6
CONTINUOUS
  0
LAYER
  2
93
 70
     0
 62
     7
  6
CONTINUOUS
  0
LAYER
  2
94
 70
     0
 62
     7
  6
CONTINUOUS
  0
LAYER
  2
95
 70
     0
 62
     7
  6
CONTINUOUS
  0
LAYER
  2
96
 70
     0
 62
     7
  6
CONTINUOUS
  0
LAYER
  2
97
 70
     0
 62
     7
  6
CONTINUOUS
  0
LAYER
  2
98
 70
     0
 62
     7
  6
CONTINUOUS
  0
LAYER
  2
99
 70
     0
 62
     7
  6
CONTINUOUS
  0
LAYER
  2
100
 70
     0
 62
     7
  6
CONTINUOUS
  0
LAYER
  2
101
 70
     0
 62
     7
  6
CONTINUOUS
  0
LAYER
  2
102
 70
     0
 62
     7
  6
CONTINUOUS
  0
LAYER
  2
103
 70
     0
 62
     7
  6
CONTINUOUS
  0
LAYER
  2
104
 70
     0
 62
     7
  6
CONTINUOUS
  0
LAYER
  2
105
 70
     0
 62
     7
  6
CONTINUOUS
  0
LAYER
  2
106
 70
     0
 62
     7
  6
CONTINUOUS
  0
LAYER
  2
107
 70
     0
 62
     7
  6
CONTINUOUS
  0
LAYER
  2
108
 70
     0
 62
     7
  6
CONTINUOUS
  0
LAYER
  2
109
 70
     0
 62
     7
  6
CONTINUOUS
  0
LAYER
  2
110
 70
     0
 62
     7
  6
CONTINUOUS
  0
LAYER
  2
111
 70
     0
 62
     7
  6
CONTINUOUS
  0
LAYER
  2
112
 70
     0
 62
     7
  6
CONTINUOUS
  0
LAYER
  2
113
 70
     0
 62
     7
  6
CONTINUOUS
  0
LAYER
  2
114
 70
     0
 62
     7
  6
CONTINUOUS
  0
LAYER
  2
115
 70
     0
 62
     7
  6
CONTINUOUS
  0
LAYER
  2
116
 70
     0
 62
     7
  6
CONTINUOUS
  0
LAYER
  2
117
 70
     0
 62
     7
  6
CONTINUOUS
  0
LAYER
  2
118
 70
     0
 62
     7
  6
CONTINUOUS
  0
LAYER
  2
119
 70
     0
 62
     7
  6
CONTINUOUS
  0
LAYER
  2
120
 70
     0
 62
     7
  6
CONTINUOUS
  0
LAYER
  2
121
 70
     0
 62
     7
  6
CONTINUOUS
  0
LAYER
  2
122
 70
     0
 62
     7
  6
CONTINUOUS
  0
LAYER
  2
123
 70
     0
 62
     7
  6
CONTINUOUS
  0
LAYER
  2
124
 70
     0
 62
     7
  6
CONTINUOUS
  0
LAYER
  2
125
 70
     0
 62
     7
  6
CONTINUOUS
  0
LAYER
  2
126
 70
     0
 62
     7
  6
CONTINUOUS
  0
LAYER
  2
127
 70
     0
 62
     7
  6
CONTINUOUS
  0
LAYER
  2
128
 70
     0
 62
     7
  6
CONTINUOUS
  0
ENDTAB
  0
TABLE
  2
STYLE
 70
    11
  0
STYLE
  2
STANDARD
 70
     0
 40
0.0
 41
1.0
 50
0.0
 71
     0
 42
0.2
  3
txt.shx
  4
extfont.shx
  0
STYLE
  2
KANJI0
 70
     0
 40
2.0
 41
0.9
 50
0.0
 71
     0
 42
2.0
  3
txt.shx
  4
extfont.shx
  0
STYLE
  2
KANJI1
 70
     0
 40
3.0
 41
0.9
 50
0.0
 71
     0
 42
3.0
  3
txt.shx
  4
extfont.shx
  0
STYLE
  2
KANJI2
 70
     0
 40
3.0
 41
0.6
 50
0.0
 71
     0
 42
3.0
  3
txt.shx
  4
extfont.shx
  0
STYLE
  2
KANJI3
 70
     0
 40
3.0
 41
0.9
 50
0.0
 71
     0
 42
3.0
  3
txt.shx
  4
extfont.shx
  0
STYLE
  2
KANJI4
 70
     0
 40
1.8
 41
0.6
 50
0.0
 71
     0
 42
1.8
  3
txt.shx
  4
extfont.shx
  0
STYLE
  2
KANJI5
 70
     0
 40
4.0
 41
0.9
 50
0.0
 71
     0
 42
4.0
  3
txt.shx
  4
extfont.shx
  0
STYLE
  2
KANJI6
 70
     0
 40
2.0
 41
0.65
 50
0.0
 71
     0
 42
2.0
  3
txt.shx
  4
extfont.shx
  0
STYLE
  2
KANJI7
 70
     0
 40
2.0
 41
0.65
 50
0.0
 71
     0
 42
2.0
  3
txt.shx
  4
extfont.shx
  0
STYLE
  2
KANJI8
 70
     0
 40
1.0
 41
0.8
 50
0.0
 71
     0
 42
1.0
  3
txt.shx
  4
extfont.shx
  0
STYLE
  2
KANJI9
 70
     0
 40
5.8
 41
0.827586207
 50
0.0
 71
     0
 42
5.8
  3
txt.shx
  4
extfont.shx
  0
ENDTAB
  0
TABLE
  2
VIEW
 70
     0
  0
ENDTAB
  0
ENDSEC
  0
SECTION
  2
BLOCKS
  0
ENDSEC
  0
SECTION
  2
ENTITIES
  0
CIRCLE
  8
0
  6
CONTINUOUS
 62
     1
 10
85.0
 20
140.0
 30
0.0
 40
2.25
  0
LINE
  8
0
  6
CONTINUOUS
 62
     1
 10
81.464466094
 20
143.535533906
 30
0.0
 11
91.464466094
 21
153.535533906
 31
0.0
  0
LINE
  8
0
  6
CONTINUOUS
 62
     1
 10
81.464466094
 20
136.464466094
 30
0.0
 11
91.464466094
 21
126.464466094
 31
0.0
  0
ARC
  8
0
  6
CONTINUOUS
 62
     1
 10
85.0
 20
140.0
 30
0.0
 40
5.0
 50
135.0
 51
225.0
  0
CIRCLE
  8
0
  6
CONTINUOUS
 62
     1
 10
155.0
 20
140.0
 30
0.0
 40
2.25
  0
LINE
  8
0
  6
CONTINUOUS
 62
     1
 10
158.535533906
 20
143.535533906
 30
0.0
 11
148.535533906
 21
153.535533906
 31
0.0
  0
LINE
  8
0
  6
CONTINUOUS
 62
     1
 10
158.535533906
 20
136.464466094
 30
0.0
 11
148.535533906
 21
126.464466094
 31
0.0
  0
ARC
  8
0
  6
CONTINUOUS
 62
     1
 10
155.0
 20
140.0
 30
0.0
 40
5.0
 50
315.0
 51
45.0
  0
LINE
  8
0
  6
LTYPE1
 62
     2
 10
85.0
 20
143.0
 30
0.0
 11
85.0
 21
137.0
 31
0.0
  0
LINE
  8
0
  6
LTYPE1
 62
     2
 10
155.0
 20
143.0
 30
0.0
 11
155.0
 21
137.0
 31
0.0
  0
ARC
  8
0
  6
CONTINUOUS
 62
     1
 10
95.0
 20
130.0
 30
0.0
 40
5.0
 50
180.0
 51
270.0
  0
ARC
  8
0
  6
CONTINUOUS
 62
     1
 10
145.0
 20
130.0
 30
0.0
 40
5.0
 50
270.0
 51
0.0
  0
LINE
  8
0
  6
CONTINUOUS
 62
     1
 10
150.0
 20
130.0
 30
0.0
 11
150.0
 21
150.0
 31
0.0
  0
ARC
  8
0
  6
CONTINUOUS
 62
     1
 10
145.0
 20
150.0
 30
0.0
 40
5.0
 50
0.0
 51
90.0
  0
LINE
  8
0
  6
CONTINUOUS
 62
     1
 10
145.0
 20
155.0
 30
0.0
 11
95.0
 21
155.0
 31
0.0
  0
ARC
  8
0
  6
CONTINUOUS
 62
     1
 10
95.0
 20
150.0
 30
0.0
 40
5.0
 50
90.0
 51
180.0
  0
LINE
  8
0
  6
CONTINUOUS
 62
     1
 10
90.0
 20
150.0
 30
0.0
 11
90.0
 21
130.0
 31
0.0
  0
ARC
  8
0
  6
CONTINUOUS
 62
     1
 10
125.4
 20
129.0
 30
0.0
 40
1.0
 50
180.0
 51
0.0
  0
ARC
  8
0
  6
CONTINUOUS
 62
     1
 10
114.6
 20
129.0
 30
0.0
 40
1.0
 50
180.0
 51
0.0
  0
ARC
  8
0
  6
CONTINUOUS
 62
     1
 10
136.2
 20
129.0
 30
0.0
 40
1.0
 50
180.0
 51
270.0
  0
ARC
  8
0
  6
CONTINUOUS
 62
     1
 10
136.2
 20
151.0
 30
0.0
 40
1.0
 50
90.0
 51
180.0
  0
ARC
  8
0
  6
CONTINUOUS
 62
     1
 10
103.8
 20
129.0
 30
0.0
 40
1.0
 50
270.0
 51
0.0
  0
ARC
  8
0
  6
CONTINUOUS
 62
     1
 10
103.8
 20
151.0
 30
0.0
 40
1.0
 50
0.0
 51
90.0
  0
ARC
  8
0
  6
CONTINUOUS
 62
     1
 10
103.8
 20
129.0
 30
0.0
 40
1.0
 50
270.0
 51
0.0
  0
LINE
  8
0
  6
CONTINUOUS
 62
     1
 10
145.0
 20
125.0
 30
0.0
 11
95.0
 21
125.0
 31
0.0
  0
ARC
  8
0
  6
CONTINUOUS
 62
     1
 10
103.8
 20
151.0
 30
0.0
 40
1.0
 50
0.0
 51
90.0
  0
LINE
  8
0
  6
CONTINUOUS
 62
     1
 10
103.5
 20
151.0
 30
0.0
 11
103.5
 21
129.0
 31
0.0
  0
LINE
  8
0
  6
CONTINUOUS
 62
     1
 10
115.6
 20
129.0
 30
0.0
 11
115.6
 21
138.2
 31
0.0
  0
LINE
  8
0
  6
CONTINUOUS
 62
     1
 10
124.4
 20
129.0
 30
0.0
 11
124.4
 21
138.2
 31
0.0
  0
LINE
  8
0
  6
CONTINUOUS
 62
     1
 10
126.4
 20
129.0
 30
0.0
 11
126.4
 21
138.2
 31
0.0
  0
LINE
  8
0
  6
CONTINUOUS
 62
     1
 10
135.2
 20
129.0
 30
0.0
 11
135.2
 21
138.2
 31
0.0
  0
LINE
  8
0
  6
CONTINUOUS
 62
     1
 10
104.8
 20
129.0
 30
0.0
 11
104.8
 21
138.2
 31
0.0
  0
ARC
  8
0
  6
CONTINUOUS
 62
     1
 10
125.4
 20
151.0
 30
0.0
 40
1.0
 50
0.0
 51
180.0
  0
ARC
  8
0
  6
CONTINUOUS
 62
     1
 10
114.6
 20
151.0
 30
0.0
 40
1.0
 50
0.0
 51
180.0
  0
ARC
  8
0
  6
CONTINUOUS
 62
     1
 10
116.35
 20
141.4
 30
0.0
 40
0.4
 50
90.000477039
 51
269.99952394
  0
ARC
  8
0
  6
CONTINUOUS
 62
     1
 10
123.65
 20
141.4
 30
0.0
 40
0.4
 50
270.00047606
 51
89.999522961
  0
LINE
  8
0
  6
CONTINUOUS
 62
     1
 10
123.650003324
 20
141.0
 30
0.0
 11
116.349996676
 21
141.0
 31
0.0
  0
LINE
  8
0
  6
CONTINUOUS
 62
     1
 10
115.6
 20
141.8
 30
0.0
 11
124.4
 21
141.8
 31
0.0
  0
LINE
  8
0
  6
CONTINUOUS
 62
     1
 10
115.6
 20
151.0
 30
0.0
 11
115.6
 21
141.8
 31
0.0
  0
LINE
  8
0
  6
CONTINUOUS
 62
     1
 10
124.4
 20
151.0
 30
0.0
 11
124.4
 21
141.8
 31
0.0
  0
LINE
  8
0
  6
CONTINUOUS
 62
     1
 10
126.4
 20
151.0
 30
0.0
 11
126.4
 21
141.8
 31
0.0
  0
LINE
  8
0
  6
CONTINUOUS
 62
     1
 10
135.2
 20
151.0
 30
0.0
 11
135.2
 21
141.8
 31
0.0
  0
LINE
  8
0
  6
CONTINUOUS
 62
     1
 10
112.850003324
 20
141.0
 30
0.0
 11
105.549996676
 21
141.0
 31
0.0
  0
LINE
  8
0
  6
CONTINUOUS
 62
     1
 10
104.8
 20
151.0
 30
0.0
 11
104.8
 21
141.8
 31
0.0
  0
LINE
  8
0
  6
CONTINUOUS
 62
     1
 10
113.6
 20
151.0
 30
0.0
 11
113.6
 21
141.8
 31
0.0
  0
LINE
  8
0
  6
CONTINUOUS
 62
     1
 10
124.4
 20
148.2
 30
0.0
 11
115.6
 21
148.2
 31
0.0
  0
ARC
  8
0
  6
CONTINUOUS
 62
     1
 10
117.15
 20
148.6
 30
0.0
 40
0.4
 50
90.000278953
 51
269.999721047
  0
ARC
  8
0
  6
CONTINUOUS
 62
     1
 10
122.85
 20
148.6
 30
0.0
 40
0.4
 50
270.000278953
 51
89.999721047
  0
LINE
  8
0
  6
CONTINUOUS
 62
     1
 10
122.850001947
 20
149.0
 30
0.0
 11
117.149998053
 21
149.0
 31
0.0
  0
LINE
  8
0
  6
CONTINUOUS
 62
     1
 10
113.6
 20
129.0
 30
0.0
 11
113.6
 21
138.7
 31
0.0
  0
ARC
  8
0
  6
CONTINUOUS
 62
     1
 10
123.9
 20
141.3
 30
0.0
 40
0.5
 50
270.0
 51
0.0
  0
LINE
  8
0
  6
CONTINUOUS
 62
     1
 10
124.4
 20
141.8
 30
0.0
 11
124.4
 21
141.3
 31
0.0
  0
ARC
  8
0
  6
CONTINUOUS
 62
     1
 10
113.1
 20
141.3
 30
0.0
 40
0.5
 50
270.0
 51
0.0
  0
LINE
  8
0
  6
CONTINUOUS
 62
     1
 10
113.6
 20
151.0
 30
0.0
 11
113.6
 21
141.3
 31
0.0
  0
ARC
  8
0
  6
CONTINUOUS
 62
     1
 10
116.1
 20
141.3
 30
0.0
 40
0.5
 50
180.0
 51
270.0
  0
LINE
  8
0
  6
CONTINUOUS
 62
     1
 10
115.6
 20
141.8
 30
0.0
 11
115.6
 21
141.3
 31
0.0
  0
ARC
  8
0
  6
CONTINUOUS
 62
     1
 10
105.3
 20
141.3
 30
0.0
 40
0.5
 50
180.0
 51
270.0
  0
LINE
  8
0
  6
CONTINUOUS
 62
     1
 10
104.8
 20
141.8
 30
0.0
 11
104.8
 21
141.3
 31
0.0
  0
LINE
  8
0
  6
CONTINUOUS
 62
     1
 10
116.1
 20
140.8
 30
0.0
 11
123.9
 21
140.8
 31
0.0
  0
LINE
  8
0
  6
CONTINUOUS
 62
     1
 10
139.0
 20
144.2
 30
0.0
 11
137.7
 21
144.2
 31
0.0
  0
ARC
  8
0
  6
CONTINUOUS
 62
     1
 10
139.0
 20
143.7
 30
0.0
 40
0.5
 50
0.0
 51
90.0
  0
ARC
  8
0
  6
CONTINUOUS
 62
     1
 10
137.1
 20
151.4
 30
0.0
 40
0.6
 50
0.0
 51
180.0
  0
LINE
  8
0
  6
CONTINUOUS
 62
     1
 10
137.7
 20
144.2
 30
0.0
 11
137.7
 21
151.4
 31
0.0
  0
LINE
  8
0
  6
CONTINUOUS
 62
     1
 10
136.2
 20
152.0
 30
0.0
 11
137.1
 21
152.0
 31
0.0
  0
LINE
  8
0
  6
CONTINUOUS
 62
     1
 10
139.0
 20
135.8
 30
0.0
 11
137.7
 21
135.8
 31
0.0
  0
ARC
  8
0
  6
CONTINUOUS
 62
     1
 10
139.0
 20
136.3
 30
0.0
 40
0.5
 50
270.0
 51
0.0
  0
ARC
  8
0
  6
CONTINUOUS
 62
     1
 10
137.1
 20
128.6
 30
0.0
 40
0.6
 50
180.0
 51
0.0
  0
LINE
  8
0
  6
CONTINUOUS
 62
     1
 10
137.7
 20
135.8
 30
0.0
 11
137.7
 21
128.6
 31
0.0
  0
LINE
  8
0
  6
CONTINUOUS
 62
     1
 10
136.2
 20
128.0
 30
0.0
 11
137.1
 21
128.0
 31
0.0
  0
LINE
  8
0
  6
CONTINUOUS
 62
     1
 10
136.2
 20
128.0
 30
0.0
 11
137.1
 21
128.0
 31
0.0
  0
LINE
  8
0
  6
CONTINUOUS
 62
     1
 10
139.5
 20
143.7
 30
0.0
 11
139.5
 21
136.3
 31
0.0
  0
LINE
  8
0
  6
CONTINUOUS
 62
     1
 10
136.5
 20
151.4
 30
0.0
 11
136.5
 21
128.6
 31
0.0
  0
LINE
  8
0
  6
CONTINUOUS
 62
     1
 10
101.0
 20
144.2
 30
0.0
 11
102.3
 21
144.2
 31
0.0
  0
ARC
  8
0
  6
CONTINUOUS
 62
     1
 10
101.0
 20
143.7
 30
0.0
 40
0.5
 50
90.0
 51
180.0
  0
LINE
  8
0
  6
CONTINUOUS
 62
     1
 10
102.3
 20
144.2
 30
0.0
 11
102.3
 21
151.4
 31
0.0
  0
LINE
  8
0
  6
CONTINUOUS
 62
     1
 10
100.5
 20
143.7
 30
0.0
 11
100.5
 21
136.3
 31
0.0
  0
ARC
  8
0
  6
CONTINUOUS
 62
     1
 10
102.9
 20
151.4
 30
0.0
 40
0.6
 50
0.0
 51
180.0
  0
LINE
  8
0
  6
CONTINUOUS
 62
     1
 10
103.5
 20
151.4
 30
0.0
 11
103.5
 21
128.6
 31
0.0
  0
LINE
  8
0
  6
CONTINUOUS
 62
     1
 10
103.8
 20
152.0
 30
0.0
 11
102.9
 21
152.0
 31
0.0
  0
LINE
  8
0
  6
CONTINUOUS
 62
     1
 10
101.0
 20
135.8
 30
0.0
 11
102.3
 21
135.8
 31
0.0
  0
ARC
  8
0
  6
CONTINUOUS
 62
     1
 10
101.0
 20
136.3
 30
0.0
 40
0.5
 50
180.0
 51
270.0
  0
LINE
  8
0
  6
CONTINUOUS
 62
     1
 10
102.3
 20
135.8
 30
0.0
 11
102.3
 21
128.6
 31
0.0
  0
ARC
  8
0
  6
CONTINUOUS
 62
     1
 10
102.9
 20
128.6
 30
0.0
 40
0.6
 50
180.0
 51
0.0
  0
LINE
  8
0
  6
CONTINUOUS
 62
     1
 10
103.8
 20
128.0
 30
0.0
 11
102.9
 21
128.0
 31
0.0
  0
LINE
  8
0
  6
CONTINUOUS
 62
     1
 10
103.8
 20
128.0
 30
0.0
 11
102.9
 21
128.0
 31
0.0
  0
TEXT
  8
0
  6
CONTINUOUS
 62
     1
 10
115.1
 20
126.45
 30
0.2
 40
2.0
  1
ＭＥＴＥＲ
 50
0.0
 41
0.9
 51
0.0
  7
KANJI0
  0
TEXT
  8
0
  6
CONTINUOUS
 62
     1
 10
105.1
 20
126.15
 30
0.3
 40
3.0
  1
－
 50
0.0
 41
0.9
 51
0.0
  7
KANJI1
  0
TEXT
  8
0
  6
CONTINUOUS
 62
     1
 10
132.3
 20
126.15
 30
0.3
 40
3.0
  1
＋
 50
0.0
 41
0.9
 51
0.0
  7
KANJI1
  0
LINE
  8
0
  6
LTYPE2
 62
     2
 10
123.0
 20
145.0
 30
0.0
 11
117.0
 21
145.0
 31
0.0
  0
LINE
  8
0
  6
CONTINUOUS
 62
     1
 10
96.5
 20
77.5
 30
0.0
 11
99.5
 21
77.5
 31
0.0
  0
LINE
  8
0
  6
CONTINUOUS
 62
     1
 10
96.5
 20
40.5
 30
0.0
 11
96.5
 21
77.5
 31
0.0
  0
LINE
  8
0
  6
CONTINUOUS
 62
     1
 10
99.5
 20
77.5
 30
0.0
 11
99.5
 21
40.5
 31
0.0
  0
LINE
  8
0
  6
CONTINUOUS
 62
     1
 10
96.5
 20
42.5
 30
0.0
 11
99.5
 21
42.5
 31
0.0
  0
LINE
  8
0
  6
CONTINUOUS
 62
     1
 10
110.5
 20
42.5
 30
0.0
 11
109.5
 21
42.5
 31
0.0
  0
LINE
  8
0
  6
CONTINUOUS
 62
     1
 10
150.0
 20
82.5
 30
0.0
 11
150.0
 21
43.5
 31
0.0
  0
LINE
  8
0
  6
CONTINUOUS
 62
     1
 10
150.0
 20
40.5
 30
0.0
 11
81.0
 21
40.5
 31
0.0
  0
ARC
  8
0
  6
CONTINUOUS
 62
     1
 10
108.5
 20
44.0
 30
0.0
 40
0.5
 50
0.0
 51
90.0
  0
LINE
  8
0
  6
CONTINUOUS
 62
     1
 10
109.0
 20
44.0
 30
0.0
 11
109.0
 21
43.0
 31
0.0
  0
ARC
  8
0
  6
CONTINUOUS
 62
     1
 10
109.5
 20
43.0
 30
0.0
 40
0.5
 50
180.0
 51
270.0
  0
LINE
  8
0
  6
CONTINUOUS
 62
     1
 10
107.5
 20
44.5
 30
0.0
 11
108.5
 21
44.5
 31
0.0
  0
LINE
  8
0
  6
CONTINUOUS
 62
     1
 10
90.0
 20
40.2
 30
0.0
 11
80.0
 21
40.2
 31
0.0
  0
ARC
  8
0
  6
CONTINUOUS
 62
     1
 10
80.5
 20
42.7
 30
0.0
 40
0.5
 50
90.0
 51
180.0
  0
LINE
  8
0
  6
CONTINUOUS
 62
     1
 10
80.0
 20
40.2
 30
0.0
 11
80.0
 21
42.7
 31
0.0
  0
LINE
  8
0
  6
CONTINUOUS
 62
     1
 10
80.5
 20
43.2
 30
0.0
 11
89.5
 21
43.2
 31
0.0
  0
ARC
  8
0
  6
CONTINUOUS
 62
     1
 10
89.5
 20
43.7
 30
0.0
 40
0.5
 50
270.0
 51
0.0
  0
LINE
  8
0
  6
CONTINUOUS
 62
     1
 10
90.0
 20
43.7
 30
0.0
 11
90.0
 21
82.5
 31
0.0
  0
LINE
  8
0
  6
CONTINUOUS
 62
     1
 10
90.0
 20
40.5
 30
0.0
 11
90.0
 21
40.2
 31
0.0
  0
CIRCLE
  8
0
  6
CONTINUOUS
 62
     2
 10
144.0
 20
40.5
 30
0.0
 40
0.2
  0
LINE
  8
0
  6
LTYPE1
 62
     2
 10
85.0
 20
37.2
 30
0.0
 11
85.0
 21
46.2
 31
0.0
  0
LINE
  8
0
  6
LTYPE3
 62
     2
 10
87.25
 20
43.2
 30
0.0
 11
87.25
 21
40.2
 31
0.0
  0
LINE
  8
0
  6
LTYPE3
 62
     2
 10
82.75
 20
43.2
 30
0.0
 11
82.75
 21
40.2
 31
0.0
  0
LINE
  8
0
  6
CONTINUOUS
 62
     1
 10
121.5
 20
42.5
 30
0.0
 11
118.5
 21
42.5
 31
0.0
  0
LINE
  8
0
  6
CONTINUOUS
 62
     1
 10
143.5
 20
77.5
 30
0.0
 11
140.5
 21
77.5
 31
0.0
  0
LINE
  8
0
  6
CONTINUOUS
 62
     1
 10
143.5
 20
40.5
 30
0.0
 11
143.5
 21
77.5
 31
0.0
  0
LINE
  8
0
  6
CONTINUOUS
 62
     1
 10
140.5
 20
77.5
 30
0.0
 11
140.5
 21
40.5
 31
0.0
  0
LINE
  8
0
  6
CONTINUOUS
 62
     1
 10
143.5
 20
42.5
 30
0.0
 11
140.5
 21
42.5
 31
0.0
  0
LINE
  8
0
  6
CONTINUOUS
 62
     1
 10
129.5
 20
42.5
 30
0.0
 11
130.5
 21
42.5
 31
0.0
  0
ARC
  8
0
  6
CONTINUOUS
 62
     1
 10
131.5
 20
44.0
 30
0.0
 40
0.5
 50
90.0
 51
180.0
  0
LINE
  8
0
  6
CONTINUOUS
 62
     1
 10
131.0
 20
44.0
 30
0.0
 11
131.0
 21
43.0
 31
0.0
  0
ARC
  8
0
  6
CONTINUOUS
 62
     1
 10
130.5
 20
43.0
 30
0.0
 40
0.5
 50
270.0
 51
360.0
  0
LINE
  8
0
  6
CONTINUOUS
 62
     1
 10
132.5
 20
44.5
 30
0.0
 11
131.5
 21
44.5
 31
0.0
  0
LINE
  8
0
  6
CONTINUOUS
 62
     1
 10
150.0
 20
40.2
 30
0.0
 11
160.0
 21
40.2
 31
0.0
  0
ARC
  8
0
  6
CONTINUOUS
 62
     1
 10
159.5
 20
42.7
 30
0.0
 40
0.5
 50
0.0
 51
90.0
  0
LINE
  8
0
  6
CONTINUOUS
 62
     1
 10
160.0
 20
40.2
 30
0.0
 11
160.0
 21
42.7
 31
0.0
  0
LINE
  8
0
  6
CONTINUOUS
 62
     1
 10
159.5
 20
43.2
 30
0.0
 11
150.5
 21
43.2
 31
0.0
  0
ARC
  8
0
  6
CONTINUOUS
 62
     1
 10
150.5
 20
43.7
 30
0.0
 40
0.5
 50
180.0
 51
270.0
  0
LINE
  8
0
  6
CONTINUOUS
 62
     1
 10
150.0
 20
40.5
 30
0.0
 11
150.0
 21
40.2
 31
0.0
  0
LINE
  8
0
  6
LTYPE3
 62
     2
 10
152.75
 20
43.2
 30
0.0
 11
152.75
 21
40.2
 31
0.0
  0
LINE
  8
0
  6
LTYPE3
 62
     2
 10
157.25
 20
43.2
 30
0.0
 11
157.25
 21
40.2
 31
0.0
  0
LINE
  8
0
  6
LTYPE1
 62
     2
 10
155.0
 20
37.2
 30
0.0
 11
155.0
 21
46.2
 31
0.0
  0
LINE
  8
0
  6
CONTINUOUS
 62
     1
 10
90.0
 20
83.5
 30
0.0
 11
90.0
 21
82.5
 31
0.0
  0
ARC
  8
0
  6
CONTINUOUS
 62
     1
 10
91.5
 20
83.5
 30
0.0
 40
1.5
 50
90.0
 51
180.0
  0
ARC
  8
0
  6
CONTINUOUS
 62
     1
 10
148.5
 20
83.5
 30
0.0
 40
1.5
 50
0.0
 51
90.0
  0
LINE
  8
0
  6
CONTINUOUS
 62
     1
 10
98.5
 20
85.0
 30
0.0
 11
91.5
 21
85.0
 31
0.0
  0
ARC
  8
0
  6
CONTINUOUS
 62
     1
 10
100.0
 20
85.5
 30
0.0
 40
0.5
 50
270.0
 51
360.0
  0
LINE
  8
0
  6
CONTINUOUS
 62
     1
 10
115.6
 20
87.0
 30
0.0
 11
120.0
 21
87.0
 31
0.0
  0
LINE
  8
0
  6
CONTINUOUS
 62
     1
 10
148.5
 20
85.0
 30
0.0
 11
140.0
 21
85.0
 31
0.0
  0
LINE
  8
0
  6
CONTINUOUS
 62
     1
 10
120.0
 20
85.0
 30
0.0
 11
98.5
 21
85.0
 31
0.0
  0
ARC
  8
0
  6
CONTINUOUS
 62
     1
 10
140.0
 20
85.5
 30
0.0
 40
0.5
 50
180.0
 51
270.0
  0
LINE
  8
0
  6
CONTINUOUS
 62
     1
 10
124.4
 20
87.0
 30
0.0
 11
120.0
 21
87.0
 31
0.0
  0
LINE
  8
0
  6
CONTINUOUS
 62
     1
 10
120.0
 20
85.0
 30
0.0
 11
141.5
 21
85.0
 31
0.0
  0
LINE
  8
0
  6
CONTINUOUS
 62
     1
 10
150.0
 20
82.5
 30
0.0
 11
150.0
 21
83.5
 31
0.0
  0
LINE
  8
0
  6
CONTINUOUS
 62
     2
 10
90.0
 20
151.0
 30
0.0
 11
90.0
 21
165.0
 31
0.0
  0
LINE
  8
0
  6
CONTINUOUS
 62
     2
 10
90.0
 20
163.0
 30
0.0
 11
92.414814566
 21
162.352952387
 31
0.0
  0
LINE
  8
0
  6
CONTINUOUS
 62
     2
 10
90.0
 20
163.0
 30
0.0
 11
92.414814566
 21
163.647047613
 31
0.0
  0
LINE
  8
0
  6
CONTINUOUS
 62
     2
 10
90.0
 20
163.0
 30
0.0
 11
150.0
 21
163.0
 31
0.0
  0
LINE
  8
0
  6
CONTINUOUS
 62
     2
 10
150.0
 20
163.0
 30
0.0
 11
147.585185434
 21
163.647047613
 31
0.0
  0
LINE
  8
0
  6
CONTINUOUS
 62
     2
 10
150.0
 20
163.0
 30
0.0
 11
147.585185434
 21
162.352952387
 31
0.0
  0
LINE
  8
0
  6
CONTINUOUS
 62
     2
 10
150.0
 20
151.0
 30
0.0
 11
150.0
 21
165.0
 31
0.0
  0
TEXT
  8
0
  6
CONTINUOUS
 62
     2
 10
118.05
 20
164.0
 30
0.3
 40
3.0
  1
６０
 50
0.0
 41
0.6
 51
0.0
  7
KANJI2
  0
LINE
  8
0
  6
CONTINUOUS
 62
     2
 10
80.0
 20
141.0
 30
0.0
 11
80.0
 21
175.0
 31
0.0
  0
LINE
  8
0
  6
CONTINUOUS
 62
     2
 10
80.0
 20
173.0
 30
0.0
 11
82.414814566
 21
172.352952387
 31
0.0
  0
LINE
  8
0
  6
CONTINUOUS
 62
     2
 10
80.0
 20
173.0
 30
0.0
 11
82.414814566
 21
173.647047613
 31
0.0
  0
LINE
  8
0
  6
CONTINUOUS
 62
     2
 10
80.0
 20
173.0
 30
0.0
 11
160.0
 21
173.0
 31
0.0
  0
LINE
  8
0
  6
CONTINUOUS
 62
     2
 10
160.0
 20
173.0
 30
0.0
 11
157.585185434
 21
173.647047613
 31
0.0
  0
LINE
  8
0
  6
CONTINUOUS
 62
     2
 10
160.0
 20
173.0
 30
0.0
 11
157.585185434
 21
172.352952387
 31
0.0
  0
LINE
  8
0
  6
CONTINUOUS
 62
     2
 10
160.0
 20
141.0
 30
0.0
 11
160.0
 21
175.0
 31
0.0
  0
TEXT
  8
0
  6
CONTINUOUS
 62
     2
 10
118.05
 20
174.0
 30
0.3
 40
3.0
  1
８０
 50
0.0
 41
0.6
 51
0.0
  7
KANJI2
  0
LINE
  8
0
  6
CONTINUOUS
 62
     2
 10
94.0
 20
155.0
 30
0.0
 11
72.0
 21
155.0
 31
0.0
  0
LINE
  8
0
  6
CONTINUOUS
 62
     2
 10
74.0
 20
155.0
 30
0.0
 11
73.352952387
 21
152.585185434
 31
0.0
  0
LINE
  8
0
  6
CONTINUOUS
 62
     2
 10
74.0
 20
155.0
 30
0.0
 11
74.647047613
 21
152.585185434
 31
0.0
  0
LINE
  8
0
  6
CONTINUOUS
 62
     2
 10
74.0
 20
155.0
 30
0.0
 11
74.0
 21
125.0
 31
0.0
  0
LINE
  8
0
  6
CONTINUOUS
 62
     2
 10
74.0
 20
125.0
 30
0.0
 11
74.647047613
 21
127.414814566
 31
0.0
  0
LINE
  8
0
  6
CONTINUOUS
 62
     2
 10
74.0
 20
125.0
 30
0.0
 11
73.352952387
 21
127.414814566
 31
0.0
  0
LINE
  8
0
  6
CONTINUOUS
 62
     2
 10
94.0
 20
125.0
 30
0.0
 11
72.0
 21
125.0
 31
0.0
  0
TEXT
  8
0
  6
CONTINUOUS
 62
     2
 10
73.0
 20
138.05
 30
0.3
 40
3.0
  1
３０
 50
90.0
 41
0.6
 51
0.0
  7
KANJI2
  0
LINE
  8
0
  6
CONTINUOUS
 62
     1
 10
113.2
 20
147.75
 30
0.0
 11
112.7
 21
147.25
 31
0.0
  0
LINE
  8
0
  6
CONTINUOUS
 62
     1
 10
113.2
 20
142.25
 30
0.0
 11
112.7
 21
142.75
 31
0.0
  0
LINE
  8
0
  6
CONTINUOUS
 62
     1
 10
113.2
 20
141.0
 30
0.0
 11
113.2
 21
142.25
 31
0.0
  0
LINE
  8
0
  6
CONTINUOUS
 62
     1
 10
112.7
 20
142.75
 30
0.0
 11
112.7
 21
147.25
 31
0.0
  0
LINE
  8
0
  6
CONTINUOUS
 62
     1
 10
105.2
 20
147.75
 30
0.0
 11
105.7
 21
147.25
 31
0.0
  0
LINE
  8
0
  6
CONTINUOUS
 62
     1
 10
105.2
 20
142.25
 30
0.0
 11
105.7
 21
142.75
 31
0.0
  0
LINE
  8
0
  6
CONTINUOUS
 62
     1
 10
105.2
 20
141.0
 30
0.0
 11
105.2
 21
142.25
 31
0.0
  0
LINE
  8
0
  6
CONTINUOUS
 62
     1
 10
105.7
 20
142.75
 30
0.0
 11
105.7
 21
147.25
 31
0.0
  0
LINE
  8
0
  6
CONTINUOUS
 62
     1
 10
105.2
 20
141.0
 30
0.0
 11
113.2
 21
141.0
 31
0.0
  0
ARC
  8
0
  6
CONTINUOUS
 62
     1
 10
107.2
 20
141.1125
 30
0.0
 40
0.5125
 50
192.680383492
 51
347.319616508
  0
ARC
  8
0
  6
CONTINUOUS
 62
     1
 10
111.2
 20
141.1125
 30
0.0
 40
0.5125
 50
192.680383492
 51
347.319616508
  0
LINE
  8
0
  6
CONTINUOUS
 62
     1
 10
112.45
 20
148.2
 30
0.0
 11
113.2
 21
148.2
 31
0.0
  0
LINE
  8
0
  6
CONTINUOUS
 62
     1
 10
112.45
 20
149.0
 30
0.0
 11
112.45
 21
148.2
 31
0.0
  0
LINE
  8
0
  6
CONTINUOUS
 62
     1
 10
105.95
 20
149.0
 30
0.0
 11
105.95
 21
148.2
 31
0.0
  0
LINE
  8
0
  6
CONTINUOUS
 62
     1
 10
105.2
 20
148.2
 30
0.0
 11
105.95
 21
148.2
 31
0.0
  0
LINE
  8
0
  6
CONTINUOUS
 62
     1
 10
112.7
 20
149.0
 30
0.0
 11
112.7
 21
148.2
 31
0.0
  0
LINE
  8
0
  6
CONTINUOUS
 62
     1
 10
105.7
 20
149.0
 30
0.0
 11
105.7
 21
148.2
 31
0.0
  0
LINE
  8
0
  6
CONTINUOUS
 62
     1
 10
113.2
 20
148.2
 30
0.0
 11
113.2
 21
147.75
 31
0.0
  0
LINE
  8
0
  6
CONTINUOUS
 62
     1
 10
112.7
 20
149.0
 30
0.0
 11
105.7
 21
149.0
 31
0.0
  0
LINE
  8
0
  6
CONTINUOUS
 62
     1
 10
105.2
 20
148.2
 30
0.0
 11
105.2
 21
147.75
 31
0.0
  0
LINE
  8
0
  6
LTYPE4
 62
     2
 10
109.2
 20
150.0
 30
0.0
 11
109.2
 21
140.0
 31
0.0
  0
LINE
  8
0
  6
LTYPE5
 62
     2
 10
107.2
 20
140.0
 30
0.0
 11
107.2
 21
141.75
 31
0.0
  0
LINE
  8
0
  6
LTYPE5
 62
     2
 10
111.2
 20
140.0
 30
0.0
 11
111.2
 21
141.75
 31
0.0
  0
LINE
  8
0
  6
LTYPE1
 62
     2
 10
114.2
 20
145.0
 30
0.0
 11
104.2
 21
145.0
 31
0.0
  0
LINE
  8
0
  6
LTYPE1
 62
     2
 10
109.2
 20
150.0
 30
0.0
 11
109.2
 21
140.0
 31
0.0
  0
LINE
  8
0
  6
CONTINUOUS
 62
     1
 10
113.2
 20
141.8
 30
0.0
 11
113.6
 21
141.8
 31
0.0
  0
LINE
  8
0
  6
CONTINUOUS
 62
     1
 10
104.8
 20
141.8
 30
0.0
 11
105.2
 21
141.8
 31
0.0
  0
LINE
  8
0
  6
CONTINUOUS
 62
     1
 10
105.3
 20
140.8
 30
0.0
 11
106.79379808
 21
140.8
 31
0.0
  0
LINE
  8
0
  6
CONTINUOUS
 62
     1
 10
111.60620192
 20
140.8
 30
0.0
 11
113.1
 21
140.8
 31
0.0
  0
LINE
  8
0
  6
CONTINUOUS
 62
     1
 10
107.60620192
 20
140.8
 30
0.0
 11
110.79379808
 21
140.8
 31
0.0
  0
LINE
  8
0
  6
CONTINUOUS
 62
     1
 10
134.450003324
 20
141.0
 30
0.0
 11
127.149996676
 21
141.0
 31
0.0
  0
ARC
  8
0
  6
CONTINUOUS
 62
     1
 10
134.7
 20
141.3
 30
0.0
 40
0.5
 50
270.0
 51
0.0
  0
ARC
  8
0
  6
CONTINUOUS
 62
     1
 10
126.9
 20
141.3
 30
0.0
 40
0.5
 50
180.0
 51
270.0
  0
LINE
  8
0
  6
CONTINUOUS
 62
     1
 10
126.4
 20
141.8
 30
0.0
 11
126.4
 21
141.3
 31
0.0
  0
LINE
  8
0
  6
CONTINUOUS
 62
     1
 10
134.8
 20
147.75
 30
0.0
 11
134.3
 21
147.25
 31
0.0
  0
LINE
  8
0
  6
CONTINUOUS
 62
     1
 10
134.8
 20
142.25
 30
0.0
 11
134.3
 21
142.75
 31
0.0
  0
LINE
  8
0
  6
CONTINUOUS
 62
     1
 10
134.8
 20
141.0
 30
0.0
 11
134.8
 21
142.25
 31
0.0
  0
LINE
  8
0
  6
CONTINUOUS
 62
     1
 10
134.3
 20
142.75
 30
0.0
 11
134.3
 21
147.25
 31
0.0
  0
LINE
  8
0
  6
CONTINUOUS
 62
     1
 10
126.8
 20
147.75
 30
0.0
 11
127.3
 21
147.25
 31
0.0
  0
LINE
  8
0
  6
CONTINUOUS
 62
     1
 10
126.8
 20
142.25
 30
0.0
 11
127.3
 21
142.75
 31
0.0
  0
LINE
  8
0
  6
CONTINUOUS
 62
     1
 10
126.8
 20
141.0
 30
0.0
 11
126.8
 21
142.25
 31
0.0
  0
LINE
  8
0
  6
CONTINUOUS
 62
     1
 10
127.3
 20
142.75
 30
0.0
 11
127.3
 21
147.25
 31
0.0
  0
LINE
  8
0
  6
CONTINUOUS
 62
     1
 10
126.8
 20
141.0
 30
0.0
 11
134.8
 21
141.0
 31
0.0
  0
ARC
  8
0
  6
CONTINUOUS
 62
     1
 10
128.8
 20
141.1125
 30
0.0
 40
0.5125
 50
192.680383492
 51
347.319616508
  0
ARC
  8
0
  6
CONTINUOUS
 62
     1
 10
132.8
 20
141.1125
 30
0.0
 40
0.5125
 50
192.680383492
 51
347.319616508
  0
LINE
  8
0
  6
CONTINUOUS
 62
     1
 10
134.05
 20
148.2
 30
0.0
 11
134.8
 21
148.2
 31
0.0
  0
LINE
  8
0
  6
CONTINUOUS
 62
     1
 10
134.05
 20
149.0
 30
0.0
 11
134.05
 21
148.2
 31
0.0
  0
LINE
  8
0
  6
CONTINUOUS
 62
     1
 10
127.55
 20
149.0
 30
0.0
 11
127.55
 21
148.2
 31
0.0
  0
LINE
  8
0
  6
CONTINUOUS
 62
     1
 10
126.8
 20
148.2
 30
0.0
 11
127.55
 21
148.2
 31
0.0
  0
LINE
  8
0
  6
CONTINUOUS
 62
     1
 10
134.3
 20
149.0
 30
0.0
 11
134.3
 21
148.2
 31
0.0
  0
LINE
  8
0
  6
CONTINUOUS
 62
     1
 10
127.3
 20
149.0
 30
0.0
 11
127.3
 21
148.2
 31
0.0
  0
LINE
  8
0
  6
CONTINUOUS
 62
     1
 10
134.8
 20
148.2
 30
0.0
 11
134.8
 21
147.75
 31
0.0
  0
LINE
  8
0
  6
CONTINUOUS
 62
     1
 10
134.3
 20
149.0
 30
0.0
 11
127.3
 21
149.0
 31
0.0
  0
LINE
  8
0
  6
CONTINUOUS
 62
     1
 10
126.8
 20
148.2
 30
0.0
 11
126.8
 21
147.75
 31
0.0
  0
LINE
  8
0
  6
LTYPE5
 62
     2
 10
128.8
 20
140.0
 30
0.0
 11
128.8
 21
141.75
 31
0.0
  0
LINE
  8
0
  6
LTYPE5
 62
     2
 10
132.8
 20
140.0
 30
0.0
 11
132.8
 21
141.75
 31
0.0
  0
LINE
  8
0
  6
LTYPE1
 62
     2
 10
135.8
 20
145.0
 30
0.0
 11
125.8
 21
145.0
 31
0.0
  0
LINE
  8
0
  6
CONTINUOUS
 62
     1
 10
134.8
 20
141.8
 30
0.0
 11
135.2
 21
141.8
 31
0.0
  0
LINE
  8
0
  6
CONTINUOUS
 62
     1
 10
126.4
 20
141.8
 30
0.0
 11
126.8
 21
141.8
 31
0.0
  0
LINE
  8
0
  6
CONTINUOUS
 62
     1
 10
126.9
 20
140.8
 30
0.0
 11
128.39379808
 21
140.8
 31
0.0
  0
LINE
  8
0
  6
CONTINUOUS
 62
     1
 10
133.20620192
 20
140.8
 30
0.0
 11
134.7
 21
140.8
 31
0.0
  0
LINE
  8
0
  6
CONTINUOUS
 62
     1
 10
129.20620192
 20
140.8
 30
0.0
 11
132.39379808
 21
140.8
 31
0.0
  0
CIRCLE
  8
0
  6
CONTINUOUS
 62
     1
 10
120.0
 20
135.0
 30
0.0
 40
2.2
  0
ARC
  8
0
  6
CONTINUOUS
 62
     1
 10
116.35
 20
138.6
 30
0.0
 40
0.4
 50
90.00047606
 51
269.999522961
  0
ARC
  8
0
  6
CONTINUOUS
 62
     1
 10
123.65
 20
138.6
 30
0.0
 40
0.4
 50
270.000477039
 51
89.99952394
  0
LINE
  8
0
  6
CONTINUOUS
 62
     1
 10
123.650003324
 20
139.0
 30
0.0
 11
116.349996676
 21
139.0
 31
0.0
  0
LINE
  8
0
  6
CONTINUOUS
 62
     1
 10
115.6
 20
138.2
 30
0.0
 11
124.4
 21
138.2
 31
0.0
  0
LINE
  8
0
  6
CONTINUOUS
 62
     1
 10
112.850003324
 20
139.0
 30
0.0
 11
105.549996676
 21
139.0
 31
0.0
  0
LINE
  8
0
  6
CONTINUOUS
 62
     1
 10
124.4
 20
131.8
 30
0.0
 11
115.6
 21
131.8
 31
0.0
  0
ARC
  8
0
  6
CONTINUOUS
 62
     1
 10
117.15
 20
131.4
 30
0.0
 40
0.4
 50
90.000278953
 51
269.999721047
  0
ARC
  8
0
  6
CONTINUOUS
 62
     1
 10
122.85
 20
131.4
 30
0.0
 40
0.4
 50
270.000278953
 51
89.999721047
  0
LINE
  8
0
  6
CONTINUOUS
 62
     1
 10
122.850001947
 20
131.0
 30
0.0
 11
117.149998053
 21
131.0
 31
0.0
  0
ARC
  8
0
  6
CONTINUOUS
 62
     1
 10
123.9
 20
138.7
 30
0.0
 40
0.5
 50
0.0
 51
90.0
  0
LINE
  8
0
  6
CONTINUOUS
 62
     1
 10
124.4
 20
138.2
 30
0.0
 11
124.4
 21
138.7
 31
0.0
  0
ARC
  8
0
  6
CONTINUOUS
 62
     1
 10
113.1
 20
138.7
 30
0.0
 40
0.5
 50
0.0
 51
90.0
  0
ARC
  8
0
  6
CONTINUOUS
 62
     1
 10
116.1
 20
138.7
 30
0.0
 40
0.5
 50
90.0
 51
180.0
  0
LINE
  8
0
  6
CONTINUOUS
 62
     1
 10
115.6
 20
138.2
 30
0.0
 11
115.6
 21
138.7
 31
0.0
  0
ARC
  8
0
  6
CONTINUOUS
 62
     1
 10
105.3
 20
138.7
 30
0.0
 40
0.5
 50
90.0
 51
180.0
  0
LINE
  8
0
  6
CONTINUOUS
 62
     1
 10
104.8
 20
138.2
 30
0.0
 11
104.8
 21
138.7
 31
0.0
  0
LINE
  8
0
  6
CONTINUOUS
 62
     1
 10
116.1
 20
139.2
 30
0.0
 11
123.9
 21
139.2
 31
0.0
  0
LINE
  8
0
  6
LTYPE2
 62
     2
 10
123.0
 20
135.0
 30
0.0
 11
117.0
 21
135.0
 31
0.0
  0
LINE
  8
0
  6
CONTINUOUS
 62
     1
 10
113.2
 20
132.25
 30
0.0
 11
112.7
 21
132.75
 31
0.0
  0
LINE
  8
0
  6
CONTINUOUS
 62
     1
 10
113.2
 20
137.75
 30
0.0
 11
112.7
 21
137.25
 31
0.0
  0
LINE
  8
0
  6
CONTINUOUS
 62
     1
 10
113.2
 20
139.0
 30
0.0
 11
113.2
 21
137.75
 31
0.0
  0
LINE
  8
0
  6
CONTINUOUS
 62
     1
 10
112.7
 20
137.25
 30
0.0
 11
112.7
 21
132.75
 31
0.0
  0
LINE
  8
0
  6
CONTINUOUS
 62
     1
 10
105.2
 20
132.25
 30
0.0
 11
105.7
 21
132.75
 31
0.0
  0
LINE
  8
0
  6
CONTINUOUS
 62
     1
 10
105.2
 20
137.75
 30
0.0
 11
105.7
 21
137.25
 31
0.0
  0
LINE
  8
0
  6
CONTINUOUS
 62
     1
 10
105.2
 20
139.0
 30
0.0
 11
105.2
 21
137.75
 31
0.0
  0
LINE
  8
0
  6
CONTINUOUS
 62
     1
 10
105.7
 20
137.25
 30
0.0
 11
105.7
 21
132.75
 31
0.0
  0
LINE
  8
0
  6
CONTINUOUS
 62
     1
 10
105.2
 20
139.0
 30
0.0
 11
113.2
 21
139.0
 31
0.0
  0
ARC
  8
0
  6
CONTINUOUS
 62
     1
 10
107.2
 20
138.8875
 30
0.0
 40
0.5125
 50
12.680383492
 51
167.319616508
  0
ARC
  8
0
  6
CONTINUOUS
 62
     1
 10
111.2
 20
138.8875
 30
0.0
 40
0.5125
 50
12.680383492
 51
167.319616508
  0
LINE
  8
0
  6
CONTINUOUS
 62
     1
 10
112.45
 20
131.8
 30
0.0
 11
113.2
 21
131.8
 31
0.0
  0
LINE
  8
0
  6
CONTINUOUS
 62
     1
 10
112.45
 20
131.0
 30
0.0
 11
112.45
 21
131.8
 31
0.0
  0
LINE
  8
0
  6
CONTINUOUS
 62
     1
 10
105.95
 20
131.0
 30
0.0
 11
105.95
 21
131.8
 31
0.0
  0
LINE
  8
0
  6
CONTINUOUS
 62
     1
 10
105.2
 20
131.8
 30
0.0
 11
105.95
 21
131.8
 31
0.0
  0
LINE
  8
0
  6
CONTINUOUS
 62
     1
 10
112.7
 20
131.0
 30
0.0
 11
112.7
 21
131.8
 31
0.0
  0
LINE
  8
0
  6
CONTINUOUS
 62
     1
 10
105.7
 20
131.0
 30
0.0
 11
105.7
 21
131.8
 31
0.0
  0
LINE
  8
0
  6
CONTINUOUS
 62
     1
 10
113.2
 20
131.8
 30
0.0
 11
113.2
 21
132.25
 31
0.0
  0
LINE
  8
0
  6
CONTINUOUS
 62
     1
 10
112.7
 20
131.0
 30
0.0
 11
105.7
 21
131.0
 31
0.0
  0
LINE
  8
0
  6
CONTINUOUS
 62
     1
 10
105.2
 20
131.8
 30
0.0
 11
105.2
 21
132.25
 31
0.0
  0
LINE
  8
0
  6
LTYPE5
 62
     2
 10
107.2
 20
140.0
 30
0.0
 11
107.2
 21
138.25
 31
0.0
  0
LINE
  8
0
  6
LTYPE5
 62
     2
 10
111.2
 20
140.0
 30
0.0
 11
111.2
 21
138.25
 31
0.0
  0
LINE
  8
0
  6
LTYPE1
 62
     2
 10
114.2
 20
135.0
 30
0.0
 11
104.2
 21
135.0
 31
0.0
  0
LINE
  8
0
  6
LTYPE1
 62
     2
 10
109.2
 20
130.0
 30
0.0
 11
109.2
 21
140.0
 31
0.0
  0
LINE
  8
0
  6
CONTINUOUS
 62
     1
 10
113.2
 20
138.2
 30
0.0
 11
113.6
 21
138.2
 31
0.0
  0
LINE
  8
0
  6
CONTINUOUS
 62
     1
 10
104.8
 20
138.2
 30
0.0
 11
105.2
 21
138.2
 31
0.0
  0
LINE
  8
0
  6
CONTINUOUS
 62
     1
 10
105.3
 20
139.2
 30
0.0
 11
106.79379808
 21
139.2
 31
0.0
  0
LINE
  8
0
  6
CONTINUOUS
 62
     1
 10
111.60620192
 20
139.2
 30
0.0
 11
113.1
 21
139.2
 31
0.0
  0
LINE
  8
0
  6
CONTINUOUS
 62
     1
 10
107.60620192
 20
139.2
 30
0.0
 11
110.79379808
 21
139.2
 31
0.0
  0
LINE
  8
0
  6
CONTINUOUS
 62
     1
 10
134.450003324
 20
139.0
 30
0.0
 11
127.149996676
 21
139.0
 31
0.0
  0
ARC
  8
0
  6
CONTINUOUS
 62
     1
 10
134.7
 20
138.7
 30
0.0
 40
0.5
 50
0.0
 51
90.0
  0
ARC
  8
0
  6
CONTINUOUS
 62
     1
 10
126.9
 20
138.7
 30
0.0
 40
0.5
 50
90.0
 51
180.0
  0
LINE
  8
0
  6
CONTINUOUS
 62
     1
 10
126.4
 20
138.2
 30
0.0
 11
126.4
 21
138.7
 31
0.0
  0
LINE
  8
0
  6
CONTINUOUS
 62
     1
 10
134.8
 20
132.25
 30
0.0
 11
134.3
 21
132.75
 31
0.0
  0
LINE
  8
0
  6
CONTINUOUS
 62
     1
 10
134.8
 20
137.75
 30
0.0
 11
134.3
 21
137.25
 31
0.0
  0
LINE
  8
0
  6
CONTINUOUS
 62
     1
 10
134.8
 20
139.0
 30
0.0
 11
134.8
 21
137.75
 31
0.0
  0
LINE
  8
0
  6
CONTINUOUS
 62
     1
 10
134.3
 20
137.25
 30
0.0
 11
134.3
 21
132.75
 31
0.0
  0
LINE
  8
0
  6
CONTINUOUS
 62
     1
 10
126.8
 20
132.25
 30
0.0
 11
127.3
 21
132.75
 31
0.0
  0
LINE
  8
0
  6
CONTINUOUS
 62
     1
 10
126.8
 20
137.75
 30
0.0
 11
127.3
 21
137.25
 31
0.0
  0
LINE
  8
0
  6
CONTINUOUS
 62
     1
 10
126.8
 20
139.0
 30
0.0
 11
126.8
 21
137.75
 31
0.0
  0
LINE
  8
0
  6
CONTINUOUS
 62
     1
 10
127.3
 20
137.25
 30
0.0
 11
127.3
 21
132.75
 31
0.0
  0
LINE
  8
0
  6
CONTINUOUS
 62
     1
 10
126.8
 20
139.0
 30
0.0
 11
134.8
 21
139.0
 31
0.0
  0
ARC
  8
0
  6
CONTINUOUS
 62
     1
 10
128.8
 20
138.8875
 30
0.0
 40
0.5125
 50
12.680383492
 51
167.319616508
  0
ARC
  8
0
  6
CONTINUOUS
 62
     1
 10
132.8
 20
138.8875
 30
0.0
 40
0.5125
 50
12.680383492
 51
167.319616508
  0
LINE
  8
0
  6
CONTINUOUS
 62
     1
 10
134.05
 20
131.8
 30
0.0
 11
134.8
 21
131.8
 31
0.0
  0
LINE
  8
0
  6
CONTINUOUS
 62
     1
 10
134.05
 20
131.0
 30
0.0
 11
134.05
 21
131.8
 31
0.0
  0
LINE
  8
0
  6
CONTINUOUS
 62
     1
 10
127.55
 20
131.0
 30
0.0
 11
127.55
 21
131.8
 31
0.0
  0
LINE
  8
0
  6
CONTINUOUS
 62
     1
 10
126.8
 20
131.8
 30
0.0
 11
127.55
 21
131.8
 31
0.0
  0
LINE
  8
0
  6
CONTINUOUS
 62
     1
 10
134.3
 20
131.0
 30
0.0
 11
134.3
 21
131.8
 31
0.0
  0
LINE
  8
0
  6
CONTINUOUS
 62
     1
 10
127.3
 20
131.0
 30
0.0
 11
127.3
 21
131.8
 31
0.0
  0
LINE
  8
0
  6
CONTINUOUS
 62
     1
 10
134.8
 20
131.8
 30
0.0
 11
134.8
 21
132.25
 31
0.0
  0
LINE
  8
0
  6
CONTINUOUS
 62
     1
 10
134.3
 20
131.0
 30
0.0
 11
127.3
 21
131.0
 31
0.0
  0
LINE
  8
0
  6
CONTINUOUS
 62
     1
 10
126.8
 20
131.8
 30
0.0
 11
126.8
 21
132.25
 31
0.0
  0
LINE
  8
0
  6
LTYPE5
 62
     2
 10
128.8
 20
140.0
 30
0.0
 11
128.8
 21
138.25
 31
0.0
  0
LINE
  8
0
  6
LTYPE5
 62
     2
 10
132.8
 20
140.0
 30
0.0
 11
132.8
 21
138.25
 31
0.0
  0
LINE
  8
0
  6
LTYPE1
 62
     2
 10
135.8
 20
135.0
 30
0.0
 11
125.8
 21
135.0
 31
0.0
  0
LINE
  8
0
  6
CONTINUOUS
 62
     1
 10
134.8
 20
138.2
 30
0.0
 11
135.2
 21
138.2
 31
0.0
  0
LINE
  8
0
  6
CONTINUOUS
 62
     1
 10
126.4
 20
138.2
 30
0.0
 11
126.8
 21
138.2
 31
0.0
  0
LINE
  8
0
  6
CONTINUOUS
 62
     1
 10
126.9
 20
139.2
 30
0.0
 11
128.39379808
 21
139.2
 31
0.0
  0
LINE
  8
0
  6
CONTINUOUS
 62
     1
 10
133.20620192
 20
139.2
 30
0.0
 11
134.7
 21
139.2
 31
0.0
  0
LINE
  8
0
  6
CONTINUOUS
 62
     1
 10
129.20620192
 20
139.2
 30
0.0
 11
132.39379808
 21
139.2
 31
0.0
  0
LINE
  8
0
  6
CONTINUOUS
 62
     1
 10
135.2
 20
138.7
 30
0.0
 11
135.2
 21
138.2
 31
0.0
  0
LINE
  8
0
  6
CONTINUOUS
 62
     1
 10
135.2
 20
141.8
 30
0.0
 11
135.2
 21
141.3
 31
0.0
  0
LINE
  8
0
  6
CONTINUOUS
 62
     1
 10
105.2
 20
87.8
 30
0.0
 11
113.2
 21
87.8
 31
0.0
  0
LINE
  8
0
  6
CONTINUOUS
 62
     1
 10
105.2
 20
87.8
 30
0.0
 11
105.2
 21
87.0
 31
0.0
  0
LINE
  8
0
  6
CONTINUOUS
 62
     1
 10
113.2
 20
87.8
 30
0.0
 11
113.2
 21
87.0
 31
0.0
  0
LINE
  8
0
  6
CONTINUOUS
 62
     1
 10
112.45
 20
87.0
 30
0.0
 11
113.2
 21
87.0
 31
0.0
  0
LINE
  8
0
  6
CONTINUOUS
 62
     1
 10
105.2
 20
87.0
 30
0.0
 11
105.95
 21
87.0
 31
0.0
  0
LINE
  8
0
  6
CONTINUOUS
 62
     1
 10
126.8
 20
87.8
 30
0.0
 11
134.8
 21
87.8
 31
0.0
  0
LINE
  8
0
  6
CONTINUOUS
 62
     1
 10
126.8
 20
87.8
 30
0.0
 11
126.8
 21
87.0
 31
0.0
  0
LINE
  8
0
  6
CONTINUOUS
 62
     1
 10
134.8
 20
87.8
 30
0.0
 11
134.8
 21
87.0
 31
0.0
  0
LINE
  8
0
  6
CONTINUOUS
 62
     1
 10
134.05
 20
87.0
 30
0.0
 11
134.8
 21
87.0
 31
0.0
  0
LINE
  8
0
  6
CONTINUOUS
 62
     1
 10
126.8
 20
87.0
 30
0.0
 11
127.55
 21
87.0
 31
0.0
  0
LINE
  8
0
  6
CONTINUOUS
 62
     2
 10
79.0
 20
40.2
 30
0.0
 11
73.0
 21
40.2
 31
0.0
  0
LINE
  8
0
  6
CONTINUOUS
 62
     2
 10
75.0
 20
40.2
 30
0.0
 11
74.352952387
 21
37.785185434
 31
0.0
  0
LINE
  8
0
  6
CONTINUOUS
 62
     2
 10
75.0
 20
40.2
 30
0.0
 11
75.647047613
 21
37.785185434
 31
0.0
  0
LINE
  8
0
  6
CONTINUOUS
 62
     2
 10
75.0
 20
36.45
 30
0.0
 11
75.0
 21
40.2
 31
0.0
  0
LINE
  8
0
  6
CONTINUOUS
 62
     2
 10
75.0
 20
40.2
 30
0.0
 11
75.0
 21
43.2
 31
0.0
  0
LINE
  8
0
  6
CONTINUOUS
 62
     2
 10
75.0
 20
43.2
 30
0.0
 11
75.0
 21
46.95
 31
0.0
  0
LINE
  8
0
  6
CONTINUOUS
 62
     2
 10
75.0
 20
43.2
 30
0.0
 11
75.647047613
 21
45.614814566
 31
0.0
  0
LINE
  8
0
  6
CONTINUOUS
 62
     2
 10
75.0
 20
43.2
 30
0.0
 11
74.352952387
 21
45.614814566
 31
0.0
  0
LINE
  8
0
  6
CONTINUOUS
 62
     2
 10
80.0
 20
43.2
 30
0.0
 11
73.0
 21
43.2
 31
0.0
  0
TEXT
  8
0
  6
CONTINUOUS
 62
     2
 10
74.0
 20
40.8
 30
0.3
 40
3.0
  1
３
 50
90.0
 41
0.6
 51
0.0
  7
KANJI2
  0
LINE
  8
0
  6
CONTINUOUS
 62
     2
 10
74.0
 20
40.2
 30
0.0
 11
68.0
 21
40.2
 31
0.0
  0
LINE
  8
0
  6
CONTINUOUS
 62
     2
 10
70.0
 20
40.2
 30
0.0
 11
70.647047613
 21
42.614814566
 31
0.0
  0
LINE
  8
0
  6
CONTINUOUS
 62
     2
 10
70.0
 20
40.2
 30
0.0
 11
69.352952387
 21
42.614814566
 31
0.0
  0
LINE
  8
0
  6
CONTINUOUS
 62
     2
 10
70.0
 20
40.2
 30
0.0
 11
70.0
 21
85.0
 31
0.0
  0
LINE
  8
0
  6
CONTINUOUS
 62
     2
 10
70.0
 20
85.0
 30
0.0
 11
69.352952387
 21
82.585185434
 31
0.0
  0
LINE
  8
0
  6
CONTINUOUS
 62
     2
 10
70.0
 20
85.0
 30
0.0
 11
70.647047613
 21
82.585185434
 31
0.0
  0
LINE
  8
0
  6
CONTINUOUS
 62
     2
 10
90.5
 20
85.0
 30
0.0
 11
68.0
 21
85.0
 31
0.0
  0
TEXT
  8
0
  6
CONTINUOUS
 62
     2
 10
69.0
 20
58.55
 30
0.3
 40
3.0
  1
４４．８
 50
90.0
 41
0.6
 51
0.0
  7
KANJI2
  0
LINE
  8
0
  6
CONTINUOUS
 62
     2
 10
70.0
 20
85.0
 30
0.0
 11
70.647047613
 21
87.414814566
 31
0.0
  0
LINE
  8
0
  6
CONTINUOUS
 62
     2
 10
70.0
 20
85.0
 30
0.0
 11
69.352952387
 21
87.414814566
 31
0.0
  0
LINE
  8
0
  6
CONTINUOUS
 62
     2
 10
156.125
 20
138.051442841
 30
0.0
 11
156.772047613
 21
135.636628276
 31
0.0
  0
LINE
  8
0
  6
CONTINUOUS
 62
     2
 10
156.125
 20
138.051442841
 30
0.0
 11
157.892766953
 21
136.283675889
 31
0.0
  0
LINE
  8
0
  6
CONTINUOUS
 62
     2
 10
156.125
 20
138.051442841
 30
0.0
 11
164.092433715
 21
124.251442841
 31
0.0
  0
LINE
  8
0
  6
CONTINUOUS
 62
     2
 10
164.092433715
 20
124.251442841
 30
0.0
 11
183.442433715
 21
124.251442841
 31
0.0
  0
TEXT
  8
0
  6
CONTINUOUS
 62
     2
 10
164.092433715
 20
125.251442841
 30
0.3
 40
3.0
  1
２－φ４．５穴
 50
0.0
 41
0.9
 51
0.0
  7
KANJI3
  0
LINE
  8
0
  6
CONTINUOUS
 62
     1
 10
130.8
 20
87.8
 30
0.0
 11
131.377350269
 21
88.8
 31
0.0
  0
LINE
  8
0
  6
CONTINUOUS
 62
     1
 10
130.8
 20
88.8
 30
0.0
 11
130.222649731
 21
87.8
 31
0.0
  0
LINE
  8
0
  6
CONTINUOUS
 62
     1
 10
127.3
 20
87.8
 30
0.0
 11
134.3
 21
87.8
 31
0.0
  0
LINE
  8
0
  6
CONTINUOUS
 62
     2
 10
132.55
 20
131.968911087
 30
0.0
 11
133.197047613
 21
129.554096521
 31
0.0
  0
LINE
  8
0
  6
CONTINUOUS
 62
     2
 10
132.55
 20
131.968911087
 30
0.0
 11
134.317766953
 21
130.201144134
 31
0.0
  0
LINE
  8
0
  6
CONTINUOUS
 62
     2
 10
132.55
 20
131.968911087
 30
0.0
 11
142.422689603
 21
114.868911087
 31
0.0
  0
LINE
  8
0
  6
LTYPE2
 62
     2
 10
130.8
 20
149.968911087
 30
0.0
 11
130.8
 21
140.268911087
 31
0.0
  0
LINE
  8
0
  6
LTYPE2
 62
     2
 10
130.8
 20
129.968911087
 30
0.0
 11
130.8
 21
139.968911087
 31
0.0
  0
LINE
  8
0
  6
LTYPE2
 62
     2
 10
120.0
 20
148.0
 30
0.0
 11
120.0
 21
142.0
 31
0.0
  0
LINE
  8
0
  6
LTYPE2
 62
     2
 10
120.0
 20
138.0
 30
0.0
 11
120.0
 21
132.0
 31
0.0
  0
LINE
  8
0
  6
LTYPE4
 62
     2
 10
109.2
 20
93.0
 30
0.0
 11
109.2
 21
85.0
 31
0.0
  0
LINE
  8
0
  6
LTYPE4
 62
     2
 10
130.8
 20
93.0
 30
0.0
 11
130.8
 21
85.0
 31
0.0
  0
LINE
  8
0
  6
LTYPE4
 62
     2
 10
78.0
 20
140.0
 30
0.0
 11
163.0
 21
140.0
 31
0.0
  0
LINE
  8
0
  6
LTYPE4
 62
     2
 10
120.0
 20
159.0
 30
0.0
 11
120.0
 21
121.0
 31
0.0
  0
LINE
  8
0
  6
LTYPE4
 62
     2
 10
120.0
 20
97.0
 30
0.0
 11
120.0
 21
35.0
 31
0.0
  0
LINE
  8
0
  6
CONTINUOUS
 62
     2
 10
85.0
 20
141.0
 30
0.0
 11
85.0
 21
170.0
 31
0.0
  0
LINE
  8
0
  6
CONTINUOUS
 62
     2
 10
85.0
 20
168.0
 30
0.0
 11
87.414814566
 21
167.352952387
 31
0.0
  0
LINE
  8
0
  6
CONTINUOUS
 62
     2
 10
85.0
 20
168.0
 30
0.0
 11
87.414814566
 21
168.647047613
 31
0.0
  0
LINE
  8
0
  6
CONTINUOUS
 62
     2
 10
85.0
 20
168.0
 30
0.0
 11
155.0
 21
168.0
 31
0.0
  0
LINE
  8
0
  6
CONTINUOUS
 62
     2
 10
155.0
 20
168.0
 30
0.0
 11
152.585185434
 21
168.647047613
 31
0.0
  0
LINE
  8
0
  6
CONTINUOUS
 62
     2
 10
155.0
 20
168.0
 30
0.0
 11
152.585185434
 21
167.352952387
 31
0.0
  0
LINE
  8
0
  6
CONTINUOUS
 62
     2
 10
155.0
 20
141.0
 30
0.0
 11
155.0
 21
170.0
 31
0.0
  0
TEXT
  8
0
  6
CONTINUOUS
 62
     2
 10
115.62
 20
169.0
 30
0.3
 40
3.0
  1
７０
 50
0.0
 41
0.6
 51
0.0
  7
KANJI2
  0
TEXT
  8
0
  6
CONTINUOUS
 62
     2
 10
119.97
 20
169.0
 30
0.18
 40
1.8
  1
±０．５
 50
0.0
 41
0.6
 51
0.0
  7
KANJI4
  0
LINE
  8
0
  6
CONTINUOUS
 62
     5
 10
103.5
 20
142.864705882
 30
0.0
 11
103.7
 21
142.9
 31
0.0
  0
LINE
  8
0
  6
CONTINUOUS
 62
     5
 10
103.5
 20
137.135294118
 30
0.0
 11
103.7
 21
137.1
 31
0.0
  0
LINE
  8
0
  6
CONTINUOUS
 62
     5
 10
136.5
 20
142.864705882
 30
0.0
 11
136.3
 21
142.9
 31
0.0
  0
LINE
  8
0
  6
CONTINUOUS
 62
     5
 10
136.5
 20
137.135294118
 30
0.0
 11
136.3
 21
137.1
 31
0.0
  0
LINE
  8
0
  6
CONTINUOUS
 62
     1
 10
127.8
 20
88.8
 30
0.0
 11
127.852683782
 21
89.80526644
 31
0.0
  0
ARC
  8
0
  6
CONTINUOUS
 62
     1
 10
128.951176178
 20
89.747695125
 30
0.0
 40
1.1
 50
105.542047534
 51
177.0
  0
LINE
  8
0
  6
CONTINUOUS
 62
     1
 10
133.8
 20
88.8
 30
0.0
 11
133.747316218
 21
89.80526644
 31
0.0
  0
ARC
  8
0
  6
CONTINUOUS
 62
     1
 10
132.648823822
 20
89.747695125
 30
0.0
 40
1.1
 50
3.0
 51
74.457952466
  0
LINE
  8
0
  6
CONTINUOUS
 62
     1
 10
127.8
 20
88.8
 30
0.0
 11
133.8
 21
88.8
 31
0.0
  0
LINE
  8
0
  6
CONTINUOUS
 62
     1
 10
130.3
 20
89.85
 30
0.0
 11
131.3
 21
89.85
 31
0.0
  0
ARC
  8
0
  6
CONTINUOUS
 62
     1
 10
130.8
 20
83.1
 30
0.0
 40
8.0
 50
93.583321698
 51
105.542040591
  0
ARC
  8
0
  6
CONTINUOUS
 62
     1
 10
130.8
 20
83.1
 30
0.0
 40
8.0
 50
74.457945295
 51
86.416678302
  0
LINE
  8
0
  6
CONTINUOUS
 62
     1
 10
130.3
 20
91.084359711
 30
0.0
 11
130.3
 21
89.85
 31
0.0
  0
LINE
  8
0
  6
CONTINUOUS
 62
     1
 10
131.3
 20
89.85
 30
0.0
 11
131.3
 21
91.084359711
 31
0.0
  0
LINE
  8
0
  6
CONTINUOUS
 62
     1
 10
133.8
 20
87.8
 30
0.0
 11
133.8
 21
88.8
 31
0.0
  0
LINE
  8
0
  6
CONTINUOUS
 62
     1
 10
127.8
 20
88.8
 30
0.0
 11
127.8
 21
87.8
 31
0.0
  0
LINE
  8
0
  6
CONTINUOUS
 62
     1
 10
127.8
 20
88.8
 30
0.0
 11
133.8
 21
88.8
 31
0.0
  0
LINE
  8
0
  6
CONTINUOUS
 62
     1
 10
109.2
 20
87.8
 30
0.0
 11
109.777350269
 21
88.8
 31
0.0
  0
LINE
  8
0
  6
CONTINUOUS
 62
     1
 10
109.2
 20
88.8
 30
0.0
 11
108.622649731
 21
87.8
 31
0.0
  0
LINE
  8
0
  6
CONTINUOUS
 62
     1
 10
105.7
 20
87.8
 30
0.0
 11
112.7
 21
87.8
 31
0.0
  0
LINE
  8
0
  6
CONTINUOUS
 62
     1
 10
106.2
 20
88.8
 30
0.0
 11
106.252683782
 21
89.80526644
 31
0.0
  0
ARC
  8
0
  6
CONTINUOUS
 62
     1
 10
107.351176178
 20
89.747695125
 30
0.0
 40
1.1
 50
105.542047534
 51
177.0
  0
LINE
  8
0
  6
CONTINUOUS
 62
     1
 10
112.2
 20
88.8
 30
0.0
 11
112.147316218
 21
89.80526644
 31
0.0
  0
ARC
  8
0
  6
CONTINUOUS
 62
     1
 10
111.048823822
 20
89.747695125
 30
0.0
 40
1.1
 50
3.0
 51
74.457952466
  0
LINE
  8
0
  6
CONTINUOUS
 62
     1
 10
106.2
 20
88.8
 30
0.0
 11
112.2
 21
88.8
 31
0.0
  0
LINE
  8
0
  6
CONTINUOUS
 62
     1
 10
108.7
 20
89.85
 30
0.0
 11
109.7
 21
89.85
 31
0.0
  0
ARC
  8
0
  6
CONTINUOUS
 62
     1
 10
109.2
 20
83.1
 30
0.0
 40
8.0
 50
93.583321698
 51
105.542040591
  0
ARC
  8
0
  6
CONTINUOUS
 62
     1
 10
109.2
 20
83.1
 30
0.0
 40
8.0
 50
74.457945295
 51
86.416678302
  0
LINE
  8
0
  6
CONTINUOUS
 62
     1
 10
108.7
 20
91.084359711
 30
0.0
 11
108.7
 21
89.85
 31
0.0
  0
LINE
  8
0
  6
CONTINUOUS
 62
     1
 10
109.7
 20
89.85
 30
0.0
 11
109.7
 21
91.084359711
 31
0.0
  0
LINE
  8
0
  6
CONTINUOUS
 62
     1
 10
112.2
 20
87.8
 30
0.0
 11
112.2
 21
88.8
 31
0.0
  0
LINE
  8
0
  6
CONTINUOUS
 62
     1
 10
106.2
 20
88.8
 30
0.0
 11
106.2
 21
87.8
 31
0.0
  0
LINE
  8
0
  6
CONTINUOUS
 62
     1
 10
106.2
 20
88.8
 30
0.0
 11
112.2
 21
88.8
 31
0.0
  0
LINE
  8
0
  6
CONTINUOUS
 62
     1
 10
135.2
 20
148.2
 30
0.0
 11
126.4
 21
148.2
 31
0.0
  0
LINE
  8
0
  6
CONTINUOUS
 62
     1
 10
113.6
 20
148.2
 30
0.0
 11
104.8
 21
148.2
 31
0.0
  0
LINE
  8
0
  6
CONTINUOUS
 62
     1
 10
113.6
 20
131.8
 30
0.0
 11
104.8
 21
131.8
 31
0.0
  0
LINE
  8
0
  6
CONTINUOUS
 62
     1
 10
135.2
 20
131.8
 30
0.0
 11
126.4
 21
131.8
 31
0.0
  0
CIRCLE
  8
0
  6
CONTINUOUS
 62
     1
 10
109.2
 20
135.0
 30
0.0
 40
3.0
  0
LINE
  8
0
  6
CONTINUOUS
 62
     1
 10
111.1
 20
134.5
 30
0.0
 11
111.1
 21
135.5
 31
0.0
  0
LINE
  8
0
  6
CONTINUOUS
 62
     1
 10
107.3
 20
135.5
 30
0.0
 11
107.3
 21
134.5
 31
0.0
  0
LINE
  8
0
  6
CONTINUOUS
 62
     1
 10
108.3
 20
135.5
 30
0.0
 11
107.3
 21
135.5
 31
0.0
  0
ARC
  8
0
  6
CONTINUOUS
 62
     1
 10
108.3
 20
135.9
 30
0.0
 40
0.4
 50
270.0
 51
0.0
  0
LINE
  8
0
  6
CONTINUOUS
 62
     1
 10
111.1
 20
135.5
 30
0.0
 11
110.1
 21
135.5
 31
0.0
  0
ARC
  8
0
  6
CONTINUOUS
 62
     1
 10
110.1
 20
135.9
 30
0.0
 40
0.4
 50
180.0
 51
270.0
  0
LINE
  8
0
  6
CONTINUOUS
 62
     1
 10
110.1
 20
134.5
 30
0.0
 11
111.1
 21
134.5
 31
0.0
  0
ARC
  8
0
  6
CONTINUOUS
 62
     1
 10
110.1
 20
134.1
 30
0.0
 40
0.4
 50
90.0
 51
180.0
  0
LINE
  8
0
  6
CONTINUOUS
 62
     1
 10
107.3
 20
134.5
 30
0.0
 11
108.3
 21
134.5
 31
0.0
  0
ARC
  8
0
  6
CONTINUOUS
 62
     1
 10
108.3
 20
134.1
 30
0.0
 40
0.4
 50
0.0
 51
90.0
  0
LINE
  8
0
  6
CONTINUOUS
 62
     2
 10
142.422689603
 20
114.868911087
 30
0.0
 11
165.8
 21
114.868911087
 31
0.0
  0
LINE
  8
0
  6
CONTINUOUS
 62
     1
 10
108.7
 20
137.958039892
 30
0.0
 11
108.7
 21
135.9
 31
0.0
  0
LINE
  8
0
  6
CONTINUOUS
 62
     1
 10
109.7
 20
135.9
 30
0.0
 11
109.7
 21
137.958039892
 31
0.0
  0
LINE
  8
0
  6
CONTINUOUS
 62
     1
 10
108.7
 20
134.1
 30
0.0
 11
108.7
 21
132.041960108
 31
0.0
  0
LINE
  8
0
  6
CONTINUOUS
 62
     1
 10
109.7
 20
132.041960108
 30
0.0
 11
109.7
 21
134.1
 31
0.0
  0
CIRCLE
  8
0
  6
CONTINUOUS
 62
     1
 10
130.8
 20
135.0
 30
0.0
 40
3.0
  0
LINE
  8
0
  6
CONTINUOUS
 62
     1
 10
132.7
 20
134.5
 30
0.0
 11
132.7
 21
135.5
 31
0.0
  0
LINE
  8
0
  6
CONTINUOUS
 62
     1
 10
128.9
 20
135.5
 30
0.0
 11
128.9
 21
134.5
 31
0.0
  0
LINE
  8
0
  6
CONTINUOUS
 62
     1
 10
129.9
 20
135.5
 30
0.0
 11
128.9
 21
135.5
 31
0.0
  0
ARC
  8
0
  6
CONTINUOUS
 62
     1
 10
129.9
 20
135.9
 30
0.0
 40
0.4
 50
270.0
 51
0.0
  0
LINE
  8
0
  6
CONTINUOUS
 62
     1
 10
132.7
 20
135.5
 30
0.0
 11
131.7
 21
135.5
 31
0.0
  0
ARC
  8
0
  6
CONTINUOUS
 62
     1
 10
131.7
 20
135.9
 30
0.0
 40
0.4
 50
180.0
 51
270.0
  0
LINE
  8
0
  6
CONTINUOUS
 62
     1
 10
131.7
 20
134.5
 30
0.0
 11
132.7
 21
134.5
 31
0.0
  0
ARC
  8
0
  6
CONTINUOUS
 62
     1
 10
131.7
 20
134.1
 30
0.0
 40
0.4
 50
90.0
 51
180.0
  0
LINE
  8
0
  6
CONTINUOUS
 62
     1
 10
128.9
 20
134.5
 30
0.0
 11
129.9
 21
134.5
 31
0.0
  0
ARC
  8
0
  6
CONTINUOUS
 62
     1
 10
129.9
 20
134.1
 30
0.0
 40
0.4
 50
0.0
 51
90.0
  0
LINE
  8
0
  6
CONTINUOUS
 62
     1
 10
130.3
 20
137.958039892
 30
0.0
 11
130.3
 21
135.9
 31
0.0
  0
LINE
  8
0
  6
CONTINUOUS
 62
     1
 10
131.3
 20
135.9
 30
0.0
 11
131.3
 21
137.958039892
 31
0.0
  0
LINE
  8
0
  6
CONTINUOUS
 62
     1
 10
130.3
 20
134.1
 30
0.0
 11
130.3
 21
132.041960108
 31
0.0
  0
LINE
  8
0
  6
CONTINUOUS
 62
     1
 10
131.3
 20
132.041960108
 30
0.0
 11
131.3
 21
134.1
 31
0.0
  0
CIRCLE
  8
0
  6
CONTINUOUS
 62
     1
 10
130.8
 20
145.0
 30
0.0
 40
3.0
  0
LINE
  8
0
  6
CONTINUOUS
 62
     1
 10
132.7
 20
144.5
 30
0.0
 11
132.7
 21
145.5
 31
0.0
  0
LINE
  8
0
  6
CONTINUOUS
 62
     1
 10
128.9
 20
145.5
 30
0.0
 11
128.9
 21
144.5
 31
0.0
  0
LINE
  8
0
  6
CONTINUOUS
 62
     1
 10
129.9
 20
145.5
 30
0.0
 11
128.9
 21
145.5
 31
0.0
  0
ARC
  8
0
  6
CONTINUOUS
 62
     1
 10
129.9
 20
145.9
 30
0.0
 40
0.4
 50
270.0
 51
0.0
  0
LINE
  8
0
  6
CONTINUOUS
 62
     1
 10
132.7
 20
145.5
 30
0.0
 11
131.7
 21
145.5
 31
0.0
  0
ARC
  8
0
  6
CONTINUOUS
 62
     1
 10
131.7
 20
145.9
 30
0.0
 40
0.4
 50
180.0
 51
270.0
  0
LINE
  8
0
  6
CONTINUOUS
 62
     1
 10
131.7
 20
144.5
 30
0.0
 11
132.7
 21
144.5
 31
0.0
  0
ARC
  8
0
  6
CONTINUOUS
 62
     1
 10
131.7
 20
144.1
 30
0.0
 40
0.4
 50
90.0
 51
180.0
  0
LINE
  8
0
  6
CONTINUOUS
 62
     1
 10
128.9
 20
144.5
 30
0.0
 11
129.9
 21
144.5
 31
0.0
  0
ARC
  8
0
  6
CONTINUOUS
 62
     1
 10
129.9
 20
144.1
 30
0.0
 40
0.4
 50
0.0
 51
90.0
  0
LINE
  8
0
  6
CONTINUOUS
 62
     1
 10
130.3
 20
147.958039892
 30
0.0
 11
130.3
 21
145.9
 31
0.0
  0
LINE
  8
0
  6
CONTINUOUS
 62
     1
 10
131.3
 20
145.9
 30
0.0
 11
131.3
 21
147.958039892
 31
0.0
  0
LINE
  8
0
  6
CONTINUOUS
 62
     1
 10
130.3
 20
144.1
 30
0.0
 11
130.3
 21
142.041960108
 31
0.0
  0
LINE
  8
0
  6
CONTINUOUS
 62
     1
 10
131.3
 20
142.041960108
 30
0.0
 11
131.3
 21
144.1
 31
0.0
  0
CIRCLE
  8
0
  6
CONTINUOUS
 62
     1
 10
109.2
 20
145.0
 30
0.0
 40
3.0
  0
LINE
  8
0
  6
CONTINUOUS
 62
     1
 10
111.1
 20
144.5
 30
0.0
 11
111.1
 21
145.5
 31
0.0
  0
LINE
  8
0
  6
CONTINUOUS
 62
     1
 10
107.3
 20
145.5
 30
0.0
 11
107.3
 21
144.5
 31
0.0
  0
LINE
  8
0
  6
CONTINUOUS
 62
     1
 10
108.3
 20
145.5
 30
0.0
 11
107.3
 21
145.5
 31
0.0
  0
ARC
  8
0
  6
CONTINUOUS
 62
     1
 10
108.3
 20
145.9
 30
0.0
 40
0.4
 50
270.0
 51
0.0
  0
LINE
  8
0
  6
CONTINUOUS
 62
     1
 10
111.1
 20
145.5
 30
0.0
 11
110.1
 21
145.5
 31
0.0
  0
ARC
  8
0
  6
CONTINUOUS
 62
     1
 10
110.1
 20
145.9
 30
0.0
 40
0.4
 50
180.0
 51
270.0
  0
LINE
  8
0
  6
CONTINUOUS
 62
     1
 10
110.1
 20
144.5
 30
0.0
 11
111.1
 21
144.5
 31
0.0
  0
ARC
  8
0
  6
CONTINUOUS
 62
     1
 10
110.1
 20
144.1
 30
0.0
 40
0.4
 50
90.0
 51
180.0
  0
LINE
  8
0
  6
CONTINUOUS
 62
     1
 10
107.3
 20
144.5
 30
0.0
 11
108.3
 21
144.5
 31
0.0
  0
ARC
  8
0
  6
CONTINUOUS
 62
     1
 10
108.3
 20
144.1
 30
0.0
 40
0.4
 50
0.0
 51
90.0
  0
LINE
  8
0
  6
CONTINUOUS
 62
     1
 10
108.7
 20
147.958039892
 30
0.0
 11
108.7
 21
145.9
 31
0.0
  0
LINE
  8
0
  6
CONTINUOUS
 62
     1
 10
109.7
 20
145.9
 30
0.0
 11
109.7
 21
147.958039892
 31
0.0
  0
LINE
  8
0
  6
CONTINUOUS
 62
     1
 10
108.7
 20
144.1
 30
0.0
 11
108.7
 21
142.041960108
 31
0.0
  0
LINE
  8
0
  6
CONTINUOUS
 62
     1
 10
109.7
 20
142.041960108
 30
0.0
 11
109.7
 21
144.1
 31
0.0
  0
TEXT
  8
0
  6
CONTINUOUS
 62
     1
 10
114.3
 20
76.0
 30
0.4
 40
4.0
  1
銘　板
 50
0.0
 41
0.9
 51
0.0
  7
KANJI5
  0
LINE
  8
0
  6
CONTINUOUS
 62
     1
 10
90.0
 20
82.5
 30
0.0
 11
150.0
 21
82.5
 31
0.0
  0
ARC
  8
0
  6
CONTINUOUS
 62
     1
 10
101.0
 20
81.5
 30
0.0
 40
1.0
 50
90.0
 51
180.0
  0
LINE
  8
0
  6
CONTINUOUS
 62
     1
 10
100.0
 20
81.5
 30
0.0
 11
100.0
 21
73.5
 31
0.0
  0
LINE
  8
0
  6
CONTINUOUS
 62
     1
 10
139.0
 20
82.5
 30
0.0
 11
101.0
 21
82.5
 31
0.0
  0
ARC
  8
0
  6
CONTINUOUS
 62
     1
 10
101.0
 20
73.5
 30
0.0
 40
1.0
 50
180.0
 51
270.0
  0
LINE
  8
0
  6
CONTINUOUS
 62
     1
 10
140.0
 20
73.5
 30
0.0
 11
140.0
 21
81.5
 31
0.0
  0
ARC
  8
0
  6
CONTINUOUS
 62
     1
 10
139.0
 20
81.5
 30
0.0
 40
1.0
 50
0.0
 51
90.0
  0
ARC
  8
0
  6
CONTINUOUS
 62
     1
 10
139.0
 20
73.5
 30
0.0
 40
1.0
 50
270.0
 51
0.0
  0
LINE
  8
0
  6
CONTINUOUS
 62
     1
 10
101.0
 20
72.5
 30
0.0
 11
139.0
 21
72.5
 31
0.0
  0
TEXT
  8
0
  6
CONTINUOUS
 62
     2
 10
64.225941958
 20
115.868911087
 30
0.3
 40
3.0
  1
ワンタッチ脱着式端子カバー
 50
0.0
 41
0.9
 51
0.0
  7
KANJI3
  0
LINE
  8
0
  6
CONTINUOUS
 62
     5
 10
136.3
 20
142.9
 30
0.0
 11
136.3
 21
152.0
 31
0.0
  0
LINE
  8
0
  6
CONTINUOUS
 62
     5
 10
103.7
 20
152.0
 30
0.0
 11
103.7
 21
142.9
 31
0.0
  0
LINE
  8
0
  6
CONTINUOUS
 62
     5
 10
136.3
 20
128.0
 30
0.0
 11
136.3
 21
137.1
 31
0.0
  0
LINE
  8
0
  6
CONTINUOUS
 62
     5
 10
103.7
 20
137.1
 30
0.0
 11
103.7
 21
128.0
 31
0.0
  0
LINE
  8
0
  6
CONTINUOUS
 62
     5
 10
103.5
 20
142.864705882
 30
0.0
 11
103.7
 21
142.9
 31
0.0
  0
LINE
  8
0
  6
CONTINUOUS
 62
     5
 10
103.5
 20
137.135294118
 30
0.0
 11
103.7
 21
137.1
 31
0.0
  0
LINE
  8
0
  6
CONTINUOUS
 62
     5
 10
136.5
 20
142.864705882
 30
0.0
 11
136.3
 21
142.9
 31
0.0
  0
LINE
  8
0
  6
CONTINUOUS
 62
     5
 10
136.5
 20
137.135294118
 30
0.0
 11
136.3
 21
137.1
 31
0.0
  0
LINE
  8
0
  6
CONTINUOUS
 62
     5
 10
136.3
 20
142.9
 30
0.0
 11
136.3
 21
152.0
 31
0.0
  0
LINE
  8
0
  6
CONTINUOUS
 62
     5
 10
103.7
 20
152.0
 30
0.0
 11
103.7
 21
142.9
 31
0.0
  0
LINE
  8
0
  6
CONTINUOUS
 62
     5
 10
136.3
 20
128.0
 30
0.0
 11
136.3
 21
137.1
 31
0.0
  0
LINE
  8
0
  6
CONTINUOUS
 62
     5
 10
103.7
 20
137.1
 30
0.0
 11
103.7
 21
128.0
 31
0.0
  0
LINE
  8
0
  6
CONTINUOUS
 62
     5
 10
103.5
 20
142.864705882
 30
0.0
 11
103.7
 21
142.9
 31
0.0
  0
LINE
  8
0
  6
CONTINUOUS
 62
     5
 10
103.5
 20
137.135294118
 30
0.0
 11
103.7
 21
137.1
 31
0.0
  0
LINE
  8
0
  6
CONTINUOUS
 62
     5
 10
136.5
 20
142.864705882
 30
0.0
 11
136.3
 21
142.9
 31
0.0
  0
LINE
  8
0
  6
CONTINUOUS
 62
     5
 10
136.5
 20
137.135294118
 30
0.0
 11
136.3
 21
137.1
 31
0.0
  0
ARC
  8
0
  6
CONTINUOUS
 62
     1
 10
101.0
 20
96.8
 30
0.0
 40
0.5
 50
90.0
 51
180.0
  0
LINE
  8
0
  6
CONTINUOUS
 62
     1
 10
103.5
 20
94.8
 30
0.0
 11
103.5
 21
96.8
 31
0.0
  0
LINE
  8
0
  6
CONTINUOUS
 62
     1
 10
103.0
 20
97.3
 30
0.0
 11
101.0
 21
97.3
 31
0.0
  0
ARC
  8
0
  6
CONTINUOUS
 62
     1
 10
103.0
 20
96.8
 30
0.0
 40
0.5
 50
360.0
 51
90.0
  0
LINE
  8
0
  6
CONTINUOUS
 62
     1
 10
103.5
 20
94.8
 30
0.0
 11
136.5
 21
94.8
 31
0.0
  0
ARC
  8
0
  6
CONTINUOUS
 62
     1
 10
115.1
 20
94.3
 30
0.0
 40
0.5
 50
0.0
 51
90.0
  0
ARC
  8
0
  6
CONTINUOUS
 62
     1
 10
114.1
 20
94.3
 30
0.0
 40
0.5
 50
90.0
 51
180.0
  0
ARC
  8
0
  6
CONTINUOUS
 62
     1
 10
104.3
 20
94.3
 30
0.0
 40
0.5
 50
0.0
 51
90.0
  0
ARC
  8
0
  6
CONTINUOUS
 62
     1
 10
102.8
 20
96.8
 30
0.0
 40
0.5
 50
90.0
 51
180.0
  0
ARC
  8
0
  6
CONTINUOUS
 62
     1
 10
139.0
 20
96.8
 30
0.0
 40
0.5
 50
0.0
 51
90.0
  0
LINE
  8
0
  6
CONTINUOUS
 62
     1
 10
136.5
 20
94.8
 30
0.0
 11
136.5
 21
96.8
 31
0.0
  0
LINE
  8
0
  6
CONTINUOUS
 62
     1
 10
137.0
 20
97.3
 30
0.0
 11
139.0
 21
97.3
 31
0.0
  0
ARC
  8
0
  6
CONTINUOUS
 62
     1
 10
137.0
 20
96.8
 30
0.0
 40
0.5
 50
90.0
 51
180.0
  0
ARC
  8
0
  6
CONTINUOUS
 62
     1
 10
124.9
 20
94.3
 30
0.0
 40
0.5
 50
90.0
 51
180.0
  0
ARC
  8
0
  6
CONTINUOUS
 62
     1
 10
125.9
 20
94.3
 30
0.0
 40
0.5
 50
0.0
 51
90.0
  0
ARC
  8
0
  6
CONTINUOUS
 62
     1
 10
135.7
 20
94.3
 30
0.0
 40
0.5
 50
90.0
 51
180.0
  0
ARC
  8
0
  6
CONTINUOUS
 62
     1
 10
137.2
 20
96.8
 30
0.0
 40
0.5
 50
360.0
 51
90.0
  0
LINE
  8
0
  6
CONTINUOUS
 62
     5
 10
103.5
 20
95.3
 30
0.0
 11
136.5
 21
95.3
 31
0.0
  0
LINE
  8
0
  6
CONTINUOUS
 62
     1
 10
104.8
 20
85.0
 30
0.0
 11
104.8
 21
94.3
 31
0.0
  0
LINE
  8
0
  6
CONTINUOUS
 62
     1
 10
113.6
 20
85.0
 30
0.0
 11
113.6
 21
94.3
 31
0.0
  0
LINE
  8
0
  6
CONTINUOUS
 62
     1
 10
115.6
 20
85.0
 30
0.0
 11
115.6
 21
94.3
 31
0.0
  0
LINE
  8
0
  6
CONTINUOUS
 62
     1
 10
124.4
 20
85.0
 30
0.0
 11
124.4
 21
94.3
 31
0.0
  0
LINE
  8
0
  6
CONTINUOUS
 62
     1
 10
126.4
 20
85.0
 30
0.0
 11
126.4
 21
94.3
 31
0.0
  0
LINE
  8
0
  6
CONTINUOUS
 62
     1
 10
135.2
 20
85.0
 30
0.0
 11
135.2
 21
94.3
 31
0.0
  0
LINE
  8
0
  6
CONTINUOUS
 62
     1
 10
137.7
 20
96.8
 30
0.0
 11
137.7
 21
85.0
 31
0.0
  0
LINE
  8
0
  6
CONTINUOUS
 62
     1
 10
139.5
 20
85.5
 30
0.0
 11
139.5
 21
96.8
 31
0.0
  0
LINE
  8
0
  6
CONTINUOUS
 62
     1
 10
100.5
 20
85.5
 30
0.0
 11
100.5
 21
96.8
 31
0.0
  0
LINE
  8
0
  6
CONTINUOUS
 62
     1
 10
102.3
 20
96.8
 30
0.0
 11
102.3
 21
85.0
 31
0.0
  0
LINE
  8
0
  6
CONTINUOUS
 62
     2
 10
70.0
 20
97.3
 30
0.0
 11
69.352952387
 21
94.885185434
 31
0.0
  0
LINE
  8
0
  6
CONTINUOUS
 62
     2
 10
70.0
 20
97.3
 30
0.0
 11
70.647047613
 21
94.885185434
 31
0.0
  0
LINE
  8
0
  6
CONTINUOUS
 62
     2
 10
100.0
 20
97.3
 30
0.0
 11
68.0
 21
97.3
 31
0.0
  0
LINE
  8
0
  6
CONTINUOUS
 62
     2
 10
70.0
 20
85.0
 30
0.0
 11
70.0
 21
97.3
 31
0.0
  0
LINE
  8
0
  6
CONTINUOUS
 62
     5
 10
104.2
 20
126.0
 30
0.0
 11
135.8
 21
126.0
 31
0.0
  0
LINE
  8
0
  6
CONTINUOUS
 62
     2
 10
109.918504542
 20
126.0
 30
0.0
 11
108.150737589
 21
124.232233047
 31
0.0
  0
LINE
  8
0
  6
CONTINUOUS
 62
     2
 10
109.918504542
 20
126.0
 30
0.0
 11
109.27145693
 21
123.585185434
 31
0.0
  0
LINE
  8
0
  6
CONTINUOUS
 62
     5
 10
104.2
 20
126.0
 30
0.0
 11
135.8
 21
126.0
 31
0.0
  0
LINE
  8
0
  6
CONTINUOUS
 62
     5
 10
104.2
 20
126.0
 30
0.0
 11
135.8
 21
126.0
 31
0.0
  0
ARC
  8
0
  6
CONTINUOUS
 62
     5
 10
104.2
 20
126.5
 30
0.0
 40
0.5
 50
180.0
 51
270.0
  0
ARC
  8
0
  6
CONTINUOUS
 62
     5
 10
104.2
 20
126.5
 30
0.0
 40
0.5
 50
180.0
 51
270.0
  0
ARC
  8
0
  6
CONTINUOUS
 62
     5
 10
104.2
 20
126.5
 30
0.0
 40
0.5
 50
180.0
 51
270.0
  0
ARC
  8
0
  6
CONTINUOUS
 62
     5
 10
135.8
 20
126.5
 30
0.0
 40
0.5
 50
270.0
 51
360.0
  0
ARC
  8
0
  6
CONTINUOUS
 62
     5
 10
135.8
 20
126.5
 30
0.0
 40
0.5
 50
270.0
 51
360.0
  0
ARC
  8
0
  6
CONTINUOUS
 62
     5
 10
135.8
 20
126.5
 30
0.0
 40
0.5
 50
270.0
 51
360.0
  0
ARC
  8
0
  6
CONTINUOUS
 62
     5
 10
104.2
 20
153.5
 30
0.0
 40
0.5
 50
90.0
 51
180.0
  0
LINE
  8
0
  6
CONTINUOUS
 62
     5
 10
135.8
 20
154.0
 30
0.0
 11
104.2
 21
154.0
 31
0.0
  0
ARC
  8
0
  6
CONTINUOUS
 62
     5
 10
135.8
 20
153.5
 30
0.0
 40
0.5
 50
360.0
 51
90.0
  0
ARC
  8
0
  6
CONTINUOUS
 62
     5
 10
104.2
 20
153.5
 30
0.0
 40
0.5
 50
90.0
 51
180.0
  0
LINE
  8
0
  6
CONTINUOUS
 62
     5
 10
135.8
 20
154.0
 30
0.0
 11
104.2
 21
154.0
 31
0.0
  0
ARC
  8
0
  6
CONTINUOUS
 62
     5
 10
135.8
 20
153.5
 30
0.0
 40
0.5
 50
360.0
 51
90.0
  0
ARC
  8
0
  6
CONTINUOUS
 62
     5
 10
104.2
 20
153.5
 30
0.0
 40
0.5
 50
90.0
 51
180.0
  0
LINE
  8
0
  6
CONTINUOUS
 62
     5
 10
135.8
 20
154.0
 30
0.0
 11
104.2
 21
154.0
 31
0.0
  0
ARC
  8
0
  6
CONTINUOUS
 62
     5
 10
135.8
 20
153.5
 30
0.0
 40
0.5
 50
360.0
 51
90.0
  0
LINE
  8
0
  6
CONTINUOUS
 62
     5
 10
103.7
 20
153.5
 30
0.0
 11
103.7
 21
142.9
 31
0.0
  0
LINE
  8
0
  6
CONTINUOUS
 62
     5
 10
136.3
 20
142.9
 30
0.0
 11
136.3
 21
153.5
 31
0.0
  0
LINE
  8
0
  6
CONTINUOUS
 62
     5
 10
103.7
 20
137.1
 30
0.0
 11
103.7
 21
126.5
 31
0.0
  0
LINE
  8
0
  6
CONTINUOUS
 62
     5
 10
136.3
 20
126.5
 30
0.0
 11
136.3
 21
137.1
 31
0.0
  0
LINE
  8
0
  6
CONTINUOUS
 62
     5
 10
114.890354019
 20
126.0
 30
0.0
 11
136.3
 21
142.418440169
 31
0.0
  0
LINE
  8
0
  6
CONTINUOUS
 62
     5
 10
128.036708039
 20
126.0
 30
0.0
 11
136.3
 21
132.336880339
 31
0.0
  0
LINE
  8
0
  6
CONTINUOUS
 62
     5
 10
124.750119534
 20
126.0
 30
0.0
 11
136.3
 21
134.857270296
 31
0.0
  0
LINE
  8
0
  6
CONTINUOUS
 62
     5
 10
121.463531029
 20
126.0
 30
0.0
 11
136.3
 21
137.377660254
 31
0.0
  0
LINE
  8
0
  6
CONTINUOUS
 62
     5
 10
118.176942524
 20
126.0
 30
0.0
 11
136.3
 21
139.898050212
 31
0.0
  0
LINE
  8
0
  6
CONTINUOUS
 62
     5
 10
131.323296543
 20
126.0
 30
0.0
 11
136.3
 21
129.816490381
 31
0.0
  0
LINE
  8
0
  6
CONTINUOUS
 62
     5
 10
111.603765514
 20
126.0
 30
0.0
 11
136.3
 21
144.938830127
 31
0.0
  0
LINE
  8
0
  6
CONTINUOUS
 62
     5
 10
108.31717701
 20
126.0
 30
0.0
 11
136.3
 21
147.459220085
 31
0.0
  0
LINE
  8
0
  6
CONTINUOUS
 62
     5
 10
105.030588505
 20
126.0
 30
0.0
 11
136.3
 21
149.979610042
 31
0.0
  0
LINE
  8
0
  6
CONTINUOUS
 62
     5
 10
103.7
 20
150.183509619
 30
0.0
 11
108.676703457
 21
154.0
 31
0.0
  0
LINE
  8
0
  6
CONTINUOUS
 62
     5
 10
103.7
 20
147.663119661
 30
0.0
 11
111.963291961
 21
154.0
 31
0.0
  0
LINE
  8
0
  6
CONTINUOUS
 62
     5
 10
103.7
 20
145.142729704
 30
0.0
 11
115.249880466
 21
154.0
 31
0.0
  0
LINE
  8
0
  6
CONTINUOUS
 62
     5
 10
103.7
 20
142.622339746
 30
0.0
 11
118.536468971
 21
154.0
 31
0.0
  0
LINE
  8
0
  6
CONTINUOUS
 62
     5
 10
103.7
 20
140.101949788
 30
0.0
 11
121.823057476
 21
154.0
 31
0.0
  0
LINE
  8
0
  6
CONTINUOUS
 62
     5
 10
103.7
 20
137.581559831
 30
0.0
 11
125.109645981
 21
154.0
 31
0.0
  0
LINE
  8
0
  6
CONTINUOUS
 62
     5
 10
103.7
 20
135.061169873
 30
0.0
 11
128.396234486
 21
154.0
 31
0.0
  0
LINE
  8
0
  6
CONTINUOUS
 62
     5
 10
103.7
 20
132.540779915
 30
0.0
 11
131.68282299
 21
154.0
 31
0.0
  0
LINE
  8
0
  6
CONTINUOUS
 62
     5
 10
103.7
 20
130.020389958
 30
0.0
 11
134.969411495
 21
154.0
 31
0.0
  0
LINE
  8
0
  6
CONTINUOUS
 62
     5
 10
103.7
 20
127.5
 30
0.0
 11
136.3
 21
152.5
 31
0.0
  0
LINE
  8
0
  6
CONTINUOUS
 62
     2
 10
103.491967362
 20
114.868911087
 30
0.0
 11
63.225941958
 21
114.868911087
 31
0.0
  0
LINE
  8
0
  6
CONTINUOUS
 62
     2
 10
109.918504542
 20
126.0
 30
0.0
 11
103.491967362
 21
114.868911087
 31
0.0
  0
TEXT
  8
0
  6
CONTINUOUS
 62
     2
 10
69.0
 20
86.65
 30
0.3
 40
3.0
  1
１２．３
 50
90.0
 41
0.6
 51
0.0
  7
KANJI2
  0
LINE
  8
0
  6
CONTINUOUS
 62
     1
 10
107.5
 20
70.2
 30
0.0
 11
110.5
 21
70.2
 31
0.0
  0
LINE
  8
0
  6
CONTINUOUS
 62
     1
 10
118.5
 20
70.2
 30
0.0
 11
121.5
 21
70.2
 31
0.0
  0
LINE
  8
0
  6
CONTINUOUS
 62
     1
 10
129.5
 20
70.2
 30
0.0
 11
132.5
 21
70.2
 31
0.0
  0
LINE
  8
0
  6
CONTINUOUS
 62
     1
 10
110.5
 20
70.2
 30
0.0
 11
110.5
 21
40.5
 31
0.0
  0
LINE
  8
0
  6
CONTINUOUS
 62
     1
 10
107.5
 20
40.5
 30
0.0
 11
107.5
 21
70.2
 31
0.0
  0
LINE
  8
0
  6
CONTINUOUS
 62
     1
 10
118.5
 20
40.5
 30
0.0
 11
118.5
 21
70.2
 31
0.0
  0
LINE
  8
0
  6
CONTINUOUS
 62
     1
 10
121.5
 20
70.2
 30
0.0
 11
121.5
 21
40.5
 31
0.0
  0
LINE
  8
0
  6
CONTINUOUS
 62
     1
 10
129.5
 20
70.2
 30
0.0
 11
129.5
 21
40.5
 31
0.0
  0
LINE
  8
0
  6
CONTINUOUS
 62
     1
 10
132.5
 20
40.5
 30
0.0
 11
132.5
 21
70.2
 31
0.0
  0
TEXT
  8
0
  6
CONTINUOUS
 62
     2
 10
64.225941958
 20
110.868911087
 30
0.3
 40
3.0
  1
（透明ポリカーボネイト板）
 50
0.0
 41
0.9
 51
0.0
  7
KANJI3
  0
CIRCLE
  8
0
  6
CONTINUOUS
 62
     2
 10
144.5
 20
147.5
 30
0.0
 40
1.25
  0
LINE
  8
0
  6
CONTINUOUS
 62
     2
 10
143.5
 20
147.5
 30
0.0
 11
145.5
 21
147.5
 31
0.0
  0
LINE
  8
0
  6
CONTINUOUS
 62
     2
 10
144.5
 20
148.5
 30
0.0
 11
144.5
 21
146.5
 31
0.0
  0
CIRCLE
  8
0
  6
CONTINUOUS
 62
     2
 10
144.5
 20
132.5
 30
0.0
 40
1.25
  0
LINE
  8
0
  6
CONTINUOUS
 62
     2
 10
143.5
 20
132.5
 30
0.0
 11
145.5
 21
132.5
 31
0.0
  0
LINE
  8
0
  6
CONTINUOUS
 62
     2
 10
144.5
 20
131.5
 30
0.0
 11
144.5
 21
133.5
 31
0.0
  0
CIRCLE
  8
0
  6
CONTINUOUS
 62
     5
 10
147.5
 20
142.6
 30
0.0
 40
0.48
  0
LINE
  8
0
  6
CONTINUOUS
 62
     5
 10
147.5
 20
142.216
 30
0.0
 11
147.5
 21
142.984
 31
0.0
  0
LINE
  8
0
  6
CONTINUOUS
 62
     5
 10
147.884
 20
142.6
 30
0.0
 11
147.116
 21
142.6
 31
0.0
  0
LINE
  8
0
  6
CONTINUOUS
 62
     1
 10
148.5
 20
149.0
 30
0.0
 11
140.5
 21
149.0
 31
0.0
  0
LINE
  8
0
  6
CONTINUOUS
 62
     1
 10
140.5
 20
149.0
 30
0.0
 11
140.5
 21
131.0
 31
0.0
  0
LINE
  8
0
  6
CONTINUOUS
 62
     1
 10
140.5
 20
131.0
 30
0.0
 11
148.5
 21
131.0
 31
0.0
  0
TEXT
  8
0
  6
CONTINUOUS
 62
     2
 10
142.0
 20
144.0
 30
0.0
 40
2.0
  1
ＬＩＮＥ
 50
0.0
 41
0.65
 51
0.0
  7
KANJI6
  0
TEXT
  8
0
  6
CONTINUOUS
 62
     2
 10
141.5
 20
134.0
 30
-0.1
 40
2.0
  1
ＭＥＴＥＲ
 50
0.0
 41
0.65
 51
0.0
  7
KANJI7
  0
TEXT
  8
0
  6
CONTINUOUS
 62
     5
 10
148.0
 20
136.75
 30
0.1
 40
1.0
  1
ＮＨ－６０７
 50
90.0
 41
0.8
 51
0.0
  7
KANJI8
  0
LINE
  8
0
  6
CONTINUOUS
 62
     1
 10
148.5
 20
131.0
 30
0.0
 11
148.5
 21
149.0
 31
0.0
  0
CIRCLE
  8
0
  6
CONTINUOUS
 62
     2
 10
95.5
 20
132.5
 30
0.0
 40
1.25
  0
LINE
  8
0
  6
CONTINUOUS
 62
     2
 10
94.5
 20
132.5
 30
0.0
 11
96.5
 21
132.5
 31
0.0
  0
CIRCLE
  8
0
  6
CONTINUOUS
 62
     5
 10
98.5
 20
142.6
 30
0.0
 40
0.48
  0
LINE
  8
0
  6
CONTINUOUS
 62
     5
 10
98.5
 20
142.216
 30
0.0
 11
98.5
 21
142.984
 31
0.0
  0
LINE
  8
0
  6
CONTINUOUS
 62
     1
 10
99.5
 20
149.0
 30
0.0
 11
91.5
 21
149.0
 31
0.0
  0
LINE
  8
0
  6
CONTINUOUS
 62
     1
 10
91.5
 20
149.0
 30
0.0
 11
91.5
 21
131.0
 31
0.0
  0
LINE
  8
0
  6
CONTINUOUS
 62
     1
 10
91.5
 20
131.0
 30
0.0
 11
99.5
 21
131.0
 31
0.0
  0
LINE
  8
0
  6
CONTINUOUS
 62
     1
 10
99.5
 20
131.0
 30
0.0
 11
99.5
 21
149.0
 31
0.0
  0
TEXT
  8
0
  6
CONTINUOUS
 62
     2
 10
93.0
 20
144.0
 30
0.0
 40
2.0
  1
ＬＩＮＥ
 50
0.0
 41
0.65
 51
0.0
  7
KANJI6
  0
TEXT
  8
0
  6
CONTINUOUS
 62
     2
 10
92.5
 20
134.0
 30
-0.1
 40
2.0
  1
ＭＥＴＥＲ
 50
0.0
 41
0.65
 51
0.0
  7
KANJI7
  0
CIRCLE
  8
0
  6
CONTINUOUS
 62
     2
 10
95.5
 20
147.5
 30
0.0
 40
1.25
  0
LINE
  8
0
  6
CONTINUOUS
 62
     2
 10
94.5
 20
147.5
 30
0.0
 11
96.5
 21
147.5
 31
0.0
  0
TEXT
  8
0
  6
CONTINUOUS
 62
     5
 10
99.0
 20
136.75
 30
0.1
 40
1.0
  1
ＮＨ－６０７
 50
90.0
 41
0.8
 51
0.0
  7
KANJI8
  0
LINE
  8
0
  6
CONTINUOUS
 62
     1
 10
105.95
 20
85.0
 30
0.0
 11
105.95
 21
87.8
 31
0.0
  0
LINE
  8
0
  6
CONTINUOUS
 62
     1
 10
112.45
 20
85.0
 30
0.0
 11
112.45
 21
87.8
 31
0.0
  0
LINE
  8
0
  6
CONTINUOUS
 62
     1
 10
127.55
 20
85.0
 30
0.0
 11
127.55
 21
87.8
 31
0.0
  0
LINE
  8
0
  6
CONTINUOUS
 62
     1
 10
134.05
 20
85.0
 30
0.0
 11
134.05
 21
87.8
 31
0.0
  0
LINE
  8
0
  6
CONTINUOUS
 62
     1
 10
105.95
 20
87.0
 30
0.0
 11
104.8
 21
87.0
 31
0.0
  0
LINE
  8
0
  6
CONTINUOUS
 62
     1
 10
113.6
 20
87.0
 30
0.0
 11
112.45
 21
87.0
 31
0.0
  0
LINE
  8
0
  6
CONTINUOUS
 62
     1
 10
134.05
 20
87.0
 30
0.0
 11
135.2
 21
87.0
 31
0.0
  0
LINE
  8
0
  6
CONTINUOUS
 62
     1
 10
126.4
 20
87.0
 30
0.0
 11
127.55
 21
87.0
 31
0.0
  0
TEXT
  8
0
  6
CONTINUOUS
 62
     3
 10
233.5
 20
17.0
 30
0.2
 40
5.8
  1
ＭＳ－１１２５０　　Ｂ
 50
0.0
 41
0.827586207
 51
0.0
  7
KANJI9
  0
TEXT
  8
0
  6
CONTINUOUS
 62
     2
 10
142.422689603
 20
115.868911087
 30
0.3
 40
3.0
  1
５－Ｍ３．５ネジ
 50
0.0
 41
0.9
 51
0.0
  7
KANJI3
  0
TEXT
  8
0
  6
CONTINUOUS
 62
     1
 10
117.1
 20
151.3
 30
0.2
 40
2.0
  1
５００
 50
0.0
 41
0.9
 51
0.0
  7
KANJI0
  0
TEXT
  8
0
  6
CONTINUOUS
 62
     1
 10
107.4
 20
151.3
 30
0.2
 40
2.0
  1
５０
 50
0.0
 41
0.9
 51
0.0
  7
KANJI0
  0
TEXT
  8
0
  6
CONTINUOUS
 62
     1
 10
129.9
 20
151.3
 30
0.2
 40
2.0
  1
＋
 50
0.0
 41
0.9
 51
0.0
  7
KANJI0
  0
ARC
  8
0
  6
CONTINUOUS
 62
     1
 10
119.1
 20
145.9
 30
0.0
 40
0.4
 50
270.0
 51
0.0
  0
ARC
  8
0
  6
CONTINUOUS
 62
     1
 10
120.9
 20
145.9
 30
0.0
 40
0.4
 50
180.0
 51
270.0
  0
ARC
  8
0
  6
CONTINUOUS
 62
     1
 10
120.9
 20
144.1
 30
0.0
 40
0.4
 50
90.0
 51
180.0
  0
ARC
  8
0
  6
CONTINUOUS
 62
     1
 10
119.1
 20
144.1
 30
0.0
 40
0.4
 50
0.0
 51
90.0
  0
LINE
  8
0
  6
CONTINUOUS
 62
     1
 10
119.5
 20
147.958039892
 30
0.0
 11
119.5
 21
145.9
 31
0.0
  0
LINE
  8
0
  6
CONTINUOUS
 62
     1
 10
120.5
 20
145.9
 30
0.0
 11
120.5
 21
147.958039892
 31
0.0
  0
LINE
  8
0
  6
CONTINUOUS
 62
     1
 10
119.5
 20
144.1
 30
0.0
 11
119.5
 21
142.041960108
 31
0.0
  0
LINE
  8
0
  6
CONTINUOUS
 62
     1
 10
120.5
 20
142.041960108
 30
0.0
 11
120.5
 21
144.1
 31
0.0
  0
LINE
  8
0
  6
CONTINUOUS
 62
     1
 10
121.9
 20
144.5
 30
0.0
 11
121.9
 21
145.5
 31
0.0
  0
LINE
  8
0
  6
CONTINUOUS
 62
     1
 10
118.1
 20
145.5
 30
0.0
 11
118.1
 21
144.5
 31
0.0
  0
LINE
  8
0
  6
CONTINUOUS
 62
     1
 10
119.1
 20
145.5
 30
0.0
 11
118.1
 21
145.5
 31
0.0
  0
ARC
  8
0
  6
CONTINUOUS
 62
     1
 10
119.1
 20
145.9
 30
0.0
 40
0.4
 50
270.0
 51
0.0
  0
LINE
  8
0
  6
CONTINUOUS
 62
     1
 10
121.9
 20
145.5
 30
0.0
 11
120.9
 21
145.5
 31
0.0
  0
ARC
  8
0
  6
CONTINUOUS
 62
     1
 10
120.9
 20
145.9
 30
0.0
 40
0.4
 50
180.0
 51
270.0
  0
LINE
  8
0
  6
CONTINUOUS
 62
     1
 10
120.9
 20
144.5
 30
0.0
 11
121.9
 21
144.5
 31
0.0
  0
ARC
  8
0
  6
CONTINUOUS
 62
     1
 10
120.9
 20
144.1
 30
0.0
 40
0.4
 50
90.0
 51
180.0
  0
LINE
  8
0
  6
CONTINUOUS
 62
     1
 10
118.1
 20
144.5
 30
0.0
 11
119.1
 21
144.5
 31
0.0
  0
ARC
  8
0
  6
CONTINUOUS
 62
     1
 10
119.1
 20
144.1
 30
0.0
 40
0.4
 50
0.0
 51
90.0
  0
LINE
  8
0
  6
CONTINUOUS
 62
     1
 10
119.5
 20
147.958039892
 30
0.0
 11
119.5
 21
145.9
 31
0.0
  0
LINE
  8
0
  6
CONTINUOUS
 62
     1
 10
120.5
 20
145.9
 30
0.0
 11
120.5
 21
147.958039892
 31
0.0
  0
LINE
  8
0
  6
CONTINUOUS
 62
     1
 10
119.5
 20
144.1
 30
0.0
 11
119.5
 21
142.041960108
 31
0.0
  0
LINE
  8
0
  6
CONTINUOUS
 62
     1
 10
120.5
 20
142.041960108
 30
0.0
 11
120.5
 21
144.1
 31
0.0
  0
CIRCLE
  8
0
  6
CONTINUOUS
 62
     1
 10
120.0
 20
145.0
 30
0.0
 40
3.0
  0
LINE
  8
0
  6
CONTINUOUS
 62
     1
 10
116.0
 20
147.75
 30
0.0
 11
116.5
 21
147.25
 31
0.0
  0
LINE
  8
0
  6
CONTINUOUS
 62
     1
 10
116.0
 20
142.25
 30
0.0
 11
116.5
 21
142.75
 31
0.0
  0
LINE
  8
0
  6
CONTINUOUS
 62
     1
 10
116.5
 20
142.75
 30
0.0
 11
116.5
 21
147.25
 31
0.0
  0
LINE
  8
0
  6
CONTINUOUS
 62
     1
 10
116.0
 20
148.2
 30
0.0
 11
116.0
 21
147.75
 31
0.0
  0
LINE
  8
0
  6
CONTINUOUS
 62
     1
 10
115.6
 20
141.8
 30
0.0
 11
116.0
 21
141.8
 31
0.0
  0
LINE
  8
0
  6
CONTINUOUS
 62
     1
 10
116.0
 20
141.8
 30
0.0
 11
116.0
 21
142.25
 31
0.0
  0
LINE
  8
0
  6
CONTINUOUS
 62
     1
 10
124.0
 20
147.75
 30
0.0
 11
123.5
 21
147.25
 31
0.0
  0
LINE
  8
0
  6
CONTINUOUS
 62
     1
 10
123.5
 20
142.75
 30
0.0
 11
123.5
 21
147.25
 31
0.0
  0
LINE
  8
0
  6
CONTINUOUS
 62
     1
 10
124.0
 20
148.2
 30
0.0
 11
124.0
 21
147.75
 31
0.0
  0
LINE
  8
0
  6
CONTINUOUS
 62
     1
 10
124.0
 20
142.25
 30
0.0
 11
123.5
 21
142.75
 31
0.0
  0
LINE
  8
0
  6
CONTINUOUS
 62
     1
 10
124.0
 20
141.8
 30
0.0
 11
124.0
 21
142.25
 31
0.0
  0
TEXT
  8
0
  6
CONTINUOUS
 62
     1
 10
232.8
 20
43.5
 30
0.4
 40
4.0
  1
Ｍ－２Ａ
 50
0.0
 41
0.9
 51
0.0
  7
KANJI5
  0
TEXT
  8
0
  6
CONTINUOUS
 62
     2
 10
229.8
 20
37.5
 30
0.3
 40
3.0
  1
端子カバー付
 50
0.0
 41
0.9
 51
0.0
  7
KANJI3
  0
TEXT
  8
0
  6
CONTINUOUS
 62
     1
 10
235.0
 20
33.1
 30
0.4
 40
4.0
  1
分流器　外形図
 50
0.0
 41
0.9
 51
0.0
  7
KANJI5
  0
ENDSEC
  0
EOF
