  0
SECTION
  2
HEADER
  9
$ACADVER
  1
AC1009
  9
$DWGCODEPAGE
  3
dos932
  9
$EXTMIN
 10
0.0
 20
0.0
 30
0.0
  9
$EXTMAX
 10
297.0
 20
210.0
 30
0.0
  9
$LIMMIN
 10
0.0
 20
0.0
  9
$LIMMAX
 10
297.0
 20
210.0
  9
$LTSCALE
 40
1.0
  9
$PDMODE
 70
     0
  0
ENDSEC
  0
SECTION
  2
TABLES
  0
TABLE
  2
VPORT
 70
     1
  0
VPORT
  2
*ACTIVE
 70
     0
 10
0.0
 20
0.0
 11
1.0
 21
1.0
 12
148.5
 22
105.0
 13
0.0
 23
0.0
 14
10.0
 24
10.0
 15
10.0
 25
10.0
 16
0.0
 26
0.0
 36
1.0
 17
0.0
 27
0.0
 37
0.0
 40
297.0
 41
1.414285714
 42
50.0
 43
0.0
 44
0.0
 50
0.0
 51
0.0
 71
     0
 72
  1000
 73
     1
 74
     3
 75
     0
 76
     0
 77
     0
 78
     0
  0
ENDTAB
  0
TABLE
  2
LTYPE
 70
     5
  0
LTYPE
  2
CONTINUOUS
 70
    64
  3
Solid line
 72
    65
 73
     0
 40
0.0
  0
LTYPE
  2
LTYPE1
 70
    64
  3
CENTER
 72
    65
 73
     4
 40
5.0
 49
3.5
 49
-0.5
 49
0.5
 49
-0.5
  0
LTYPE
  2
LTYPE2
 70
    64
  3
CENTER
 72
    65
 73
     4
 40
15.0
 49
10.5
 49
-1.5
 49
1.5
 49
-1.5
  0
LTYPE
  2
LTYPE3
 70
    64
  3
CENTER
 72
    65
 73
     4
 40
8.0
 49
5.6
 49
-0.8
 49
0.8
 49
-0.8
  0
LTYPE
  2
LTYPE4
 70
    64
  3
HIDDEN
 72
    65
 73
     2
 40
1.0
 49
0.6
 49
-0.4
  0
ENDTAB
  0
TABLE
  2
LAYER
 70
   128
  0
LAYER
  2
0
 70
     0
 62
     7
  6
CONTINUOUS
  0
LAYER
  2
2
 70
     0
 62
     7
  6
CONTINUOUS
  0
LAYER
  2
3
 70
     0
 62
     7
  6
CONTINUOUS
  0
LAYER
  2
4
 70
     0
 62
     7
  6
CONTINUOUS
  0
LAYER
  2
5
 70
     0
 62
     7
  6
CONTINUOUS
  0
LAYER
  2
6
 70
     0
 62
     7
  6
CONTINUOUS
  0
LAYER
  2
7
 70
     0
 62
     7
  6
CONTINUOUS
  0
LAYER
  2
8
 70
     0
 62
     7
  6
CONTINUOUS
  0
LAYER
  2
9
 70
     0
 62
     7
  6
CONTINUOUS
  0
LAYER
  2
10
 70
     0
 62
     7
  6
CONTINUOUS
  0
LAYER
  2
11
 70
     0
 62
     7
  6
CONTINUOUS
  0
LAYER
  2
12
 70
     0
 62
     7
  6
CONTINUOUS
  0
LAYER
  2
13
 70
     0
 62
     7
  6
CONTINUOUS
  0
LAYER
  2
14
 70
     0
 62
     7
  6
CONTINUOUS
  0
LAYER
  2
15
 70
     0
 62
     7
  6
CONTINUOUS
  0
LAYER
  2
16
 70
     0
 62
     7
  6
CONTINUOUS
  0
LAYER
  2
17
 70
     0
 62
     7
  6
CONTINUOUS
  0
LAYER
  2
18
 70
     0
 62
     7
  6
CONTINUOUS
  0
LAYER
  2
19
 70
     0
 62
     7
  6
CONTINUOUS
  0
LAYER
  2
20
 70
     0
 62
     7
  6
CONTINUOUS
  0
LAYER
  2
21
 70
     0
 62
     7
  6
CONTINUOUS
  0
LAYER
  2
22
 70
     0
 62
     7
  6
CONTINUOUS
  0
LAYER
  2
23
 70
     0
 62
     7
  6
CONTINUOUS
  0
LAYER
  2
24
 70
     0
 62
     7
  6
CONTINUOUS
  0
LAYER
  2
25
 70
     0
 62
     7
  6
CONTINUOUS
  0
LAYER
  2
26
 70
     0
 62
     7
  6
CONTINUOUS
  0
LAYER
  2
27
 70
     0
 62
     7
  6
CONTINUOUS
  0
LAYER
  2
28
 70
     0
 62
     7
  6
CONTINUOUS
  0
LAYER
  2
29
 70
     0
 62
     7
  6
CONTINUOUS
  0
LAYER
  2
30
 70
     0
 62
     7
  6
CONTINUOUS
  0
LAYER
  2
31
 70
     0
 62
     7
  6
CONTINUOUS
  0
LAYER
  2
32
 70
     0
 62
     7
  6
CONTINUOUS
  0
LAYER
  2
33
 70
     0
 62
     7
  6
CONTINUOUS
  0
LAYER
  2
34
 70
     0
 62
     7
  6
CONTINUOUS
  0
LAYER
  2
35
 70
     0
 62
     7
  6
CONTINUOUS
  0
LAYER
  2
36
 70
     0
 62
     7
  6
CONTINUOUS
  0
LAYER
  2
37
 70
     0
 62
     7
  6
CONTINUOUS
  0
LAYER
  2
38
 70
     0
 62
     7
  6
CONTINUOUS
  0
LAYER
  2
39
 70
     0
 62
     7
  6
CONTINUOUS
  0
LAYER
  2
40
 70
     0
 62
     7
  6
CONTINUOUS
  0
LAYER
  2
41
 70
     0
 62
     7
  6
CONTINUOUS
  0
LAYER
  2
42
 70
     0
 62
     7
  6
CONTINUOUS
  0
LAYER
  2
43
 70
     0
 62
     7
  6
CONTINUOUS
  0
LAYER
  2
44
 70
     0
 62
     7
  6
CONTINUOUS
  0
LAYER
  2
45
 70
     0
 62
     7
  6
CONTINUOUS
  0
LAYER
  2
46
 70
     0
 62
     7
  6
CONTINUOUS
  0
LAYER
  2
47
 70
     0
 62
     7
  6
CONTINUOUS
  0
LAYER
  2
48
 70
     0
 62
     7
  6
CONTINUOUS
  0
LAYER
  2
49
 70
     0
 62
     7
  6
CONTINUOUS
  0
LAYER
  2
50
 70
     0
 62
     7
  6
CONTINUOUS
  0
LAYER
  2
51
 70
     0
 62
     7
  6
CONTINUOUS
  0
LAYER
  2
52
 70
     0
 62
     7
  6
CONTINUOUS
  0
LAYER
  2
53
 70
     0
 62
     7
  6
CONTINUOUS
  0
LAYER
  2
54
 70
     0
 62
     7
  6
CONTINUOUS
  0
LAYER
  2
55
 70
     0
 62
     7
  6
CONTINUOUS
  0
LAYER
  2
56
 70
     0
 62
     7
  6
CONTINUOUS
  0
LAYER
  2
57
 70
     0
 62
     7
  6
CONTINUOUS
  0
LAYER
  2
58
 70
     0
 62
     7
  6
CONTINUOUS
  0
LAYER
  2
59
 70
     0
 62
     7
  6
CONTINUOUS
  0
LAYER
  2
60
 70
     0
 62
     7
  6
CONTINUOUS
  0
LAYER
  2
61
 70
     0
 62
     7
  6
CONTINUOUS
  0
LAYER
  2
62
 70
     0
 62
     7
  6
CONTINUOUS
  0
LAYER
  2
63
 70
     0
 62
     7
  6
CONTINUOUS
  0
LAYER
  2
64
 70
     0
 62
     7
  6
CONTINUOUS
  0
LAYER
  2
65
 70
     0
 62
     7
  6
CONTINUOUS
  0
LAYER
  2
66
 70
     0
 62
     7
  6
CONTINUOUS
  0
LAYER
  2
67
 70
     0
 62
     7
  6
CONTINUOUS
  0
LAYER
  2
68
 70
     0
 62
     7
  6
CONTINUOUS
  0
LAYER
  2
69
 70
     0
 62
     7
  6
CONTINUOUS
  0
LAYER
  2
70
 70
     0
 62
     7
  6
CONTINUOUS
  0
LAYER
  2
71
 70
     0
 62
     7
  6
CONTINUOUS
  0
LAYER
  2
72
 70
     0
 62
     7
  6
CONTINUOUS
  0
LAYER
  2
73
 70
     0
 62
     7
  6
CONTINUOUS
  0
LAYER
  2
74
 70
     0
 62
     7
  6
CONTINUOUS
  0
LAYER
  2
75
 70
     0
 62
     7
  6
CONTINUOUS
  0
LAYER
  2
76
 70
     0
 62
     7
  6
CONTINUOUS
  0
LAYER
  2
77
 70
     0
 62
     7
  6
CONTINUOUS
  0
LAYER
  2
78
 70
     0
 62
     7
  6
CONTINUOUS
  0
LAYER
  2
79
 70
     0
 62
     7
  6
CONTINUOUS
  0
LAYER
  2
80
 70
     0
 62
     7
  6
CONTINUOUS
  0
LAYER
  2
81
 70
     0
 62
     7
  6
CONTINUOUS
  0
LAYER
  2
82
 70
     0
 62
     7
  6
CONTINUOUS
  0
LAYER
  2
83
 70
     0
 62
     7
  6
CONTINUOUS
  0
LAYER
  2
84
 70
     0
 62
     7
  6
CONTINUOUS
  0
LAYER
  2
85
 70
     0
 62
     7
  6
CONTINUOUS
  0
LAYER
  2
86
 70
     0
 62
     7
  6
CONTINUOUS
  0
LAYER
  2
87
 70
     0
 62
     7
  6
CONTINUOUS
  0
LAYER
  2
88
 70
     0
 62
     7
  6
CONTINUOUS
  0
LAYER
  2
89
 70
     0
 62
     7
  6
CONTINUOUS
  0
LAYER
  2
90
 70
     0
 62
     7
  6
CONTINUOUS
  0
LAYER
  2
91
 70
     0
 62
     7
  6
CONTINUOUS
  0
LAYER
  2
92
 70
     0
 62
     7
  6
CONTINUOUS
  0
LAYER
  2
93
 70
     0
 62
     7
  6
CONTINUOUS
  0
LAYER
  2
94
 70
     0
 62
     7
  6
CONTINUOUS
  0
LAYER
  2
95
 70
     0
 62
     7
  6
CONTINUOUS
  0
LAYER
  2
96
 70
     0
 62
     7
  6
CONTINUOUS
  0
LAYER
  2
97
 70
     0
 62
     7
  6
CONTINUOUS
  0
LAYER
  2
98
 70
     0
 62
     7
  6
CONTINUOUS
  0
LAYER
  2
99
 70
     0
 62
     7
  6
CONTINUOUS
  0
LAYER
  2
100
 70
     0
 62
     7
  6
CONTINUOUS
  0
LAYER
  2
101
 70
     0
 62
     7
  6
CONTINUOUS
  0
LAYER
  2
102
 70
     0
 62
     7
  6
CONTINUOUS
  0
LAYER
  2
103
 70
     0
 62
     7
  6
CONTINUOUS
  0
LAYER
  2
104
 70
     0
 62
     7
  6
CONTINUOUS
  0
LAYER
  2
105
 70
     0
 62
     7
  6
CONTINUOUS
  0
LAYER
  2
106
 70
     0
 62
     7
  6
CONTINUOUS
  0
LAYER
  2
107
 70
     0
 62
     7
  6
CONTINUOUS
  0
LAYER
  2
108
 70
     0
 62
     7
  6
CONTINUOUS
  0
LAYER
  2
109
 70
     0
 62
     7
  6
CONTINUOUS
  0
LAYER
  2
110
 70
     0
 62
     7
  6
CONTINUOUS
  0
LAYER
  2
111
 70
     0
 62
     7
  6
CONTINUOUS
  0
LAYER
  2
112
 70
     0
 62
     7
  6
CONTINUOUS
  0
LAYER
  2
113
 70
     0
 62
     7
  6
CONTINUOUS
  0
LAYER
  2
114
 70
     0
 62
     7
  6
CONTINUOUS
  0
LAYER
  2
115
 70
     0
 62
     7
  6
CONTINUOUS
  0
LAYER
  2
116
 70
     0
 62
     7
  6
CONTINUOUS
  0
LAYER
  2
117
 70
     0
 62
     7
  6
CONTINUOUS
  0
LAYER
  2
118
 70
     0
 62
     7
  6
CONTINUOUS
  0
LAYER
  2
119
 70
     0
 62
     7
  6
CONTINUOUS
  0
LAYER
  2
120
 70
     0
 62
     7
  6
CONTINUOUS
  0
LAYER
  2
121
 70
     0
 62
     7
  6
CONTINUOUS
  0
LAYER
  2
122
 70
     0
 62
     7
  6
CONTINUOUS
  0
LAYER
  2
123
 70
     0
 62
     7
  6
CONTINUOUS
  0
LAYER
  2
124
 70
     0
 62
     7
  6
CONTINUOUS
  0
LAYER
  2
125
 70
     0
 62
     7
  6
CONTINUOUS
  0
LAYER
  2
126
 70
     0
 62
     7
  6
CONTINUOUS
  0
LAYER
  2
127
 70
     0
 62
     7
  6
CONTINUOUS
  0
LAYER
  2
128
 70
     0
 62
     7
  6
CONTINUOUS
  0
ENDTAB
  0
TABLE
  2
STYLE
 70
    11
  0
STYLE
  2
STANDARD
 70
     0
 40
0.0
 41
1.0
 50
0.0
 71
     0
 42
0.2
  3
txt.shx
  4
extfont.shx
  0
STYLE
  2
KANJI0
 70
     0
 40
3.0
 41
0.9
 50
0.0
 71
     0
 42
3.0
  3
txt.shx
  4
extfont.shx
  0
STYLE
  2
KANJI1
 70
     0
 40
3.0
 41
0.6
 50
0.0
 71
     0
 42
3.0
  3
txt.shx
  4
extfont.shx
  0
STYLE
  2
KANJI2
 70
     0
 40
1.5
 41
0.8
 50
0.0
 71
     0
 42
1.5
  3
txt.shx
  4
extfont.shx
  0
STYLE
  2
KANJI3
 70
     0
 40
4.0
 41
0.9
 50
0.0
 71
     0
 42
4.0
  3
txt.shx
  4
extfont.shx
  0
STYLE
  2
KANJI4
 70
     0
 40
2.0
 41
0.9
 50
0.0
 71
     0
 42
2.0
  3
txt.shx
  4
extfont.shx
  0
STYLE
  2
KANJI5
 70
     0
 40
5.0
 41
0.9
 50
0.0
 71
     0
 42
5.0
  3
txt.shx
  4
extfont.shx
  0
STYLE
  2
KANJI6
 70
     0
 40
3.0
 41
0.6
 50
0.0
 71
     0
 42
3.0
  3
txt.shx
  4
extfont.shx
  0
STYLE
  2
KANJI7
 70
     0
 40
1.8
 41
0.6
 50
0.0
 71
     0
 42
1.8
  3
txt.shx
  4
extfont.shx
  0
STYLE
  2
KANJI8
 70
     0
 40
6.0
 41
0.9
 50
0.0
 71
     0
 42
6.0
  3
txt.shx
  4
extfont.shx
  0
STYLE
  2
KANJI9
 70
     0
 40
4.0
 41
0.9
 50
0.0
 71
     0
 42
4.0
  3
txt.shx
  4
extfont.shx
  0
ENDTAB
  0
TABLE
  2
VIEW
 70
     0
  0
ENDTAB
  0
ENDSEC
  0
SECTION
  2
BLOCKS
  0
ENDSEC
  0
SECTION
  2
ENTITIES
  0
ARC
  8
0
  6
CONTINUOUS
 62
     1
 10
136.533333298
 20
130.500000037
 30
0.0
 40
1.999999998
 50
270.0
 51
0.0
  0
LINE
  8
0
  6
CONTINUOUS
 62
     1
 10
138.533333296
 20
130.500000037
 30
0.0
 11
138.533333296
 21
163.166666671
 31
0.0
  0
ARC
  8
0
  6
CONTINUOUS
 62
     1
 10
136.533333298
 20
163.166666671
 30
0.0
 40
1.999999998
 50
0.0
 51
90.0
  0
LINE
  8
0
  6
CONTINUOUS
 62
     1
 10
136.533333298
 20
165.166666669
 30
0.0
 11
103.866666664
 21
165.166666669
 31
0.0
  0
ARC
  8
0
  6
CONTINUOUS
 62
     1
 10
103.866666664
 20
163.166666671
 30
0.0
 40
1.999999998
 50
90.0
 51
180.0
  0
LINE
  8
0
  6
CONTINUOUS
 62
     1
 10
101.866666666
 20
163.166666671
 30
0.0
 11
101.866666666
 21
130.500000037
 31
0.0
  0
ARC
  8
0
  6
CONTINUOUS
 62
     1
 10
103.866666664
 20
130.500000037
 30
0.0
 40
1.999999998
 50
180.0
 51
270.0
  0
CIRCLE
  8
0
  6
CONTINUOUS
 62
     1
 10
120.199999981
 20
146.833333354
 30
0.0
 40
16.999999983
  0
CIRCLE
  8
0
  6
CONTINUOUS
 62
     2
 10
135.199999966
 20
161.833333339
 30
0.0
 40
0.999999999
  0
LINE
  8
0
  6
CONTINUOUS
 62
     2
 10
134.616666633
 20
161.966666672
 30
0.0
 11
134.933333299
 21
161.966666672
 31
0.0
  0
ARC
  8
0
  6
CONTINUOUS
 62
     2
 10
134.933333299
 20
162.100000005
 30
0.0
 40
0.133333333
 50
270.0
 51
0.0
  0
LINE
  8
0
  6
CONTINUOUS
 62
     2
 10
135.066666633
 20
162.100000005
 30
0.0
 11
135.066666633
 21
162.416666671
 31
0.0
  0
LINE
  8
0
  6
CONTINUOUS
 62
     2
 10
135.066666633
 20
162.416666671
 30
0.0
 11
135.333333299
 21
162.416666671
 31
0.0
  0
LINE
  8
0
  6
CONTINUOUS
 62
     2
 10
135.333333299
 20
162.416666671
 30
0.0
 11
135.333333299
 21
162.100000005
 31
0.0
  0
ARC
  8
0
  6
CONTINUOUS
 62
     2
 10
135.466666632
 20
162.100000005
 30
0.0
 40
0.133333333
 50
180.0
 51
270.0
  0
LINE
  8
0
  6
CONTINUOUS
 62
     2
 10
135.466666632
 20
161.966666672
 30
0.0
 11
135.783333299
 21
161.966666672
 31
0.0
  0
LINE
  8
0
  6
CONTINUOUS
 62
     2
 10
135.783333299
 20
161.966666672
 30
0.0
 11
135.783333299
 21
161.700000006
 31
0.0
  0
LINE
  8
0
  6
CONTINUOUS
 62
     2
 10
135.783333299
 20
161.700000006
 30
0.0
 11
135.466666632
 21
161.700000006
 31
0.0
  0
ARC
  8
0
  6
CONTINUOUS
 62
     2
 10
135.466666632
 20
161.566666672
 30
0.0
 40
0.133333333
 50
90.0
 51
180.0
  0
LINE
  8
0
  6
CONTINUOUS
 62
     2
 10
135.333333299
 20
161.566666672
 30
0.0
 11
135.333333299
 21
161.250000006
 31
0.0
  0
LINE
  8
0
  6
CONTINUOUS
 62
     2
 10
135.333333299
 20
161.250000006
 30
0.0
 11
135.066666633
 21
161.250000006
 31
0.0
  0
LINE
  8
0
  6
CONTINUOUS
 62
     2
 10
135.066666633
 20
161.250000006
 30
0.0
 11
135.066666633
 21
161.566666672
 31
0.0
  0
ARC
  8
0
  6
CONTINUOUS
 62
     2
 10
134.933333299
 20
161.566666672
 30
0.0
 40
0.133333333
 50
0.0
 51
90.0
  0
LINE
  8
0
  6
CONTINUOUS
 62
     2
 10
134.933333299
 20
161.700000006
 30
0.0
 11
134.616666633
 21
161.700000006
 31
0.0
  0
LINE
  8
0
  6
CONTINUOUS
 62
     2
 10
134.616666633
 20
161.700000006
 30
0.0
 11
134.616666633
 21
161.966666672
 31
0.0
  0
LINE
  8
0
  6
LTYPE1
 62
     2
 10
133.866666634
 20
161.833333339
 30
0.0
 11
136.533333298
 21
161.833333339
 31
0.0
  0
LINE
  8
0
  6
LTYPE1
 62
     2
 10
135.199999966
 20
163.166666671
 30
0.0
 11
135.199999966
 21
160.500000007
 31
0.0
  0
CIRCLE
  8
0
  6
CONTINUOUS
 62
     2
 10
105.199999996
 20
161.833333339
 30
0.0
 40
0.999999999
  0
LINE
  8
0
  6
CONTINUOUS
 62
     2
 10
104.616666663
 20
161.966666672
 30
0.0
 11
104.933333329
 21
161.966666672
 31
0.0
  0
ARC
  8
0
  6
CONTINUOUS
 62
     2
 10
104.933333329
 20
162.100000005
 30
0.0
 40
0.133333333
 50
270.0
 51
0.0
  0
LINE
  8
0
  6
CONTINUOUS
 62
     2
 10
105.066666663
 20
162.100000005
 30
0.0
 11
105.066666663
 21
162.416666671
 31
0.0
  0
LINE
  8
0
  6
CONTINUOUS
 62
     2
 10
105.066666663
 20
162.416666671
 30
0.0
 11
105.333333329
 21
162.416666671
 31
0.0
  0
LINE
  8
0
  6
CONTINUOUS
 62
     2
 10
105.333333329
 20
162.416666671
 30
0.0
 11
105.333333329
 21
162.100000005
 31
0.0
  0
ARC
  8
0
  6
CONTINUOUS
 62
     2
 10
105.466666662
 20
162.100000005
 30
0.0
 40
0.133333333
 50
180.0
 51
270.0
  0
LINE
  8
0
  6
CONTINUOUS
 62
     2
 10
105.466666662
 20
161.966666672
 30
0.0
 11
105.783333329
 21
161.966666672
 31
0.0
  0
LINE
  8
0
  6
CONTINUOUS
 62
     2
 10
105.783333329
 20
161.966666672
 30
0.0
 11
105.783333329
 21
161.700000006
 31
0.0
  0
LINE
  8
0
  6
CONTINUOUS
 62
     2
 10
105.783333329
 20
161.700000006
 30
0.0
 11
105.466666662
 21
161.700000006
 31
0.0
  0
ARC
  8
0
  6
CONTINUOUS
 62
     2
 10
105.466666662
 20
161.566666672
 30
0.0
 40
0.133333333
 50
90.0
 51
180.0
  0
LINE
  8
0
  6
CONTINUOUS
 62
     2
 10
105.333333329
 20
161.566666672
 30
0.0
 11
105.333333329
 21
161.250000006
 31
0.0
  0
LINE
  8
0
  6
CONTINUOUS
 62
     2
 10
105.333333329
 20
161.250000006
 30
0.0
 11
105.066666663
 21
161.250000006
 31
0.0
  0
LINE
  8
0
  6
CONTINUOUS
 62
     2
 10
105.066666663
 20
161.250000006
 30
0.0
 11
105.066666663
 21
161.566666672
 31
0.0
  0
ARC
  8
0
  6
CONTINUOUS
 62
     2
 10
104.933333329
 20
161.566666672
 30
0.0
 40
0.133333333
 50
0.0
 51
90.0
  0
LINE
  8
0
  6
CONTINUOUS
 62
     2
 10
104.933333329
 20
161.700000006
 30
0.0
 11
104.616666663
 21
161.700000006
 31
0.0
  0
LINE
  8
0
  6
CONTINUOUS
 62
     2
 10
104.616666663
 20
161.700000006
 30
0.0
 11
104.616666663
 21
161.966666672
 31
0.0
  0
LINE
  8
0
  6
LTYPE1
 62
     2
 10
103.866666664
 20
161.833333339
 30
0.0
 11
106.533333328
 21
161.833333339
 31
0.0
  0
LINE
  8
0
  6
LTYPE1
 62
     2
 10
105.199999996
 20
163.166666671
 30
0.0
 11
105.199999996
 21
160.500000007
 31
0.0
  0
CIRCLE
  8
0
  6
CONTINUOUS
 62
     2
 10
105.199999996
 20
131.833333369
 30
0.0
 40
0.999999999
  0
LINE
  8
0
  6
CONTINUOUS
 62
     2
 10
104.616666663
 20
131.966666702
 30
0.0
 11
104.933333329
 21
131.966666702
 31
0.0
  0
ARC
  8
0
  6
CONTINUOUS
 62
     2
 10
104.933333329
 20
132.100000035
 30
0.0
 40
0.133333333
 50
270.0
 51
0.0
  0
LINE
  8
0
  6
CONTINUOUS
 62
     2
 10
105.066666663
 20
132.100000035
 30
0.0
 11
105.066666663
 21
132.416666701
 31
0.0
  0
LINE
  8
0
  6
CONTINUOUS
 62
     2
 10
105.066666663
 20
132.416666701
 30
0.0
 11
105.333333329
 21
132.416666701
 31
0.0
  0
LINE
  8
0
  6
CONTINUOUS
 62
     2
 10
105.333333329
 20
132.416666701
 30
0.0
 11
105.333333329
 21
132.100000035
 31
0.0
  0
ARC
  8
0
  6
CONTINUOUS
 62
     2
 10
105.466666662
 20
132.100000035
 30
0.0
 40
0.133333333
 50
180.0
 51
270.0
  0
LINE
  8
0
  6
CONTINUOUS
 62
     2
 10
105.466666662
 20
131.966666702
 30
0.0
 11
105.783333329
 21
131.966666702
 31
0.0
  0
LINE
  8
0
  6
CONTINUOUS
 62
     2
 10
105.783333329
 20
131.966666702
 30
0.0
 11
105.783333329
 21
131.700000036
 31
0.0
  0
LINE
  8
0
  6
CONTINUOUS
 62
     2
 10
105.783333329
 20
131.700000036
 30
0.0
 11
105.466666662
 21
131.700000036
 31
0.0
  0
ARC
  8
0
  6
CONTINUOUS
 62
     2
 10
105.466666662
 20
131.566666702
 30
0.0
 40
0.133333333
 50
90.0
 51
180.0
  0
LINE
  8
0
  6
CONTINUOUS
 62
     2
 10
105.333333329
 20
131.566666702
 30
0.0
 11
105.333333329
 21
131.250000036
 31
0.0
  0
LINE
  8
0
  6
CONTINUOUS
 62
     2
 10
105.333333329
 20
131.250000036
 30
0.0
 11
105.066666663
 21
131.250000036
 31
0.0
  0
LINE
  8
0
  6
CONTINUOUS
 62
     2
 10
105.066666663
 20
131.250000036
 30
0.0
 11
105.066666663
 21
131.566666702
 31
0.0
  0
ARC
  8
0
  6
CONTINUOUS
 62
     2
 10
104.933333329
 20
131.566666702
 30
0.0
 40
0.133333333
 50
0.0
 51
90.0
  0
LINE
  8
0
  6
CONTINUOUS
 62
     2
 10
104.933333329
 20
131.700000036
 30
0.0
 11
104.616666663
 21
131.700000036
 31
0.0
  0
LINE
  8
0
  6
CONTINUOUS
 62
     2
 10
104.616666663
 20
131.700000036
 30
0.0
 11
104.616666663
 21
131.966666702
 31
0.0
  0
LINE
  8
0
  6
LTYPE1
 62
     2
 10
103.866666664
 20
131.833333369
 30
0.0
 11
106.533333328
 21
131.833333369
 31
0.0
  0
LINE
  8
0
  6
LTYPE1
 62
     2
 10
105.199999996
 20
133.166666701
 30
0.0
 11
105.199999996
 21
130.500000037
 31
0.0
  0
CIRCLE
  8
0
  6
CONTINUOUS
 62
     2
 10
135.199999966
 20
131.833333369
 30
0.0
 40
0.999999999
  0
LINE
  8
0
  6
CONTINUOUS
 62
     2
 10
134.616666633
 20
131.966666702
 30
0.0
 11
134.933333299
 21
131.966666702
 31
0.0
  0
ARC
  8
0
  6
CONTINUOUS
 62
     2
 10
134.933333299
 20
132.100000035
 30
0.0
 40
0.133333333
 50
270.0
 51
0.0
  0
LINE
  8
0
  6
CONTINUOUS
 62
     2
 10
135.066666633
 20
132.100000035
 30
0.0
 11
135.066666633
 21
132.416666701
 31
0.0
  0
LINE
  8
0
  6
CONTINUOUS
 62
     2
 10
135.066666633
 20
132.416666701
 30
0.0
 11
135.333333299
 21
132.416666701
 31
0.0
  0
LINE
  8
0
  6
CONTINUOUS
 62
     2
 10
135.333333299
 20
132.416666701
 30
0.0
 11
135.333333299
 21
132.100000035
 31
0.0
  0
ARC
  8
0
  6
CONTINUOUS
 62
     2
 10
135.466666632
 20
132.100000035
 30
0.0
 40
0.133333333
 50
180.0
 51
270.0
  0
LINE
  8
0
  6
CONTINUOUS
 62
     2
 10
135.466666632
 20
131.966666702
 30
0.0
 11
135.783333299
 21
131.966666702
 31
0.0
  0
LINE
  8
0
  6
CONTINUOUS
 62
     2
 10
135.783333299
 20
131.966666702
 30
0.0
 11
135.783333299
 21
131.700000036
 31
0.0
  0
LINE
  8
0
  6
CONTINUOUS
 62
     2
 10
135.783333299
 20
131.700000036
 30
0.0
 11
135.466666632
 21
131.700000036
 31
0.0
  0
ARC
  8
0
  6
CONTINUOUS
 62
     2
 10
135.466666632
 20
131.566666702
 30
0.0
 40
0.133333333
 50
90.0
 51
180.0
  0
LINE
  8
0
  6
CONTINUOUS
 62
     2
 10
135.333333299
 20
131.566666702
 30
0.0
 11
135.333333299
 21
131.250000036
 31
0.0
  0
LINE
  8
0
  6
CONTINUOUS
 62
     2
 10
135.333333299
 20
131.250000036
 30
0.0
 11
135.066666633
 21
131.250000036
 31
0.0
  0
LINE
  8
0
  6
CONTINUOUS
 62
     2
 10
135.066666633
 20
131.250000036
 30
0.0
 11
135.066666633
 21
131.566666702
 31
0.0
  0
ARC
  8
0
  6
CONTINUOUS
 62
     2
 10
134.933333299
 20
131.566666702
 30
0.0
 40
0.133333333
 50
0.0
 51
90.0
  0
LINE
  8
0
  6
CONTINUOUS
 62
     2
 10
134.933333299
 20
131.700000036
 30
0.0
 11
134.616666633
 21
131.700000036
 31
0.0
  0
LINE
  8
0
  6
CONTINUOUS
 62
     2
 10
134.616666633
 20
131.700000036
 30
0.0
 11
134.616666633
 21
131.966666702
 31
0.0
  0
LINE
  8
0
  6
LTYPE1
 62
     2
 10
133.866666634
 20
131.833333369
 30
0.0
 11
136.533333298
 21
131.833333369
 31
0.0
  0
LINE
  8
0
  6
LTYPE1
 62
     2
 10
135.199999966
 20
133.166666701
 30
0.0
 11
135.199999966
 21
130.500000037
 31
0.0
  0
CIRCLE
  8
0
  6
CONTINUOUS
 62
     2
 10
120.199999981
 20
146.833333354
 30
0.0
 40
16.166666651
  0
CIRCLE
  8
0
  6
CONTINUOUS
 62
     2
 10
114.53333332
 20
136.500000031
 30
0.0
 40
0.999999999
  0
LINE
  8
0
  6
CONTINUOUS
 62
     2
 10
114.02657346
 20
136.181801979
 30
0.0
 11
114.250490608
 21
136.405719127
 31
0.0
  0
ARC
  8
0
  6
CONTINUOUS
 62
     2
 10
114.156209704
 20
136.500000031
 30
0.0
 40
0.133333333
 50
315.0
 51
45.0
  0
LINE
  8
0
  6
CONTINUOUS
 62
     2
 10
114.250490608
 20
136.594280935
 30
0.0
 11
114.02657346
 21
136.818198082
 31
0.0
  0
LINE
  8
0
  6
CONTINUOUS
 62
     2
 10
114.02657346
 20
136.818198082
 30
0.0
 11
114.215135269
 21
137.00675989
 31
0.0
  0
LINE
  8
0
  6
CONTINUOUS
 62
     2
 10
114.215135269
 20
137.00675989
 30
0.0
 11
114.439052416
 21
136.782842743
 31
0.0
  0
ARC
  8
0
  6
CONTINUOUS
 62
     2
 10
114.53333332
 20
136.877123647
 30
0.0
 40
0.133333333
 50
225.0
 51
315.0
  0
LINE
  8
0
  6
CONTINUOUS
 62
     2
 10
114.627614224
 20
136.782842743
 30
0.0
 11
114.851531371
 21
137.00675989
 31
0.0
  0
LINE
  8
0
  6
CONTINUOUS
 62
     2
 10
114.851531371
 20
137.00675989
 30
0.0
 11
115.040093179
 21
136.818198082
 31
0.0
  0
LINE
  8
0
  6
CONTINUOUS
 62
     2
 10
115.040093179
 20
136.818198082
 30
0.0
 11
114.816176032
 21
136.594280935
 31
0.0
  0
ARC
  8
0
  6
CONTINUOUS
 62
     2
 10
114.910456936
 20
136.500000031
 30
0.0
 40
0.133333333
 50
135.0
 51
225.0
  0
LINE
  8
0
  6
CONTINUOUS
 62
     2
 10
114.816176032
 20
136.405719127
 30
0.0
 11
115.040093179
 21
136.181801979
 31
0.0
  0
LINE
  8
0
  6
CONTINUOUS
 62
     2
 10
115.040093179
 20
136.181801979
 30
0.0
 11
114.851531371
 21
135.993240171
 31
0.0
  0
LINE
  8
0
  6
CONTINUOUS
 62
     2
 10
114.851531371
 20
135.993240171
 30
0.0
 11
114.627614224
 21
136.217157319
 31
0.0
  0
ARC
  8
0
  6
CONTINUOUS
 62
     2
 10
114.53333332
 20
136.122876414
 30
0.0
 40
0.133333333
 50
45.0
 51
135.0
  0
LINE
  8
0
  6
CONTINUOUS
 62
     2
 10
114.439052416
 20
136.217157319
 30
0.0
 11
114.215135269
 21
135.993240171
 31
0.0
  0
LINE
  8
0
  6
CONTINUOUS
 62
     2
 10
114.215135269
 20
135.993240171
 30
0.0
 11
114.02657346
 21
136.181801979
 31
0.0
  0
CIRCLE
  8
0
  6
CONTINUOUS
 62
     2
 10
125.866666642
 20
136.500000031
 30
0.0
 40
0.999999999
  0
LINE
  8
0
  6
CONTINUOUS
 62
     2
 10
125.359906782
 20
136.181801979
 30
0.0
 11
125.58382393
 21
136.405719127
 31
0.0
  0
ARC
  8
0
  6
CONTINUOUS
 62
     2
 10
125.489543026
 20
136.500000031
 30
0.0
 40
0.133333333
 50
315.0
 51
45.0
  0
LINE
  8
0
  6
CONTINUOUS
 62
     2
 10
125.58382393
 20
136.594280935
 30
0.0
 11
125.359906782
 21
136.818198082
 31
0.0
  0
LINE
  8
0
  6
CONTINUOUS
 62
     2
 10
125.359906782
 20
136.818198082
 30
0.0
 11
125.548468591
 21
137.00675989
 31
0.0
  0
LINE
  8
0
  6
CONTINUOUS
 62
     2
 10
125.548468591
 20
137.00675989
 30
0.0
 11
125.772385738
 21
136.782842743
 31
0.0
  0
ARC
  8
0
  6
CONTINUOUS
 62
     2
 10
125.866666642
 20
136.877123647
 30
0.0
 40
0.133333333
 50
225.0
 51
315.0
  0
LINE
  8
0
  6
CONTINUOUS
 62
     2
 10
125.960947546
 20
136.782842743
 30
0.0
 11
126.184864693
 21
137.00675989
 31
0.0
  0
LINE
  8
0
  6
CONTINUOUS
 62
     2
 10
126.184864693
 20
137.00675989
 30
0.0
 11
126.373426501
 21
136.818198082
 31
0.0
  0
LINE
  8
0
  6
CONTINUOUS
 62
     2
 10
126.373426501
 20
136.818198082
 30
0.0
 11
126.149509354
 21
136.594280935
 31
0.0
  0
ARC
  8
0
  6
CONTINUOUS
 62
     2
 10
126.243790258
 20
136.500000031
 30
0.0
 40
0.133333333
 50
135.0
 51
225.0
  0
LINE
  8
0
  6
CONTINUOUS
 62
     2
 10
126.149509354
 20
136.405719127
 30
0.0
 11
126.373426501
 21
136.181801979
 31
0.0
  0
LINE
  8
0
  6
CONTINUOUS
 62
     2
 10
126.373426501
 20
136.181801979
 30
0.0
 11
126.184864693
 21
135.993240171
 31
0.0
  0
LINE
  8
0
  6
CONTINUOUS
 62
     2
 10
126.184864693
 20
135.993240171
 30
0.0
 11
125.960947546
 21
136.217157319
 31
0.0
  0
ARC
  8
0
  6
CONTINUOUS
 62
     2
 10
125.866666642
 20
136.122876414
 30
0.0
 40
0.133333333
 50
45.0
 51
135.0
  0
LINE
  8
0
  6
CONTINUOUS
 62
     2
 10
125.772385738
 20
136.217157319
 30
0.0
 11
125.548468591
 21
135.993240171
 31
0.0
  0
LINE
  8
0
  6
CONTINUOUS
 62
     2
 10
125.548468591
 20
135.993240171
 30
0.0
 11
125.359906782
 21
136.181801979
 31
0.0
  0
LINE
  8
0
  6
CONTINUOUS
 62
     2
 10
114.735467883
 20
148.333333352
 30
0.0
 11
104.103071373
 21
148.333333352
 31
0.0
  0
LINE
  8
0
  6
CONTINUOUS
 62
     2
 10
104.103071373
 20
145.333333355
 30
0.0
 11
114.735467883
 21
145.333333355
 31
0.0
  0
LINE
  8
0
  6
CONTINUOUS
 62
     2
 10
125.664532079
 20
148.333333352
 30
0.0
 11
136.296928588
 21
148.333333352
 31
0.0
  0
LINE
  8
0
  6
CONTINUOUS
 62
     2
 10
136.296928588
 20
145.333333355
 30
0.0
 11
125.664532079
 21
145.333333355
 31
0.0
  0
ARC
  8
0
  6
CONTINUOUS
 62
     2
 10
120.199999981
 20
146.833333354
 30
0.0
 40
13.999999986
 50
6.150639828
 51
173.849360172
  0
ARC
  8
0
  6
CONTINUOUS
 62
     2
 10
120.199999981
 20
146.833333354
 30
0.0
 40
13.999999986
 50
186.150639828
 51
353.849360172
  0
LINE
  8
0
  6
CONTINUOUS
 62
     2
 10
115.525724693
 20
133.990867549
 30
0.0
 11
116.637002567
 21
136.069476948
 31
0.0
  0
LINE
  8
0
  6
CONTINUOUS
 62
     2
 10
116.01054082
 20
136.297490376
 30
0.0
 11
115.525724693
 21
133.990867549
 31
0.0
  0
LINE
  8
0
  6
CONTINUOUS
 62
     2
 10
118.140328039
 20
141.557667745
 30
0.0
 11
116.095758265
 21
135.557021916
 31
0.0
  0
LINE
  8
0
  6
CONTINUOUS
 62
     2
 10
116.095758265
 20
135.557021916
 30
0.0
 11
118.386667741
 21
141.468007426
 31
0.0
  0
LINE
  8
0
  6
CONTINUOUS
 62
     2
 10
116.637002567
 20
136.069476948
 30
0.0
 11
118.613999102
 21
141.403770139
 31
0.0
  0
LINE
  8
0
  6
CONTINUOUS
 62
     2
 10
117.924891181
 20
141.65458491
 30
0.0
 11
116.01054082
 21
136.297490376
 31
0.0
  0
LINE
  8
0
  6
CONTINUOUS
 62
     2
 10
130.669274026
 20
155.618097344
 30
0.0
 11
128.667574458
 21
154.373607737
 31
0.0
  0
LINE
  8
0
  6
CONTINUOUS
 62
     2
 10
129.09609953
 20
153.862911442
 30
0.0
 11
130.669274026
 21
155.618097344
 31
0.0
  0
LINE
  8
0
  6
CONTINUOUS
 62
     2
 10
124.62156101
 20
150.372357822
 30
0.0
 11
129.392533289
 21
154.546784662
 31
0.0
  0
LINE
  8
0
  6
CONTINUOUS
 62
     2
 10
129.392533289
 20
154.546784662
 30
0.0
 11
124.45305473
 21
150.573175787
 31
0.0
  0
LINE
  8
0
  6
CONTINUOUS
 62
     2
 10
128.667574458
 20
154.373607737
 30
0.0
 11
124.28829864
 21
150.74247259
 31
0.0
  0
LINE
  8
0
  6
CONTINUOUS
 62
     2
 10
124.75967622
 20
150.180706665
 30
0.0
 11
129.09609953
 21
153.862911442
 31
0.0
  0
LINE
  8
0
  6
CONTINUOUS
 62
     2
 10
106.955484669
 20
151.370161955
 30
0.0
 11
104.919164074
 21
152.11132204
 31
0.0
  0
LINE
  8
0
  6
CONTINUOUS
 62
     2
 10
107.137895412
 20
151.871331353
 30
0.0
 11
105.101574817
 21
152.612491437
 31
0.0
  0
LINE
  8
0
  6
CONTINUOUS
 62
     2
 10
109.305913445
 20
138.04021797
 30
0.0
 11
107.645889686
 21
136.647292646
 31
0.0
  0
LINE
  8
0
  6
CONTINUOUS
 62
     2
 10
109.648733503
 20
137.631660934
 30
0.0
 11
107.988709744
 21
136.23873561
 31
0.0
  0
LINE
  8
0
  6
CONTINUOUS
 62
     2
 10
133.444515293
 20
151.370161955
 30
0.0
 11
135.480835888
 21
152.11132204
 31
0.0
  0
LINE
  8
0
  6
CONTINUOUS
 62
     2
 10
133.26210455
 20
151.871331353
 30
0.0
 11
135.298425145
 21
152.612491437
 31
0.0
  0
LINE
  8
0
  6
CONTINUOUS
 62
     2
 10
131.094086517
 20
138.04021797
 30
0.0
 11
132.754110275
 21
136.647292646
 31
0.0
  0
LINE
  8
0
  6
CONTINUOUS
 62
     2
 10
130.751266458
 20
137.631660934
 30
0.0
 11
132.411290217
 21
136.23873561
 31
0.0
  0
LINE
  8
0
  6
CONTINUOUS
 62
     1
 10
136.533333298
 20
128.500000039
 30
0.0
 11
103.866666664
 21
128.500000039
 31
0.0
  0
LINE
  8
0
  6
CONTINUOUS
 62
     2
 10
115.525724693
 20
133.990867549
 30
0.0
 11
113.848968568
 21
132.136551261
 31
0.0
  0
LINE
  8
0
  6
CONTINUOUS
 62
     2
 10
115.525724693
 20
133.990867549
 30
0.0
 11
115.000769437
 21
131.546604474
 31
0.0
  0
TEXT
  8
0
  6
CONTINUOUS
 62
     2
 10
112.025724693
 20
121.190867549
 30
0.3
 40
3.0
  1
瞬時計指針（黒）
 50
0.0
 41
0.9
 51
0.0
  7
KANJI0
  0
LINE
  8
0
  6
CONTINUOUS
 62
     2
 10
135.725724693
 20
120.190867549
 30
0.0
 11
108.45743201
 21
120.190867549
 31
0.0
  0
LINE
  8
0
  6
CONTINUOUS
 62
     2
 10
115.525724693
 20
133.990867549
 30
0.0
 11
108.45743201
 21
120.190867549
 31
0.0
  0
LINE
  8
0
  6
CONTINUOUS
 62
     2
 10
101.866666666
 20
129.500000037
 30
0.0
 11
101.866666666
 21
111.500000039
 31
0.0
  0
LINE
  8
0
  6
CONTINUOUS
 62
     2
 10
101.866666666
 20
113.500000039
 30
0.0
 11
104.281481232
 21
112.852952426
 31
0.0
  0
LINE
  8
0
  6
CONTINUOUS
 62
     2
 10
101.866666666
 20
113.500000039
 30
0.0
 11
104.281481232
 21
114.147047651
 31
0.0
  0
LINE
  8
0
  6
CONTINUOUS
 62
     2
 10
101.866666666
 20
113.500000039
 30
0.0
 11
138.533333296
 21
113.500000039
 31
0.0
  0
LINE
  8
0
  6
CONTINUOUS
 62
     2
 10
138.533333296
 20
113.500000039
 30
0.0
 11
136.11851873
 21
114.147047651
 31
0.0
  0
LINE
  8
0
  6
CONTINUOUS
 62
     2
 10
138.533333296
 20
113.500000039
 30
0.0
 11
136.11851873
 21
112.852952426
 31
0.0
  0
LINE
  8
0
  6
CONTINUOUS
 62
     2
 10
138.533333296
 20
129.500000037
 30
0.0
 11
138.533333296
 21
111.500000039
 31
0.0
  0
TEXT
  8
0
  6
CONTINUOUS
 62
     2
 10
117.199999981
 20
114.500000039
 30
0.3
 40
3.0
  1
１１０
 50
0.0
 41
0.6
 51
0.0
  7
KANJI1
  0
LINE
  8
0
  6
CONTINUOUS
 62
     2
 10
102.866666664
 20
165.166666669
 30
0.0
 11
92.866666666
 21
165.166666669
 31
0.0
  0
LINE
  8
0
  6
CONTINUOUS
 62
     2
 10
94.866666666
 20
165.166666669
 30
0.0
 11
94.219619053
 21
162.751852103
 31
0.0
  0
LINE
  8
0
  6
CONTINUOUS
 62
     2
 10
94.866666666
 20
165.166666669
 30
0.0
 11
95.513714279
 21
162.751852103
 31
0.0
  0
LINE
  8
0
  6
CONTINUOUS
 62
     2
 10
94.866666666
 20
165.166666669
 30
0.0
 11
94.866666666
 21
128.500000039
 31
0.0
  0
LINE
  8
0
  6
CONTINUOUS
 62
     2
 10
94.866666666
 20
128.500000039
 30
0.0
 11
95.513714279
 21
130.914814604
 31
0.0
  0
LINE
  8
0
  6
CONTINUOUS
 62
     2
 10
94.866666666
 20
128.500000039
 30
0.0
 11
94.219619053
 21
130.914814604
 31
0.0
  0
LINE
  8
0
  6
CONTINUOUS
 62
     2
 10
102.866666664
 20
128.500000039
 30
0.0
 11
92.866666666
 21
128.500000039
 31
0.0
  0
TEXT
  8
0
  6
CONTINUOUS
 62
     2
 10
93.866666666
 20
143.833333354
 30
0.3
 40
3.0
  1
１１０
 50
90.0
 41
0.6
 51
0.0
  7
KANJI1
  0
LINE
  8
0
  6
CONTINUOUS
 62
     2
 10
130.669274026
 20
155.618097344
 30
0.0
 11
132.151451923
 21
157.631340668
 31
0.0
  0
LINE
  8
0
  6
CONTINUOUS
 62
     2
 10
130.669274026
 20
155.618097344
 30
0.0
 11
130.946256076
 21
158.102706155
 31
0.0
  0
ARC
  8
0
  6
CONTINUOUS
 62
     1
 10
136.533333314
 20
53.833333372
 30
0.0
 40
2.0
 50
270.0
 51
0.0
  0
LINE
  8
0
  6
CONTINUOUS
 62
     1
 10
103.866666648
 20
51.833333372
 30
0.0
 11
136.533333314
 21
51.833333372
 31
0.0
  0
ARC
  8
0
  6
CONTINUOUS
 62
     1
 10
103.866666648
 20
53.833333372
 30
0.0
 40
2.0
 50
180.0
 51
270.0
  0
LINE
  8
0
  6
CONTINUOUS
 62
     1
 10
101.866666648
 20
86.500000039
 30
0.0
 11
101.866666648
 21
53.833333372
 31
0.0
  0
ARC
  8
0
  6
CONTINUOUS
 62
     1
 10
103.866666648
 20
86.500000039
 30
0.0
 40
2.0
 50
90.0
 51
180.0
  0
LINE
  8
0
  6
CONTINUOUS
 62
     1
 10
138.533333314
 20
53.833333372
 30
0.0
 11
138.533333314
 21
86.500000039
 31
0.0
  0
LINE
  8
0
  6
CONTINUOUS
 62
     1
 10
136.533333314
 20
88.500000039
 30
0.0
 11
103.866666648
 21
88.500000039
 31
0.0
  0
ARC
  8
0
  6
CONTINUOUS
 62
     1
 10
136.533333314
 20
86.500000039
 30
0.0
 40
2.0
 50
360.0
 51
90.0
  0
CIRCLE
  8
0
  6
CONTINUOUS
 62
     1
 10
120.199999981
 20
70.166666706
 30
0.0
 40
16.5
  0
ARC
  8
0
  6
CONTINUOUS
 62
     2
 10
103.699999981
 20
53.666666706
 30
0.0
 40
1.0
 50
180.0
 51
270.0
  0
LINE
  8
0
  6
CONTINUOUS
 62
     2
 10
102.699999981
 20
86.666666705
 30
0.0
 11
102.699999981
 21
53.666666706
 31
0.0
  0
ARC
  8
0
  6
CONTINUOUS
 62
     2
 10
103.699999981
 20
86.666666705
 30
0.0
 40
1.0
 50
90.0
 51
180.0
  0
LINE
  8
0
  6
CONTINUOUS
 62
     2
 10
136.699999981
 20
87.666666705
 30
0.0
 11
103.699999981
 21
87.666666705
 31
0.0
  0
ARC
  8
0
  6
CONTINUOUS
 62
     2
 10
136.699999981
 20
86.666666705
 30
0.0
 40
1.0
 50
0.0
 51
90.0
  0
LINE
  8
0
  6
CONTINUOUS
 62
     2
 10
103.699999981
 20
52.666666706
 30
0.0
 11
136.699999981
 21
52.666666706
 31
0.0
  0
LINE
  8
0
  6
CONTINUOUS
 62
     2
 10
137.699999981
 20
53.666666706
 30
0.0
 11
137.699999981
 21
86.666666705
 31
0.0
  0
ARC
  8
0
  6
CONTINUOUS
 62
     2
 10
136.699999981
 20
53.666666706
 30
0.0
 40
1.0
 50
270.0
 51
360.0
  0
LINE
  8
0
  6
CONTINUOUS
 62
     2
 10
136.816580734
 20
86.100000039
 30
0.0
 11
135.199999981
 21
87.033333372
 31
0.0
  0
LINE
  8
0
  6
CONTINUOUS
 62
     2
 10
135.199999981
 20
87.033333372
 30
0.0
 11
133.583419227
 21
86.100000039
 31
0.0
  0
LINE
  8
0
  6
CONTINUOUS
 62
     2
 10
133.583419227
 20
86.100000039
 30
0.0
 11
133.583419227
 21
84.233333372
 31
0.0
  0
LINE
  8
0
  6
CONTINUOUS
 62
     2
 10
133.583419227
 20
84.233333372
 30
0.0
 11
135.199999981
 21
83.300000039
 31
0.0
  0
LINE
  8
0
  6
CONTINUOUS
 62
     2
 10
135.199999981
 20
83.300000039
 30
0.0
 11
136.816580734
 21
84.233333372
 31
0.0
  0
LINE
  8
0
  6
CONTINUOUS
 62
     2
 10
136.816580734
 20
84.233333372
 30
0.0
 11
136.816580734
 21
86.100000039
 31
0.0
  0
CIRCLE
  8
0
  6
CONTINUOUS
 62
     2
 10
135.199999981
 20
85.166666705
 30
0.0
 40
1.0
  0
CIRCLE
  8
0
  6
CONTINUOUS
 62
     2
 10
135.199999981
 20
85.166666705
 30
0.0
 40
0.933333333
  0
CIRCLE
  8
0
  6
CONTINUOUS
 62
     2
 10
135.199999981
 20
85.166666705
 30
0.0
 40
2.0
  0
CIRCLE
  8
0
  6
CONTINUOUS
 62
     2
 10
135.199999981
 20
85.166666705
 30
0.0
 40
1.666666667
  0
LINE
  8
0
  6
LTYPE2
 62
     2
 10
132.616666647
 20
85.166666705
 30
0.0
 11
137.933333314
 21
85.166666705
 31
0.0
  0
LINE
  8
0
  6
LTYPE2
 62
     2
 10
135.199999981
 20
87.766666705
 30
0.0
 11
135.199999981
 21
82.616666705
 31
0.0
  0
LINE
  8
0
  6
CONTINUOUS
 62
     2
 10
106.816580735
 20
86.100000039
 30
0.0
 11
105.199999981
 21
87.033333372
 31
0.0
  0
LINE
  8
0
  6
CONTINUOUS
 62
     2
 10
105.199999981
 20
87.033333372
 30
0.0
 11
103.583419227
 21
86.100000039
 31
0.0
  0
LINE
  8
0
  6
CONTINUOUS
 62
     2
 10
103.583419227
 20
86.100000039
 30
0.0
 11
103.583419227
 21
84.233333372
 31
0.0
  0
LINE
  8
0
  6
CONTINUOUS
 62
     2
 10
103.583419227
 20
84.233333372
 30
0.0
 11
105.199999981
 21
83.300000039
 31
0.0
  0
LINE
  8
0
  6
CONTINUOUS
 62
     2
 10
105.199999981
 20
83.300000039
 30
0.0
 11
106.816580735
 21
84.233333372
 31
0.0
  0
LINE
  8
0
  6
CONTINUOUS
 62
     2
 10
106.816580735
 20
84.233333372
 30
0.0
 11
106.816580735
 21
86.100000039
 31
0.0
  0
CIRCLE
  8
0
  6
CONTINUOUS
 62
     2
 10
105.199999981
 20
85.166666705
 30
0.0
 40
1.0
  0
CIRCLE
  8
0
  6
CONTINUOUS
 62
     2
 10
105.199999981
 20
85.166666705
 30
0.0
 40
0.933333333
  0
CIRCLE
  8
0
  6
CONTINUOUS
 62
     2
 10
105.199999981
 20
85.166666705
 30
0.0
 40
2.0
  0
CIRCLE
  8
0
  6
CONTINUOUS
 62
     2
 10
105.199999981
 20
85.166666705
 30
0.0
 40
1.666666667
  0
LINE
  8
0
  6
LTYPE2
 62
     2
 10
102.616666648
 20
85.166666705
 30
0.0
 11
107.933333314
 21
85.166666705
 31
0.0
  0
LINE
  8
0
  6
LTYPE2
 62
     2
 10
105.199999981
 20
87.766666705
 30
0.0
 11
105.199999981
 21
82.616666705
 31
0.0
  0
LINE
  8
0
  6
CONTINUOUS
 62
     2
 10
106.816580735
 20
56.100000039
 30
0.0
 11
105.199999981
 21
57.033333372
 31
0.0
  0
LINE
  8
0
  6
CONTINUOUS
 62
     2
 10
105.199999981
 20
57.033333372
 30
0.0
 11
103.583419227
 21
56.100000039
 31
0.0
  0
LINE
  8
0
  6
CONTINUOUS
 62
     2
 10
103.583419227
 20
56.100000039
 30
0.0
 11
103.583419227
 21
54.233333372
 31
0.0
  0
LINE
  8
0
  6
CONTINUOUS
 62
     2
 10
103.583419227
 20
54.233333372
 30
0.0
 11
105.199999981
 21
53.300000039
 31
0.0
  0
LINE
  8
0
  6
CONTINUOUS
 62
     2
 10
105.199999981
 20
53.300000039
 30
0.0
 11
106.816580735
 21
54.233333372
 31
0.0
  0
LINE
  8
0
  6
CONTINUOUS
 62
     2
 10
106.816580735
 20
54.233333372
 30
0.0
 11
106.816580735
 21
56.100000039
 31
0.0
  0
CIRCLE
  8
0
  6
CONTINUOUS
 62
     2
 10
105.199999981
 20
55.166666706
 30
0.0
 40
1.0
  0
CIRCLE
  8
0
  6
CONTINUOUS
 62
     2
 10
105.199999981
 20
55.166666706
 30
0.0
 40
0.933333333
  0
CIRCLE
  8
0
  6
CONTINUOUS
 62
     2
 10
105.199999981
 20
55.166666706
 30
0.0
 40
2.0
  0
CIRCLE
  8
0
  6
CONTINUOUS
 62
     2
 10
105.199999981
 20
55.166666706
 30
0.0
 40
1.666666667
  0
LINE
  8
0
  6
LTYPE2
 62
     2
 10
102.616666648
 20
55.166666706
 30
0.0
 11
107.933333314
 21
55.166666706
 31
0.0
  0
LINE
  8
0
  6
LTYPE2
 62
     2
 10
105.199999981
 20
57.766666706
 30
0.0
 11
105.199999981
 21
52.616666706
 31
0.0
  0
LINE
  8
0
  6
CONTINUOUS
 62
     2
 10
136.816580734
 20
56.100000039
 30
0.0
 11
135.199999981
 21
57.033333372
 31
0.0
  0
LINE
  8
0
  6
CONTINUOUS
 62
     2
 10
135.199999981
 20
57.033333372
 30
0.0
 11
133.583419227
 21
56.100000039
 31
0.0
  0
LINE
  8
0
  6
CONTINUOUS
 62
     2
 10
133.583419227
 20
56.100000039
 30
0.0
 11
133.583419227
 21
54.233333372
 31
0.0
  0
LINE
  8
0
  6
CONTINUOUS
 62
     2
 10
133.583419227
 20
54.233333372
 30
0.0
 11
135.199999981
 21
53.300000039
 31
0.0
  0
LINE
  8
0
  6
CONTINUOUS
 62
     2
 10
135.199999981
 20
53.300000039
 30
0.0
 11
136.816580734
 21
54.233333372
 31
0.0
  0
LINE
  8
0
  6
CONTINUOUS
 62
     2
 10
136.816580734
 20
54.233333372
 30
0.0
 11
136.816580734
 21
56.100000039
 31
0.0
  0
CIRCLE
  8
0
  6
CONTINUOUS
 62
     2
 10
135.199999981
 20
55.166666706
 30
0.0
 40
1.0
  0
CIRCLE
  8
0
  6
CONTINUOUS
 62
     2
 10
135.199999981
 20
55.166666706
 30
0.0
 40
0.933333333
  0
CIRCLE
  8
0
  6
CONTINUOUS
 62
     2
 10
135.199999981
 20
55.166666706
 30
0.0
 40
2.0
  0
CIRCLE
  8
0
  6
CONTINUOUS
 62
     2
 10
135.199999981
 20
55.166666706
 30
0.0
 40
1.666666667
  0
LINE
  8
0
  6
LTYPE2
 62
     2
 10
132.616666647
 20
55.166666706
 30
0.0
 11
137.933333314
 21
55.166666706
 31
0.0
  0
LINE
  8
0
  6
LTYPE2
 62
     2
 10
135.199999981
 20
57.766666706
 30
0.0
 11
135.199999981
 21
52.616666706
 31
0.0
  0
CIRCLE
  8
0
  6
CONTINUOUS
 62
     2
 10
132.901705903
 20
62.833333372
 30
0.0
 40
1.166666667
  0
CIRCLE
  8
0
  6
CONTINUOUS
 62
     2
 10
120.199999981
 20
84.833333372
 30
0.0
 40
1.166666667
  0
CIRCLE
  8
0
  6
CONTINUOUS
 62
     2
 10
107.498294059
 20
62.833333372
 30
0.0
 40
1.166666667
  0
CIRCLE
  8
0
  6
CONTINUOUS
 62
     2
 10
107.498294059
 20
62.833333372
 30
0.0
 40
1.0
  0
LINE
  8
0
  6
CONTINUOUS
 62
     2
 10
106.914960725
 20
62.966666706
 30
0.0
 11
107.231627392
 21
62.966666706
 31
0.0
  0
ARC
  8
0
  6
CONTINUOUS
 62
     2
 10
107.231627392
 20
63.100000039
 30
0.0
 40
0.133333333
 50
270.0
 51
0.0
  0
LINE
  8
0
  6
CONTINUOUS
 62
     2
 10
107.364960725
 20
63.100000039
 30
0.0
 11
107.364960725
 21
63.416666706
 31
0.0
  0
LINE
  8
0
  6
CONTINUOUS
 62
     2
 10
107.364960725
 20
63.416666706
 30
0.0
 11
107.631627392
 21
63.416666706
 31
0.0
  0
LINE
  8
0
  6
CONTINUOUS
 62
     2
 10
107.631627392
 20
63.416666706
 30
0.0
 11
107.631627392
 21
63.100000039
 31
0.0
  0
ARC
  8
0
  6
CONTINUOUS
 62
     2
 10
107.764960725
 20
63.100000039
 30
0.0
 40
0.133333333
 50
180.0
 51
270.0
  0
LINE
  8
0
  6
CONTINUOUS
 62
     2
 10
107.764960725
 20
62.966666706
 30
0.0
 11
108.081627392
 21
62.966666706
 31
0.0
  0
LINE
  8
0
  6
CONTINUOUS
 62
     2
 10
108.081627392
 20
62.966666706
 30
0.0
 11
108.081627392
 21
62.700000039
 31
0.0
  0
LINE
  8
0
  6
CONTINUOUS
 62
     2
 10
108.081627392
 20
62.700000039
 30
0.0
 11
107.764960725
 21
62.700000039
 31
0.0
  0
ARC
  8
0
  6
CONTINUOUS
 62
     2
 10
107.764960725
 20
62.566666706
 30
0.0
 40
0.133333333
 50
90.0
 51
180.0
  0
LINE
  8
0
  6
CONTINUOUS
 62
     2
 10
107.631627392
 20
62.566666706
 30
0.0
 11
107.631627392
 21
62.250000039
 31
0.0
  0
LINE
  8
0
  6
CONTINUOUS
 62
     2
 10
107.631627392
 20
62.250000039
 30
0.0
 11
107.364960725
 21
62.250000039
 31
0.0
  0
LINE
  8
0
  6
CONTINUOUS
 62
     2
 10
107.364960725
 20
62.250000039
 30
0.0
 11
107.364960725
 21
62.566666706
 31
0.0
  0
ARC
  8
0
  6
CONTINUOUS
 62
     2
 10
107.231627392
 20
62.566666706
 30
0.0
 40
0.133333333
 50
0.0
 51
90.0
  0
LINE
  8
0
  6
CONTINUOUS
 62
     2
 10
107.231627392
 20
62.700000039
 30
0.0
 11
106.914960725
 21
62.700000039
 31
0.0
  0
LINE
  8
0
  6
CONTINUOUS
 62
     2
 10
106.914960725
 20
62.700000039
 30
0.0
 11
106.914960725
 21
62.966666706
 31
0.0
  0
LINE
  8
0
  6
LTYPE1
 62
     2
 10
106.164960725
 20
62.833333372
 30
0.0
 11
108.831627392
 21
62.833333372
 31
0.0
  0
LINE
  8
0
  6
LTYPE1
 62
     2
 10
107.498294059
 20
64.166666706
 30
0.0
 11
107.498294059
 21
61.500000039
 31
0.0
  0
CIRCLE
  8
0
  6
CONTINUOUS
 62
     2
 10
120.199999981
 20
84.833333372
 30
0.0
 40
1.0
  0
LINE
  8
0
  6
CONTINUOUS
 62
     2
 10
119.616666647
 20
84.966666705
 30
0.0
 11
119.933333314
 21
84.966666705
 31
0.0
  0
ARC
  8
0
  6
CONTINUOUS
 62
     2
 10
119.933333314
 20
85.100000039
 30
0.0
 40
0.133333333
 50
270.0
 51
0.0
  0
LINE
  8
0
  6
CONTINUOUS
 62
     2
 10
120.066666647
 20
85.100000039
 30
0.0
 11
120.066666647
 21
85.416666705
 31
0.0
  0
LINE
  8
0
  6
CONTINUOUS
 62
     2
 10
120.066666647
 20
85.416666705
 30
0.0
 11
120.333333314
 21
85.416666705
 31
0.0
  0
LINE
  8
0
  6
CONTINUOUS
 62
     2
 10
120.333333314
 20
85.416666705
 30
0.0
 11
120.333333314
 21
85.100000039
 31
0.0
  0
ARC
  8
0
  6
CONTINUOUS
 62
     2
 10
120.466666647
 20
85.100000039
 30
0.0
 40
0.133333333
 50
180.0
 51
270.0
  0
LINE
  8
0
  6
CONTINUOUS
 62
     2
 10
120.466666647
 20
84.966666705
 30
0.0
 11
120.783333314
 21
84.966666705
 31
0.0
  0
LINE
  8
0
  6
CONTINUOUS
 62
     2
 10
120.783333314
 20
84.966666705
 30
0.0
 11
120.783333314
 21
84.700000039
 31
0.0
  0
LINE
  8
0
  6
CONTINUOUS
 62
     2
 10
120.783333314
 20
84.700000039
 30
0.0
 11
120.466666647
 21
84.700000039
 31
0.0
  0
ARC
  8
0
  6
CONTINUOUS
 62
     2
 10
120.466666647
 20
84.566666705
 30
0.0
 40
0.133333333
 50
90.0
 51
180.0
  0
LINE
  8
0
  6
CONTINUOUS
 62
     2
 10
120.333333314
 20
84.566666705
 30
0.0
 11
120.333333314
 21
84.250000039
 31
0.0
  0
LINE
  8
0
  6
CONTINUOUS
 62
     2
 10
120.333333314
 20
84.250000039
 30
0.0
 11
120.066666647
 21
84.250000039
 31
0.0
  0
LINE
  8
0
  6
CONTINUOUS
 62
     2
 10
120.066666647
 20
84.250000039
 30
0.0
 11
120.066666647
 21
84.566666705
 31
0.0
  0
ARC
  8
0
  6
CONTINUOUS
 62
     2
 10
119.933333314
 20
84.566666705
 30
0.0
 40
0.133333333
 50
0.0
 51
90.0
  0
LINE
  8
0
  6
CONTINUOUS
 62
     2
 10
119.933333314
 20
84.700000039
 30
0.0
 11
119.616666647
 21
84.700000039
 31
0.0
  0
LINE
  8
0
  6
CONTINUOUS
 62
     2
 10
119.616666647
 20
84.700000039
 30
0.0
 11
119.616666647
 21
84.966666705
 31
0.0
  0
LINE
  8
0
  6
LTYPE1
 62
     2
 10
118.866666647
 20
84.833333372
 30
0.0
 11
121.533333314
 21
84.833333372
 31
0.0
  0
LINE
  8
0
  6
LTYPE1
 62
     2
 10
120.199999981
 20
86.166666705
 30
0.0
 11
120.199999981
 21
83.500000039
 31
0.0
  0
CIRCLE
  8
0
  6
CONTINUOUS
 62
     2
 10
132.901705903
 20
62.833333372
 30
0.0
 40
1.0
  0
LINE
  8
0
  6
CONTINUOUS
 62
     2
 10
132.31837257
 20
62.966666706
 30
0.0
 11
132.635039236
 21
62.966666706
 31
0.0
  0
ARC
  8
0
  6
CONTINUOUS
 62
     2
 10
132.635039236
 20
63.100000039
 30
0.0
 40
0.133333333
 50
270.0
 51
0.0
  0
LINE
  8
0
  6
CONTINUOUS
 62
     2
 10
132.76837257
 20
63.100000039
 30
0.0
 11
132.76837257
 21
63.416666706
 31
0.0
  0
LINE
  8
0
  6
CONTINUOUS
 62
     2
 10
132.76837257
 20
63.416666706
 30
0.0
 11
133.035039236
 21
63.416666706
 31
0.0
  0
LINE
  8
0
  6
CONTINUOUS
 62
     2
 10
133.035039236
 20
63.416666706
 30
0.0
 11
133.035039236
 21
63.100000039
 31
0.0
  0
ARC
  8
0
  6
CONTINUOUS
 62
     2
 10
133.16837257
 20
63.100000039
 30
0.0
 40
0.133333333
 50
180.0
 51
270.0
  0
LINE
  8
0
  6
CONTINUOUS
 62
     2
 10
133.16837257
 20
62.966666706
 30
0.0
 11
133.485039236
 21
62.966666706
 31
0.0
  0
LINE
  8
0
  6
CONTINUOUS
 62
     2
 10
133.485039236
 20
62.966666706
 30
0.0
 11
133.485039236
 21
62.700000039
 31
0.0
  0
LINE
  8
0
  6
CONTINUOUS
 62
     2
 10
133.485039236
 20
62.700000039
 30
0.0
 11
133.16837257
 21
62.700000039
 31
0.0
  0
ARC
  8
0
  6
CONTINUOUS
 62
     2
 10
133.16837257
 20
62.566666706
 30
0.0
 40
0.133333333
 50
90.0
 51
180.0
  0
LINE
  8
0
  6
CONTINUOUS
 62
     2
 10
133.035039236
 20
62.566666706
 30
0.0
 11
133.035039236
 21
62.250000039
 31
0.0
  0
LINE
  8
0
  6
CONTINUOUS
 62
     2
 10
133.035039236
 20
62.250000039
 30
0.0
 11
132.76837257
 21
62.250000039
 31
0.0
  0
LINE
  8
0
  6
CONTINUOUS
 62
     2
 10
132.76837257
 20
62.250000039
 30
0.0
 11
132.76837257
 21
62.566666706
 31
0.0
  0
ARC
  8
0
  6
CONTINUOUS
 62
     2
 10
132.635039236
 20
62.566666706
 30
0.0
 40
0.133333333
 50
0.0
 51
90.0
  0
LINE
  8
0
  6
CONTINUOUS
 62
     2
 10
132.635039236
 20
62.700000039
 30
0.0
 11
132.31837257
 21
62.700000039
 31
0.0
  0
LINE
  8
0
  6
CONTINUOUS
 62
     2
 10
132.31837257
 20
62.700000039
 30
0.0
 11
132.31837257
 21
62.966666706
 31
0.0
  0
LINE
  8
0
  6
LTYPE1
 62
     2
 10
131.56837257
 20
62.833333372
 30
0.0
 11
134.235039236
 21
62.833333372
 31
0.0
  0
LINE
  8
0
  6
LTYPE1
 62
     2
 10
132.901705903
 20
64.166666706
 30
0.0
 11
132.901705903
 21
61.500000039
 31
0.0
  0
LINE
  8
0
  6
CONTINUOUS
 62
     2
 10
109.366666648
 20
80.916666705
 30
0.0
 11
109.366666648
 21
76.083333372
 31
0.0
  0
LINE
  8
0
  6
CONTINUOUS
 62
     2
 10
109.366666648
 20
76.083333372
 30
0.0
 11
131.033333314
 21
76.083333372
 31
0.0
  0
LINE
  8
0
  6
CONTINUOUS
 62
     2
 10
131.033333314
 20
76.083333372
 30
0.0
 11
131.033333314
 21
80.916666705
 31
0.0
  0
LINE
  8
0
  6
CONTINUOUS
 62
     2
 10
131.033333314
 20
80.916666705
 30
0.0
 11
109.366666648
 21
80.916666705
 31
0.0
  0
ARC
  8
0
  6
CONTINUOUS
 62
     2
 10
132.449999981
 20
75.166666706
 30
0.0
 40
0.333333333
 50
0.0
 51
90.0
  0
LINE
  8
0
  6
CONTINUOUS
 62
     2
 10
132.783333314
 20
65.166666706
 30
0.0
 11
132.783333314
 21
75.166666706
 31
0.0
  0
ARC
  8
0
  6
CONTINUOUS
 62
     2
 10
132.449999981
 20
65.166666706
 30
0.0
 40
0.333333333
 50
270.0
 51
0.0
  0
LINE
  8
0
  6
CONTINUOUS
 62
     2
 10
132.449999981
 20
75.500000039
 30
0.0
 11
107.949999981
 21
75.500000039
 31
0.0
  0
ARC
  8
0
  6
CONTINUOUS
 62
     2
 10
107.949999981
 20
75.166666706
 30
0.0
 40
0.333333333
 50
90.0
 51
180.0
  0
LINE
  8
0
  6
CONTINUOUS
 62
     2
 10
107.949999981
 20
64.833333372
 30
0.0
 11
132.449999981
 21
64.833333372
 31
0.0
  0
LINE
  8
0
  6
CONTINUOUS
 62
     2
 10
107.616666648
 20
75.166666706
 30
0.0
 11
107.616666648
 21
65.166666706
 31
0.0
  0
ARC
  8
0
  6
CONTINUOUS
 62
     2
 10
107.949999981
 20
65.166666706
 30
0.0
 40
0.333333333
 50
180.0
 51
270.0
  0
LINE
  8
0
  6
CONTINUOUS
 62
     2
 10
105.199999981
 20
52.666666706
 30
0.0
 11
105.199999981
 21
40.666666706
 31
0.0
  0
LINE
  8
0
  6
CONTINUOUS
 62
     2
 10
105.199999981
 20
42.666666706
 30
0.0
 11
107.614814547
 21
42.019619093
 31
0.0
  0
LINE
  8
0
  6
CONTINUOUS
 62
     2
 10
105.199999981
 20
42.666666706
 30
0.0
 11
107.614814547
 21
43.313714318
 31
0.0
  0
LINE
  8
0
  6
CONTINUOUS
 62
     2
 10
105.199999981
 20
42.666666706
 30
0.0
 11
135.199999981
 21
42.666666706
 31
0.0
  0
LINE
  8
0
  6
CONTINUOUS
 62
     2
 10
135.199999981
 20
42.666666706
 30
0.0
 11
132.785185415
 21
43.313714318
 31
0.0
  0
LINE
  8
0
  6
CONTINUOUS
 62
     2
 10
135.199999981
 20
42.666666706
 30
0.0
 11
132.785185415
 21
42.019619093
 31
0.0
  0
LINE
  8
0
  6
CONTINUOUS
 62
     2
 10
135.199999981
 20
52.666666706
 30
0.0
 11
135.199999981
 21
40.666666706
 31
0.0
  0
TEXT
  8
0
  6
CONTINUOUS
 62
     2
 10
118.249999981
 20
43.666666706
 30
0.3
 40
3.0
  1
９０
 50
0.0
 41
0.6
 51
0.0
  7
KANJI1
  0
LINE
  8
0
  6
CONTINUOUS
 62
     2
 10
139.024045299
 20
55.166666706
 30
0.0
 11
150.024045299
 21
55.166666706
 31
0.0
  0
LINE
  8
0
  6
CONTINUOUS
 62
     2
 10
148.024045299
 20
55.166666706
 30
0.0
 11
148.671092912
 21
57.581481271
 31
0.0
  0
LINE
  8
0
  6
CONTINUOUS
 62
     2
 10
148.024045299
 20
55.166666706
 30
0.0
 11
147.376997686
 21
57.581481271
 31
0.0
  0
LINE
  8
0
  6
CONTINUOUS
 62
     2
 10
148.024045299
 20
55.166666706
 30
0.0
 11
148.024045299
 21
85.166666706
 31
0.0
  0
LINE
  8
0
  6
CONTINUOUS
 62
     2
 10
148.024045299
 20
85.166666706
 30
0.0
 11
147.376997686
 21
82.75185214
 31
0.0
  0
LINE
  8
0
  6
CONTINUOUS
 62
     2
 10
148.024045299
 20
85.166666706
 30
0.0
 11
148.671092912
 21
82.75185214
 31
0.0
  0
LINE
  8
0
  6
CONTINUOUS
 62
     2
 10
139.024045299
 20
85.166666706
 30
0.0
 11
150.024045299
 21
85.166666706
 31
0.0
  0
TEXT
  8
0
  6
CONTINUOUS
 62
     2
 10
147.024045299
 20
68.216666706
 30
0.3
 40
3.0
  1
９０
 50
90.0
 41
0.6
 51
0.0
  7
KANJI1
  0
TEXT
  8
0
  6
CONTINUOUS
 62
     2
 10
114.449999981
 20
68.666666706
 30
0.3
 40
3.0
  1
銘　　板
 50
0.0
 41
0.9
 51
0.0
  7
KANJI0
  0
TEXT
  8
0
  6
CONTINUOUS
 62
     2
 10
111.183333314
 20
73.833333372
 30
0.1
 40
1.5
  1
Ｒ１
 50
0.0
 41
0.8
 51
0.0
  7
KANJI2
  0
TEXT
  8
0
  6
CONTINUOUS
 62
     2
 10
116.516666648
 20
73.833333372
 30
0.1
 40
1.5
  1
Ｃ１
 50
0.0
 41
0.8
 51
0.0
  7
KANJI2
  0
TEXT
  8
0
  6
CONTINUOUS
 62
     2
 10
121.849999981
 20
73.833333372
 30
0.1
 40
1.5
  1
Ｃ２
 50
0.0
 41
0.8
 51
0.0
  7
KANJI2
  0
TEXT
  8
0
  6
CONTINUOUS
 62
     2
 10
127.183333314
 20
73.833333372
 30
0.1
 40
1.5
  1
Ｒ２
 50
0.0
 41
0.8
 51
0.0
  7
KANJI2
  0
LINE
  8
0
  6
CONTINUOUS
 62
     2
 10
117.466666577
 20
79.766666704
 30
0.0
 11
117.216561626
 21
82.254124746
 31
0.0
  0
LINE
  8
0
  6
CONTINUOUS
 62
     2
 10
117.466666577
 20
79.766666704
 30
0.0
 11
116.006340315
 21
81.795816084
 31
0.0
  0
LINE
  8
0
  6
CONTINUOUS
 62
     2
 10
117.466666577
 20
79.766666704
 30
0.0
 11
111.066666577
 21
96.666666704
 31
0.0
  0
LINE
  8
0
  6
CONTINUOUS
 62
     2
 10
122.666666577
 20
79.866666704
 30
0.0
 11
121.827044833
 21
82.221456572
 31
0.0
  0
LINE
  8
0
  6
CONTINUOUS
 62
     2
 10
122.666666577
 20
79.866666704
 30
0.0
 11
120.762137883
 21
81.486163678
 31
0.0
  0
LINE
  8
0
  6
CONTINUOUS
 62
     2
 10
122.666666577
 20
79.866666704
 30
0.0
 11
111.066666577
 21
96.666666704
 31
0.0
  0
LINE
  8
0
  6
CONTINUOUS
 62
     2
 10
111.066666577
 20
96.666666704
 30
0.0
 11
81.366666577
 21
96.666666704
 31
0.0
  0
TEXT
  8
0
  6
CONTINUOUS
 62
     2
 10
81.366666577
 20
97.666666704
 30
0.3
 40
3.0
  1
測定端子（２－Ｍ４）
 50
0.0
 41
0.9
 51
0.0
  7
KANJI0
  0
LINE
  8
0
  6
CONTINUOUS
 62
     2
 10
112.466666577
 20
79.866666704
 30
0.0
 11
114.692413971
 21
81.005107979
 31
0.0
  0
LINE
  8
0
  6
CONTINUOUS
 62
     2
 10
112.466666577
 20
79.866666704
 30
0.0
 11
113.824999725
 21
81.965459466
 31
0.0
  0
LINE
  8
0
  6
CONTINUOUS
 62
     2
 10
112.466666577
 20
79.866666704
 30
0.0
 11
131.066666577
 21
96.666666704
 31
0.0
  0
LINE
  8
0
  6
CONTINUOUS
 62
     2
 10
131.066666577
 20
96.666666704
 30
0.0
 11
166.766666577
 21
96.666666704
 31
0.0
  0
TEXT
  8
0
  6
CONTINUOUS
 62
     2
 10
131.066666577
 20
97.666666704
 30
0.3
 40
3.0
  1
電磁復帰端子（２－Ｍ４）
 50
0.0
 41
0.9
 51
0.0
  7
KANJI0
  0
LINE
  8
0
  6
CONTINUOUS
 62
     2
 10
128.266666577
 20
79.766666704
 30
0.0
 11
129.299719142
 21
82.043243607
 31
0.0
  0
LINE
  8
0
  6
CONTINUOUS
 62
     2
 10
128.266666577
 20
79.766666704
 30
0.0
 11
128.02302789
 21
82.254766418
 31
0.0
  0
LINE
  8
0
  6
CONTINUOUS
 62
     2
 10
128.266666577
 20
79.766666704
 30
0.0
 11
131.066666577
 21
96.666666704
 31
0.0
  0
TEXT
  8
0
  6
CONTINUOUS
 62
     1
 10
114.566666577
 20
34.366666704
 30
0.4
 40
4.0
  1
裏面図
 50
0.0
 41
0.9
 51
0.0
  7
KANJI3
  0
LINE
  8
0
  6
CONTINUOUS
 62
     1
 10
114.566666577
 20
33.366666704
 30
0.0
 11
126.566666577
 21
33.366666704
 31
0.0
  0
CIRCLE
  8
0
  6
CONTINUOUS
 62
     2
 10
31.9
 20
154.9
 30
0.0
 40
1.5
  0
CIRCLE
  8
0
  6
CONTINUOUS
 62
     2
 10
36.9
 20
154.9
 30
0.0
 40
1.5
  0
CIRCLE
  8
0
  6
CONTINUOUS
 62
     2
 10
41.9
 20
154.9
 30
0.0
 40
1.5
  0
CIRCLE
  8
0
  6
CONTINUOUS
 62
     2
 10
46.9
 20
154.9
 30
0.0
 40
1.5
  0
CIRCLE
  8
0
  6
CONTINUOUS
 62
     2
 10
39.4
 20
149.9
 30
0.0
 40
11.5
  0
CIRCLE
  8
0
  6
CONTINUOUS
 62
     2
 10
31.9
 20
144.9
 30
0.0
 40
1.5
  0
CIRCLE
  8
0
  6
CONTINUOUS
 62
     2
 10
36.9
 20
144.9
 30
0.0
 40
1.5
  0
CIRCLE
  8
0
  6
CONTINUOUS
 62
     2
 10
41.9
 20
144.9
 30
0.0
 40
1.5
  0
CIRCLE
  8
0
  6
CONTINUOUS
 62
     2
 10
46.9
 20
144.9
 30
0.0
 40
1.5
  0
TEXT
  8
0
  6
CONTINUOUS
 62
     2
 10
30.6
 20
150.9
 30
0.1
 40
2.0
  1
Ｒ
 50
0.0
 41
0.9
 51
0.0
  7
KANJI4
  0
TEXT
  8
0
  6
CONTINUOUS
 62
     2
 10
32.2
 20
150.9
 30
0.1
 40
1.5
  1
１
 50
0.0
 41
0.8
 51
0.0
  7
KANJI2
  0
TEXT
  8
0
  6
CONTINUOUS
 62
     2
 10
37.2
 20
150.9
 30
0.1
 40
1.5
  1
１
 50
0.0
 41
0.8
 51
0.0
  7
KANJI2
  0
TEXT
  8
0
  6
CONTINUOUS
 62
     2
 10
45.6
 20
150.9
 30
0.1
 40
2.0
  1
Ｒ
 50
0.0
 41
0.9
 51
0.0
  7
KANJI4
  0
TEXT
  8
0
  6
CONTINUOUS
 62
     2
 10
35.6
 20
150.9
 30
0.1
 40
2.0
  1
Ｐ
 50
0.0
 41
0.9
 51
0.0
  7
KANJI4
  0
TEXT
  8
0
  6
CONTINUOUS
 62
     2
 10
40.6
 20
150.9
 30
0.1
 40
2.0
  1
Ｐ
 50
0.0
 41
0.9
 51
0.0
  7
KANJI4
  0
TEXT
  8
0
  6
CONTINUOUS
 62
     2
 10
42.2
 20
150.9
 30
0.1
 40
1.5
  1
２
 50
0.0
 41
0.8
 51
0.0
  7
KANJI2
  0
TEXT
  8
0
  6
CONTINUOUS
 62
     2
 10
47.2
 20
150.9
 30
0.1
 40
1.5
  1
２
 50
0.0
 41
0.8
 51
0.0
  7
KANJI2
  0
LINE
  8
0
  6
CONTINUOUS
 62
     2
 10
31.9
 20
156.4
 30
0.0
 11
31.9
 21
160.4
 31
0.0
  0
LINE
  8
0
  6
CONTINUOUS
 62
     2
 10
41.9
 20
156.4
 30
0.0
 11
41.9
 21
163.4
 31
0.0
  0
LINE
  8
0
  6
CONTINUOUS
 62
     2
 10
41.9
 20
163.4
 30
0.0
 11
21.9
 21
163.4
 31
0.0
  0
LINE
  8
0
  6
CONTINUOUS
 62
     2
 10
21.9
 20
167.4
 30
0.0
 11
36.9
 21
167.4
 31
0.0
  0
LINE
  8
0
  6
CONTINUOUS
 62
     2
 10
36.9
 20
167.4
 30
0.0
 11
36.9
 21
156.4
 31
0.0
  0
LINE
  8
0
  6
CONTINUOUS
 62
     2
 10
52.9
 20
160.4
 30
0.0
 11
55.314814566
 21
159.752952387
 31
0.0
  0
LINE
  8
0
  6
CONTINUOUS
 62
     2
 10
52.9
 20
160.4
 30
0.0
 11
55.314814566
 21
161.047047613
 31
0.0
  0
LINE
  8
0
  6
CONTINUOUS
 62
     2
 10
52.9
 20
154.9
 30
0.0
 11
55.314814566
 21
154.252952387
 31
0.0
  0
LINE
  8
0
  6
CONTINUOUS
 62
     2
 10
52.9
 20
154.9
 30
0.0
 11
55.314814566
 21
155.547047613
 31
0.0
  0
LINE
  8
0
  6
CONTINUOUS
 62
     2
 10
58.4
 20
154.9
 30
0.0
 11
48.4
 21
154.9
 31
0.0
  0
LINE
  8
0
  6
CONTINUOUS
 62
     2
 10
31.9
 20
160.4
 30
0.0
 11
58.4
 21
160.4
 31
0.0
  0
LINE
  8
0
  6
CONTINUOUS
 62
     2
 10
25.9
 20
167.4
 30
0.0
 11
23.485185434
 21
168.047047613
 31
0.0
  0
LINE
  8
0
  6
CONTINUOUS
 62
     2
 10
25.9
 20
167.4
 30
0.0
 11
23.485185434
 21
166.752952387
 31
0.0
  0
LINE
  8
0
  6
CONTINUOUS
 62
     2
 10
25.9
 20
163.4
 30
0.0
 11
23.485185434
 21
164.047047613
 31
0.0
  0
LINE
  8
0
  6
CONTINUOUS
 62
     2
 10
25.9
 20
163.4
 30
0.0
 11
23.485185434
 21
162.752952387
 31
0.0
  0
TEXT
  8
0
  6
CONTINUOUS
 62
     2
 10
12.2
 20
170.8
 30
0.3
 40
3.0
  1
１．交流電圧計
 50
0.0
 41
0.9
 51
0.0
  7
KANJI0
  0
TEXT
  8
0
  6
CONTINUOUS
 62
     2
 10
12.2
 20
80.8
 30
0.3
 40
3.0
  1
３．直流計器
 50
0.0
 41
0.9
 51
0.0
  7
KANJI0
  0
TEXT
  8
0
  6
CONTINUOUS
 62
     2
 10
12.2
 20
125.8
 30
0.3
 40
3.0
  1
２．交流電流計
 50
0.0
 41
0.9
 51
0.0
  7
KANJI0
  0
CIRCLE
  8
0
  6
CONTINUOUS
 62
     2
 10
31.9
 20
109.9
 30
0.0
 40
1.5
  0
CIRCLE
  8
0
  6
CONTINUOUS
 62
     2
 10
36.9
 20
109.9
 30
0.0
 40
1.5
  0
CIRCLE
  8
0
  6
CONTINUOUS
 62
     2
 10
41.9
 20
109.9
 30
0.0
 40
1.5
  0
CIRCLE
  8
0
  6
CONTINUOUS
 62
     2
 10
46.9
 20
109.9
 30
0.0
 40
1.5
  0
CIRCLE
  8
0
  6
CONTINUOUS
 62
     2
 10
39.4
 20
104.9
 30
0.0
 40
11.5
  0
CIRCLE
  8
0
  6
CONTINUOUS
 62
     2
 10
31.9
 20
99.9
 30
0.0
 40
1.5
  0
CIRCLE
  8
0
  6
CONTINUOUS
 62
     2
 10
36.9
 20
99.9
 30
0.0
 40
1.5
  0
CIRCLE
  8
0
  6
CONTINUOUS
 62
     2
 10
41.9
 20
99.9
 30
0.0
 40
1.5
  0
CIRCLE
  8
0
  6
CONTINUOUS
 62
     2
 10
46.9
 20
99.9
 30
0.0
 40
1.5
  0
TEXT
  8
0
  6
CONTINUOUS
 62
     2
 10
30.6
 20
105.9
 30
0.1
 40
2.0
  1
Ｒ
 50
0.0
 41
0.9
 51
0.0
  7
KANJI4
  0
TEXT
  8
0
  6
CONTINUOUS
 62
     2
 10
32.2
 20
105.9
 30
0.1
 40
1.5
  1
１
 50
0.0
 41
0.8
 51
0.0
  7
KANJI2
  0
TEXT
  8
0
  6
CONTINUOUS
 62
     2
 10
37.2
 20
105.9
 30
0.1
 40
1.5
  1
１
 50
0.0
 41
0.8
 51
0.0
  7
KANJI2
  0
TEXT
  8
0
  6
CONTINUOUS
 62
     2
 10
45.6
 20
105.9
 30
0.1
 40
2.0
  1
Ｒ
 50
0.0
 41
0.9
 51
0.0
  7
KANJI4
  0
TEXT
  8
0
  6
CONTINUOUS
 62
     2
 10
42.2
 20
105.9
 30
0.1
 40
1.5
  1
２
 50
0.0
 41
0.8
 51
0.0
  7
KANJI2
  0
TEXT
  8
0
  6
CONTINUOUS
 62
     2
 10
47.2
 20
105.9
 30
0.1
 40
1.5
  1
２
 50
0.0
 41
0.8
 51
0.0
  7
KANJI2
  0
LINE
  8
0
  6
CONTINUOUS
 62
     2
 10
31.9
 20
111.4
 30
0.0
 11
31.9
 21
115.4
 31
0.0
  0
LINE
  8
0
  6
CONTINUOUS
 62
     2
 10
41.9
 20
111.4
 30
0.0
 11
41.9
 21
118.4
 31
0.0
  0
LINE
  8
0
  6
CONTINUOUS
 62
     2
 10
41.9
 20
118.4
 30
0.0
 11
21.9
 21
118.4
 31
0.0
  0
LINE
  8
0
  6
CONTINUOUS
 62
     2
 10
21.9
 20
122.4
 30
0.0
 11
36.9
 21
122.4
 31
0.0
  0
LINE
  8
0
  6
CONTINUOUS
 62
     2
 10
36.9
 20
122.4
 30
0.0
 11
36.9
 21
111.4
 31
0.0
  0
LINE
  8
0
  6
CONTINUOUS
 62
     2
 10
52.9
 20
115.4
 30
0.0
 11
55.314814566
 21
114.752952387
 31
0.0
  0
LINE
  8
0
  6
CONTINUOUS
 62
     2
 10
52.9
 20
115.4
 30
0.0
 11
55.314814566
 21
116.047047613
 31
0.0
  0
LINE
  8
0
  6
CONTINUOUS
 62
     2
 10
52.9
 20
109.9
 30
0.0
 11
55.314814566
 21
109.252952387
 31
0.0
  0
LINE
  8
0
  6
CONTINUOUS
 62
     2
 10
52.9
 20
109.9
 30
0.0
 11
55.314814566
 21
110.547047613
 31
0.0
  0
LINE
  8
0
  6
CONTINUOUS
 62
     2
 10
58.4
 20
109.9
 30
0.0
 11
48.4
 21
109.9
 31
0.0
  0
LINE
  8
0
  6
CONTINUOUS
 62
     2
 10
31.9
 20
115.4
 30
0.0
 11
58.4
 21
115.4
 31
0.0
  0
LINE
  8
0
  6
CONTINUOUS
 62
     2
 10
25.9
 20
122.4
 30
0.0
 11
23.485185434
 21
123.047047613
 31
0.0
  0
LINE
  8
0
  6
CONTINUOUS
 62
     2
 10
25.9
 20
122.4
 30
0.0
 11
23.485185434
 21
121.752952387
 31
0.0
  0
LINE
  8
0
  6
CONTINUOUS
 62
     2
 10
25.9
 20
118.4
 30
0.0
 11
23.485185434
 21
119.047047613
 31
0.0
  0
LINE
  8
0
  6
CONTINUOUS
 62
     2
 10
25.9
 20
118.4
 30
0.0
 11
23.485185434
 21
117.752952387
 31
0.0
  0
CIRCLE
  8
0
  6
CONTINUOUS
 62
     2
 10
31.9
 20
64.9
 30
0.0
 40
1.5
  0
CIRCLE
  8
0
  6
CONTINUOUS
 62
     2
 10
36.9
 20
64.9
 30
0.0
 40
1.5
  0
CIRCLE
  8
0
  6
CONTINUOUS
 62
     2
 10
41.9
 20
64.9
 30
0.0
 40
1.5
  0
CIRCLE
  8
0
  6
CONTINUOUS
 62
     2
 10
46.9
 20
64.9
 30
0.0
 40
1.5
  0
CIRCLE
  8
0
  6
CONTINUOUS
 62
     2
 10
39.4
 20
59.9
 30
0.0
 40
11.5
  0
CIRCLE
  8
0
  6
CONTINUOUS
 62
     2
 10
31.9
 20
54.9
 30
0.0
 40
1.5
  0
CIRCLE
  8
0
  6
CONTINUOUS
 62
     2
 10
36.9
 20
54.9
 30
0.0
 40
1.5
  0
CIRCLE
  8
0
  6
CONTINUOUS
 62
     2
 10
41.9
 20
54.9
 30
0.0
 40
1.5
  0
CIRCLE
  8
0
  6
CONTINUOUS
 62
     2
 10
46.9
 20
54.9
 30
0.0
 40
1.5
  0
TEXT
  8
0
  6
CONTINUOUS
 62
     2
 10
30.6
 20
60.9
 30
0.1
 40
2.0
  1
Ｒ
 50
0.0
 41
0.9
 51
0.0
  7
KANJI4
  0
TEXT
  8
0
  6
CONTINUOUS
 62
     2
 10
32.2
 20
60.9
 30
0.1
 40
1.5
  1
１
 50
0.0
 41
0.8
 51
0.0
  7
KANJI2
  0
TEXT
  8
0
  6
CONTINUOUS
 62
     2
 10
45.6
 20
60.9
 30
0.1
 40
2.0
  1
Ｒ
 50
0.0
 41
0.9
 51
0.0
  7
KANJI4
  0
TEXT
  8
0
  6
CONTINUOUS
 62
     2
 10
47.2
 20
60.9
 30
0.1
 40
1.5
  1
２
 50
0.0
 41
0.8
 51
0.0
  7
KANJI2
  0
LINE
  8
0
  6
CONTINUOUS
 62
     2
 10
31.9
 20
66.4
 30
0.0
 11
31.9
 21
70.4
 31
0.0
  0
LINE
  8
0
  6
CONTINUOUS
 62
     2
 10
41.9
 20
66.4
 30
0.0
 11
41.9
 21
73.4
 31
0.0
  0
LINE
  8
0
  6
CONTINUOUS
 62
     2
 10
41.9
 20
73.4
 30
0.0
 11
21.9
 21
73.4
 31
0.0
  0
LINE
  8
0
  6
CONTINUOUS
 62
     2
 10
21.9
 20
77.4
 30
0.0
 11
36.9
 21
77.4
 31
0.0
  0
LINE
  8
0
  6
CONTINUOUS
 62
     2
 10
36.9
 20
77.4
 30
0.0
 11
36.9
 21
66.4
 31
0.0
  0
LINE
  8
0
  6
CONTINUOUS
 62
     2
 10
52.9
 20
70.4
 30
0.0
 11
55.314814566
 21
69.752952387
 31
0.0
  0
LINE
  8
0
  6
CONTINUOUS
 62
     2
 10
52.9
 20
70.4
 30
0.0
 11
55.314814566
 21
71.047047613
 31
0.0
  0
LINE
  8
0
  6
CONTINUOUS
 62
     2
 10
52.9
 20
64.9
 30
0.0
 11
55.314814566
 21
64.252952387
 31
0.0
  0
LINE
  8
0
  6
CONTINUOUS
 62
     2
 10
52.9
 20
64.9
 30
0.0
 11
55.314814566
 21
65.547047613
 31
0.0
  0
LINE
  8
0
  6
CONTINUOUS
 62
     2
 10
58.4
 20
64.9
 30
0.0
 11
48.4
 21
64.9
 31
0.0
  0
LINE
  8
0
  6
CONTINUOUS
 62
     2
 10
31.9
 20
70.4
 30
0.0
 11
58.4
 21
70.4
 31
0.0
  0
LINE
  8
0
  6
CONTINUOUS
 62
     2
 10
25.9
 20
77.4
 30
0.0
 11
23.485185434
 21
78.047047613
 31
0.0
  0
LINE
  8
0
  6
CONTINUOUS
 62
     2
 10
25.9
 20
77.4
 30
0.0
 11
23.485185434
 21
76.752952387
 31
0.0
  0
TEXT
  8
0
  6
CONTINUOUS
 62
     2
 10
35.6
 20
105.9
 30
0.1
 40
2.0
  1
Ｃ
 50
0.0
 41
0.9
 51
0.0
  7
KANJI4
  0
TEXT
  8
0
  6
CONTINUOUS
 62
     2
 10
40.6
 20
105.9
 30
0.1
 40
2.0
  1
Ｃ
 50
0.0
 41
0.9
 51
0.0
  7
KANJI4
  0
TEXT
  8
0
  6
CONTINUOUS
 62
     2
 10
36.1
 20
60.9
 30
0.1
 40
2.0
  1
＋
 50
0.0
 41
0.9
 51
0.0
  7
KANJI4
  0
TEXT
  8
0
  6
CONTINUOUS
 62
     2
 10
41.1
 20
60.9
 30
0.1
 40
2.0
  1
－
 50
0.0
 41
0.9
 51
0.0
  7
KANJI4
  0
TEXT
  8
0
  6
CONTINUOUS
 62
     1
 10
16.166666577
 20
177.066666704
 30
0.5
 40
5.0
  1
結線図
 50
0.0
 41
0.9
 51
0.0
  7
KANJI5
  0
LINE
  8
0
  6
CONTINUOUS
 62
     1
 10
16.166666577
 20
176.066666704
 30
0.0
 11
31.166666577
 21
176.066666704
 31
0.0
  0
CIRCLE
  8
0
  6
CONTINUOUS
 62
     1
 10
185.199999981
 20
70.166666706
 30
0.0
 40
15.3
  0
CIRCLE
  8
0
  6
CONTINUOUS
 62
     1
 10
171.699999981
 20
83.666666705
 30
0.0
 40
1.05
  0
CIRCLE
  8
0
  6
CONTINUOUS
 62
     1
 10
171.699999981
 20
56.666666706
 30
0.0
 40
1.05
  0
CIRCLE
  8
0
  6
CONTINUOUS
 62
     1
 10
198.699999981
 20
56.666666706
 30
0.0
 40
1.05
  0
CIRCLE
  8
0
  6
CONTINUOUS
 62
     1
 10
198.699999981
 20
83.666666705
 30
0.0
 40
1.05
  0
LINE
  8
0
  6
LTYPE2
 62
     2
 10
169.239999981
 20
56.666666706
 30
0.0
 11
173.529999981
 21
56.666666706
 31
0.0
  0
LINE
  8
0
  6
LTYPE2
 62
     2
 10
196.059999981
 20
56.666666706
 30
0.0
 11
201.639999981
 21
56.666666706
 31
0.0
  0
LINE
  8
0
  6
LTYPE2
 62
     2
 10
198.699999981
 20
54.056666706
 30
0.0
 11
198.699999981
 21
59.666666706
 31
0.0
  0
LINE
  8
0
  6
LTYPE2
 62
     2
 10
198.699999981
 20
80.426666705
 30
0.0
 11
198.699999981
 21
87.476666705
 31
0.0
  0
LINE
  8
0
  6
LTYPE2
 62
     2
 10
171.699999981
 20
87.476666705
 30
0.0
 11
171.699999981
 21
81.026666705
 31
0.0
  0
LINE
  8
0
  6
LTYPE2
 62
     2
 10
171.699999981
 20
59.786666706
 30
0.0
 11
171.699999981
 21
53.606666706
 31
0.0
  0
LINE
  8
0
  6
LTYPE2
 62
     2
 10
169.269999981
 20
83.666666705
 30
0.0
 11
175.659999981
 21
83.666666705
 31
0.0
  0
LINE
  8
0
  6
LTYPE2
 62
     2
 10
195.219999981
 20
83.666666705
 30
0.0
 11
203.049999981
 21
83.666666705
 31
0.0
  0
LINE
  8
0
  6
CONTINUOUS
 62
     2
 10
174.638512416
 20
59.096663073
 30
0.0
 11
175.919565492
 21
59.876985453
 31
0.0
  0
LINE
  8
0
  6
CONTINUOUS
 62
     2
 10
174.638512416
 20
59.096663073
 30
0.0
 11
175.357775733
 21
60.412968616
 31
0.0
  0
LINE
  8
0
  6
CONTINUOUS
 62
     2
 10
174.638512416
 20
59.096663073
 30
0.0
 11
195.761487545
 21
81.236670338
 31
0.0
  0
LINE
  8
0
  6
CONTINUOUS
 62
     2
 10
195.761487545
 20
81.236670338
 30
0.0
 11
194.48043447
 21
80.456347958
 31
0.0
  0
LINE
  8
0
  6
CONTINUOUS
 62
     2
 10
195.761487545
 20
81.236670338
 30
0.0
 11
195.042224228
 21
79.920364796
 31
0.0
  0
TEXT
  8
0
  6
CONTINUOUS
 62
     2
 10
176.665882191
 20
62.090842689
 30
0.1
 40
3.0
  1
φ１０２
 50
46.346669025
 41
0.6
 51
0.0
  7
KANJI6
  0
LINE
  8
0
  6
CONTINUOUS
 62
     2
 10
203.049999981
 20
83.666666705
 30
0.0
 11
210.049999981
 21
83.666666705
 31
0.0
  0
LINE
  8
0
  6
CONTINUOUS
 62
     2
 10
208.049999981
 20
83.666666705
 30
0.0
 11
207.402952368
 21
81.25185214
 31
0.0
  0
LINE
  8
0
  6
CONTINUOUS
 62
     2
 10
208.049999981
 20
83.666666705
 30
0.0
 11
208.697047593
 21
81.25185214
 31
0.0
  0
LINE
  8
0
  6
CONTINUOUS
 62
     2
 10
208.049999981
 20
83.666666705
 30
0.0
 11
208.049999981
 21
56.666666705
 31
0.0
  0
LINE
  8
0
  6
CONTINUOUS
 62
     2
 10
208.049999981
 20
56.666666705
 30
0.0
 11
208.697047593
 21
59.081481271
 31
0.0
  0
LINE
  8
0
  6
CONTINUOUS
 62
     2
 10
208.049999981
 20
56.666666705
 30
0.0
 11
207.402952368
 21
59.081481271
 31
0.0
  0
LINE
  8
0
  6
CONTINUOUS
 62
     2
 10
202.049999981
 20
56.666666705
 30
0.0
 11
210.049999981
 21
56.666666705
 31
0.0
  0
TEXT
  8
0
  6
CONTINUOUS
 62
     2
 10
207.049999981
 20
67.046666705
 30
0.3
 40
3.0
  1
９０
 50
90.0
 41
0.6
 51
0.0
  7
KANJI1
  0
TEXT
  8
0
  6
CONTINUOUS
 62
     2
 10
207.049999981
 20
71.396666705
 30
0.18
 40
1.8
  1
±１
 50
90.0
 41
0.6
 51
0.0
  7
KANJI7
  0
LINE
  8
0
  6
CONTINUOUS
 62
     2
 10
171.699999981
 20
52.606666706
 30
0.0
 11
171.699999981
 21
45.606666706
 31
0.0
  0
LINE
  8
0
  6
CONTINUOUS
 62
     2
 10
171.699999981
 20
47.606666706
 30
0.0
 11
174.114814547
 21
46.959619093
 31
0.0
  0
LINE
  8
0
  6
CONTINUOUS
 62
     2
 10
171.699999981
 20
47.606666706
 30
0.0
 11
174.114814547
 21
48.253714318
 31
0.0
  0
LINE
  8
0
  6
CONTINUOUS
 62
     2
 10
171.699999981
 20
47.606666706
 30
0.0
 11
198.699999981
 21
47.606666706
 31
0.0
  0
LINE
  8
0
  6
CONTINUOUS
 62
     2
 10
198.699999981
 20
47.606666706
 30
0.0
 11
196.285185415
 21
48.253714318
 31
0.0
  0
LINE
  8
0
  6
CONTINUOUS
 62
     2
 10
198.699999981
 20
47.606666706
 30
0.0
 11
196.285185415
 21
46.959619093
 31
0.0
  0
LINE
  8
0
  6
CONTINUOUS
 62
     2
 10
198.699999981
 20
52.606666706
 30
0.0
 11
198.699999981
 21
45.606666706
 31
0.0
  0
TEXT
  8
0
  6
CONTINUOUS
 62
     2
 10
182.079999981
 20
48.606666706
 30
0.3
 40
3.0
  1
９０
 50
0.0
 41
0.6
 51
0.0
  7
KANJI1
  0
TEXT
  8
0
  6
CONTINUOUS
 62
     2
 10
186.429999981
 20
48.606666706
 30
0.18
 40
1.8
  1
±１
 50
0.0
 41
0.6
 51
0.0
  7
KANJI7
  0
TEXT
  8
0
  6
CONTINUOUS
 62
     2
 10
181.950502506
 20
67.615747875
 30
0.18
 40
1.8
  1
±１
 50
45.0
 41
0.6
 51
0.0
  7
KANJI7
  0
LINE
  8
0
  6
CONTINUOUS
 62
     2
 10
199.169574256
 20
84.605815256
 30
0.0
 11
200.828249139
 21
86.476322575
 31
0.0
  0
LINE
  8
0
  6
CONTINUOUS
 62
     2
 10
199.169574256
 20
84.605815256
 30
0.0
 11
199.670775182
 21
87.055059554
 31
0.0
  0
TEXT
  8
0
  6
CONTINUOUS
 62
     2
 10
204.199999981
 20
94.066666705
 30
0.3
 40
3.0
  1
４－φ７
 50
0.0
 41
0.9
 51
0.0
  7
KANJI0
  0
LINE
  8
0
  6
CONTINUOUS
 62
     2
 10
203.399999981
 20
93.066666705
 30
0.0
 11
215.899999981
 21
93.066666705
 31
0.0
  0
LINE
  8
0
  6
CONTINUOUS
 62
     2
 10
199.169574256
 20
84.605815256
 30
0.0
 11
203.399999981
 21
93.066666705
 31
0.0
  0
TEXT
  8
0
  6
CONTINUOUS
 62
     1
 10
174.566666577
 20
34.366666704
 30
0.4
 40
4.0
  1
取付穴寸法図
 50
0.0
 41
0.9
 51
0.0
  7
KANJI3
  0
LINE
  8
0
  6
CONTINUOUS
 62
     1
 10
174.566666577
 20
33.366666704
 30
0.0
 11
198.166666577
 21
33.366666704
 31
0.0
  0
TEXT
  8
0
  6
CONTINUOUS
 62
     2
 10
69.366666577
 20
92.666666704
 30
0.3
 40
3.0
  1
端子記号は一例を示す。
 50
0.0
 41
0.9
 51
0.0
  7
KANJI0
  0
TEXT
  8
0
  6
CONTINUOUS
 62
     2
 10
69.366666577
 20
88.666666704
 30
0.3
 40
3.0
  1
端子記号は計器の仕様
 50
0.0
 41
0.9
 51
0.0
  7
KANJI0
  0
TEXT
  8
0
  6
CONTINUOUS
 62
     2
 10
69.366666577
 20
84.666666704
 30
0.3
 40
3.0
  1
によって左下表の通り
 50
0.0
 41
0.9
 51
0.0
  7
KANJI0
  0
TEXT
  8
0
  6
CONTINUOUS
 62
     2
 10
69.366666577
 20
80.666666704
 30
0.3
 40
3.0
  1
となります。
 50
0.0
 41
0.9
 51
0.0
  7
KANJI0
  0
TEXT
  8
0
  6
CONTINUOUS
 62
     2
 10
59.7
 20
158.4
 30
0.3
 40
3.0
  1
電磁復帰端子
 50
0.0
 41
0.9
 51
0.0
  7
KANJI0
  0
TEXT
  8
0
  6
CONTINUOUS
 62
     2
 10
59.7
 20
154.4
 30
0.3
 40
3.0
  1
（付加仕様）
 50
0.0
 41
0.9
 51
0.0
  7
KANJI0
  0
TEXT
  8
0
  6
CONTINUOUS
 62
     2
 10
59.7
 20
113.4
 30
0.3
 40
3.0
  1
電磁復帰端子
 50
0.0
 41
0.9
 51
0.0
  7
KANJI0
  0
TEXT
  8
0
  6
CONTINUOUS
 62
     2
 10
59.7
 20
109.4
 30
0.3
 40
3.0
  1
（付加仕様）
 50
0.0
 41
0.9
 51
0.0
  7
KANJI0
  0
TEXT
  8
0
  6
CONTINUOUS
 62
     2
 10
59.7
 20
68.4
 30
0.3
 40
3.0
  1
電磁復帰端子
 50
0.0
 41
0.9
 51
0.0
  7
KANJI0
  0
TEXT
  8
0
  6
CONTINUOUS
 62
     2
 10
59.7
 20
64.4
 30
0.3
 40
3.0
  1
（付加仕様）
 50
0.0
 41
0.9
 51
0.0
  7
KANJI0
  0
TEXT
  8
0
  6
CONTINUOUS
 62
     2
 10
13.9
 20
69.1
 30
0.3
 40
3.0
  1
計器入力
 50
0.0
 41
0.9
 51
0.0
  7
KANJI0
  0
TEXT
  8
0
  6
CONTINUOUS
 62
     2
 10
12.9
 20
114.1
 30
0.3
 40
3.0
  1
計器入力電流
 50
0.0
 41
0.9
 51
0.0
  7
KANJI0
  0
TEXT
  8
0
  6
CONTINUOUS
 62
     2
 10
12.9
 20
159.1
 30
0.3
 40
3.0
  1
計器入力電圧
 50
0.0
 41
0.9
 51
0.0
  7
KANJI0
  0
LINE
  8
0
  6
LTYPE3
 62
     2
 10
185.199999981
 20
52.376666706
 30
0.0
 11
185.199999981
 21
88.966666706
 31
0.0
  0
LINE
  8
0
  6
LTYPE3
 62
     2
 10
167.619999981
 20
70.166666706
 30
0.0
 11
202.839999981
 21
70.166666706
 31
0.0
  0
POINT
  8
0
  6
LTYPE3
 62
     2
 10
120.199999981
 20
90.833333372
 30
0.0
  0
LINE
  8
0
  6
LTYPE3
 62
     2
 10
120.199999981
 20
48.333333372
 30
0.0
 11
120.199999981
 21
90.833333372
 31
0.0
  0
LINE
  8
0
  6
LTYPE3
 62
     2
 10
99.199999981
 20
70.166666706
 30
0.0
 11
141.066666647
 21
70.166666706
 31
0.0
  0
TEXT
  8
0
  6
CONTINUOUS
 62
     3
 10
233.0
 20
12.0
 30
0.6
 40
6.0
  1
ＭＳ－１１６１４Ａ
 50
0.0
 41
0.9
 51
0.0
  7
KANJI8
  0
LINE
  8
0
  6
CONTINUOUS
 62
     2
 10
122.949465587
 20
157.839462695
 30
0.0
 11
122.924695082
 21
160.225637637
 31
0.0
  0
LINE
  8
0
  6
CONTINUOUS
 62
     2
 10
122.924695082
 20
160.225637637
 30
0.0
 11
121.969540883
 21
158.038830629
 31
0.0
  0
LINE
  8
0
  6
CONTINUOUS
 62
     2
 10
121.969540883
 20
158.038830629
 30
0.0
 11
120.835382841
 21
152.464265751
 31
0.0
  0
LINE
  8
0
  6
CONTINUOUS
 62
     2
 10
122.592415191
 20
158.592429797
 30
0.0
 11
121.102376196
 21
152.427690172
 31
0.0
  0
LINE
  8
0
  6
CONTINUOUS
 62
     2
 10
121.555247648
 20
152.335552434
 30
0.0
 11
122.592415191
 21
158.592429797
 31
0.0
  0
LINE
  8
0
  6
CONTINUOUS
 62
     2
 10
121.815307545
 20
152.264897817
 30
0.0
 11
122.949465587
 21
157.839462695
 31
0.0
  0
LINE
  8
0
  6
CONTINUOUS
 62
     2
 10
111.415235991
 20
157.302607399
 30
0.0
 11
112.659725598
 21
155.300907831
 31
0.0
  0
LINE
  8
0
  6
CONTINUOUS
 62
     2
 10
113.170421892
 20
155.729432903
 30
0.0
 11
111.415235991
 21
157.302607399
 31
0.0
  0
LINE
  8
0
  6
CONTINUOUS
 62
     2
 10
116.660975513
 20
151.254894383
 30
0.0
 11
112.486548672
 21
156.025866662
 31
0.0
  0
LINE
  8
0
  6
CONTINUOUS
 62
     2
 10
112.486548672
 20
156.025866662
 30
0.0
 11
116.460157548
 21
151.086388103
 31
0.0
  0
LINE
  8
0
  6
CONTINUOUS
 62
     2
 10
112.659725598
 20
155.300907831
 30
0.0
 11
116.290860745
 21
150.921632013
 31
0.0
  0
LINE
  8
0
  6
CONTINUOUS
 62
     2
 10
116.852626669
 20
151.393009593
 30
0.0
 11
113.170421892
 21
155.729432903
 31
0.0
  0
LINE
  8
0
  6
CONTINUOUS
 62
     2
 10
111.492299955
 20
157.428978153
 30
0.0
 11
111.482507373
 21
159.928958974
 31
0.0
  0
LINE
  8
0
  6
CONTINUOUS
 62
     2
 10
111.492299955
 20
157.428978153
 30
0.0
 11
110.23382892
 21
159.589128762
 31
0.0
  0
LINE
  8
0
  6
CONTINUOUS
 62
     2
 10
122.97319174
 20
160.392372631
 30
0.0
 11
124.812189021
 21
162.085915958
 31
0.0
  0
LINE
  8
0
  6
CONTINUOUS
 62
     2
 10
122.97319174
 20
160.392372631
 30
0.0
 11
123.719038439
 21
162.778522816
 31
0.0
  0
TEXT
  8
0
  6
CONTINUOUS
 62
     2
 10
119.17319174
 20
174.392372631
 30
0.3
 40
3.0
  1
推針（黒）
 50
0.0
 41
0.9
 51
0.0
  7
KANJI0
  0
LINE
  8
0
  6
CONTINUOUS
 62
     2
 10
119.17319174
 20
173.392372631
 30
0.0
 11
131.209832961
 21
173.392372631
 31
0.0
  0
LINE
  8
0
  6
CONTINUOUS
 62
     2
 10
122.97319174
 20
160.392372631
 30
0.0
 11
131.209832961
 21
173.392372631
 31
0.0
  0
TEXT
  8
0
  6
CONTINUOUS
 62
     2
 10
86.992299955
 20
174.328978153
 30
0.3
 40
3.0
  1
※最小指針（緑）
 50
0.0
 41
0.9
 51
0.0
  7
KANJI0
  0
LINE
  8
0
  6
CONTINUOUS
 62
     2
 10
107.165084765
 20
173.328978153
 30
0.0
 11
86.992299955
 21
173.328978153
 31
0.0
  0
LINE
  8
0
  6
CONTINUOUS
 62
     2
 10
111.492299955
 20
157.428978153
 30
0.0
 11
107.165084765
 21
173.328978153
 31
0.0
  0
TEXT
  8
0
  6
CONTINUOUS
 62
     2
 10
121.769274026
 20
179.218097344
 30
0.3
 40
3.0
  1
最大指針（赤）
 50
0.0
 41
0.9
 51
0.0
  7
KANJI0
  0
LINE
  8
0
  6
CONTINUOUS
 62
     2
 10
121.769274026
 20
178.218097344
 30
0.0
 11
139.508385137
 21
178.218097344
 31
0.0
  0
LINE
  8
0
  6
CONTINUOUS
 62
     2
 10
130.669274026
 20
155.618097344
 30
0.0
 11
139.508385137
 21
178.218097344
 31
0.0
  0
TEXT
  8
0
  6
CONTINUOUS
 62
     2
 10
18.166666577
 20
40.966666704
 30
0.3
 40
3.0
  1
端子記号
 50
0.0
 41
0.9
 51
0.0
  7
KANJI0
  0
TEXT
  8
0
  6
CONTINUOUS
 62
     2
 10
21.166666577
 20
36.966666704
 30
0.3
 40
3.0
  1
１）測定端子
 50
0.0
 41
0.9
 51
0.0
  7
KANJI0
  0
TEXT
  8
0
  6
CONTINUOUS
 62
     2
 10
32.766666577
 20
28.966666704
 30
0.3
 40
3.0
  1
交流電流計　Ｃ１　Ｃ２
 50
0.0
 41
0.9
 51
0.0
  7
KANJI0
  0
TEXT
  8
0
  6
CONTINUOUS
 62
     2
 10
32.766666577
 20
24.966666704
 30
0.3
 40
3.0
  1
直流計器　　　＋　　－
 50
0.0
 41
0.9
 51
0.0
  7
KANJI0
  0
TEXT
  8
0
  6
CONTINUOUS
 62
     2
 10
21.166666577
 20
20.966666704
 30
0.3
 40
3.0
  1
２）電磁復帰端子　　Ｒ１　Ｒ２（付加仕様）
 50
0.0
 41
0.9
 51
0.0
  7
KANJI0
  0
LINE
  8
0
  6
CONTINUOUS
 62
     2
 10
17.966666577
 20
44.966666704
 30
0.0
 11
24.966666577
 21
44.966666704
 31
0.0
  0
TEXT
  8
0
  6
CONTINUOUS
 62
     2
 10
19.966666577
 20
45.966666704
 30
0.3
 40
3.0
  1
記
 50
0.0
 41
0.9
 51
0.0
  7
KANJI0
  0
TEXT
  8
0
  6
CONTINUOUS
 62
     2
 10
32.766666577
 20
32.966666704
 30
0.3
 40
3.0
  1
交流電圧計　Ｐ１　Ｐ２
 50
0.0
 41
0.9
 51
0.0
  7
KANJI0
  0
TEXT
  8
0
  6
CONTINUOUS
 62
     2
 10
141.899999981
 20
114.633333354
 30
0.3
 40
3.0
  1
零位調整器
 50
0.0
 41
0.9
 51
0.0
  7
KANJI0
  0
LINE
  8
0
  6
CONTINUOUS
 62
     2
 10
121.6589693
 20
144.601177529
 30
0.0
 11
122.438530275
 21
142.225828148
 31
0.0
  0
LINE
  8
0
  6
CONTINUOUS
 62
     2
 10
121.6589693
 20
144.601177529
 30
0.0
 11
123.521763599
 21
142.933845109
 31
0.0
  0
LINE
  8
0
  6
CONTINUOUS
 62
     2
 10
121.6589693
 20
144.601177529
 30
0.0
 11
141.899999981
 21
113.633333354
 31
0.0
  0
LINE
  8
0
  6
CONTINUOUS
 62
     2
 10
141.899999981
 20
113.633333354
 30
0.0
 11
156.599999981
 21
113.633333354
 31
0.0
  0
LINE
  8
0
  6
CONTINUOUS
 62
     1
 10
153.266666614
 20
165.150000002
 30
0.0
 11
149.766666618
 21
165.150000002
 31
0.0
  0
ARC
  8
0
  6
CONTINUOUS
 62
     1
 10
149.766666618
 20
164.816666669
 30
0.0
 40
0.333333333
 50
90.0
 51
180.0
  0
LINE
  8
0
  6
CONTINUOUS
 62
     1
 10
149.433333285
 20
163.81666667
 30
0.0
 11
147.099999954
 21
163.81666667
 31
0.0
  0
ARC
  8
0
  6
CONTINUOUS
 62
     1
 10
147.099999954
 20
163.650000004
 30
0.0
 40
0.166666667
 50
90.0
 51
180.0
  0
ARC
  8
0
  6
CONTINUOUS
 62
     1
 10
149.766666618
 20
128.816666705
 30
0.0
 40
0.333333333
 50
180.0
 51
270.0
  0
LINE
  8
0
  6
CONTINUOUS
 62
     1
 10
149.433333285
 20
129.816666704
 30
0.0
 11
147.099999954
 21
129.816666704
 31
0.0
  0
ARC
  8
0
  6
CONTINUOUS
 62
     1
 10
147.099999954
 20
129.983333371
 30
0.0
 40
0.166666667
 50
180.0
 51
270.0
  0
LINE
  8
0
  6
CONTINUOUS
 62
     1
 10
149.433333285
 20
128.816666705
 30
0.0
 11
149.433333285
 21
146.816666687
 31
0.0
  0
LINE
  8
0
  6
CONTINUOUS
 62
     1
 10
149.433333285
 20
164.816666669
 30
0.0
 11
149.433333285
 21
163.91666667
 31
0.0
  0
LINE
  8
0
  6
CONTINUOUS
 62
     1
 10
153.266666614
 20
165.150000002
 30
0.0
 11
153.266666614
 21
164.716666669
 31
0.0
  0
LINE
  8
0
  6
CONTINUOUS
 62
     1
 10
149.433333285
 20
163.91666667
 30
0.0
 11
149.433333285
 21
163.81666667
 31
0.0
  0
LINE
  8
0
  6
CONTINUOUS
 62
     1
 10
153.266666614
 20
164.716666669
 30
0.0
 11
153.266666614
 21
146.983333354
 31
0.0
  0
LINE
  8
0
  6
CONTINUOUS
 62
     1
 10
153.266666614
 20
146.983333354
 30
0.0
 11
153.266666614
 21
128.483333372
 31
0.0
  0
LINE
  8
0
  6
CONTINUOUS
 62
     1
 10
149.433333285
 20
146.833333354
 30
0.0
 11
149.433333285
 21
163.81666667
 31
0.0
  0
LINE
  8
0
  6
CONTINUOUS
 62
     1
 10
149.433333285
 20
158.816666675
 30
0.0
 11
149.433333285
 21
164.816667941
 31
0.0
  0
LINE
  8
0
  6
CONTINUOUS
 62
     2
 10
149.433333285
 20
132.650000035
 30
0.0
 11
149.366666618
 21
132.650000035
 31
0.0
  0
LINE
  8
0
  6
CONTINUOUS
 62
     2
 10
149.366666618
 20
132.650000035
 30
0.0
 11
149.366666618
 21
130.98333337
 31
0.0
  0
LINE
  8
0
  6
CONTINUOUS
 62
     2
 10
149.366666618
 20
130.98333337
 30
0.0
 11
149.433333285
 21
130.98333337
 31
0.0
  0
LINE
  8
0
  6
LTYPE2
 62
     2
 10
152.066666616
 20
161.833333339
 30
0.0
 11
159.966666608
 21
161.833333339
 31
0.0
  0
LINE
  8
0
  6
LTYPE2
 62
     2
 10
152.066666616
 20
131.833333369
 30
0.0
 11
159.966666608
 21
131.833333369
 31
0.0
  0
LINE
  8
0
  6
CONTINUOUS
 62
     2
 10
149.366666618
 20
132.833333368
 30
0.0
 11
149.366666618
 21
130.83333337
 31
0.0
  0
LINE
  8
0
  6
CONTINUOUS
 62
     2
 10
149.133333285
 20
130.83333337
 30
0.0
 11
149.366666618
 21
130.83333337
 31
0.0
  0
ARC
  8
0
  6
CONTINUOUS
 62
     2
 10
149.133333285
 20
131.100000036
 30
0.0
 40
0.266666666
 50
180.0
 51
270.0
  0
LINE
  8
0
  6
CONTINUOUS
 62
     2
 10
149.133333285
 20
132.833333368
 30
0.0
 11
149.433333285
 21
132.833333368
 31
0.0
  0
LINE
  8
0
  6
CONTINUOUS
 62
     2
 10
148.866666619
 20
131.100000036
 30
0.0
 11
148.866666619
 21
132.566666701
 31
0.0
  0
ARC
  8
0
  6
CONTINUOUS
 62
     2
 10
149.133333285
 20
132.566666701
 30
0.0
 40
0.266666666
 50
90.0
 51
180.0
  0
LINE
  8
0
  6
CONTINUOUS
 62
     2
 10
148.866666619
 20
131.900000035
 30
0.0
 11
148.933333285
 21
131.900000035
 31
0.0
  0
LINE
  8
0
  6
CONTINUOUS
 62
     2
 10
148.933333285
 20
131.900000035
 30
0.0
 11
148.933333285
 21
131.766666702
 31
0.0
  0
LINE
  8
0
  6
CONTINUOUS
 62
     2
 10
148.933333285
 20
131.766666702
 30
0.0
 11
148.866666619
 21
131.766666702
 31
0.0
  0
LINE
  8
0
  6
CONTINUOUS
 62
     2
 10
149.433333285
 20
162.650000005
 30
0.0
 11
149.366666618
 21
162.650000005
 31
0.0
  0
LINE
  8
0
  6
CONTINUOUS
 62
     2
 10
149.366666618
 20
162.650000005
 30
0.0
 11
149.366666618
 21
160.98333334
 31
0.0
  0
LINE
  8
0
  6
CONTINUOUS
 62
     2
 10
149.366666618
 20
160.98333334
 30
0.0
 11
149.433333285
 21
160.98333334
 31
0.0
  0
LINE
  8
0
  6
CONTINUOUS
 62
     2
 10
149.366666618
 20
162.833333338
 30
0.0
 11
149.366666618
 21
160.83333334
 31
0.0
  0
LINE
  8
0
  6
CONTINUOUS
 62
     2
 10
149.133333285
 20
160.83333334
 30
0.0
 11
149.366666618
 21
160.83333334
 31
0.0
  0
ARC
  8
0
  6
CONTINUOUS
 62
     2
 10
149.133333285
 20
161.100000006
 30
0.0
 40
0.266666666
 50
180.0
 51
270.0
  0
LINE
  8
0
  6
CONTINUOUS
 62
     2
 10
149.133333285
 20
162.833333338
 30
0.0
 11
149.433333285
 21
162.833333338
 31
0.0
  0
LINE
  8
0
  6
CONTINUOUS
 62
     2
 10
148.866666619
 20
161.100000006
 30
0.0
 11
148.866666619
 21
162.566666671
 31
0.0
  0
ARC
  8
0
  6
CONTINUOUS
 62
     2
 10
149.133333285
 20
162.566666671
 30
0.0
 40
0.266666666
 50
90.0
 51
180.0
  0
LINE
  8
0
  6
CONTINUOUS
 62
     2
 10
148.866666619
 20
161.900000005
 30
0.0
 11
148.933333285
 21
161.900000005
 31
0.0
  0
LINE
  8
0
  6
CONTINUOUS
 62
     2
 10
148.933333285
 20
161.900000005
 30
0.0
 11
148.933333285
 21
161.766666672
 31
0.0
  0
LINE
  8
0
  6
CONTINUOUS
 62
     2
 10
148.933333285
 20
161.766666672
 30
0.0
 11
148.866666619
 21
161.766666672
 31
0.0
  0
LINE
  8
0
  6
CONTINUOUS
 62
     1
 10
146.441159375
 20
149.500000018
 30
0.0
 11
144.907826043
 21
149.500000018
 31
0.0
  0
LINE
  8
0
  6
CONTINUOUS
 62
     1
 10
144.907826043
 20
149.500000018
 30
0.0
 11
144.907826043
 21
144.16666669
 31
0.0
  0
LINE
  8
0
  6
CONTINUOUS
 62
     1
 10
144.907826043
 20
144.16666669
 30
0.0
 11
146.439999955
 21
144.16666669
 31
0.0
  0
LINE
  8
0
  6
CONTINUOUS
 62
     1
 10
144.907826043
 20
145.333333355
 30
0.0
 11
144.099999957
 21
145.333333355
 31
0.0
  0
LINE
  8
0
  6
CONTINUOUS
 62
     1
 10
144.099999957
 20
145.333333355
 30
0.0
 11
144.099999957
 21
148.333333352
 31
0.0
  0
LINE
  8
0
  6
CONTINUOUS
 62
     1
 10
144.099999957
 20
148.333333352
 30
0.0
 11
144.907826043
 21
148.333333352
 31
0.0
  0
LINE
  8
0
  6
CONTINUOUS
 62
     1
 10
146.439999955
 20
144.16666669
 30
0.0
 11
146.439999955
 21
149.500000018
 31
0.0
  0
LINE
  8
0
  6
CONTINUOUS
 62
     1
 10
146.441159375
 20
149.500000018
 30
0.0
 11
146.933333287
 21
163.650000004
 31
0.0
  0
LINE
  8
0
  6
CONTINUOUS
 62
     1
 10
146.439999955
 20
144.16666669
 30
0.0
 11
146.933333287
 21
129.983333371
 31
0.0
  0
LINE
  8
0
  6
CONTINUOUS
 62
     2
 10
144.169274026
 20
148.318097344
 30
0.0
 11
144.653576374
 21
150.770739029
 31
0.0
  0
LINE
  8
0
  6
CONTINUOUS
 62
     2
 10
144.169274026
 20
148.318097344
 30
0.0
 11
143.36237132
 21
150.684298524
 31
0.0
  0
LINE
  8
0
  6
CONTINUOUS
 62
     2
 10
144.169274026
 20
148.318097344
 30
0.0
 11
142.569274026
 21
172.218097344
 31
0.0
  0
LINE
  8
0
  6
CONTINUOUS
 62
     2
 10
160.269274026
 20
172.218097344
 30
0.0
 11
142.569274026
 21
172.218097344
 31
0.0
  0
TEXT
  8
0
  6
CONTINUOUS
 62
     2
 10
142.569274026
 20
173.218097344
 30
0.3
 40
3.0
  1
手動復帰押釦
 50
0.0
 41
0.9
 51
0.0
  7
KANJI0
  0
LINE
  8
0
  6
CONTINUOUS
 62
     2
 10
158.433333276
 20
162.833333338
 30
0.0
 11
160.470132832
 21
164.282970385
 31
0.0
  0
LINE
  8
0
  6
CONTINUOUS
 62
     2
 10
158.433333276
 20
162.833333338
 30
0.0
 11
159.47243491
 21
165.107155625
 31
0.0
  0
LINE
  8
0
  6
CONTINUOUS
 62
     2
 10
158.433333276
 20
162.833333338
 30
0.0
 11
162.233333276
 21
167.433333338
 31
0.0
  0
LINE
  8
0
  6
CONTINUOUS
 62
     2
 10
162.233333276
 20
167.433333338
 30
0.0
 11
188.933333276
 21
167.433333338
 31
0.0
  0
TEXT
  8
0
  6
CONTINUOUS
 62
     2
 10
162.233333276
 20
168.433333338
 30
0.3
 40
3.0
  1
４－Ｍ５取付ボルト
 50
0.0
 41
0.9
 51
0.0
  7
KANJI0
  0
LINE
  8
0
  6
CONTINUOUS
 62
     1
 10
149.766666618
 20
128.483333372
 30
0.0
 11
153.266666614
 21
128.483333372
 31
0.0
  0
LINE
  8
0
  6
CONTINUOUS
 62
     2
 10
144.099999957
 20
145.833333354
 30
0.0
 11
144.099999957
 21
118.0
 31
0.0
  0
LINE
  8
0
  6
CONTINUOUS
 62
     2
 10
144.099999957
 20
120.0
 30
0.0
 11
141.685185391
 21
120.647047613
 31
0.0
  0
LINE
  8
0
  6
CONTINUOUS
 62
     2
 10
144.099999957
 20
120.0
 30
0.0
 11
141.685185391
 21
119.352952387
 31
0.0
  0
LINE
  8
0
  6
CONTINUOUS
 62
     2
 10
140.349999957
 20
120.0
 30
0.0
 11
144.099999957
 21
120.0
 31
0.0
  0
LINE
  8
0
  6
CONTINUOUS
 62
     2
 10
144.099999957
 20
120.0
 30
0.0
 11
153.266666614
 21
120.0
 31
0.0
  0
LINE
  8
0
  6
CONTINUOUS
 62
     2
 10
153.266666614
 20
120.0
 30
0.0
 11
157.016666614
 21
120.0
 31
0.0
  0
LINE
  8
0
  6
LTYPE3
 62
     2
 10
143.033333291
 20
146.833333354
 30
0.0
 11
215.133333219
 21
146.833333354
 31
0.0
  0
LINE
  8
0
  6
CONTINUOUS
 62
     2
 10
157.233333277
 20
132.833333368
 30
0.0
 11
158.566666609
 21
132.833333368
 31
0.0
  0
LINE
  8
0
  6
CONTINUOUS
 62
     2
 10
158.566666609
 20
132.833333368
 30
0.0
 11
158.566666609
 21
130.83333337
 31
0.0
  0
LINE
  8
0
  6
CONTINUOUS
 62
     2
 10
158.566666609
 20
130.83333337
 30
0.0
 11
157.233333277
 21
130.83333337
 31
0.0
  0
ARC
  8
0
  6
CONTINUOUS
 62
     2
 10
153.899999947
 20
131.833333369
 30
0.0
 40
3.33333333
 50
343.5
 51
16.5
  0
ARC
  8
0
  6
CONTINUOUS
 62
     2
 10
158.899999942
 20
131.833333369
 30
0.0
 40
3.33333333
 50
163.5
 51
196.3
  0
ARC
  8
0
  6
CONTINUOUS
 62
     2
 10
156.399999945
 20
133.250000034
 30
0.0
 40
0.833333333
 50
325.0
 51
35.0
  0
ARC
  8
0
  6
CONTINUOUS
 62
     2
 10
156.399999945
 20
133.250000034
 30
0.0
 40
0.833333333
 50
145.0
 51
215.0
  0
ARC
  8
0
  6
CONTINUOUS
 62
     2
 10
156.399999945
 20
130.416666703
 30
0.0
 40
0.833333333
 50
145.0
 51
215.0
  0
ARC
  8
0
  6
CONTINUOUS
 62
     2
 10
156.399999945
 20
130.416666703
 30
0.0
 40
0.833333333
 50
325.0
 51
35.0
  0
LINE
  8
0
  6
CONTINUOUS
 62
     2
 10
155.700648972
 20
130.897777673
 30
0.0
 11
157.083982304
 21
130.897777673
 31
0.0
  0
LINE
  8
0
  6
CONTINUOUS
 62
     2
 10
157.096065727
 20
132.780051183
 30
0.0
 11
155.703934163
 21
132.780051183
 31
0.0
  0
LINE
  8
0
  6
CONTINUOUS
 62
     2
 10
157.087267495
 20
133.733333367
 30
0.0
 11
155.566666612
 21
133.733333367
 31
0.0
  0
LINE
  8
0
  6
CONTINUOUS
 62
     2
 10
157.233333277
 20
130.416666703
 30
0.0
 11
157.233333277
 21
133.250000034
 31
0.0
  0
LINE
  8
0
  6
CONTINUOUS
 62
     2
 10
157.236666611
 20
130.916666703
 30
0.0
 11
158.553333276
 21
130.916666703
 31
0.0
  0
LINE
  8
0
  6
CONTINUOUS
 62
     2
 10
158.566666609
 20
132.756666701
 30
0.0
 11
157.239999944
 21
132.756666701
 31
0.0
  0
LINE
  8
0
  6
CONTINUOUS
 62
     2
 10
154.899999946
 20
134.0666667
 30
0.0
 11
155.566666612
 21
133.733333367
 31
0.0
  0
LINE
  8
0
  6
CONTINUOUS
 62
     2
 10
154.899999946
 20
134.0666667
 30
0.0
 11
154.899999946
 21
129.600000038
 31
0.0
  0
LINE
  8
0
  6
CONTINUOUS
 62
     2
 10
154.899999946
 20
129.600000038
 30
0.0
 11
155.566666612
 21
129.933333371
 31
0.0
  0
LINE
  8
0
  6
CONTINUOUS
 62
     2
 10
155.566666612
 20
129.933333371
 30
0.0
 11
157.083333278
 21
129.933333371
 31
0.0
  0
LINE
  8
0
  6
CONTINUOUS
 62
     2
 10
155.566666612
 20
133.733333367
 30
0.0
 11
155.566666612
 21
129.933333371
 31
0.0
  0
LINE
  8
0
  6
CONTINUOUS
 62
     2
 10
154.899999946
 20
132.766666701
 30
0.0
 11
153.566666614
 21
132.766666701
 31
0.0
  0
LINE
  8
0
  6
CONTINUOUS
 62
     2
 10
154.899999946
 20
132.690000035
 30
0.0
 11
153.566666614
 21
132.690000035
 31
0.0
  0
LINE
  8
0
  6
CONTINUOUS
 62
     1
 10
154.899999946
 20
130.166666704
 30
0.0
 11
153.566666614
 21
130.166666704
 31
0.0
  0
LINE
  8
0
  6
CONTINUOUS
 62
     2
 10
154.899999946
 20
130.916666703
 30
0.0
 11
153.566666614
 21
130.916666703
 31
0.0
  0
LINE
  8
0
  6
CONTINUOUS
 62
     2
 10
153.566666614
 20
130.836666703
 30
0.0
 11
154.899999946
 21
130.836666703
 31
0.0
  0
LINE
  8
0
  6
CONTINUOUS
 62
     2
 10
153.266666614
 20
129.833333371
 30
0.0
 11
153.566666614
 21
129.833333371
 31
0.0
  0
LINE
  8
0
  6
CONTINUOUS
 62
     2
 10
153.566666614
 20
129.833333371
 30
0.0
 11
153.566666614
 21
133.833333367
 31
0.0
  0
LINE
  8
0
  6
CONTINUOUS
 62
     2
 10
153.566666614
 20
133.833333367
 30
0.0
 11
153.266666614
 21
133.833333367
 31
0.0
  0
LINE
  8
0
  6
CONTINUOUS
 62
     2
 10
153.566666614
 20
129.483333372
 30
0.0
 11
153.566666614
 21
118.0
 31
0.0
  0
LINE
  8
0
  6
CONTINUOUS
 62
     2
 10
158.566616614
 20
129.83333337
 30
0.0
 11
158.566616614
 21
123.833333371
 31
0.0
  0
LINE
  8
0
  6
CONTINUOUS
 62
     2
 10
153.266666614
 20
127.983333372
 30
0.0
 11
153.266666614
 21
123.833333372
 31
0.0
  0
LINE
  8
0
  6
CONTINUOUS
 62
     2
 10
153.266666614
 20
125.833333371
 30
0.0
 11
150.851852049
 21
126.480380983
 31
0.0
  0
LINE
  8
0
  6
CONTINUOUS
 62
     2
 10
153.266666614
 20
125.833333371
 30
0.0
 11
150.851852049
 21
125.186285758
 31
0.0
  0
LINE
  8
0
  6
CONTINUOUS
 62
     2
 10
153.266666614
 20
125.833333371
 30
0.0
 11
158.566616614
 21
125.833333371
 31
0.0
  0
LINE
  8
0
  6
CONTINUOUS
 62
     2
 10
153.566716614
 20
125.833333371
 30
0.0
 11
155.98153118
 21
125.186285758
 31
0.0
  0
LINE
  8
0
  6
CONTINUOUS
 62
     2
 10
153.566716614
 20
125.833333371
 30
0.0
 11
155.98153118
 21
126.480380983
 31
0.0
  0
LINE
  8
0
  6
CONTINUOUS
 62
     2
 10
158.566616614
 20
125.833333371
 30
0.0
 11
156.151802049
 21
125.186285758
 31
0.0
  0
LINE
  8
0
  6
CONTINUOUS
 62
     2
 10
158.566616614
 20
125.833333371
 30
0.0
 11
156.151802049
 21
126.480380983
 31
0.0
  0
TEXT
  8
0
  6
CONTINUOUS
 62
     2
 10
159.683333276
 20
126.333333371
 30
0.3
 40
3.0
  1
１５
 50
0.0
 41
0.6
 51
0.0
  7
KANJI1
  0
LINE
  8
0
  6
CONTINUOUS
 62
     2
 10
158.566616614
 20
125.833333371
 30
0.0
 11
163.816616614
 21
125.833333371
 31
0.0
  0
TEXT
  8
0
  6
CONTINUOUS
 62
     2
 10
147.783333276
 20
126.283333371
 30
0.3
 40
3.0
  1
１
 50
0.0
 41
0.6
 51
0.0
  7
KANJI1
  0
LINE
  8
0
  6
CONTINUOUS
 62
     2
 10
147.416616614
 20
125.833333371
 30
0.0
 11
153.266666614
 21
125.833333371
 31
0.0
  0
TEXT
  8
0
  6
CONTINUOUS
 62
     2
 10
145.233333286
 20
121.0
 30
0.3
 40
3.0
  1
（２８）
 50
0.0
 41
0.6
 51
0.0
  7
KANJI1
  0
LINE
  8
0
  6
CONTINUOUS
 62
     2
 10
157.233333277
 20
162.833333368
 30
0.0
 11
158.566666609
 21
162.833333368
 31
0.0
  0
LINE
  8
0
  6
CONTINUOUS
 62
     2
 10
158.566666609
 20
162.833333368
 30
0.0
 11
158.566666609
 21
160.83333337
 31
0.0
  0
LINE
  8
0
  6
CONTINUOUS
 62
     2
 10
158.566666609
 20
160.83333337
 30
0.0
 11
157.233333277
 21
160.83333337
 31
0.0
  0
ARC
  8
0
  6
CONTINUOUS
 62
     2
 10
153.899999947
 20
161.833333369
 30
0.0
 40
3.33333333
 50
343.5
 51
16.5
  0
ARC
  8
0
  6
CONTINUOUS
 62
     2
 10
158.899999942
 20
161.833333369
 30
0.0
 40
3.33333333
 50
163.5
 51
196.3
  0
ARC
  8
0
  6
CONTINUOUS
 62
     2
 10
156.399999945
 20
163.250000034
 30
0.0
 40
0.833333333
 50
325.0
 51
35.0
  0
ARC
  8
0
  6
CONTINUOUS
 62
     2
 10
156.399999945
 20
163.250000034
 30
0.0
 40
0.833333333
 50
145.0
 51
215.0
  0
ARC
  8
0
  6
CONTINUOUS
 62
     2
 10
156.399999945
 20
160.416666703
 30
0.0
 40
0.833333333
 50
145.0
 51
215.0
  0
ARC
  8
0
  6
CONTINUOUS
 62
     2
 10
156.399999945
 20
160.416666703
 30
0.0
 40
0.833333333
 50
325.0
 51
35.0
  0
LINE
  8
0
  6
CONTINUOUS
 62
     2
 10
155.700648972
 20
160.897777673
 30
0.0
 11
157.083982304
 21
160.897777673
 31
0.0
  0
LINE
  8
0
  6
CONTINUOUS
 62
     2
 10
157.096065727
 20
162.780051183
 30
0.0
 11
155.703934163
 21
162.780051183
 31
0.0
  0
LINE
  8
0
  6
CONTINUOUS
 62
     2
 10
157.087267495
 20
163.733333367
 30
0.0
 11
155.566666612
 21
163.733333367
 31
0.0
  0
LINE
  8
0
  6
CONTINUOUS
 62
     2
 10
157.233333277
 20
160.416666703
 30
0.0
 11
157.233333277
 21
163.250000034
 31
0.0
  0
LINE
  8
0
  6
CONTINUOUS
 62
     2
 10
157.236666611
 20
160.916666703
 30
0.0
 11
158.553333276
 21
160.916666703
 31
0.0
  0
LINE
  8
0
  6
CONTINUOUS
 62
     2
 10
158.566666609
 20
162.756666701
 30
0.0
 11
157.239999944
 21
162.756666701
 31
0.0
  0
LINE
  8
0
  6
CONTINUOUS
 62
     2
 10
154.899999946
 20
164.0666667
 30
0.0
 11
155.566666612
 21
163.733333367
 31
0.0
  0
LINE
  8
0
  6
CONTINUOUS
 62
     2
 10
154.899999946
 20
164.0666667
 30
0.0
 11
154.899999946
 21
159.600000038
 31
0.0
  0
LINE
  8
0
  6
CONTINUOUS
 62
     2
 10
154.899999946
 20
159.600000038
 30
0.0
 11
155.566666612
 21
159.933333371
 31
0.0
  0
LINE
  8
0
  6
CONTINUOUS
 62
     2
 10
155.566666612
 20
159.933333371
 30
0.0
 11
157.083333278
 21
159.933333371
 31
0.0
  0
LINE
  8
0
  6
CONTINUOUS
 62
     2
 10
155.566666612
 20
163.733333367
 30
0.0
 11
155.566666612
 21
159.933333371
 31
0.0
  0
LINE
  8
0
  6
CONTINUOUS
 62
     2
 10
154.899999946
 20
162.766666701
 30
0.0
 11
153.566666614
 21
162.766666701
 31
0.0
  0
LINE
  8
0
  6
CONTINUOUS
 62
     2
 10
154.899999946
 20
162.690000035
 30
0.0
 11
153.566666614
 21
162.690000035
 31
0.0
  0
LINE
  8
0
  6
CONTINUOUS
 62
     2
 10
154.899999946
 20
160.916666703
 30
0.0
 11
153.566666614
 21
160.916666703
 31
0.0
  0
LINE
  8
0
  6
CONTINUOUS
 62
     2
 10
153.566666614
 20
160.836666703
 30
0.0
 11
154.899999946
 21
160.836666703
 31
0.0
  0
LINE
  8
0
  6
CONTINUOUS
 62
     2
 10
153.266666614
 20
159.833333371
 30
0.0
 11
153.566666614
 21
159.833333371
 31
0.0
  0
LINE
  8
0
  6
CONTINUOUS
 62
     2
 10
153.566666614
 20
159.833333371
 30
0.0
 11
153.566666614
 21
163.833333367
 31
0.0
  0
LINE
  8
0
  6
CONTINUOUS
 62
     2
 10
153.566666614
 20
163.833333367
 30
0.0
 11
153.266666614
 21
163.833333367
 31
0.0
  0
LINE
  8
0
  6
CONTINUOUS
 62
     1
 10
154.899999946
 20
163.500000004
 30
0.0
 11
153.566666614
 21
163.500000004
 31
0.0
  0
LINE
  8
0
  6
CONTINUOUS
 62
     2
 10
153.566666614
 20
120.0
 30
0.0
 11
155.98148118
 21
119.352952387
 31
0.0
  0
LINE
  8
0
  6
CONTINUOUS
 62
     2
 10
153.566666614
 20
120.0
 30
0.0
 11
155.98148118
 21
120.647047613
 31
0.0
  0
LINE
  8
0
  6
CONTINUOUS
 62
     2
 10
153.566666614
 20
120.0
 30
0.0
 11
155.98148118
 21
119.352952387
 31
0.0
  0
LINE
  8
0
  6
CONTINUOUS
 62
     2
 10
153.566666614
 20
120.0
 30
0.0
 11
155.98148118
 21
120.647047613
 31
0.0
  0
LINE
  8
0
  6
CONTINUOUS
 62
     2
 10
153.566666614
 20
120.0
 30
0.0
 11
211.233333223
 21
120.0
 31
0.0
  0
TEXT
  8
0
  6
CONTINUOUS
 62
     2
 10
224.899999981
 20
171.433333372
 30
0.3
 40
3.0
  1
端子カバー
 50
0.0
 41
0.9
 51
0.0
  7
KANJI0
  0
TEXT
  8
0
  6
CONTINUOUS
 62
     2
 10
224.899999981
 20
166.433333372
 30
0.3
 40
3.0
  1
（ワンタッチ取付形）
 50
0.0
 41
0.9
 51
0.0
  7
KANJI0
  0
CIRCLE
  8
0
  6
CONTINUOUS
 62
     5
 10
120.199999981
 20
146.833333354
 30
0.0
 40
5.666666661
  0
CIRCLE
  8
0
  6
CONTINUOUS
 62
     5
 10
120.199999981
 20
146.833333354
 30
0.0
 40
5.199999995
  0
CIRCLE
  8
0
  6
CONTINUOUS
 62
     5
 10
120.199999981
 20
146.833333354
 30
0.0
 40
4.733333329
  0
CIRCLE
  8
0
  6
CONTINUOUS
 62
     5
 10
120.199999981
 20
146.833333354
 30
0.0
 40
4.266666662
  0
CIRCLE
  8
0
  6
CONTINUOUS
 62
     5
 10
120.199999981
 20
146.833333354
 30
0.0
 40
3.799999996
  0
CIRCLE
  8
0
  6
CONTINUOUS
 62
     5
 10
120.199999981
 20
146.833333354
 30
0.0
 40
3.33333333
  0
CIRCLE
  8
0
  6
CONTINUOUS
 62
     2
 10
120.199999981
 20
146.833333354
 30
0.0
 40
1.499999999
  0
CIRCLE
  8
0
  6
CONTINUOUS
 62
     2
 10
120.199999981
 20
146.833333354
 30
0.0
 40
2.666666664
  0
CIRCLE
  8
0
  6
CONTINUOUS
 62
     2
 10
120.199999981
 20
146.833333354
 30
0.0
 40
1.999999998
  0
LINE
  8
0
  6
CONTINUOUS
 62
     2
 10
120.066666648
 20
149.49406234
 30
0.0
 11
120.066666648
 21
149.59406234
 31
0.0
  0
ARC
  8
0
  6
CONTINUOUS
 62
     2
 10
120.133333314
 20
149.59406234
 30
0.0
 40
0.066666667
 50
90.0
 51
180.0
  0
LINE
  8
0
  6
CONTINUOUS
 62
     2
 10
120.333333314
 20
149.59406234
 30
0.0
 11
120.333333314
 21
149.49406234
 31
0.0
  0
LINE
  8
0
  6
CONTINUOUS
 62
     2
 10
120.133333314
 20
149.660729006
 30
0.0
 11
120.266666647
 21
149.660729006
 31
0.0
  0
ARC
  8
0
  6
CONTINUOUS
 62
     2
 10
120.266666647
 20
149.59406234
 30
0.0
 40
0.066666667
 50
0.0
 51
90.0
  0
LINE
  8
0
  6
CONTINUOUS
 62
     2
 10
117.82907442
 20
148.048227793
 30
0.0
 11
117.742471879
 21
148.098227793
 31
0.0
  0
ARC
  8
0
  6
CONTINUOUS
 62
     2
 10
117.775805213
 20
148.15596282
 30
0.0
 40
0.066666667
 50
150.0
 51
240.0
  0
LINE
  8
0
  6
CONTINUOUS
 62
     2
 10
117.875805213
 20
148.3291679
 30
0.0
 11
117.962407753
 21
148.2791679
 31
0.0
  0
LINE
  8
0
  6
CONTINUOUS
 62
     2
 10
117.718070186
 20
148.189296153
 30
0.0
 11
117.784736852
 21
148.304766207
 31
0.0
  0
ARC
  8
0
  6
CONTINUOUS
 62
     2
 10
117.842471879
 20
148.271432874
 30
0.0
 40
0.066666667
 50
60.0
 51
150.0
  0
LINE
  8
0
  6
CONTINUOUS
 62
     2
 10
117.962407753
 20
145.387498807
 30
0.0
 11
117.875805213
 21
145.337498807
 31
0.0
  0
ARC
  8
0
  6
CONTINUOUS
 62
     2
 10
117.842471879
 20
145.395233834
 30
0.0
 40
0.066666667
 50
210.0
 51
300.0
  0
LINE
  8
0
  6
CONTINUOUS
 62
     2
 10
117.742471879
 20
145.568438914
 30
0.0
 11
117.82907442
 21
145.618438914
 31
0.0
  0
LINE
  8
0
  6
CONTINUOUS
 62
     2
 10
117.784736852
 20
145.361900501
 30
0.0
 11
117.718070186
 21
145.477370554
 31
0.0
  0
ARC
  8
0
  6
CONTINUOUS
 62
     2
 10
117.775805213
 20
145.510703888
 30
0.0
 40
0.066666667
 50
120.0
 51
210.0
  0
LINE
  8
0
  6
CONTINUOUS
 62
     2
 10
122.570925542
 20
145.618438914
 30
0.0
 11
122.657528082
 21
145.568438914
 31
0.0
  0
ARC
  8
0
  6
CONTINUOUS
 62
     2
 10
122.624194749
 20
145.510703888
 30
0.0
 40
0.066666667
 50
330.0
 51
60.0
  0
LINE
  8
0
  6
CONTINUOUS
 62
     2
 10
122.524194749
 20
145.337498807
 30
0.0
 11
122.437592209
 21
145.387498807
 31
0.0
  0
LINE
  8
0
  6
CONTINUOUS
 62
     2
 10
122.681929776
 20
145.477370554
 30
0.0
 11
122.615263109
 21
145.361900501
 31
0.0
  0
ARC
  8
0
  6
CONTINUOUS
 62
     2
 10
122.557528082
 20
145.395233834
 30
0.0
 40
0.066666667
 50
240.0
 51
330.0
  0
LINE
  8
0
  6
CONTINUOUS
 62
     2
 10
122.437592209
 20
148.2791679
 30
0.0
 11
122.524194749
 21
148.3291679
 31
0.0
  0
ARC
  8
0
  6
CONTINUOUS
 62
     2
 10
122.557528082
 20
148.271432874
 30
0.0
 40
0.066666667
 50
30.0
 51
120.0
  0
LINE
  8
0
  6
CONTINUOUS
 62
     2
 10
122.657528082
 20
148.098227793
 30
0.0
 11
122.570925542
 21
148.048227793
 31
0.0
  0
LINE
  8
0
  6
CONTINUOUS
 62
     2
 10
122.615263109
 20
148.304766207
 30
0.0
 11
122.681929776
 21
148.189296153
 31
0.0
  0
ARC
  8
0
  6
CONTINUOUS
 62
     2
 10
122.624194749
 20
148.15596282
 30
0.0
 40
0.066666667
 50
300.0
 51
30.0
  0
LINE
  8
0
  6
CONTINUOUS
 62
     2
 10
120.333333314
 20
144.172604368
 30
0.0
 11
120.333333314
 21
144.072604368
 31
0.0
  0
ARC
  8
0
  6
CONTINUOUS
 62
     2
 10
120.266666647
 20
144.072604368
 30
0.0
 40
0.066666667
 50
270.0
 51
0.0
  0
LINE
  8
0
  6
CONTINUOUS
 62
     2
 10
120.066666648
 20
144.072604368
 30
0.0
 11
120.066666648
 21
144.172604368
 31
0.0
  0
LINE
  8
0
  6
CONTINUOUS
 62
     2
 10
120.266666647
 20
144.005937701
 30
0.0
 11
120.133333314
 21
144.005937701
 31
0.0
  0
ARC
  8
0
  6
CONTINUOUS
 62
     2
 10
120.133333314
 20
144.072604368
 30
0.0
 40
0.066666667
 50
180.0
 51
270.0
  0
TEXT
  8
0
  6
CONTINUOUS
 62
     2
 10
21.166666577
 20
12.966666704
 30
0.3
 40
3.0
  1
※最小指針は，最大最小形にのみあります。
 50
0.0
 41
0.9
 51
0.0
  7
KANJI0
  0
LINE
  8
0
  6
CONTINUOUS
 62
     2
 10
122.866666647
 20
63.166666706
 30
0.0
 11
121.711966109
 21
62.500000039
 31
0.0
  0
LINE
  8
0
  6
CONTINUOUS
 62
     2
 10
121.711966109
 20
62.500000039
 30
0.0
 11
121.711966109
 21
61.166666706
 31
0.0
  0
LINE
  8
0
  6
CONTINUOUS
 62
     2
 10
121.711966109
 20
61.166666706
 30
0.0
 11
122.866666647
 21
60.500000039
 31
0.0
  0
LINE
  8
0
  6
CONTINUOUS
 62
     2
 10
122.866666647
 20
60.500000039
 30
0.0
 11
124.021367186
 21
61.166666706
 31
0.0
  0
LINE
  8
0
  6
CONTINUOUS
 62
     2
 10
124.021367186
 20
61.166666706
 30
0.0
 11
124.021367186
 21
62.500000039
 31
0.0
  0
LINE
  8
0
  6
CONTINUOUS
 62
     2
 10
124.021367186
 20
62.500000039
 30
0.0
 11
122.866666647
 21
63.166666706
 31
0.0
  0
LINE
  8
0
  6
CONTINUOUS
 62
     2
 10
117.533333314
 20
63.166666706
 30
0.0
 11
116.378632776
 21
62.500000039
 31
0.0
  0
LINE
  8
0
  6
CONTINUOUS
 62
     2
 10
116.378632776
 20
62.500000039
 30
0.0
 11
116.378632776
 21
61.166666706
 31
0.0
  0
LINE
  8
0
  6
CONTINUOUS
 62
     2
 10
116.378632776
 20
61.166666706
 30
0.0
 11
117.533333314
 21
60.500000039
 31
0.0
  0
LINE
  8
0
  6
CONTINUOUS
 62
     2
 10
117.533333314
 20
60.500000039
 30
0.0
 11
118.688033853
 21
61.166666706
 31
0.0
  0
LINE
  8
0
  6
CONTINUOUS
 62
     2
 10
118.688033853
 20
61.166666706
 30
0.0
 11
118.688033853
 21
62.500000039
 31
0.0
  0
LINE
  8
0
  6
CONTINUOUS
 62
     2
 10
118.688033853
 20
62.500000039
 30
0.0
 11
117.533333314
 21
63.166666706
 31
0.0
  0
LINE
  8
0
  6
CONTINUOUS
 62
     2
 10
112.199999981
 20
63.166666706
 30
0.0
 11
111.045299443
 21
62.500000039
 31
0.0
  0
LINE
  8
0
  6
CONTINUOUS
 62
     2
 10
111.045299443
 20
62.500000039
 30
0.0
 11
111.045299443
 21
61.166666706
 31
0.0
  0
LINE
  8
0
  6
CONTINUOUS
 62
     2
 10
111.045299443
 20
61.166666706
 30
0.0
 11
112.199999981
 21
60.500000039
 31
0.0
  0
LINE
  8
0
  6
CONTINUOUS
 62
     2
 10
112.199999981
 20
60.500000039
 30
0.0
 11
113.354700519
 21
61.166666706
 31
0.0
  0
LINE
  8
0
  6
CONTINUOUS
 62
     2
 10
113.354700519
 20
61.166666706
 30
0.0
 11
113.354700519
 21
62.500000039
 31
0.0
  0
LINE
  8
0
  6
CONTINUOUS
 62
     2
 10
113.354700519
 20
62.500000039
 30
0.0
 11
112.199999981
 21
63.166666706
 31
0.0
  0
LINE
  8
0
  6
CONTINUOUS
 62
     2
 10
128.199999981
 20
63.166666706
 30
0.0
 11
127.045299442
 21
62.500000039
 31
0.0
  0
LINE
  8
0
  6
CONTINUOUS
 62
     2
 10
127.045299442
 20
62.500000039
 30
0.0
 11
127.045299442
 21
61.166666706
 31
0.0
  0
LINE
  8
0
  6
CONTINUOUS
 62
     2
 10
127.045299442
 20
61.166666706
 30
0.0
 11
128.199999981
 21
60.500000039
 31
0.0
  0
LINE
  8
0
  6
CONTINUOUS
 62
     2
 10
128.199999981
 20
60.500000039
 30
0.0
 11
129.354700519
 21
61.166666706
 31
0.0
  0
LINE
  8
0
  6
CONTINUOUS
 62
     2
 10
129.354700519
 20
61.166666706
 30
0.0
 11
129.354700519
 21
62.500000039
 31
0.0
  0
LINE
  8
0
  6
CONTINUOUS
 62
     2
 10
129.354700519
 20
62.500000039
 30
0.0
 11
128.199999981
 21
63.166666706
 31
0.0
  0
LINE
  8
0
  6
CONTINUOUS
 62
     2
 10
109.699999981
 20
59.833333372
 30
0.0
 11
130.699999981
 21
59.833333372
 31
0.0
  0
LINE
  8
0
  6
CONTINUOUS
 62
     2
 10
109.699999981
 20
63.833333372
 30
0.0
 11
130.699999981
 21
63.833333372
 31
0.0
  0
LINE
  8
0
  6
CONTINUOUS
 62
     2
 10
119.949999981
 20
63.833333372
 30
0.0
 11
119.949999981
 21
59.833333372
 31
0.0
  0
LINE
  8
0
  6
CONTINUOUS
 62
     2
 10
120.449999981
 20
59.833333372
 30
0.0
 11
120.449999981
 21
63.833333372
 31
0.0
  0
LINE
  8
0
  6
CONTINUOUS
 62
     2
 10
109.699999981
 20
59.833333372
 30
0.0
 11
109.699999981
 21
63.833333372
 31
0.0
  0
LINE
  8
0
  6
CONTINUOUS
 62
     2
 10
114.616666648
 20
63.833333372
 30
0.0
 11
114.616666648
 21
59.833333372
 31
0.0
  0
LINE
  8
0
  6
CONTINUOUS
 62
     2
 10
115.116666648
 20
59.833333372
 30
0.0
 11
115.116666648
 21
63.833333372
 31
0.0
  0
LINE
  8
0
  6
CONTINUOUS
 62
     2
 10
110.366666648
 20
63.833333372
 30
0.0
 11
110.366666648
 21
59.833333372
 31
0.0
  0
LINE
  8
0
  6
CONTINUOUS
 62
     2
 10
130.699999981
 20
63.833333372
 30
0.0
 11
130.699999981
 21
59.833333372
 31
0.0
  0
LINE
  8
0
  6
CONTINUOUS
 62
     2
 10
125.283333314
 20
63.833333372
 30
0.0
 11
125.283333314
 21
59.833333372
 31
0.0
  0
LINE
  8
0
  6
CONTINUOUS
 62
     2
 10
125.783333314
 20
59.833333372
 30
0.0
 11
125.783333314
 21
63.833333372
 31
0.0
  0
LINE
  8
0
  6
CONTINUOUS
 62
     2
 10
130.033333314
 20
63.833333372
 30
0.0
 11
130.033333314
 21
59.833333372
 31
0.0
  0
LINE
  8
0
  6
LTYPE4
 62
     2
 10
130.699999981
 20
80.583333372
 30
0.0
 11
130.699999981
 21
76.416666705
 31
0.0
  0
LINE
  8
0
  6
LTYPE4
 62
     2
 10
130.699999981
 20
76.416666705
 30
0.0
 11
109.699999981
 21
76.416666705
 31
0.0
  0
LINE
  8
0
  6
LTYPE4
 62
     2
 10
109.699999981
 20
76.416666705
 30
0.0
 11
109.699999981
 21
80.583333372
 31
0.0
  0
LINE
  8
0
  6
LTYPE4
 62
     2
 10
109.699999981
 20
80.583333372
 30
0.0
 11
130.699999981
 21
80.583333372
 31
0.0
  0
LINE
  8
0
  6
LTYPE4
 62
     2
 10
114.616666648
 20
80.583333372
 30
0.0
 11
114.616666648
 21
76.416666705
 31
0.0
  0
LINE
  8
0
  6
LTYPE4
 62
     2
 10
115.116666648
 20
76.416666705
 30
0.0
 11
115.116666648
 21
80.616666705
 31
0.0
  0
CIRCLE
  8
0
  6
LTYPE4
 62
     2
 10
112.199999981
 20
78.500000039
 30
0.0
 40
1.166666667
  0
LINE
  8
0
  6
LTYPE4
 62
     2
 10
112.033333314
 20
77.816666705
 30
0.0
 11
112.366666648
 21
77.816666705
 31
0.0
  0
LINE
  8
0
  6
LTYPE4
 62
     2
 10
112.366666648
 20
79.183333372
 30
0.0
 11
112.033333314
 21
79.183333372
 31
0.0
  0
LINE
  8
0
  6
LTYPE4
 62
     2
 10
112.883333314
 20
78.333333372
 30
0.0
 11
112.883333314
 21
78.666666705
 31
0.0
  0
LINE
  8
0
  6
LTYPE4
 62
     2
 10
111.516666648
 20
78.666666705
 30
0.0
 11
111.516666648
 21
78.333333372
 31
0.0
  0
LINE
  8
0
  6
LTYPE4
 62
     2
 10
112.033333314
 20
79.183333372
 30
0.0
 11
112.033333314
 21
78.833333372
 31
0.0
  0
LINE
  8
0
  6
LTYPE4
 62
     2
 10
111.866666648
 20
78.666666705
 30
0.0
 11
111.516666648
 21
78.666666705
 31
0.0
  0
ARC
  8
0
  6
LTYPE4
 62
     2
 10
111.866666648
 20
78.833333372
 30
0.0
 40
0.166666667
 50
270.0
 51
0.0
  0
LINE
  8
0
  6
LTYPE4
 62
     2
 10
112.366666648
 20
78.833333372
 30
0.0
 11
112.366666648
 21
79.183333372
 31
0.0
  0
LINE
  8
0
  6
LTYPE4
 62
     2
 10
112.883333314
 20
78.666666705
 30
0.0
 11
112.533333314
 21
78.666666705
 31
0.0
  0
ARC
  8
0
  6
LTYPE4
 62
     2
 10
112.533333314
 20
78.833333372
 30
0.0
 40
0.166666667
 50
180.0
 51
270.0
  0
LINE
  8
0
  6
LTYPE4
 62
     2
 10
112.366666648
 20
77.816666705
 30
0.0
 11
112.366666648
 21
78.166666705
 31
0.0
  0
LINE
  8
0
  6
LTYPE4
 62
     2
 10
112.533333314
 20
78.333333372
 30
0.0
 11
112.883333314
 21
78.333333372
 31
0.0
  0
ARC
  8
0
  6
LTYPE4
 62
     2
 10
112.533333314
 20
78.166666705
 30
0.0
 40
0.166666667
 50
90.0
 51
180.0
  0
LINE
  8
0
  6
LTYPE4
 62
     2
 10
112.033333314
 20
78.166666705
 30
0.0
 11
112.033333314
 21
77.816666705
 31
0.0
  0
LINE
  8
0
  6
LTYPE4
 62
     2
 10
111.516666648
 20
78.333333372
 30
0.0
 11
111.866666648
 21
78.333333372
 31
0.0
  0
ARC
  8
0
  6
LTYPE4
 62
     2
 10
111.866666648
 20
78.166666705
 30
0.0
 40
0.166666667
 50
0.0
 51
90.0
  0
CIRCLE
  8
0
  6
LTYPE4
 62
     2
 10
112.199999981
 20
78.500000039
 30
0.0
 40
1.333333333
  0
LINE
  8
0
  6
LTYPE4
 62
     2
 10
119.949999981
 20
80.583333372
 30
0.0
 11
119.949999981
 21
76.416666705
 31
0.0
  0
LINE
  8
0
  6
LTYPE4
 62
     2
 10
120.449999981
 20
76.416666705
 30
0.0
 11
120.449999981
 21
80.616666705
 31
0.0
  0
LINE
  8
0
  6
LTYPE4
 62
     2
 10
125.283333314
 20
80.583333372
 30
0.0
 11
125.283333314
 21
76.416666705
 31
0.0
  0
LINE
  8
0
  6
LTYPE4
 62
     2
 10
125.783333314
 20
76.416666705
 30
0.0
 11
125.783333314
 21
80.616666705
 31
0.0
  0
LINE
  8
0
  6
LTYPE4
 62
     2
 10
110.366666648
 20
80.583333372
 30
0.0
 11
110.366666648
 21
76.416666705
 31
0.0
  0
LINE
  8
0
  6
LTYPE4
 62
     2
 10
130.033333314
 20
80.583333372
 30
0.0
 11
130.033333314
 21
76.416666705
 31
0.0
  0
CIRCLE
  8
0
  6
LTYPE4
 62
     2
 10
117.533333314
 20
78.500000039
 30
0.0
 40
1.166666667
  0
LINE
  8
0
  6
LTYPE4
 62
     2
 10
117.366666647
 20
77.816666705
 30
0.0
 11
117.699999981
 21
77.816666705
 31
0.0
  0
LINE
  8
0
  6
LTYPE4
 62
     2
 10
117.699999981
 20
79.183333372
 30
0.0
 11
117.366666647
 21
79.183333372
 31
0.0
  0
LINE
  8
0
  6
LTYPE4
 62
     2
 10
118.216666647
 20
78.333333372
 30
0.0
 11
118.216666647
 21
78.666666705
 31
0.0
  0
LINE
  8
0
  6
LTYPE4
 62
     2
 10
116.849999981
 20
78.666666705
 30
0.0
 11
116.849999981
 21
78.333333372
 31
0.0
  0
LINE
  8
0
  6
LTYPE4
 62
     2
 10
117.366666647
 20
79.183333372
 30
0.0
 11
117.366666647
 21
78.833333372
 31
0.0
  0
LINE
  8
0
  6
LTYPE4
 62
     2
 10
117.199999981
 20
78.666666705
 30
0.0
 11
116.849999981
 21
78.666666705
 31
0.0
  0
ARC
  8
0
  6
LTYPE4
 62
     2
 10
117.199999981
 20
78.833333372
 30
0.0
 40
0.166666667
 50
270.0
 51
0.0
  0
LINE
  8
0
  6
LTYPE4
 62
     2
 10
117.699999981
 20
78.833333372
 30
0.0
 11
117.699999981
 21
79.183333372
 31
0.0
  0
LINE
  8
0
  6
LTYPE4
 62
     2
 10
118.216666647
 20
78.666666705
 30
0.0
 11
117.866666647
 21
78.666666705
 31
0.0
  0
ARC
  8
0
  6
LTYPE4
 62
     2
 10
117.866666647
 20
78.833333372
 30
0.0
 40
0.166666667
 50
180.0
 51
270.0
  0
LINE
  8
0
  6
LTYPE4
 62
     2
 10
117.699999981
 20
77.816666705
 30
0.0
 11
117.699999981
 21
78.166666705
 31
0.0
  0
LINE
  8
0
  6
LTYPE4
 62
     2
 10
117.866666647
 20
78.333333372
 30
0.0
 11
118.216666647
 21
78.333333372
 31
0.0
  0
ARC
  8
0
  6
LTYPE4
 62
     2
 10
117.866666647
 20
78.166666705
 30
0.0
 40
0.166666667
 50
90.0
 51
180.0
  0
LINE
  8
0
  6
LTYPE4
 62
     2
 10
117.366666647
 20
78.166666705
 30
0.0
 11
117.366666647
 21
77.816666705
 31
0.0
  0
LINE
  8
0
  6
LTYPE4
 62
     2
 10
116.849999981
 20
78.333333372
 30
0.0
 11
117.199999981
 21
78.333333372
 31
0.0
  0
ARC
  8
0
  6
LTYPE4
 62
     2
 10
117.199999981
 20
78.166666705
 30
0.0
 40
0.166666667
 50
0.0
 51
90.0
  0
CIRCLE
  8
0
  6
LTYPE4
 62
     2
 10
117.533333314
 20
78.500000039
 30
0.0
 40
1.333333333
  0
CIRCLE
  8
0
  6
LTYPE4
 62
     2
 10
122.866666647
 20
78.500000039
 30
0.0
 40
1.166666667
  0
LINE
  8
0
  6
LTYPE4
 62
     2
 10
122.699999981
 20
77.816666705
 30
0.0
 11
123.033333314
 21
77.816666705
 31
0.0
  0
LINE
  8
0
  6
LTYPE4
 62
     2
 10
123.033333314
 20
79.183333372
 30
0.0
 11
122.699999981
 21
79.183333372
 31
0.0
  0
LINE
  8
0
  6
LTYPE4
 62
     2
 10
123.549999981
 20
78.333333372
 30
0.0
 11
123.549999981
 21
78.666666705
 31
0.0
  0
LINE
  8
0
  6
LTYPE4
 62
     2
 10
122.183333314
 20
78.666666705
 30
0.0
 11
122.183333314
 21
78.333333372
 31
0.0
  0
LINE
  8
0
  6
LTYPE4
 62
     2
 10
122.699999981
 20
79.183333372
 30
0.0
 11
122.699999981
 21
78.833333372
 31
0.0
  0
LINE
  8
0
  6
LTYPE4
 62
     2
 10
122.533333314
 20
78.666666705
 30
0.0
 11
122.183333314
 21
78.666666705
 31
0.0
  0
ARC
  8
0
  6
LTYPE4
 62
     2
 10
122.533333314
 20
78.833333372
 30
0.0
 40
0.166666667
 50
270.0
 51
0.0
  0
LINE
  8
0
  6
LTYPE4
 62
     2
 10
123.033333314
 20
78.833333372
 30
0.0
 11
123.033333314
 21
79.183333372
 31
0.0
  0
LINE
  8
0
  6
LTYPE4
 62
     2
 10
123.549999981
 20
78.666666705
 30
0.0
 11
123.199999981
 21
78.666666705
 31
0.0
  0
ARC
  8
0
  6
LTYPE4
 62
     2
 10
123.199999981
 20
78.833333372
 30
0.0
 40
0.166666667
 50
180.0
 51
270.0
  0
LINE
  8
0
  6
LTYPE4
 62
     2
 10
123.033333314
 20
77.816666705
 30
0.0
 11
123.033333314
 21
78.166666705
 31
0.0
  0
LINE
  8
0
  6
LTYPE4
 62
     2
 10
123.199999981
 20
78.333333372
 30
0.0
 11
123.549999981
 21
78.333333372
 31
0.0
  0
ARC
  8
0
  6
LTYPE4
 62
     2
 10
123.199999981
 20
78.166666705
 30
0.0
 40
0.166666667
 50
90.0
 51
180.0
  0
LINE
  8
0
  6
LTYPE4
 62
     2
 10
122.699999981
 20
78.166666705
 30
0.0
 11
122.699999981
 21
77.816666705
 31
0.0
  0
LINE
  8
0
  6
LTYPE4
 62
     2
 10
122.183333314
 20
78.333333372
 30
0.0
 11
122.533333314
 21
78.333333372
 31
0.0
  0
ARC
  8
0
  6
LTYPE4
 62
     2
 10
122.533333314
 20
78.166666705
 30
0.0
 40
0.166666667
 50
0.0
 51
90.0
  0
CIRCLE
  8
0
  6
LTYPE4
 62
     2
 10
122.866666647
 20
78.500000039
 30
0.0
 40
1.333333333
  0
CIRCLE
  8
0
  6
LTYPE4
 62
     2
 10
128.199999981
 20
78.500000039
 30
0.0
 40
1.166666667
  0
LINE
  8
0
  6
LTYPE4
 62
     2
 10
128.033333314
 20
77.816666705
 30
0.0
 11
128.366666647
 21
77.816666705
 31
0.0
  0
LINE
  8
0
  6
LTYPE4
 62
     2
 10
128.366666647
 20
79.183333372
 30
0.0
 11
128.033333314
 21
79.183333372
 31
0.0
  0
LINE
  8
0
  6
LTYPE4
 62
     2
 10
128.883333314
 20
78.333333372
 30
0.0
 11
128.883333314
 21
78.666666705
 31
0.0
  0
LINE
  8
0
  6
LTYPE4
 62
     2
 10
127.516666647
 20
78.666666705
 30
0.0
 11
127.516666647
 21
78.333333372
 31
0.0
  0
LINE
  8
0
  6
LTYPE4
 62
     2
 10
128.033333314
 20
79.183333372
 30
0.0
 11
128.033333314
 21
78.833333372
 31
0.0
  0
LINE
  8
0
  6
LTYPE4
 62
     2
 10
127.866666647
 20
78.666666705
 30
0.0
 11
127.516666647
 21
78.666666705
 31
0.0
  0
ARC
  8
0
  6
LTYPE4
 62
     2
 10
127.866666647
 20
78.833333372
 30
0.0
 40
0.166666667
 50
270.0
 51
0.0
  0
LINE
  8
0
  6
LTYPE4
 62
     2
 10
128.366666647
 20
78.833333372
 30
0.0
 11
128.366666647
 21
79.183333372
 31
0.0
  0
LINE
  8
0
  6
LTYPE4
 62
     2
 10
128.883333314
 20
78.666666705
 30
0.0
 11
128.533333314
 21
78.666666705
 31
0.0
  0
ARC
  8
0
  6
LTYPE4
 62
     2
 10
128.533333314
 20
78.833333372
 30
0.0
 40
0.166666667
 50
180.0
 51
270.0
  0
LINE
  8
0
  6
LTYPE4
 62
     2
 10
128.366666647
 20
77.816666705
 30
0.0
 11
128.366666647
 21
78.166666705
 31
0.0
  0
LINE
  8
0
  6
LTYPE4
 62
     2
 10
128.533333314
 20
78.333333372
 30
0.0
 11
128.883333314
 21
78.333333372
 31
0.0
  0
ARC
  8
0
  6
LTYPE4
 62
     2
 10
128.533333314
 20
78.166666705
 30
0.0
 40
0.166666667
 50
90.0
 51
180.0
  0
LINE
  8
0
  6
LTYPE4
 62
     2
 10
128.033333314
 20
78.166666705
 30
0.0
 11
128.033333314
 21
77.816666705
 31
0.0
  0
LINE
  8
0
  6
LTYPE4
 62
     2
 10
127.516666647
 20
78.333333372
 30
0.0
 11
127.866666647
 21
78.333333372
 31
0.0
  0
ARC
  8
0
  6
LTYPE4
 62
     2
 10
127.866666647
 20
78.166666705
 30
0.0
 40
0.166666667
 50
0.0
 51
90.0
  0
CIRCLE
  8
0
  6
LTYPE4
 62
     2
 10
128.199999981
 20
78.500000039
 30
0.0
 40
1.333333333
  0
LINE
  8
0
  6
CONTINUOUS
 62
     1
 10
190.766666576
 20
162.500000005
 30
0.0
 11
190.766666576
 21
131.166666703
 31
0.0
  0
ARC
  8
0
  6
CONTINUOUS
 62
     1
 10
189.766666577
 20
131.166666703
 30
0.0
 40
0.999999999
 50
270.0
 51
0.0
  0
LINE
  8
0
  6
CONTINUOUS
 62
     2
 10
190.766666577
 20
163.500000004
 30
0.0
 11
222.366666552
 21
163.500000004
 31
0.0
  0
LINE
  8
0
  6
CONTINUOUS
 62
     2
 10
190.766666577
 20
130.166666704
 30
0.0
 11
222.366666552
 21
130.166666704
 31
0.0
  0
LINE
  8
0
  6
CONTINUOUS
 62
     2
 10
210.733333223
 20
120.0
 30
0.0
 11
208.318518658
 21
120.647047613
 31
0.0
  0
LINE
  8
0
  6
CONTINUOUS
 62
     2
 10
210.733333223
 20
120.0
 30
0.0
 11
208.318518658
 21
119.352952387
 31
0.0
  0
LINE
  8
0
  6
CONTINUOUS
 62
     2
 10
210.733333223
 20
120.0
 30
0.0
 11
208.318518658
 21
120.647047613
 31
0.0
  0
LINE
  8
0
  6
CONTINUOUS
 62
     2
 10
210.733333223
 20
120.0
 30
0.0
 11
208.318518658
 21
119.352952387
 31
0.0
  0
LINE
  8
0
  6
CONTINUOUS
 62
     2
 10
206.983333223
 20
120.0
 30
0.0
 11
210.733333223
 21
120.0
 31
0.0
  0
LINE
  8
0
  6
CONTINUOUS
 62
     2
 10
210.733333223
 20
120.0
 30
0.0
 11
215.566666552
 21
120.0
 31
0.0
  0
LINE
  8
0
  6
CONTINUOUS
 62
     2
 10
215.566666552
 20
120.0
 30
0.0
 11
217.981481118
 21
119.352952387
 31
0.0
  0
LINE
  8
0
  6
CONTINUOUS
 62
     2
 10
215.566666552
 20
120.0
 30
0.0
 11
217.981481118
 21
120.647047613
 31
0.0
  0
TEXT
  8
0
  6
CONTINUOUS
 62
     2
 10
217.816666552
 20
121.0
 30
0.3
 40
3.0
  1
１４．５
 50
0.0
 41
0.6
 51
0.0
  7
KANJI1
  0
LINE
  8
0
  6
CONTINUOUS
 62
     2
 10
215.566666552
 20
120.0
 30
0.0
 11
224.566666552
 21
120.0
 31
0.0
  0
LINE
  8
0
  6
CONTINUOUS
 62
     1
 10
209.066666558
 20
163.333333337
 30
0.0
 11
209.066666558
 21
130.33333337
 31
0.0
  0
ARC
  8
0
  6
CONTINUOUS
 62
     1
 10
210.39999989
 20
130.666666703
 30
0.0
 40
0.333333333
 50
270.0
 51
0.0
  0
LINE
  8
0
  6
CONTINUOUS
 62
     1
 10
210.733333223
 20
163.000000004
 30
0.0
 11
210.733333223
 21
130.666666703
 31
0.0
  0
ARC
  8
0
  6
CONTINUOUS
 62
     1
 10
210.39999989
 20
163.000000004
 30
0.0
 40
0.333333333
 50
360.0
 51
90.0
  0
LINE
  8
0
  6
CONTINUOUS
 62
     1
 10
209.066666558
 20
130.33333337
 30
0.0
 11
210.39999989
 21
130.33333337
 31
0.0
  0
LINE
  8
0
  6
CONTINUOUS
 62
     1
 10
209.066666558
 20
163.333333337
 30
0.0
 11
210.39999989
 21
163.333333337
 31
0.0
  0
LINE
  8
0
  6
CONTINUOUS
 62
     2
 10
215.566666552
 20
157.50000001
 30
0.0
 11
215.566666552
 21
152.833333348
 31
0.0
  0
LINE
  8
0
  6
CONTINUOUS
 62
     2
 10
215.566666552
 20
152.833333348
 30
0.0
 11
214.499999886
 21
152.833333348
 31
0.0
  0
LINE
  8
0
  6
CONTINUOUS
 62
     2
 10
214.499999886
 20
152.833333348
 30
0.0
 11
214.499999886
 21
153.166666681
 31
0.0
  0
LINE
  8
0
  6
CONTINUOUS
 62
     2
 10
214.499999886
 20
153.166666681
 30
0.0
 11
212.166666555
 21
153.166666681
 31
0.0
  0
LINE
  8
0
  6
CONTINUOUS
 62
     2
 10
211.399999889
 20
156.416666677
 30
0.0
 11
211.399999889
 21
153.91666668
 31
0.0
  0
LINE
  8
0
  6
CONTINUOUS
 62
     2
 10
212.166666555
 20
153.166666681
 30
0.0
 11
211.399999889
 21
153.91666668
 31
0.0
  0
LINE
  8
0
  6
CONTINUOUS
 62
     2
 10
215.566666552
 20
157.50000001
 30
0.0
 11
214.499999886
 21
157.50000001
 31
0.0
  0
LINE
  8
0
  6
CONTINUOUS
 62
     2
 10
214.499999886
 20
157.50000001
 30
0.0
 11
214.499999886
 21
157.166666677
 31
0.0
  0
LINE
  8
0
  6
CONTINUOUS
 62
     2
 10
214.499999886
 20
157.166666677
 30
0.0
 11
212.166666555
 21
157.166666677
 31
0.0
  0
LINE
  8
0
  6
CONTINUOUS
 62
     2
 10
212.166666555
 20
157.166666677
 30
0.0
 11
211.399999889
 21
156.416666677
 31
0.0
  0
LINE
  8
0
  6
CONTINUOUS
 62
     2
 10
212.333333222
 20
155.733333345
 30
0.0
 11
212.333333222
 21
154.600000013
 31
0.0
  0
LINE
  8
0
  6
CONTINUOUS
 62
     2
 10
213.066666554
 20
155.733333345
 30
0.0
 11
212.333333222
 21
155.733333345
 31
0.0
  0
LINE
  8
0
  6
CONTINUOUS
 62
     2
 10
213.066666554
 20
154.600000013
 30
0.0
 11
213.066666554
 21
155.733333345
 31
0.0
  0
LINE
  8
0
  6
CONTINUOUS
 62
     2
 10
212.333333222
 20
154.600000013
 30
0.0
 11
213.066666554
 21
154.600000013
 31
0.0
  0
LINE
  8
0
  6
CONTINUOUS
 62
     2
 10
210.733333223
 20
157.10000001
 30
0.0
 11
212.098518407
 21
157.10000001
 31
0.0
  0
LINE
  8
0
  6
CONTINUOUS
 62
     2
 10
210.733333223
 20
153.233333347
 30
0.0
 11
212.098518407
 21
153.233333347
 31
0.0
  0
LINE
  8
0
  6
CONTINUOUS
 62
     2
 10
220.666666552
 20
163.500000004
 30
0.0
 11
220.019618939
 21
161.085185438
 31
0.0
  0
LINE
  8
0
  6
CONTINUOUS
 62
     2
 10
220.666666552
 20
163.500000004
 30
0.0
 11
221.313714165
 21
161.085185438
 31
0.0
  0
LINE
  8
0
  6
CONTINUOUS
 62
     2
 10
220.666666552
 20
163.500000004
 30
0.0
 11
220.666666552
 21
130.166666704
 31
0.0
  0
LINE
  8
0
  6
CONTINUOUS
 62
     2
 10
220.666666552
 20
130.166666704
 30
0.0
 11
221.313714165
 21
132.581481269
 31
0.0
  0
LINE
  8
0
  6
CONTINUOUS
 62
     2
 10
220.666666552
 20
130.166666704
 30
0.0
 11
220.019618939
 21
132.581481269
 31
0.0
  0
TEXT
  8
0
  6
CONTINUOUS
 62
     2
 10
219.666666552
 20
143.833333354
 30
0.3
 40
3.0
  1
φ１００
 50
90.0
 41
0.6
 51
0.0
  7
KANJI1
  0
LINE
  8
0
  6
CONTINUOUS
 62
     2
 10
215.399999981
 20
157.433333372
 30
0.0
 11
217.306534023
 21
159.050469095
 31
0.0
  0
LINE
  8
0
  6
CONTINUOUS
 62
     2
 10
215.399999981
 20
157.433333372
 30
0.0
 11
216.242539034
 21
159.78708101
 31
0.0
  0
LINE
  8
0
  6
CONTINUOUS
 62
     2
 10
212.333333223
 20
139.066666695
 30
0.0
 11
212.333333223
 21
137.933333362
 31
0.0
  0
LINE
  8
0
  6
CONTINUOUS
 62
     2
 10
213.066666557
 20
139.066666695
 30
0.0
 11
212.333333223
 21
139.066666695
 31
0.0
  0
LINE
  8
0
  6
CONTINUOUS
 62
     2
 10
213.066666557
 20
137.933333362
 30
0.0
 11
213.066666557
 21
139.066666695
 31
0.0
  0
LINE
  8
0
  6
CONTINUOUS
 62
     2
 10
212.333333223
 20
137.933333362
 30
0.0
 11
213.066666557
 21
137.933333362
 31
0.0
  0
LINE
  8
0
  6
CONTINUOUS
 62
     2
 10
210.733333223
 20
136.566666695
 30
0.0
 11
215.233333223
 21
136.566666695
 31
0.0
  0
LINE
  8
0
  6
CONTINUOUS
 62
     2
 10
215.233333223
 20
140.433333362
 30
0.0
 11
215.233333223
 21
136.566666695
 31
0.0
  0
LINE
  8
0
  6
CONTINUOUS
 62
     2
 10
210.733333223
 20
140.433333362
 30
0.0
 11
215.233333223
 21
140.433333362
 31
0.0
  0
LINE
  8
0
  6
CONTINUOUS
 62
     2
 10
210.733333223
 20
129.666666703
 30
0.0
 11
210.733333223
 21
118.0
 31
0.0
  0
LINE
  8
0
  6
CONTINUOUS
 62
     1
 10
190.709475618
 20
130.83333337
 30
0.0
 11
209.066666558
 21
130.83333337
 31
0.0
  0
LINE
  8
0
  6
CONTINUOUS
 62
     1
 10
190.709475618
 20
162.833333338
 30
0.0
 11
209.066666558
 21
162.833333338
 31
0.0
  0
LINE
  8
0
  6
CONTINUOUS
 62
     2
 10
215.566666552
 20
151.833333348
 30
0.0
 11
215.566666552
 21
118.033333348
 31
0.0
  0
LINE
  8
0
  6
CONTINUOUS
 62
     2
 10
215.399999981
 20
157.433333372
 30
0.0
 11
224.399999981
 21
170.433333372
 31
0.0
  0
LINE
  8
0
  6
CONTINUOUS
 62
     2
 10
224.399999981
 20
170.433333372
 30
0.0
 11
239.599999981
 21
170.433333372
 31
0.0
  0
LINE
  8
0
  6
CONTINUOUS
 62
     1
 10
189.766666577
 20
130.166666704
 30
0.0
 11
157.133333277
 21
130.166666704
 31
0.0
  0
LINE
  8
0
  6
CONTINUOUS
 62
     1
 10
157.194949288
 20
163.500000004
 30
0.0
 11
189.766667745
 21
163.500000004
 31
0.0
  0
ARC
  8
0
  6
CONTINUOUS
 62
     1
 10
189.766666577
 20
162.500000005
 30
0.0
 40
0.999999999
 50
0.0
 51
90.0
  0
TEXT
  8
0
  6
CONTINUOUS
 62
     2
 10
238.0
 20
32.0
 30
0.4
 40
4.0
  1
ＢＶＡ（Ｄ）－１１Ｋ
 50
0.0
 41
0.9
 51
0.0
  7
KANJI9
  0
TEXT
  8
0
  6
CONTINUOUS
 62
     2
 10
238.0
 20
25.5
 30
0.3
 40
3.0
  1
瞬時計付　最大（最小）指示
 50
0.0
 41
0.9
 51
0.0
  7
KANJI0
  0
TEXT
  8
0
  6
CONTINUOUS
 62
     2
 10
238.0
 20
21.0
 30
0.3
 40
3.0
  1
需要電圧計・電流計　外形図
 50
0.0
 41
0.9
 51
0.0
  7
KANJI0
  0
LINE
  8
0
  6
LTYPE3
 62
     2
 10
120.199999981
 20
167.833333333
 30
0.0
 11
120.199999981
 21
127.0
 31
0.0
  0
LINE
  8
0
  6
LTYPE3
 62
     2
 10
99.366666668
 20
146.833333354
 30
0.0
 11
140.0
 21
146.833333354
 31
0.0
  0
TEXT
  8
0
  6
CONTINUOUS
 62
     2
 10
179.099999919
 20
121.0
 30
0.1
 40
3.0
  1
１７１．５
 50
0.0
 41
0.6
 51
0.0
  7
KANJI6
  0
ENDSEC
  0
EOF
