  0
SECTION
  2
HEADER
  9
$ACADVER
  1
AC1009
  9
$DWGCODEPAGE
  3
dos932
  9
$EXTMIN
 10
0.0
 20
0.0
 30
0.0
  9
$EXTMAX
 10
297.0
 20
210.0
 30
0.0
  9
$LIMMIN
 10
0.0
 20
0.0
  9
$LIMMAX
 10
297.0
 20
210.0
  9
$LTSCALE
 40
1.0
  9
$PDMODE
 70
     0
  0
ENDSEC
  0
SECTION
  2
TABLES
  0
TABLE
  2
VPORT
 70
     1
  0
VPORT
  2
*ACTIVE
 70
     0
 10
0.0
 20
0.0
 11
1.0
 21
1.0
 12
148.5
 22
105.0
 13
0.0
 23
0.0
 14
10.0
 24
10.0
 15
10.0
 25
10.0
 16
0.0
 26
0.0
 36
1.0
 17
0.0
 27
0.0
 37
0.0
 40
297.0
 41
1.414285714
 42
50.0
 43
0.0
 44
0.0
 50
0.0
 51
0.0
 71
     0
 72
  1000
 73
     1
 74
     3
 75
     0
 76
     0
 77
     0
 78
     0
  0
ENDTAB
  0
TABLE
  2
LTYPE
 70
     6
  0
LTYPE
  2
LTYPE0
 70
    64
  3
CENTER
 72
    65
 73
     4
 40
5.0
 49
3.5
 49
-0.5
 49
0.5
 49
-0.5
  0
LTYPE
  2
CONTINUOUS
 70
    64
  3
Solid line
 72
    65
 73
     0
 40
0.0
  0
LTYPE
  2
LTYPE2
 70
    64
  3
CENTERX2
 72
    65
 73
     4
 40
15.0
 49
12.75
 49
-0.75
 49
0.75
 49
-0.75
  0
LTYPE
  2
LTYPE3
 70
    64
  3
CENTER
 72
    65
 73
     4
 40
3.0
 49
2.1
 49
-0.3
 49
0.3
 49
-0.3
  0
LTYPE
  2
LTYPE4
 70
    64
  3
CENTER
 72
    65
 73
     4
 40
8.0
 49
5.6
 49
-0.8
 49
0.8
 49
-0.8
  0
LTYPE
  2
LTYPE5
 70
    64
  3
CENTER
 72
    65
 73
     4
 40
15.0
 49
10.5
 49
-1.5
 49
1.5
 49
-1.5
  0
ENDTAB
  0
TABLE
  2
LAYER
 70
   128
  0
LAYER
  2
0
 70
     0
 62
     7
  6
CONTINUOUS
  0
LAYER
  2
2
 70
     0
 62
     7
  6
CONTINUOUS
  0
LAYER
  2
3
 70
     0
 62
     7
  6
CONTINUOUS
  0
LAYER
  2
4
 70
     0
 62
     7
  6
CONTINUOUS
  0
LAYER
  2
5
 70
     0
 62
     7
  6
CONTINUOUS
  0
LAYER
  2
6
 70
     0
 62
     7
  6
CONTINUOUS
  0
LAYER
  2
7
 70
     0
 62
     7
  6
CONTINUOUS
  0
LAYER
  2
8
 70
     0
 62
     7
  6
CONTINUOUS
  0
LAYER
  2
9
 70
     0
 62
     7
  6
CONTINUOUS
  0
LAYER
  2
10
 70
     0
 62
     7
  6
CONTINUOUS
  0
LAYER
  2
11
 70
     0
 62
     7
  6
CONTINUOUS
  0
LAYER
  2
12
 70
     0
 62
     7
  6
CONTINUOUS
  0
LAYER
  2
13
 70
     0
 62
     7
  6
CONTINUOUS
  0
LAYER
  2
14
 70
     0
 62
     7
  6
CONTINUOUS
  0
LAYER
  2
15
 70
     0
 62
     7
  6
CONTINUOUS
  0
LAYER
  2
16
 70
     0
 62
     7
  6
CONTINUOUS
  0
LAYER
  2
17
 70
     0
 62
     7
  6
CONTINUOUS
  0
LAYER
  2
18
 70
     0
 62
     7
  6
CONTINUOUS
  0
LAYER
  2
19
 70
     0
 62
     7
  6
CONTINUOUS
  0
LAYER
  2
20
 70
     0
 62
     7
  6
CONTINUOUS
  0
LAYER
  2
21
 70
     0
 62
     7
  6
CONTINUOUS
  0
LAYER
  2
22
 70
     0
 62
     7
  6
CONTINUOUS
  0
LAYER
  2
23
 70
     0
 62
     7
  6
CONTINUOUS
  0
LAYER
  2
24
 70
     0
 62
     7
  6
CONTINUOUS
  0
LAYER
  2
25
 70
     0
 62
     7
  6
CONTINUOUS
  0
LAYER
  2
26
 70
     0
 62
     7
  6
CONTINUOUS
  0
LAYER
  2
27
 70
     0
 62
     7
  6
CONTINUOUS
  0
LAYER
  2
28
 70
     0
 62
     7
  6
CONTINUOUS
  0
LAYER
  2
29
 70
     0
 62
     7
  6
CONTINUOUS
  0
LAYER
  2
30
 70
     0
 62
     7
  6
CONTINUOUS
  0
LAYER
  2
31
 70
     0
 62
     7
  6
CONTINUOUS
  0
LAYER
  2
32
 70
     0
 62
     7
  6
CONTINUOUS
  0
LAYER
  2
33
 70
     0
 62
     7
  6
CONTINUOUS
  0
LAYER
  2
34
 70
     0
 62
     7
  6
CONTINUOUS
  0
LAYER
  2
35
 70
     0
 62
     7
  6
CONTINUOUS
  0
LAYER
  2
36
 70
     0
 62
     7
  6
CONTINUOUS
  0
LAYER
  2
37
 70
     0
 62
     7
  6
CONTINUOUS
  0
LAYER
  2
38
 70
     0
 62
     7
  6
CONTINUOUS
  0
LAYER
  2
39
 70
     0
 62
     7
  6
CONTINUOUS
  0
LAYER
  2
40
 70
     0
 62
     7
  6
CONTINUOUS
  0
LAYER
  2
41
 70
     0
 62
     7
  6
CONTINUOUS
  0
LAYER
  2
42
 70
     0
 62
     7
  6
CONTINUOUS
  0
LAYER
  2
43
 70
     0
 62
     7
  6
CONTINUOUS
  0
LAYER
  2
44
 70
     0
 62
     7
  6
CONTINUOUS
  0
LAYER
  2
45
 70
     0
 62
     7
  6
CONTINUOUS
  0
LAYER
  2
46
 70
     0
 62
     7
  6
CONTINUOUS
  0
LAYER
  2
47
 70
     0
 62
     7
  6
CONTINUOUS
  0
LAYER
  2
48
 70
     0
 62
     7
  6
CONTINUOUS
  0
LAYER
  2
49
 70
     0
 62
     7
  6
CONTINUOUS
  0
LAYER
  2
50
 70
     0
 62
     7
  6
CONTINUOUS
  0
LAYER
  2
51
 70
     0
 62
     7
  6
CONTINUOUS
  0
LAYER
  2
52
 70
     0
 62
     7
  6
CONTINUOUS
  0
LAYER
  2
53
 70
     0
 62
     7
  6
CONTINUOUS
  0
LAYER
  2
54
 70
     0
 62
     7
  6
CONTINUOUS
  0
LAYER
  2
55
 70
     0
 62
     7
  6
CONTINUOUS
  0
LAYER
  2
56
 70
     0
 62
     7
  6
CONTINUOUS
  0
LAYER
  2
57
 70
     0
 62
     7
  6
CONTINUOUS
  0
LAYER
  2
58
 70
     0
 62
     7
  6
CONTINUOUS
  0
LAYER
  2
59
 70
     0
 62
     7
  6
CONTINUOUS
  0
LAYER
  2
60
 70
     0
 62
     7
  6
CONTINUOUS
  0
LAYER
  2
61
 70
     0
 62
     7
  6
CONTINUOUS
  0
LAYER
  2
62
 70
     0
 62
     7
  6
CONTINUOUS
  0
LAYER
  2
63
 70
     0
 62
     7
  6
CONTINUOUS
  0
LAYER
  2
64
 70
     0
 62
     7
  6
CONTINUOUS
  0
LAYER
  2
65
 70
     0
 62
     7
  6
CONTINUOUS
  0
LAYER
  2
66
 70
     0
 62
     7
  6
CONTINUOUS
  0
LAYER
  2
67
 70
     0
 62
     7
  6
CONTINUOUS
  0
LAYER
  2
68
 70
     0
 62
     7
  6
CONTINUOUS
  0
LAYER
  2
69
 70
     0
 62
     7
  6
CONTINUOUS
  0
LAYER
  2
70
 70
     0
 62
     7
  6
CONTINUOUS
  0
LAYER
  2
71
 70
     0
 62
     7
  6
CONTINUOUS
  0
LAYER
  2
72
 70
     0
 62
     7
  6
CONTINUOUS
  0
LAYER
  2
73
 70
     0
 62
     7
  6
CONTINUOUS
  0
LAYER
  2
74
 70
     0
 62
     7
  6
CONTINUOUS
  0
LAYER
  2
75
 70
     0
 62
     7
  6
CONTINUOUS
  0
LAYER
  2
76
 70
     0
 62
     7
  6
CONTINUOUS
  0
LAYER
  2
77
 70
     0
 62
     7
  6
CONTINUOUS
  0
LAYER
  2
78
 70
     0
 62
     7
  6
CONTINUOUS
  0
LAYER
  2
79
 70
     0
 62
     7
  6
CONTINUOUS
  0
LAYER
  2
80
 70
     0
 62
     7
  6
CONTINUOUS
  0
LAYER
  2
81
 70
     0
 62
     7
  6
CONTINUOUS
  0
LAYER
  2
82
 70
     0
 62
     7
  6
CONTINUOUS
  0
LAYER
  2
83
 70
     0
 62
     7
  6
CONTINUOUS
  0
LAYER
  2
84
 70
     0
 62
     7
  6
CONTINUOUS
  0
LAYER
  2
85
 70
     0
 62
     7
  6
CONTINUOUS
  0
LAYER
  2
86
 70
     0
 62
     7
  6
CONTINUOUS
  0
LAYER
  2
87
 70
     0
 62
     7
  6
CONTINUOUS
  0
LAYER
  2
88
 70
     0
 62
     7
  6
CONTINUOUS
  0
LAYER
  2
89
 70
     0
 62
     7
  6
CONTINUOUS
  0
LAYER
  2
90
 70
     0
 62
     7
  6
CONTINUOUS
  0
LAYER
  2
91
 70
     0
 62
     7
  6
CONTINUOUS
  0
LAYER
  2
92
 70
     0
 62
     7
  6
CONTINUOUS
  0
LAYER
  2
93
 70
     0
 62
     7
  6
CONTINUOUS
  0
LAYER
  2
94
 70
     0
 62
     7
  6
CONTINUOUS
  0
LAYER
  2
95
 70
     0
 62
     7
  6
CONTINUOUS
  0
LAYER
  2
96
 70
     0
 62
     7
  6
CONTINUOUS
  0
LAYER
  2
97
 70
     0
 62
     7
  6
CONTINUOUS
  0
LAYER
  2
98
 70
     0
 62
     7
  6
CONTINUOUS
  0
LAYER
  2
99
 70
     0
 62
     7
  6
CONTINUOUS
  0
LAYER
  2
100
 70
     0
 62
     7
  6
CONTINUOUS
  0
LAYER
  2
101
 70
     0
 62
     7
  6
CONTINUOUS
  0
LAYER
  2
102
 70
     0
 62
     7
  6
CONTINUOUS
  0
LAYER
  2
103
 70
     0
 62
     7
  6
CONTINUOUS
  0
LAYER
  2
104
 70
     0
 62
     7
  6
CONTINUOUS
  0
LAYER
  2
105
 70
     0
 62
     7
  6
CONTINUOUS
  0
LAYER
  2
106
 70
     0
 62
     7
  6
CONTINUOUS
  0
LAYER
  2
107
 70
     0
 62
     7
  6
CONTINUOUS
  0
LAYER
  2
108
 70
     0
 62
     7
  6
CONTINUOUS
  0
LAYER
  2
109
 70
     0
 62
     7
  6
CONTINUOUS
  0
LAYER
  2
110
 70
     0
 62
     7
  6
CONTINUOUS
  0
LAYER
  2
111
 70
     0
 62
     7
  6
CONTINUOUS
  0
LAYER
  2
112
 70
     0
 62
     7
  6
CONTINUOUS
  0
LAYER
  2
113
 70
     0
 62
     7
  6
CONTINUOUS
  0
LAYER
  2
114
 70
     0
 62
     7
  6
CONTINUOUS
  0
LAYER
  2
115
 70
     0
 62
     7
  6
CONTINUOUS
  0
LAYER
  2
116
 70
     0
 62
     7
  6
CONTINUOUS
  0
LAYER
  2
117
 70
     0
 62
     7
  6
CONTINUOUS
  0
LAYER
  2
118
 70
     0
 62
     7
  6
CONTINUOUS
  0
LAYER
  2
119
 70
     0
 62
     7
  6
CONTINUOUS
  0
LAYER
  2
120
 70
     0
 62
     7
  6
CONTINUOUS
  0
LAYER
  2
121
 70
     0
 62
     7
  6
CONTINUOUS
  0
LAYER
  2
122
 70
     0
 62
     7
  6
CONTINUOUS
  0
LAYER
  2
123
 70
     0
 62
     7
  6
CONTINUOUS
  0
LAYER
  2
124
 70
     0
 62
     7
  6
CONTINUOUS
  0
LAYER
  2
125
 70
     0
 62
     7
  6
CONTINUOUS
  0
LAYER
  2
126
 70
     0
 62
     7
  6
CONTINUOUS
  0
LAYER
  2
127
 70
     0
 62
     7
  6
CONTINUOUS
  0
LAYER
  2
128
 70
     0
 62
     7
  6
CONTINUOUS
  0
ENDTAB
  0
TABLE
  2
STYLE
 70
    10
  0
STYLE
  2
STANDARD
 70
     0
 40
0.0
 41
1.0
 50
0.0
 71
     0
 42
0.2
  3
txt.shx
  4
extfont.shx
  0
STYLE
  2
KANJI0
 70
     0
 40
5.8
 41
0.827586207
 50
0.0
 71
     0
 42
5.8
  3
txt.shx
  4
extfont.shx
  0
STYLE
  2
KANJI1
 70
     0
 40
3.0
 41
0.666666667
 50
0.0
 71
     0
 42
3.0
  3
txt.shx
  4
extfont.shx
  0
STYLE
  2
KANJI2
 70
     0
 40
1.8
 41
0.666666667
 50
0.0
 71
     0
 42
1.8
  3
txt.shx
  4
extfont.shx
  0
STYLE
  2
KANJI3
 70
     0
 40
3.0
 41
0.666666667
 50
0.0
 71
     0
 42
3.0
  3
txt.shx
  4
extfont.shx
  0
STYLE
  2
KANJI4
 70
     0
 40
3.0
 41
0.6
 50
0.0
 71
     0
 42
3.0
  3
txt.shx
  4
extfont.shx
  0
STYLE
  2
KANJI5
 70
     0
 40
1.8
 41
0.6
 50
0.0
 71
     0
 42
1.8
  3
txt.shx
  4
extfont.shx
  0
STYLE
  2
KANJI6
 70
     0
 40
3.0
 41
0.9
 50
0.0
 71
     0
 42
3.0
  3
txt.shx
  4
extfont.shx
  0
STYLE
  2
KANJI7
 70
     0
 40
3.0
 41
0.9
 50
0.0
 71
     0
 42
3.0
  3
txt.shx
  4
extfont.shx
  0
STYLE
  2
KANJI8
 70
     0
 40
4.0
 41
0.9
 50
0.0
 71
     0
 42
4.0
  3
txt.shx
  4
extfont.shx
  0
ENDTAB
  0
TABLE
  2
VIEW
 70
     0
  0
ENDTAB
  0
ENDSEC
  0
SECTION
  2
BLOCKS
  0
ENDSEC
  0
SECTION
  2
ENTITIES
  0
TEXT
  8
0
  6
CONTINUOUS
 62
     3
 10
233.581
 20
16.897
 30
0.2
 40
5.8
  1
ＭＳ－２０８１　　Ａ
 50
0.0
 41
0.827586207
 51
0.0
  7
KANJI0
  0
LINE
  8
0
  6
LTYPE0
 62
     2
 10
202.0
 20
130.0
 30
0.0
 11
20.5
 21
130.0
 31
0.0
  0
LINE
  8
0
  6
LTYPE0
 62
     2
 10
52.0
 20
162.5
 30
0.0
 11
52.0
 21
99.05
 31
0.0
  0
LINE
  8
0
  6
CONTINUOUS
 62
     1
 10
97.3
 20
155.0
 30
0.0
 11
97.3
 21
105.0
 31
0.0
  0
LINE
  8
0
  6
LTYPE0
 62
     2
 10
175.0
 20
157.0
 30
0.0
 11
175.0
 21
98.25
 31
0.0
  0
LINE
  8
0
  6
CONTINUOUS
 62
     2
 10
195.0
 20
152.025
 30
0.0
 11
193.246298557
 21
151.0125
 31
0.0
  0
LINE
  8
0
  6
CONTINUOUS
 62
     2
 10
193.246298557
 20
151.0125
 30
0.0
 11
193.246298557
 21
148.9875
 31
0.0
  0
LINE
  8
0
  6
CONTINUOUS
 62
     2
 10
193.246298557
 20
148.9875
 30
0.0
 11
195.0
 21
147.975
 31
0.0
  0
LINE
  8
0
  6
CONTINUOUS
 62
     2
 10
195.0
 20
147.975
 30
0.0
 11
196.753701443
 21
148.9875
 31
0.0
  0
LINE
  8
0
  6
CONTINUOUS
 62
     2
 10
196.753701443
 20
148.9875
 30
0.0
 11
196.753701443
 21
151.0125
 31
0.0
  0
LINE
  8
0
  6
CONTINUOUS
 62
     2
 10
196.753701443
 20
151.0125
 30
0.0
 11
195.0
 21
152.025
 31
0.0
  0
CIRCLE
  8
0
  6
CONTINUOUS
 62
     2
 10
195.0
 20
150.0
 30
0.0
 40
0.8
  0
CIRCLE
  8
0
  6
CONTINUOUS
 62
     2
 10
195.0
 20
150.0
 30
0.0
 40
1.0
  0
CIRCLE
  8
0
  6
CONTINUOUS
 62
     2
 10
195.0
 20
150.0
 30
0.0
 40
2.5
  0
LINE
  8
0
  6
LTYPE2
 62
     2
 10
192.0
 20
150.0
 30
0.0
 11
198.0
 21
150.0
 31
0.0
  0
LINE
  8
0
  6
LTYPE2
 62
     2
 10
195.0
 20
153.0
 30
0.0
 11
195.0
 21
147.0
 31
0.0
  0
LINE
  8
0
  6
CONTINUOUS
 62
     2
 10
155.0
 20
152.025
 30
0.0
 11
153.246298557
 21
151.0125
 31
0.0
  0
LINE
  8
0
  6
CONTINUOUS
 62
     2
 10
153.246298557
 20
151.0125
 30
0.0
 11
153.246298557
 21
148.9875
 31
0.0
  0
LINE
  8
0
  6
CONTINUOUS
 62
     2
 10
153.246298557
 20
148.9875
 30
0.0
 11
155.0
 21
147.975
 31
0.0
  0
LINE
  8
0
  6
CONTINUOUS
 62
     2
 10
155.0
 20
147.975
 30
0.0
 11
156.753701443
 21
148.9875
 31
0.0
  0
LINE
  8
0
  6
CONTINUOUS
 62
     2
 10
156.753701443
 20
148.9875
 30
0.0
 11
156.753701443
 21
151.0125
 31
0.0
  0
LINE
  8
0
  6
CONTINUOUS
 62
     2
 10
156.753701443
 20
151.0125
 30
0.0
 11
155.0
 21
152.025
 31
0.0
  0
CIRCLE
  8
0
  6
CONTINUOUS
 62
     2
 10
155.0
 20
150.0
 30
0.0
 40
0.8
  0
CIRCLE
  8
0
  6
CONTINUOUS
 62
     2
 10
155.0
 20
150.0
 30
0.0
 40
1.0
  0
CIRCLE
  8
0
  6
CONTINUOUS
 62
     2
 10
155.0
 20
150.0
 30
0.0
 40
2.5
  0
LINE
  8
0
  6
LTYPE2
 62
     2
 10
152.0
 20
150.0
 30
0.0
 11
158.0
 21
150.0
 31
0.0
  0
LINE
  8
0
  6
LTYPE2
 62
     2
 10
155.0
 20
153.0
 30
0.0
 11
155.0
 21
147.0
 31
0.0
  0
LINE
  8
0
  6
CONTINUOUS
 62
     2
 10
195.0
 20
112.025
 30
0.0
 11
193.246298557
 21
111.0125
 31
0.0
  0
LINE
  8
0
  6
CONTINUOUS
 62
     2
 10
193.246298557
 20
111.0125
 30
0.0
 11
193.246298557
 21
108.9875
 31
0.0
  0
LINE
  8
0
  6
CONTINUOUS
 62
     2
 10
193.246298557
 20
108.9875
 30
0.0
 11
195.0
 21
107.975
 31
0.0
  0
LINE
  8
0
  6
CONTINUOUS
 62
     2
 10
195.0
 20
107.975
 30
0.0
 11
196.753701443
 21
108.9875
 31
0.0
  0
LINE
  8
0
  6
CONTINUOUS
 62
     2
 10
196.753701443
 20
108.9875
 30
0.0
 11
196.753701443
 21
111.0125
 31
0.0
  0
LINE
  8
0
  6
CONTINUOUS
 62
     2
 10
196.753701443
 20
111.0125
 30
0.0
 11
195.0
 21
112.025
 31
0.0
  0
CIRCLE
  8
0
  6
CONTINUOUS
 62
     2
 10
195.0
 20
110.0
 30
0.0
 40
0.8
  0
CIRCLE
  8
0
  6
CONTINUOUS
 62
     2
 10
195.0
 20
110.0
 30
0.0
 40
1.0
  0
CIRCLE
  8
0
  6
CONTINUOUS
 62
     2
 10
195.0
 20
110.0
 30
0.0
 40
2.5
  0
LINE
  8
0
  6
LTYPE2
 62
     2
 10
192.0
 20
110.0
 30
0.0
 11
198.0
 21
110.0
 31
0.0
  0
LINE
  8
0
  6
LTYPE2
 62
     2
 10
195.0
 20
113.0
 30
0.0
 11
195.0
 21
107.0
 31
0.0
  0
LINE
  8
0
  6
CONTINUOUS
 62
     2
 10
155.0
 20
112.025
 30
0.0
 11
153.246298557
 21
111.0125
 31
0.0
  0
LINE
  8
0
  6
CONTINUOUS
 62
     2
 10
153.246298557
 20
111.0125
 30
0.0
 11
153.246298557
 21
108.9875
 31
0.0
  0
LINE
  8
0
  6
CONTINUOUS
 62
     2
 10
153.246298557
 20
108.9875
 30
0.0
 11
155.0
 21
107.975
 31
0.0
  0
LINE
  8
0
  6
CONTINUOUS
 62
     2
 10
155.0
 20
107.975
 30
0.0
 11
156.753701443
 21
108.9875
 31
0.0
  0
LINE
  8
0
  6
CONTINUOUS
 62
     2
 10
156.753701443
 20
108.9875
 30
0.0
 11
156.753701443
 21
111.0125
 31
0.0
  0
LINE
  8
0
  6
CONTINUOUS
 62
     2
 10
156.753701443
 20
111.0125
 30
0.0
 11
155.0
 21
112.025
 31
0.0
  0
CIRCLE
  8
0
  6
CONTINUOUS
 62
     2
 10
155.0
 20
110.0
 30
0.0
 40
0.8
  0
CIRCLE
  8
0
  6
CONTINUOUS
 62
     2
 10
155.0
 20
110.0
 30
0.0
 40
1.0
  0
CIRCLE
  8
0
  6
CONTINUOUS
 62
     2
 10
155.0
 20
110.0
 30
0.0
 40
2.5
  0
LINE
  8
0
  6
LTYPE2
 62
     2
 10
152.0
 20
110.0
 30
0.0
 11
158.0
 21
110.0
 31
0.0
  0
LINE
  8
0
  6
LTYPE2
 62
     2
 10
155.0
 20
113.0
 30
0.0
 11
155.0
 21
107.0
 31
0.0
  0
CIRCLE
  8
0
  6
CONTINUOUS
 62
     1
 10
164.5
 20
142.0
 30
0.0
 40
1.75
  0
LINE
  8
0
  6
CONTINUOUS
 62
     2
 10
164.25
 20
143.025
 30
0.0
 11
164.75
 21
143.025
 31
0.0
  0
LINE
  8
0
  6
CONTINUOUS
 62
     2
 10
162.767949192
 20
142.25
 30
0.0
 11
163.95
 21
142.25
 31
0.0
  0
LINE
  8
0
  6
CONTINUOUS
 62
     2
 10
164.25
 20
142.55
 30
0.0
 11
164.25
 21
143.025
 31
0.0
  0
ARC
  8
0
  6
CONTINUOUS
 62
     2
 10
163.95
 20
142.55
 30
0.0
 40
0.3
 50
270.0
 51
0.0
  0
LINE
  8
0
  6
CONTINUOUS
 62
     2
 10
164.75
 20
143.025
 30
0.0
 11
164.75
 21
142.55
 31
0.0
  0
LINE
  8
0
  6
CONTINUOUS
 62
     2
 10
165.05
 20
142.25
 30
0.0
 11
166.232050808
 21
142.25
 31
0.0
  0
ARC
  8
0
  6
CONTINUOUS
 62
     2
 10
165.05
 20
142.55
 30
0.0
 40
0.3
 50
180.0
 51
270.0
  0
LINE
  8
0
  6
CONTINUOUS
 62
     2
 10
164.25
 20
140.975
 30
0.0
 11
164.75
 21
140.975
 31
0.0
  0
LINE
  8
0
  6
CONTINUOUS
 62
     2
 10
162.767949192
 20
141.75
 30
0.0
 11
163.95
 21
141.75
 31
0.0
  0
LINE
  8
0
  6
CONTINUOUS
 62
     2
 10
164.25
 20
141.45
 30
0.0
 11
164.25
 21
140.975
 31
0.0
  0
ARC
  8
0
  6
CONTINUOUS
 62
     2
 10
163.95
 20
141.45
 30
0.0
 40
0.3
 50
0.0
 51
90.0
  0
LINE
  8
0
  6
CONTINUOUS
 62
     2
 10
164.75
 20
140.975
 30
0.0
 11
164.75
 21
141.45
 31
0.0
  0
LINE
  8
0
  6
CONTINUOUS
 62
     2
 10
165.05
 20
141.75
 30
0.0
 11
166.232050808
 21
141.75
 31
0.0
  0
ARC
  8
0
  6
CONTINUOUS
 62
     2
 10
165.05
 20
141.45
 30
0.0
 40
0.3
 50
90.0
 51
180.0
  0
LINE
  8
0
  6
LTYPE3
 62
     2
 10
161.5
 20
142.0
 30
0.0
 11
167.3
 21
142.0
 31
0.0
  0
LINE
  8
0
  6
LTYPE3
 62
     2
 10
164.5
 20
144.85
 30
0.0
 11
164.5
 21
139.25
 31
0.0
  0
CIRCLE
  8
0
  6
CONTINUOUS
 62
     1
 10
185.5
 20
142.0
 30
0.0
 40
1.75
  0
LINE
  8
0
  6
CONTINUOUS
 62
     2
 10
185.25
 20
143.025
 30
0.0
 11
185.75
 21
143.025
 31
0.0
  0
LINE
  8
0
  6
CONTINUOUS
 62
     2
 10
183.767949192
 20
142.25
 30
0.0
 11
184.95
 21
142.25
 31
0.0
  0
LINE
  8
0
  6
CONTINUOUS
 62
     2
 10
185.25
 20
142.55
 30
0.0
 11
185.25
 21
143.025
 31
0.0
  0
ARC
  8
0
  6
CONTINUOUS
 62
     2
 10
184.95
 20
142.55
 30
0.0
 40
0.3
 50
270.0
 51
0.0
  0
LINE
  8
0
  6
CONTINUOUS
 62
     2
 10
185.75
 20
143.025
 30
0.0
 11
185.75
 21
142.55
 31
0.0
  0
LINE
  8
0
  6
CONTINUOUS
 62
     2
 10
186.05
 20
142.25
 30
0.0
 11
187.232050808
 21
142.25
 31
0.0
  0
ARC
  8
0
  6
CONTINUOUS
 62
     2
 10
186.05
 20
142.55
 30
0.0
 40
0.3
 50
180.0
 51
270.0
  0
LINE
  8
0
  6
CONTINUOUS
 62
     2
 10
185.25
 20
140.975
 30
0.0
 11
185.75
 21
140.975
 31
0.0
  0
LINE
  8
0
  6
CONTINUOUS
 62
     2
 10
183.767949192
 20
141.75
 30
0.0
 11
184.95
 21
141.75
 31
0.0
  0
LINE
  8
0
  6
CONTINUOUS
 62
     2
 10
185.25
 20
141.45
 30
0.0
 11
185.25
 21
140.975
 31
0.0
  0
ARC
  8
0
  6
CONTINUOUS
 62
     2
 10
184.95
 20
141.45
 30
0.0
 40
0.3
 50
0.0
 51
90.0
  0
LINE
  8
0
  6
CONTINUOUS
 62
     2
 10
185.75
 20
140.975
 30
0.0
 11
185.75
 21
141.45
 31
0.0
  0
LINE
  8
0
  6
CONTINUOUS
 62
     2
 10
186.05
 20
141.75
 30
0.0
 11
187.232050808
 21
141.75
 31
0.0
  0
ARC
  8
0
  6
CONTINUOUS
 62
     2
 10
186.05
 20
141.45
 30
0.0
 40
0.3
 50
90.0
 51
180.0
  0
LINE
  8
0
  6
LTYPE3
 62
     2
 10
182.5
 20
142.0
 30
0.0
 11
188.3
 21
142.0
 31
0.0
  0
LINE
  8
0
  6
LTYPE3
 62
     2
 10
185.5
 20
144.85
 30
0.0
 11
185.5
 21
139.25
 31
0.0
  0
CIRCLE
  8
0
  6
CONTINUOUS
 62
     2
 10
175.0
 20
142.0
 30
0.0
 40
2.0
  0
LINE
  8
0
  6
LTYPE0
 62
     2
 10
178.0
 20
142.0
 30
0.0
 11
172.0
 21
142.0
 31
0.0
  0
POLYLINE
  8
0
  6
CONTINUOUS
 62
     2
 66
     1
 70
     1
  0
VERTEX
  8
0
  6
CONTINUOUS
 62
     2
 10
155.916
 20
71.115
 30
0.0
  0
VERTEX
  8
0
  6
CONTINUOUS
 62
     2
 10
155.916
 20
71.115
 30
0.0
  0
VERTEX
  8
0
  6
CONTINUOUS
 62
     2
 10
155.916
 20
71.115
 30
0.0
  0
VERTEX
  8
0
  6
CONTINUOUS
 62
     2
 10
155.916
 20
71.115
 30
0.0
  0
SEQEND
  0
LINE
  8
0
  6
CONTINUOUS
 62
     2
 10
119.75
 20
143.5
 30
0.0
 11
119.75
 21
140.5
 31
0.0
  0
LINE
  8
0
  6
CONTINUOUS
 62
     2
 10
119.75
 20
143.5
 30
0.0
 11
119.75
 21
143.75
 31
0.0
  0
LINE
  8
0
  6
CONTINUOUS
 62
     2
 10
119.75
 20
143.75
 30
0.0
 11
120.25
 21
143.75
 31
0.0
  0
LINE
  8
0
  6
CONTINUOUS
 62
     2
 10
120.25
 20
143.75
 30
0.0
 11
120.25
 21
140.25
 31
0.0
  0
LINE
  8
0
  6
CONTINUOUS
 62
     2
 10
120.25
 20
140.25
 30
0.0
 11
119.75
 21
140.25
 31
0.0
  0
LINE
  8
0
  6
CONTINUOUS
 62
     2
 10
119.75
 20
140.25
 30
0.0
 11
119.75
 21
140.5
 31
0.0
  0
LINE
  8
0
  6
CONTINUOUS
 62
     2
 10
119.75
 20
142.0
 30
0.0
 11
120.25
 21
142.288675135
 31
0.0
  0
LINE
  8
0
  6
CONTINUOUS
 62
     2
 10
119.75
 20
141.711324865
 30
0.0
 11
120.25
 21
142.0
 31
0.0
  0
ARC
  8
0
  6
CONTINUOUS
 62
     2
 10
120.739512163
 20
140.9
 30
0.0
 40
0.65
 50
270.0
 51
343.398450401
  0
ARC
  8
0
  6
CONTINUOUS
 62
     2
 10
120.739512163
 20
143.1
 30
0.0
 40
0.65
 50
16.601549599
 51
90.0
  0
LINE
  8
0
  6
CONTINUOUS
 62
     2
 10
120.25
 20
143.75
 30
0.0
 11
120.739512163
 21
143.75
 31
0.0
  0
LINE
  8
0
  6
CONTINUOUS
 62
     2
 10
120.25
 20
140.25
 30
0.0
 11
120.739512163
 21
140.25
 31
0.0
  0
LINE
  8
0
  6
CONTINUOUS
 62
     2
 10
121.55
 20
142.25
 30
0.0
 11
120.85
 21
142.25
 31
0.0
  0
LINE
  8
0
  6
CONTINUOUS
 62
     2
 10
120.85
 20
142.25
 30
0.0
 11
120.85
 21
141.75
 31
0.0
  0
LINE
  8
0
  6
CONTINUOUS
 62
     2
 10
120.85
 20
141.75
 30
0.0
 11
121.55
 21
141.75
 31
0.0
  0
ARC
  8
0
  6
CONTINUOUS
 62
     2
 10
117.05
 20
142.0
 30
0.0
 40
4.5
 50
3.17983012
 51
16.601549599
  0
ARC
  8
0
  6
CONTINUOUS
 62
     2
 10
117.05
 20
142.0
 30
0.0
 40
4.5
 50
343.398450401
 51
356.82016988
  0
ARC
  8
0
  6
CONTINUOUS
 62
     1
 10
114.05
 20
109.25
 30
0.0
 40
0.5
 50
270.0
 51
360.0
  0
ARC
  8
0
  6
CONTINUOUS
 62
     1
 10
114.05
 20
150.75
 30
0.0
 40
0.5
 50
360.0
 51
90.0
  0
LINE
  8
0
  6
CONTINUOUS
 62
     1
 10
114.55
 20
150.75
 30
0.0
 11
114.55
 21
109.25
 31
0.0
  0
CIRCLE
  8
0
  6
CONTINUOUS
 62
     1
 10
175.0
 20
130.0
 30
0.0
 40
21.25
  0
LINE
  8
0
  6
CONTINUOUS
 62
     2
 10
119.75
 20
140.5
 30
0.0
 11
114.55
 21
140.5
 31
0.0
  0
LINE
  8
0
  6
CONTINUOUS
 62
     2
 10
114.55
 20
143.5
 30
0.0
 11
119.75
 21
143.5
 31
0.0
  0
LINE
  8
0
  6
CONTINUOUS
 62
     2
 10
119.903337045
 20
132.25
 30
0.0
 11
120.053337045
 21
132.25
 31
0.0
  0
LINE
  8
0
  6
CONTINUOUS
 62
     2
 10
120.053337045
 20
127.75
 30
0.0
 11
119.903337045
 21
127.75
 31
0.0
  0
LINE
  8
0
  6
CONTINUOUS
 62
     2
 10
118.928337045
 20
132.5
 30
0.0
 11
118.928337045
 21
127.5
 31
0.0
  0
LINE
  8
0
  6
CONTINUOUS
 62
     2
 10
119.903337045
 20
132.3
 30
0.0
 11
119.903337045
 21
127.7
 31
0.0
  0
ARC
  8
0
  6
CONTINUOUS
 62
     2
 10
120.053337045
 20
129.25
 30
0.0
 40
1.5
 50
270.0
 51
3.822553729
  0
ARC
  8
0
  6
CONTINUOUS
 62
     2
 10
120.053337045
 20
130.75
 30
0.0
 40
1.5
 50
356.177446271
 51
90.0
  0
LINE
  8
0
  6
CONTINUOUS
 62
     2
 10
121.55
 20
130.65
 30
0.0
 11
121.55
 21
129.35
 31
0.0
  0
LINE
  8
0
  6
CONTINUOUS
 62
     2
 10
121.16085589
 20
129.6
 30
0.0
 11
121.553337045
 21
129.6
 31
0.0
  0
LINE
  8
0
  6
CONTINUOUS
 62
     2
 10
121.16085589
 20
130.3
 30
0.0
 11
121.16085589
 21
129.6
 31
0.0
  0
LINE
  8
0
  6
CONTINUOUS
 62
     2
 10
121.55
 20
130.3
 30
0.0
 11
121.16085589
 21
130.3
 31
0.0
  0
LINE
  8
0
  6
CONTINUOUS
 62
     2
 10
119.428337045
 20
132.5
 30
0.0
 11
119.428337045
 21
127.5
 31
0.0
  0
LINE
  8
0
  6
CONTINUOUS
 62
     2
 10
118.928337045
 20
132.5
 30
0.0
 11
119.428337045
 21
132.5
 31
0.0
  0
LINE
  8
0
  6
CONTINUOUS
 62
     2
 10
119.428337045
 20
132.3
 30
0.0
 11
119.903337045
 21
132.3
 31
0.0
  0
LINE
  8
0
  6
CONTINUOUS
 62
     2
 10
119.428337045
 20
127.7
 30
0.0
 11
119.903337045
 21
127.7
 31
0.0
  0
LINE
  8
0
  6
CONTINUOUS
 62
     2
 10
118.928337045
 20
127.5
 30
0.0
 11
119.428337045
 21
127.5
 31
0.0
  0
LINE
  8
0
  6
CONTINUOUS
 62
     2
 10
114.55
 20
132.0
 30
0.0
 11
118.928337045
 21
132.0
 31
0.0
  0
LINE
  8
0
  6
CONTINUOUS
 62
     2
 10
118.928337045
 20
128.0
 30
0.0
 11
114.55
 21
128.0
 31
0.0
  0
LINE
  8
0
  6
LTYPE0
 62
     2
 10
123.45
 20
142.0
 30
0.0
 11
112.735
 21
142.0
 31
0.0
  0
LINE
  8
0
  6
LTYPE2
 62
     2
 10
160.0
 20
130.0
 30
0.0
 11
168.0
 21
130.0
 31
0.0
  0
LINE
  8
0
  6
LTYPE2
 62
     2
 10
164.0
 20
126.0
 30
0.0
 11
164.0
 21
134.0
 31
0.0
  0
LINE
  8
0
  6
LTYPE2
 62
     2
 10
182.0
 20
130.0
 30
0.0
 11
190.0
 21
130.0
 31
0.0
  0
LINE
  8
0
  6
LTYPE2
 62
     2
 10
186.0
 20
126.0
 30
0.0
 11
186.0
 21
134.0
 31
0.0
  0
LINE
  8
0
  6
CONTINUOUS
 62
     2
 10
164.4
 20
131.375
 30
0.0
 11
163.7
 21
131.375
 31
0.0
  0
LINE
  8
0
  6
CONTINUOUS
 62
     2
 10
163.7
 20
128.625
 30
0.0
 11
164.4
 21
128.625
 31
0.0
  0
LINE
  8
0
  6
CONTINUOUS
 62
     2
 10
163.7
 20
131.375
 30
0.0
 11
163.7
 21
131.1
 31
0.0
  0
ARC
  8
0
  6
CONTINUOUS
 62
     2
 10
162.95
 20
131.1
 30
0.0
 40
0.75
 50
270.0
 51
0.0
  0
LINE
  8
0
  6
CONTINUOUS
 62
     2
 10
164.4
 20
131.1
 30
0.0
 11
164.4
 21
131.375
 31
0.0
  0
ARC
  8
0
  6
CONTINUOUS
 62
     2
 10
165.15
 20
131.1
 30
0.0
 40
0.75
 50
180.0
 51
270.0
  0
LINE
  8
0
  6
CONTINUOUS
 62
     2
 10
164.4
 20
128.625
 30
0.0
 11
164.4
 21
128.9
 31
0.0
  0
ARC
  8
0
  6
CONTINUOUS
 62
     2
 10
165.15
 20
128.9
 30
0.0
 40
0.75
 50
90.0
 51
180.0
  0
LINE
  8
0
  6
CONTINUOUS
 62
     2
 10
163.7
 20
128.9
 30
0.0
 11
163.7
 21
128.625
 31
0.0
  0
ARC
  8
0
  6
CONTINUOUS
 62
     2
 10
162.95
 20
128.9
 30
0.0
 40
0.75
 50
0.0
 51
90.0
  0
CIRCLE
  8
0
  6
CONTINUOUS
 62
     2
 10
164.0
 20
130.0
 30
0.0
 40
2.25
  0
CIRCLE
  8
0
  6
CONTINUOUS
 62
     2
 10
164.0
 20
130.0
 30
0.0
 40
2.3
  0
CIRCLE
  8
0
  6
CONTINUOUS
 62
     2
 10
164.0
 20
130.0
 30
0.0
 40
2.5
  0
LINE
  8
0
  6
CONTINUOUS
 62
     2
 10
165.15
 20
129.65
 30
0.0
 11
166.222611077
 21
129.65
 31
0.0
  0
LINE
  8
0
  6
CONTINUOUS
 62
     2
 10
166.222611077
 20
130.35
 30
0.0
 11
165.15
 21
130.35
 31
0.0
  0
LINE
  8
0
  6
CONTINUOUS
 62
     2
 10
162.95
 20
130.35
 30
0.0
 11
161.777388923
 21
130.35
 31
0.0
  0
LINE
  8
0
  6
CONTINUOUS
 62
     2
 10
161.777388923
 20
129.65
 30
0.0
 11
162.95
 21
129.65
 31
0.0
  0
LINE
  8
0
  6
CONTINUOUS
 62
     2
 10
186.4
 20
131.375
 30
0.0
 11
185.7
 21
131.375
 31
0.0
  0
LINE
  8
0
  6
CONTINUOUS
 62
     2
 10
185.7
 20
128.625
 30
0.0
 11
186.4
 21
128.625
 31
0.0
  0
LINE
  8
0
  6
CONTINUOUS
 62
     2
 10
185.7
 20
131.375
 30
0.0
 11
185.7
 21
131.1
 31
0.0
  0
ARC
  8
0
  6
CONTINUOUS
 62
     2
 10
184.95
 20
131.1
 30
0.0
 40
0.75
 50
270.0
 51
0.0
  0
LINE
  8
0
  6
CONTINUOUS
 62
     2
 10
186.4
 20
131.1
 30
0.0
 11
186.4
 21
131.375
 31
0.0
  0
ARC
  8
0
  6
CONTINUOUS
 62
     2
 10
187.15
 20
131.1
 30
0.0
 40
0.75
 50
180.0
 51
270.0
  0
LINE
  8
0
  6
CONTINUOUS
 62
     2
 10
186.4
 20
128.625
 30
0.0
 11
186.4
 21
128.9
 31
0.0
  0
ARC
  8
0
  6
CONTINUOUS
 62
     2
 10
187.15
 20
128.9
 30
0.0
 40
0.75
 50
90.0
 51
180.0
  0
LINE
  8
0
  6
CONTINUOUS
 62
     2
 10
185.7
 20
128.9
 30
0.0
 11
185.7
 21
128.625
 31
0.0
  0
ARC
  8
0
  6
CONTINUOUS
 62
     2
 10
184.95
 20
128.9
 30
0.0
 40
0.75
 50
0.0
 51
90.0
  0
CIRCLE
  8
0
  6
CONTINUOUS
 62
     2
 10
186.0
 20
130.0
 30
0.0
 40
2.25
  0
CIRCLE
  8
0
  6
CONTINUOUS
 62
     2
 10
186.0
 20
130.0
 30
0.0
 40
2.3
  0
CIRCLE
  8
0
  6
CONTINUOUS
 62
     2
 10
186.0
 20
130.0
 30
0.0
 40
2.5
  0
LINE
  8
0
  6
CONTINUOUS
 62
     2
 10
187.15
 20
129.65
 30
0.0
 11
188.222611077
 21
129.65
 31
0.0
  0
LINE
  8
0
  6
CONTINUOUS
 62
     2
 10
188.222611077
 20
130.35
 30
0.0
 11
187.15
 21
130.35
 31
0.0
  0
LINE
  8
0
  6
CONTINUOUS
 62
     2
 10
184.95
 20
130.35
 30
0.0
 11
183.777388923
 21
130.35
 31
0.0
  0
LINE
  8
0
  6
CONTINUOUS
 62
     2
 10
183.777388923
 20
129.65
 30
0.0
 11
184.95
 21
129.65
 31
0.0
  0
LINE
  8
0
  6
CONTINUOUS
 62
     2
 10
110.0
 20
151.25
 30
0.0
 11
109.352952387
 21
148.835185434
 31
0.0
  0
LINE
  8
0
  6
CONTINUOUS
 62
     2
 10
110.0
 20
151.25
 30
0.0
 11
110.647047613
 21
148.835185434
 31
0.0
  0
LINE
  8
0
  6
CONTINUOUS
 62
     2
 10
110.0
 20
151.25
 30
0.0
 11
110.0
 21
108.75
 31
0.0
  0
TEXT
  8
0
  6
CONTINUOUS
 62
     2
 10
109.0
 20
125.58
 30
0.3
 40
3.0
  1
φ８５
 50
90.0
 41
0.666666667
 51
0.0
  7
KANJI1
  0
LINE
  8
0
  6
CONTINUOUS
 62
     2
 10
110.0
 20
108.75
 30
0.0
 11
110.647047613
 21
111.164814566
 31
0.0
  0
LINE
  8
0
  6
CONTINUOUS
 62
     2
 10
110.0
 20
108.75
 30
0.0
 11
109.352952387
 21
111.164814566
 31
0.0
  0
TEXT
  8
0
  6
CONTINUOUS
 62
     2
 10
217.0
 20
131.1
 30
0.3
 40
1.8
  1
±１
 50
90.0
 41
0.666666667
 51
0.0
  7
KANJI2
  0
LINE
  8
0
  6
CONTINUOUS
 62
     2
 10
218.0
 20
155.0
 30
0.0
 11
217.352952387
 21
152.585185434
 31
0.0
  0
LINE
  8
0
  6
CONTINUOUS
 62
     2
 10
218.0
 20
155.0
 30
0.0
 11
218.647047613
 21
152.585185434
 31
0.0
  0
LINE
  8
0
  6
CONTINUOUS
 62
     2
 10
218.0
 20
105.0
 30
0.0
 11
218.647047613
 21
107.414814566
 31
0.0
  0
LINE
  8
0
  6
CONTINUOUS
 62
     2
 10
218.0
 20
105.0
 30
0.0
 11
217.352952387
 21
107.414814566
 31
0.0
  0
LINE
  8
0
  6
CONTINUOUS
 62
     2
 10
218.0
 20
155.0
 30
0.0
 11
218.0
 21
105.0
 31
0.0
  0
TEXT
  8
0
  6
CONTINUOUS
 62
     2
 10
217.0
 20
124.01
 30
0.5
 40
3.0
  1
１００
 50
90.0
 41
0.666666667
 51
0.0
  7
KANJI3
  0
LINE
  8
0
  6
CONTINUOUS
 62
     2
 10
212.0
 20
130.0
 30
0.0
 11
211.352952387
 21
127.585185434
 31
0.0
  0
LINE
  8
0
  6
CONTINUOUS
 62
     2
 10
212.0
 20
130.0
 30
0.0
 11
212.647047613
 21
127.585185434
 31
0.0
  0
LINE
  8
0
  6
CONTINUOUS
 62
     2
 10
212.0
 20
130.0
 30
0.0
 11
212.647047613
 21
132.414814566
 31
0.0
  0
LINE
  8
0
  6
CONTINUOUS
 62
     2
 10
212.0
 20
130.0
 30
0.0
 11
211.352952387
 21
132.414814566
 31
0.0
  0
LINE
  8
0
  6
CONTINUOUS
 62
     2
 10
212.0
 20
130.0
 30
0.0
 11
212.0
 21
150.0
 31
0.0
  0
LINE
  8
0
  6
CONTINUOUS
 62
     2
 10
212.0
 20
150.0
 30
0.0
 11
211.352952387
 21
147.585185434
 31
0.0
  0
LINE
  8
0
  6
CONTINUOUS
 62
     2
 10
212.0
 20
150.0
 30
0.0
 11
212.647047613
 21
147.585185434
 31
0.0
  0
LINE
  8
0
  6
CONTINUOUS
 62
     2
 10
212.0
 20
110.0
 30
0.0
 11
212.647047613
 21
112.414814566
 31
0.0
  0
LINE
  8
0
  6
CONTINUOUS
 62
     2
 10
212.0
 20
110.0
 30
0.0
 11
211.352952387
 21
112.414814566
 31
0.0
  0
LINE
  8
0
  6
CONTINUOUS
 62
     2
 10
212.0
 20
110.0
 30
0.0
 11
212.0
 21
130.0
 31
0.0
  0
TEXT
  8
0
  6
CONTINUOUS
 62
     2
 10
211.0
 20
135.873
 30
0.3
 40
3.0
  1
４０
 50
90.0
 41
0.6
 51
0.0
  7
KANJI4
  0
TEXT
  8
0
  6
CONTINUOUS
 62
     2
 10
211.0
 20
139.773
 30
0.18
 40
1.8
  1
±０．５
 50
90.0
 41
0.6
 51
0.0
  7
KANJI5
  0
TEXT
  8
0
  6
CONTINUOUS
 62
     2
 10
211.0
 20
115.873
 30
0.3
 40
3.0
  1
４０
 50
90.0
 41
0.6
 51
0.0
  7
KANJI4
  0
TEXT
  8
0
  6
CONTINUOUS
 62
     2
 10
211.0
 20
119.773
 30
0.18
 40
1.8
  1
±０．５
 50
90.0
 41
0.6
 51
0.0
  7
KANJI5
  0
LINE
  8
0
  6
CONTINUOUS
 62
     2
 10
97.55
 20
165.525
 30
0.0
 11
97.55
 21
169.0
 31
0.0
  0
LINE
  8
0
  6
CONTINUOUS
 62
     2
 10
97.3
 20
167.0
 30
0.0
 11
94.885185434
 21
167.647047613
 31
0.0
  0
LINE
  8
0
  6
CONTINUOUS
 62
     2
 10
97.3
 20
167.0
 30
0.0
 11
94.885185434
 21
166.352952387
 31
0.0
  0
LINE
  8
0
  6
CONTINUOUS
 62
     2
 10
97.3
 20
167.0
 30
0.0
 11
93.25
 21
167.0
 31
0.0
  0
LINE
  8
0
  6
CONTINUOUS
 62
     2
 10
97.55
 20
167.0
 30
0.0
 11
99.374524064
 21
166.51112025
 31
0.0
  0
LINE
  8
0
  6
CONTINUOUS
 62
     2
 10
97.55
 20
167.0
 30
0.0
 11
99.394524064
 21
167.494238733
 31
0.0
  0
LINE
  8
0
  6
CONTINUOUS
 62
     2
 10
97.3
 20
169.0
 30
0.0
 11
97.3
 21
156.0
 31
0.0
  0
TEXT
  8
0
  6
CONTINUOUS
 62
     2
 10
92.275
 20
168.0
 30
0.3
 40
3.0
  1
０．５
 50
0.0
 41
0.6
 51
0.0
  7
KANJI4
  0
LINE
  8
0
  6
CONTINUOUS
 62
     2
 10
105.05
 20
167.0
 30
0.0
 11
103.264524064
 21
167.478416835
 31
0.0
  0
LINE
  8
0
  6
CONTINUOUS
 62
     2
 10
105.05
 20
167.0
 30
0.0
 11
103.264524064
 21
166.521583165
 31
0.0
  0
LINE
  8
0
  6
CONTINUOUS
 62
     2
 10
105.05
 20
167.0
 30
0.0
 11
97.3
 21
167.0
 31
0.0
  0
LINE
  8
0
  6
CONTINUOUS
 62
     2
 10
97.55
 20
173.0
 30
0.0
 11
99.964814566
 21
172.352952387
 31
0.0
  0
LINE
  8
0
  6
CONTINUOUS
 62
     2
 10
97.55
 20
173.0
 30
0.0
 11
99.964814566
 21
173.647047613
 31
0.0
  0
LINE
  8
0
  6
CONTINUOUS
 62
     2
 10
97.55
 20
173.0
 30
0.0
 11
95.135185434
 21
172.352952387
 31
0.0
  0
LINE
  8
0
  6
CONTINUOUS
 62
     2
 10
97.55
 20
173.0
 30
0.0
 11
95.135185434
 21
173.647047613
 31
0.0
  0
LINE
  8
0
  6
CONTINUOUS
 62
     2
 10
97.55
 20
156.0
 30
0.0
 11
97.55
 21
175.0
 31
0.0
  0
LINE
  8
0
  6
CONTINUOUS
 62
     2
 10
88.55
 20
173.0
 30
0.0
 11
90.964814566
 21
172.352952387
 31
0.0
  0
LINE
  8
0
  6
CONTINUOUS
 62
     2
 10
88.55
 20
173.0
 30
0.0
 11
90.964814566
 21
173.647047613
 31
0.0
  0
LINE
  8
0
  6
CONTINUOUS
 62
     2
 10
88.55
 20
156.0
 30
0.0
 11
88.55
 21
175.0
 31
0.0
  0
LINE
  8
0
  6
CONTINUOUS
 62
     2
 10
114.55
 20
173.0
 30
0.0
 11
112.135185434
 21
173.647047613
 31
0.0
  0
LINE
  8
0
  6
CONTINUOUS
 62
     2
 10
114.55
 20
173.0
 30
0.0
 11
112.135185434
 21
172.352952387
 31
0.0
  0
LINE
  8
0
  6
CONTINUOUS
 62
     2
 10
114.55
 20
173.0
 30
0.0
 11
112.135185434
 21
172.352952387
 31
0.0
  0
LINE
  8
0
  6
CONTINUOUS
 62
     2
 10
114.55
 20
173.0
 30
0.0
 11
112.135185434
 21
173.647047613
 31
0.0
  0
LINE
  8
0
  6
CONTINUOUS
 62
     2
 10
88.55
 20
173.0
 30
0.0
 11
114.55
 21
173.0
 31
0.0
  0
TEXT
  8
0
  6
CONTINUOUS
 62
     2
 10
103.1
 20
174.0
 30
0.3
 40
3.0
  1
３４．５
 50
0.0
 41
0.6
 51
0.0
  7
KANJI4
  0
TEXT
  8
0
  6
CONTINUOUS
 62
     2
 10
89.484
 20
174.05
 30
0.3
 40
3.0
  1
１７．５
 50
0.0
 41
0.6
 51
0.0
  7
KANJI4
  0
LINE
  8
0
  6
CONTINUOUS
 62
     2
 10
114.55
 20
173.0
 30
0.0
 11
116.964814566
 21
172.352952387
 31
0.0
  0
LINE
  8
0
  6
CONTINUOUS
 62
     2
 10
114.55
 20
173.0
 30
0.0
 11
116.964814566
 21
173.647047613
 31
0.0
  0
LINE
  8
0
  6
CONTINUOUS
 62
     2
 10
114.55
 20
173.0
 30
0.0
 11
121.55
 21
173.0
 31
0.0
  0
LINE
  8
0
  6
CONTINUOUS
 62
     2
 10
121.55
 20
173.0
 30
0.0
 11
119.135185434
 21
173.647047613
 31
0.0
  0
LINE
  8
0
  6
CONTINUOUS
 62
     2
 10
121.55
 20
173.0
 30
0.0
 11
119.135185434
 21
172.352952387
 31
0.0
  0
TEXT
  8
0
  6
CONTINUOUS
 62
     2
 10
116.1
 20
174.0
 30
0.3
 40
3.0
  1
１４
 50
0.0
 41
0.6
 51
0.0
  7
KANJI4
  0
LINE
  8
0
  6
CONTINUOUS
 62
     2
 10
175.0
 20
167.0
 30
0.0
 11
172.585185434
 21
167.647047613
 31
0.0
  0
LINE
  8
0
  6
CONTINUOUS
 62
     2
 10
175.0
 20
167.0
 30
0.0
 11
172.585185434
 21
166.352952387
 31
0.0
  0
LINE
  8
0
  6
CONTINUOUS
 62
     2
 10
175.0
 20
167.0
 30
0.0
 11
177.414814566
 21
166.352952387
 31
0.0
  0
LINE
  8
0
  6
CONTINUOUS
 62
     2
 10
175.0
 20
167.0
 30
0.0
 11
177.414814566
 21
167.647047613
 31
0.0
  0
LINE
  8
0
  6
CONTINUOUS
 62
     2
 10
175.0
 20
167.0
 30
0.0
 11
155.0
 21
167.0
 31
0.0
  0
LINE
  8
0
  6
CONTINUOUS
 62
     2
 10
155.0
 20
167.0
 30
0.0
 11
157.414814566
 21
166.352952387
 31
0.0
  0
LINE
  8
0
  6
CONTINUOUS
 62
     2
 10
155.0
 20
167.0
 30
0.0
 11
157.414814566
 21
167.647047613
 31
0.0
  0
LINE
  8
0
  6
CONTINUOUS
 62
     2
 10
155.0
 20
156.0
 30
0.0
 11
155.0
 21
169.0
 31
0.0
  0
LINE
  8
0
  6
CONTINUOUS
 62
     2
 10
175.0
 20
167.0
 30
0.0
 11
195.0
 21
167.0
 31
0.0
  0
LINE
  8
0
  6
CONTINUOUS
 62
     2
 10
195.0
 20
167.0
 30
0.0
 11
192.585185434
 21
167.647047613
 31
0.0
  0
LINE
  8
0
  6
CONTINUOUS
 62
     2
 10
195.0
 20
167.0
 30
0.0
 11
192.585185434
 21
166.352952387
 31
0.0
  0
LINE
  8
0
  6
CONTINUOUS
 62
     2
 10
195.0
 20
156.0
 30
0.0
 11
195.0
 21
169.0
 31
0.0
  0
TEXT
  8
0
  6
CONTINUOUS
 62
     2
 10
161.9
 20
168.0
 30
0.5
 40
3.0
  1
４０
 50
0.0
 41
0.666666667
 51
0.0
  7
KANJI3
  0
TEXT
  8
0
  6
CONTINUOUS
 62
     2
 10
166.4
 20
168.0
 30
0.3
 40
1.8
  1
±０．５
 50
0.0
 41
0.666666667
 51
0.0
  7
KANJI2
  0
TEXT
  8
0
  6
CONTINUOUS
 62
     2
 10
179.901
 20
168.0
 30
0.5
 40
3.0
  1
４０
 50
0.0
 41
0.666666667
 51
0.0
  7
KANJI3
  0
TEXT
  8
0
  6
CONTINUOUS
 62
     2
 10
184.401
 20
168.0
 30
0.3
 40
1.8
  1
±０．５
 50
0.0
 41
0.666666667
 51
0.0
  7
KANJI2
  0
LINE
  8
0
  6
CONTINUOUS
 62
     2
 10
150.0
 20
173.0
 30
0.0
 11
152.414814566
 21
172.352952387
 31
0.0
  0
LINE
  8
0
  6
CONTINUOUS
 62
     2
 10
150.0
 20
173.0
 30
0.0
 11
152.414814566
 21
173.647047613
 31
0.0
  0
LINE
  8
0
  6
CONTINUOUS
 62
     2
 10
150.0
 20
173.0
 30
0.0
 11
200.0
 21
173.0
 31
0.0
  0
LINE
  8
0
  6
CONTINUOUS
 62
     2
 10
200.0
 20
173.0
 30
0.0
 11
197.585185434
 21
173.647047613
 31
0.0
  0
LINE
  8
0
  6
CONTINUOUS
 62
     2
 10
200.0
 20
173.0
 30
0.0
 11
197.585185434
 21
172.352952387
 31
0.0
  0
TEXT
  8
0
  6
CONTINUOUS
 62
     2
 10
170.2
 20
174.0
 30
0.5
 40
3.0
  1
１００
 50
0.0
 41
0.666666667
 51
0.0
  7
KANJI3
  0
TEXT
  8
0
  6
CONTINUOUS
 62
     2
 10
177.1
 20
174.0
 30
0.3
 40
1.8
  1
±１
 50
0.0
 41
0.666666667
 51
0.0
  7
KANJI2
  0
LINE
  8
0
  6
CONTINUOUS
 62
     1
 10
90.55
 20
155.0
 30
0.0
 11
97.3
 21
155.0
 31
0.0
  0
ARC
  8
0
  6
CONTINUOUS
 62
     1
 10
90.55
 20
153.0
 30
0.0
 40
2.0
 50
90.0
 51
180.0
  0
LINE
  8
0
  6
CONTINUOUS
 62
     1
 10
97.3
 20
105.0
 30
0.0
 11
90.55
 21
105.0
 31
0.0
  0
LINE
  8
0
  6
CONTINUOUS
 62
     1
 10
88.55
 20
153.0
 30
0.0
 11
88.55
 21
107.0
 31
0.0
  0
ARC
  8
0
  6
CONTINUOUS
 62
     1
 10
90.55
 20
107.0
 30
0.0
 40
2.0
 50
180.0
 51
270.0
  0
LINE
  8
0
  6
CONTINUOUS
 62
     2
 10
103.071
 20
107.746
 30
0.0
 11
103.472822151
 21
105.278503504
 31
0.0
  0
LINE
  8
0
  6
CONTINUOUS
 62
     2
 10
103.071
 20
107.746
 30
0.0
 11
104.652736439
 21
105.809996426
 31
0.0
  0
LINE
  8
0
  6
CONTINUOUS
 62
     2
 10
103.071
 20
107.746
 30
0.0
 11
108.071
 21
96.646
 31
0.0
  0
LINE
  8
0
  6
CONTINUOUS
 62
     2
 10
108.071
 20
96.646
 30
0.0
 11
127.271
 21
96.646
 31
0.0
  0
TEXT
  8
0
  6
CONTINUOUS
 62
     2
 10
108.071
 20
97.646
 30
0.1
 40
3.0
  1
Ｍ４取付ボルト
 50
0.0
 41
0.9
 51
0.0
  7
KANJI6
  0
LINE
  8
0
  6
CONTINUOUS
 62
     2
 10
120.993
 20
127.621
 30
0.0
 11
121.640047613
 21
125.206185434
 31
0.0
  0
LINE
  8
0
  6
CONTINUOUS
 62
     2
 10
120.993
 20
127.621
 30
0.0
 11
122.760766953
 21
125.853233047
 31
0.0
  0
TEXT
  8
0
  6
CONTINUOUS
 62
     2
 10
138.576424588
 20
97.646
 30
0.1
 40
3.0
  1
Ｍ５ターミナルネジ
 50
0.0
 41
0.9
 51
0.0
  7
KANJI6
  0
LINE
  8
0
  6
CONTINUOUS
 62
     2
 10
176.862
 20
143.781
 30
0.0
 11
177.509047613
 21
146.195814566
 31
0.0
  0
LINE
  8
0
  6
CONTINUOUS
 62
     2
 10
176.862
 20
143.781
 30
0.0
 11
178.629766953
 21
145.548766953
 31
0.0
  0
TEXT
  8
0
  6
CONTINUOUS
 62
     2
 10
197.195699131
 20
180.0
 30
0.1
 40
3.0
  1
感度調整用抵抗器
 50
0.0
 41
0.9
 51
0.0
  7
KANJI6
  0
LINE
  8
0
  6
CONTINUOUS
 62
     2
 10
197.195699131
 20
179.0
 30
0.0
 11
219.495699131
 21
179.0
 31
0.0
  0
LINE
  8
0
  6
CONTINUOUS
 62
     2
 10
176.862
 20
143.781
 30
0.0
 11
197.195699131
 21
179.0
 31
0.0
  0
TEXT
  8
0
  6
CONTINUOUS
 62
     2
 10
98.765
 20
168.0
 30
0.3
 40
3.0
  1
１５
 50
0.0
 41
0.6
 51
0.0
  7
KANJI4
  0
TEXT
  8
0
  6
CONTINUOUS
 62
     2
 10
102.834
 20
169.33
 30
0.3
 40
1.8
  1
±０．８
 50
0.0
 41
0.666666667
 51
0.0
  7
KANJI2
  0
POLYLINE
  8
0
  6
CONTINUOUS
 62
     2
 66
     1
  0
VERTEX
  8
0
  6
CONTINUOUS
 62
     2
 10
120.993
 20
127.621
 30
0.0
  0
VERTEX
  8
0
  6
CONTINUOUS
 62
     2
 10
138.876424588
 20
96.646
 30
0.0
  0
VERTEX
  8
0
  6
CONTINUOUS
 62
     2
 10
164.5
 20
96.646
 30
0.0
  0
SEQEND
  0
LINE
  8
0
  6
CONTINUOUS
 62
     2
 10
121.752
 20
143.781
 30
0.0
 11
122.399047613
 21
146.195814566
 31
0.0
  0
LINE
  8
0
  6
CONTINUOUS
 62
     2
 10
121.752
 20
143.781
 30
0.0
 11
123.519766953
 21
145.548766953
 31
0.0
  0
LINE
  8
0
  6
CONTINUOUS
 62
     2
 10
121.752
 20
143.781
 30
0.0
 11
125.342541324
 21
150.0
 31
0.0
  0
TEXT
  8
0
  6
CONTINUOUS
 62
     2
 10
126.842541324
 20
154.75
 30
0.1
 40
3.0
  1
Ｍ４ランプ
 50
0.0
 41
0.9
 51
0.0
  7
KANJI6
  0
TEXT
  8
0
  6
CONTINUOUS
 62
     2
 10
126.842541324
 20
151.0
 30
0.1
 40
3.0
  1
ターミナルネジ
 50
0.0
 41
0.9
 51
0.0
  7
KANJI6
  0
LINE
  8
0
  6
CONTINUOUS
 62
     2
 10
125.342541324
 20
150.0
 30
0.0
 11
146.647116736
 21
150.0
 31
0.0
  0
TEXT
  8
0
  6
CONTINUOUS
 62
     1
 10
165.65
 20
24.65
 30
0.5
 40
3.0
  1
パネルカット
 50
0.0
 41
0.9
 51
0.0
  7
KANJI7
  0
LINE
  8
0
  6
CONTINUOUS
 62
     1
 10
163.85
 20
22.55
 30
0.0
 11
186.05
 21
22.55
 31
0.0
  0
LINE
  8
0
  6
LTYPE2
 62
     2
 10
152.0
 20
79.0
 30
0.0
 11
158.0
 21
79.0
 31
0.0
  0
LINE
  8
0
  6
LTYPE2
 62
     2
 10
155.0
 20
82.0
 30
0.0
 11
155.0
 21
76.0
 31
0.0
  0
CIRCLE
  8
0
  6
CONTINUOUS
 62
     1
 10
155.0
 20
79.0
 30
0.0
 40
1.25
  0
LINE
  8
0
  6
LTYPE2
 62
     2
 10
152.0
 20
39.0
 30
0.0
 11
158.0
 21
39.0
 31
0.0
  0
LINE
  8
0
  6
LTYPE2
 62
     2
 10
155.0
 20
36.0
 30
0.0
 11
155.0
 21
42.0
 31
0.0
  0
CIRCLE
  8
0
  6
CONTINUOUS
 62
     1
 10
155.0
 20
39.0
 30
0.0
 40
1.25
  0
LINE
  8
0
  6
LTYPE2
 62
     2
 10
198.0
 20
79.0
 30
0.0
 11
192.0
 21
79.0
 31
0.0
  0
LINE
  8
0
  6
LTYPE2
 62
     2
 10
195.0
 20
82.0
 30
0.0
 11
195.0
 21
76.0
 31
0.0
  0
CIRCLE
  8
0
  6
CONTINUOUS
 62
     1
 10
195.0
 20
79.0
 30
0.0
 40
1.25
  0
LINE
  8
0
  6
LTYPE2
 62
     2
 10
198.0
 20
39.0
 30
0.0
 11
192.0
 21
39.0
 31
0.0
  0
LINE
  8
0
  6
LTYPE2
 62
     2
 10
195.0
 20
36.0
 30
0.0
 11
195.0
 21
42.0
 31
0.0
  0
CIRCLE
  8
0
  6
CONTINUOUS
 62
     1
 10
195.0
 20
39.0
 30
0.0
 40
1.25
  0
CIRCLE
  8
0
  6
CONTINUOUS
 62
     1
 10
175.0
 20
59.0
 30
0.0
 40
21.75
  0
LINE
  8
0
  6
CONTINUOUS
 62
     2
 10
186.549557241
 20
77.430144534
 30
0.0
 11
163.450442759
 21
40.569855466
 31
0.0
  0
LINE
  8
0
  6
CONTINUOUS
 62
     2
 10
163.450442759
 20
40.569855466
 30
0.0
 11
165.28102759
 21
42.272488479
 31
0.0
  0
LINE
  8
0
  6
CONTINUOUS
 62
     2
 10
163.450442759
 20
40.569855466
 30
0.0
 11
164.18445922
 21
42.959671324
 31
0.0
  0
LINE
  8
0
  6
CONTINUOUS
 62
     2
 10
186.549557241
 20
77.430144534
 30
0.0
 11
184.71897241
 21
75.727511521
 31
0.0
  0
LINE
  8
0
  6
CONTINUOUS
 62
     2
 10
186.549557241
 20
77.430144534
 30
0.0
 11
185.81554078
 21
75.040328676
 31
0.0
  0
LINE
  8
0
  6
LTYPE0
 62
     2
 10
149.0
 20
59.0
 30
0.0
 11
201.0
 21
59.0
 31
0.0
  0
LINE
  8
0
  6
LTYPE0
 62
     2
 10
175.0
 20
85.0
 30
0.0
 11
175.0
 21
33.0
 31
0.0
  0
LINE
  8
0
  6
CONTINUOUS
 62
     2
 10
175.0
 20
89.0
 30
0.0
 11
172.585185434
 21
89.647047613
 31
0.0
  0
LINE
  8
0
  6
CONTINUOUS
 62
     2
 10
175.0
 20
89.0
 30
0.0
 11
172.585185434
 21
88.352952387
 31
0.0
  0
LINE
  8
0
  6
CONTINUOUS
 62
     2
 10
175.0
 20
89.0
 30
0.0
 11
177.414814566
 21
88.352952387
 31
0.0
  0
LINE
  8
0
  6
CONTINUOUS
 62
     2
 10
175.0
 20
89.0
 30
0.0
 11
177.414814566
 21
89.647047613
 31
0.0
  0
LINE
  8
0
  6
CONTINUOUS
 62
     2
 10
175.0
 20
89.0
 30
0.0
 11
155.0
 21
89.0
 31
0.0
  0
LINE
  8
0
  6
CONTINUOUS
 62
     2
 10
155.0
 20
89.0
 30
0.0
 11
157.414814566
 21
88.352952387
 31
0.0
  0
LINE
  8
0
  6
CONTINUOUS
 62
     2
 10
155.0
 20
89.0
 30
0.0
 11
157.414814566
 21
89.647047613
 31
0.0
  0
LINE
  8
0
  6
CONTINUOUS
 62
     2
 10
175.0
 20
89.0
 30
0.0
 11
195.0
 21
89.0
 31
0.0
  0
TEXT
  8
0
  6
CONTINUOUS
 62
     2
 10
161.9
 20
90.0
 30
0.5
 40
3.0
  1
４０
 50
0.0
 41
0.666666667
 51
0.0
  7
KANJI3
  0
TEXT
  8
0
  6
CONTINUOUS
 62
     2
 10
166.4
 20
90.0
 30
0.3
 40
1.8
  1
±０．５
 50
0.0
 41
0.666666667
 51
0.0
  7
KANJI2
  0
TEXT
  8
0
  6
CONTINUOUS
 62
     2
 10
179.901
 20
90.0
 30
0.5
 40
3.0
  1
４０
 50
0.0
 41
0.666666667
 51
0.0
  7
KANJI3
  0
TEXT
  8
0
  6
CONTINUOUS
 62
     2
 10
184.401
 20
90.0
 30
0.3
 40
1.8
  1
±０．５
 50
0.0
 41
0.666666667
 51
0.0
  7
KANJI2
  0
LINE
  8
0
  6
CONTINUOUS
 62
     2
 10
175.0
 20
86.0
 30
0.0
 11
175.0
 21
91.0
 31
0.0
  0
LINE
  8
0
  6
CONTINUOUS
 62
     2
 10
195.0
 20
89.0
 30
0.0
 11
192.585185434
 21
89.647047613
 31
0.0
  0
LINE
  8
0
  6
CONTINUOUS
 62
     2
 10
195.0
 20
89.0
 30
0.0
 11
192.585185434
 21
88.352952387
 31
0.0
  0
LINE
  8
0
  6
CONTINUOUS
 62
     2
 10
205.0
 20
59.0
 30
0.0
 11
204.352952387
 21
56.585185434
 31
0.0
  0
LINE
  8
0
  6
CONTINUOUS
 62
     2
 10
205.0
 20
59.0
 30
0.0
 11
205.647047613
 21
56.585185434
 31
0.0
  0
LINE
  8
0
  6
CONTINUOUS
 62
     2
 10
205.0
 20
59.0
 30
0.0
 11
205.647047613
 21
61.414814566
 31
0.0
  0
LINE
  8
0
  6
CONTINUOUS
 62
     2
 10
205.0
 20
59.0
 30
0.0
 11
204.352952387
 21
61.414814566
 31
0.0
  0
LINE
  8
0
  6
CONTINUOUS
 62
     2
 10
202.5
 20
59.0
 30
0.0
 11
207.0
 21
59.0
 31
0.0
  0
LINE
  8
0
  6
CONTINUOUS
 62
     2
 10
205.0
 20
59.0
 30
0.0
 11
205.0
 21
79.0
 31
0.0
  0
LINE
  8
0
  6
CONTINUOUS
 62
     2
 10
205.0
 20
79.0
 30
0.0
 11
204.352952387
 21
76.585185434
 31
0.0
  0
LINE
  8
0
  6
CONTINUOUS
 62
     2
 10
205.0
 20
79.0
 30
0.0
 11
205.647047613
 21
76.585185434
 31
0.0
  0
LINE
  8
0
  6
CONTINUOUS
 62
     2
 10
205.0
 20
39.0
 30
0.0
 11
205.647047613
 21
41.414814566
 31
0.0
  0
LINE
  8
0
  6
CONTINUOUS
 62
     2
 10
205.0
 20
39.0
 30
0.0
 11
204.352952387
 21
41.414814566
 31
0.0
  0
LINE
  8
0
  6
CONTINUOUS
 62
     2
 10
205.0
 20
39.0
 30
0.0
 11
205.0
 21
59.0
 31
0.0
  0
TEXT
  8
0
  6
CONTINUOUS
 62
     2
 10
204.0
 20
64.873
 30
0.3
 40
3.0
  1
４０
 50
90.0
 41
0.6
 51
0.0
  7
KANJI4
  0
TEXT
  8
0
  6
CONTINUOUS
 62
     2
 10
204.0
 20
68.773
 30
0.18
 40
1.8
  1
±０．５
 50
90.0
 41
0.6
 51
0.0
  7
KANJI5
  0
TEXT
  8
0
  6
CONTINUOUS
 62
     2
 10
204.0
 20
44.873
 30
0.3
 40
3.0
  1
４０
 50
90.0
 41
0.6
 51
0.0
  7
KANJI4
  0
TEXT
  8
0
  6
CONTINUOUS
 62
     2
 10
204.0
 20
48.773
 30
0.18
 40
1.8
  1
±０．５
 50
90.0
 41
0.6
 51
0.0
  7
KANJI5
  0
LINE
  8
0
  6
CONTINUOUS
 62
     2
 10
199.0
 20
79.0
 30
0.0
 11
207.0
 21
79.0
 31
0.0
  0
LINE
  8
0
  6
CONTINUOUS
 62
     2
 10
199.0
 20
39.0
 30
0.0
 11
207.0
 21
39.0
 31
0.0
  0
LINE
  8
0
  6
CONTINUOUS
 62
     2
 10
195.0
 20
83.0
 30
0.0
 11
195.0
 21
91.0
 31
0.0
  0
LINE
  8
0
  6
CONTINUOUS
 62
     2
 10
155.0
 20
83.0
 30
0.0
 11
155.0
 21
91.0
 31
0.0
  0
LINE
  8
0
  6
CONTINUOUS
 62
     2
 10
195.649875278
 20
37.932216257
 30
0.0
 11
196.0600822
 21
35.466099819
 31
0.0
  0
LINE
  8
0
  6
CONTINUOUS
 62
     2
 10
195.649875278
 20
37.932216257
 30
0.0
 11
197.238183112
 21
36.001600234
 31
0.0
  0
LINE
  8
0
  6
CONTINUOUS
 62
     2
 10
195.649875278
 20
37.932216257
 30
0.0
 11
200.649875278
 21
26.932216257
 31
0.0
  0
LINE
  8
0
  6
CONTINUOUS
 62
     2
 10
200.649875278
 20
26.932216257
 30
0.0
 11
216.649875278
 21
26.932216257
 31
0.0
  0
TEXT
  8
0
  6
CONTINUOUS
 62
     2
 10
200.288342728
 20
27.882216257
 30
0.1
 40
3.0
  1
４－φ５穴
 50
0.0
 41
0.9
 51
0.0
  7
KANJI6
  0
LINE
  8
0
  6
CONTINUOUS
 62
     2
 10
85.943
 20
71.25
 30
0.0
 11
86.443
 21
71.25
 31
0.0
  0
POLYLINE
  8
0
  6
CONTINUOUS
 62
     2
 66
     1
  0
VERTEX
  8
0
  6
CONTINUOUS
 62
     2
 10
86.443
 20
71.25
 30
0.0
  0
VERTEX
  8
0
  6
CONTINUOUS
 62
     2
 10
86.443
 20
58.75
 30
0.0
  0
VERTEX
  8
0
  6
CONTINUOUS
 62
     2
 10
85.943
 20
58.75
 30
0.0
  0
SEQEND
  0
LINE
  8
0
  6
CONTINUOUS
 62
     2
 10
85.943
 20
75.0
 30
0.0
 11
85.943
 21
55.0
 31
0.0
  0
LINE
  8
0
  6
CONTINUOUS
 62
     2
 10
85.943
 20
75.0
 30
0.0
 11
84.012
 21
74.06
 31
0.0
  0
LINE
  8
0
  6
CONTINUOUS
 62
     2
 10
84.012
 20
74.06
 30
0.0
 11
83.874
 21
73.275
 31
0.0
  0
LINE
  8
0
  6
CONTINUOUS
 62
     2
 10
83.874
 20
73.275
 30
0.0
 11
83.043
 21
72.399
 31
0.0
  0
LINE
  8
0
  6
CONTINUOUS
 62
     2
 10
83.043
 20
72.399
 30
0.0
 11
82.582
 21
71.753
 31
0.0
  0
LINE
  8
0
  6
CONTINUOUS
 62
     2
 10
82.582
 20
71.753
 30
0.0
 11
82.12
 21
71.753
 31
0.0
  0
LINE
  8
0
  6
CONTINUOUS
 62
     2
 10
82.12
 20
71.753
 30
0.0
 11
81.567
 21
70.83
 31
0.0
  0
LINE
  8
0
  6
CONTINUOUS
 62
     2
 10
81.567
 20
70.83
 30
0.0
 11
81.244
 21
69.4
 31
0.0
  0
LINE
  8
0
  6
CONTINUOUS
 62
     2
 10
81.244
 20
69.4
 30
0.0
 11
81.844
 21
68.985
 31
0.0
  0
LINE
  8
0
  6
CONTINUOUS
 62
     2
 10
81.844
 20
68.985
 30
0.0
 11
81.567
 21
68.431
 31
0.0
  0
LINE
  8
0
  6
CONTINUOUS
 62
     2
 10
81.567
 20
68.431
 30
0.0
 11
81.105
 21
67.647
 31
0.0
  0
LINE
  8
0
  6
CONTINUOUS
 62
     2
 10
81.105
 20
67.647
 30
0.0
 11
81.428
 21
66.263
 31
0.0
  0
LINE
  8
0
  6
CONTINUOUS
 62
     2
 10
81.428
 20
66.263
 30
0.0
 11
81.059
 21
65.709
 31
0.0
  0
LINE
  8
0
  6
CONTINUOUS
 62
     2
 10
81.059
 20
65.709
 30
0.0
 11
81.797
 21
64.325
 31
0.0
  0
LINE
  8
0
  6
CONTINUOUS
 62
     2
 10
81.797
 20
64.325
 30
0.0
 11
81.382
 21
63.771
 31
0.0
  0
LINE
  8
0
  6
CONTINUOUS
 62
     2
 10
81.382
 20
63.771
 30
0.0
 11
81.428
 21
61.88
 31
0.0
  0
LINE
  8
0
  6
CONTINUOUS
 62
     2
 10
81.428
 20
61.88
 30
0.0
 11
81.89
 21
61.142
 31
0.0
  0
LINE
  8
0
  6
CONTINUOUS
 62
     2
 10
81.89
 20
61.142
 30
0.0
 11
81.659
 21
60.45
 31
0.0
  0
LINE
  8
0
  6
CONTINUOUS
 62
     2
 10
81.659
 20
60.45
 30
0.0
 11
82.72
 21
59.065
 31
0.0
  0
LINE
  8
0
  6
CONTINUOUS
 62
     2
 10
82.72
 20
59.065
 30
0.0
 11
82.628
 21
58.281
 31
0.0
  0
LINE
  8
0
  6
CONTINUOUS
 62
     2
 10
82.628
 20
58.281
 30
0.0
 11
83.228
 21
57.82
 31
0.0
  0
LINE
  8
0
  6
CONTINUOUS
 62
     2
 10
83.228
 20
57.82
 30
0.0
 11
83.643
 21
56.205
 31
0.0
  0
LINE
  8
0
  6
CONTINUOUS
 62
     2
 10
83.643
 20
56.205
 30
0.0
 11
84.473
 21
56.343
 31
0.0
  0
LINE
  8
0
  6
CONTINUOUS
 62
     2
 10
84.473
 20
56.343
 30
0.0
 11
84.889
 21
55.559
 31
0.0
  0
LINE
  8
0
  6
CONTINUOUS
 62
     2
 10
84.889
 20
55.559
 30
0.0
 11
85.943
 21
55.0
 31
0.0
  0
LINE
  8
0
  6
CONTINUOUS
 62
     2
 10
100.943
 20
63.15
 30
0.0
 11
100.85639746
 21
63.0
 31
0.0
  0
LINE
  8
0
  6
CONTINUOUS
 62
     2
 10
100.943
 20
66.85
 30
0.0
 11
100.85639746
 21
67.0
 31
0.0
  0
LINE
  8
0
  6
CONTINUOUS
 62
     2
 10
100.943
 20
66.85
 30
0.0
 11
100.943
 21
63.15
 31
0.0
  0
LINE
  8
0
  6
LTYPE4
 62
     2
 10
79.583
 20
65.0
 30
0.0
 11
104.193
 21
65.0
 31
0.0
  0
TEXT
  8
0
  6
CONTINUOUS
 62
     2
 10
20.05
 20
31.0
 30
0.5
 40
3.0
  1
注１．ランプターミナルはランプ付計器のみ付くものとします。
 50
0.0
 41
0.9
 51
0.0
  7
KANJI7
  0
TEXT
  8
0
  6
CONTINUOUS
 62
     2
 10
29.55
 20
21.0
 30
0.5
 40
3.0
  1
（□：Ｄ，Ｓ，Ｃ）
 50
0.0
 41
0.9
 51
0.0
  7
KANJI7
  0
LINE
  8
0
  6
CONTINUOUS
 62
     2
 10
20.05
 20
30.0
 30
0.0
 11
112.433
 21
30.0
 31
0.0
  0
LINE
  8
0
  6
CONTINUOUS
 62
     2
 10
20.05
 20
25.0
 30
0.0
 11
112.433
 21
25.0
 31
0.0
  0
LINE
  8
0
  6
CONTINUOUS
 62
     2
 10
29.05
 20
20.0
 30
0.0
 11
57.808
 21
20.0
 31
0.0
  0
TEXT
  8
0
  6
CONTINUOUS
 62
     2
 10
20.05
 20
26.0
 30
0.5
 40
3.0
  1
注２．感度調整用抵抗器は□Ｇｆ－８５Ｖ形に限り付きます。
 50
0.0
 41
0.9
 51
0.0
  7
KANJI7
  0
LINE
  8
0
  6
LTYPE0
 62
     2
 10
49.0
 20
114.0
 30
0.0
 11
55.0
 21
114.0
 31
0.0
  0
CIRCLE
  8
0
  6
CONTINUOUS
 62
     2
 10
52.0
 20
114.0
 30
0.0
 40
1.8
  0
LINE
  8
0
  6
CONTINUOUS
 62
     2
 10
50.2
 20
113.8
 30
0.0
 11
53.7
 21
113.8
 31
0.0
  0
LINE
  8
0
  6
CONTINUOUS
 62
     2
 10
53.7
 20
114.2
 30
0.0
 11
50.25
 21
114.2
 31
0.0
  0
LINE
  8
0
  6
LTYPE5
 62
     2
 10
92.38
 20
150.0
 30
0.0
 11
106.849955
 21
150.0
 31
0.0
  0
POINT
  8
0
  6
CONTINUOUS
 62
     2
 10
97.3
 20
147.5
 30
0.0
  0
LINE
  8
0
  6
CONTINUOUS
 62
     2
 10
97.3
 20
147.5
 30
0.0
 11
97.55
 21
147.5
 31
0.0
  0
LINE
  8
0
  6
CONTINUOUS
 62
     2
 10
97.55
 20
147.5
 30
0.0
 11
97.55
 21
152.5
 31
0.0
  0
LINE
  8
0
  6
CONTINUOUS
 62
     2
 10
97.55
 20
152.5
 30
0.0
 11
97.3
 21
152.5
 31
0.0
  0
LINE
  8
0
  6
CONTINUOUS
 62
     2
 10
105.05
 20
149.2866845
 30
0.0
 11
105.05
 21
149.0866895
 31
0.0
  0
LINE
  8
0
  6
CONTINUOUS
 62
     2
 10
103.650035
 20
147.9733825
 30
0.0
 11
103.916695
 21
148.2400425
 31
0.0
  0
LINE
  8
0
  6
CONTINUOUS
 62
     2
 10
103.650035
 20
147.9733825
 30
0.0
 11
102.316735
 21
147.9733825
 31
0.0
  0
LINE
  8
0
  6
CONTINUOUS
 62
     2
 10
99.3234765
 20
147.686723
 30
0.0
 11
99.6568015
 21
147.686723
 31
0.0
  0
LINE
  8
0
  6
CONTINUOUS
 62
     2
 10
100.1767885
 20
148.20671
 30
0.0
 11
100.6434435
 21
148.20671
 31
0.0
  0
LINE
  8
0
  6
CONTINUOUS
 62
     2
 10
103.650035
 20
152.1066125
 30
0.0
 11
103.916695
 21
151.8399525
 31
0.0
  0
LINE
  8
0
  6
CONTINUOUS
 62
     2
 10
103.6167025
 20
151.00664
 30
0.0
 11
103.8833625
 21
151.2733
 31
0.0
  0
LINE
  8
0
  6
CONTINUOUS
 62
     2
 10
103.8833625
 20
150.73998
 30
0.0
 11
103.6167025
 21
151.00664
 31
0.0
  0
LINE
  8
0
  6
CONTINUOUS
 62
     2
 10
102.316735
 20
151.00664
 30
0.0
 11
103.6167025
 21
151.00664
 31
0.0
  0
LINE
  8
0
  6
CONTINUOUS
 62
     2
 10
99.6568015
 20
152.353273
 30
0.0
 11
99.3234765
 21
152.353273
 31
0.0
  0
LINE
  8
0
  6
CONTINUOUS
 62
     2
 10
103.916695
 20
151.0399725
 30
0.0
 11
105.05
 21
151.0399725
 31
0.0
  0
LINE
  8
0
  6
CONTINUOUS
 62
     2
 10
105.023334
 20
150.806645
 30
0.0
 11
103.943361
 21
150.806645
 31
0.0
  0
LINE
  8
0
  6
CONTINUOUS
 62
     2
 10
102.303402
 20
150.806645
 30
0.0
 11
100.823439
 21
150.806645
 31
0.0
  0
LINE
  8
0
  6
CONTINUOUS
 62
     2
 10
100.276786
 20
150.806645
 30
0.0
 11
99.690134
 21
150.806645
 31
0.0
  0
LINE
  8
0
  6
CONTINUOUS
 62
     2
 10
102.316735
 20
152.1066125
 30
0.0
 11
103.650035
 21
152.1066125
 31
0.0
  0
LINE
  8
0
  6
CONTINUOUS
 62
     2
 10
100.5501125
 20
151.80662
 30
0.0
 11
101.0167675
 21
151.80662
 31
0.0
  0
LINE
  8
0
  6
CONTINUOUS
 62
     2
 10
101.0167675
 20
151.80662
 30
0.0
 11
100.6434435
 21
150.20666
 31
0.0
  0
LINE
  8
0
  6
CONTINUOUS
 62
     2
 10
100.1767885
 20
150.20666
 30
0.0
 11
100.5367795
 21
151.793287
 31
0.0
  0
LINE
  8
0
  6
CONTINUOUS
 62
     2
 10
99.6568015
 20
151.00664
 30
0.0
 11
100.358296567
 21
151.00664
 31
0.0
  0
LINE
  8
0
  6
CONTINUOUS
 62
     2
 10
100.891616567
 20
151.00664
 30
0.0
 11
102.316735
 21
151.00664
 31
0.0
  0
LINE
  8
0
  6
CONTINUOUS
 62
     2
 10
100.6434435
 20
150.20666
 30
0.0
 11
100.1767885
 21
150.20666
 31
0.0
  0
LINE
  8
0
  6
CONTINUOUS
 62
     2
 10
100.9767685
 20
149.80667
 30
0.0
 11
100.5634455
 21
149.80667
 31
0.0
  0
LINE
  8
0
  6
CONTINUOUS
 62
     2
 10
105.05
 20
149.2266845
 30
0.0
 11
105.05
 21
149.0266895
 31
0.0
  0
LINE
  8
0
  6
CONTINUOUS
 62
     2
 10
102.316735
 20
149.00669
 30
0.0
 11
100.810106
 21
149.00669
 31
0.0
  0
LINE
  8
0
  6
CONTINUOUS
 62
     2
 10
100.355296434
 20
149.00669
 30
0.0
 11
99.688646434
 21
149.00669
 31
0.0
  0
LINE
  8
0
  6
CONTINUOUS
 62
     2
 10
99.6568015
 20
149.206685
 30
0.0
 11
100.399923417
 21
149.206685
 31
0.0
  0
LINE
  8
0
  6
CONTINUOUS
 62
     2
 10
100.876771
 20
149.206685
 30
0.0
 11
102.290069
 21
149.206685
 31
0.0
  0
LINE
  8
0
  6
CONTINUOUS
 62
     2
 10
103.943361
 20
149.206685
 30
0.0
 11
105.023334
 21
149.206685
 31
0.0
  0
LINE
  8
0
  6
CONTINUOUS
 62
     2
 10
102.316735
 20
147.9733825
 30
0.0
 11
102.316735
 21
152.1066125
 31
0.0
  0
LINE
  8
0
  6
CONTINUOUS
 62
     2
 10
103.916695
 20
151.8399525
 30
0.0
 11
103.916695
 21
148.2400425
 31
0.0
  0
LINE
  8
0
  6
CONTINUOUS
 62
     2
 10
105.05
 20
151.0399725
 30
0.0
 11
105.05
 21
149.2266845
 31
0.0
  0
LINE
  8
0
  6
CONTINUOUS
 62
     2
 10
100.5367795
 20
149.820003
 30
0.0
 11
100.1767885
 21
148.20671
 31
0.0
  0
LINE
  8
0
  6
CONTINUOUS
 62
     2
 10
100.6434435
 20
148.20671
 30
0.0
 11
100.9767685
 21
149.80667
 31
0.0
  0
LINE
  8
0
  6
CONTINUOUS
 62
     2
 10
99.3234765
 20
152.353273
 30
0.0
 11
99.3234765
 21
147.686723
 31
0.0
  0
LINE
  8
0
  6
CONTINUOUS
 62
     2
 10
99.6568015
 20
147.686723
 30
0.0
 11
99.6568015
 21
152.353273
 31
0.0
  0
LINE
  8
0
  6
CONTINUOUS
 62
     2
 10
99.3234765
 20
149.00669
 30
0.0
 11
97.6
 21
149.00669
 31
0.0
  0
LINE
  8
0
  6
CONTINUOUS
 62
     2
 10
97.55
 20
149.206685
 30
0.0
 11
99.3234765
 21
149.206685
 31
0.0
  0
LINE
  8
0
  6
CONTINUOUS
 62
     2
 10
99.290144
 20
150.806645
 30
0.0
 11
97.6
 21
150.806645
 31
0.0
  0
LINE
  8
0
  6
CONTINUOUS
 62
     2
 10
97.6
 20
151.00664
 30
0.0
 11
99.3234765
 21
151.00664
 31
0.0
  0
LINE
  8
0
  6
CONTINUOUS
 62
     2
 10
103.916735
 20
149.00669
 30
0.0
 11
105.046735
 21
149.00669
 31
0.0
  0
LINE
  8
0
  6
CONTINUOUS
 62
     2
 10
103.6167025
 20
149.00669
 30
0.0
 11
103.8833625
 21
149.27335
 31
0.0
  0
LINE
  8
0
  6
CONTINUOUS
 62
     2
 10
103.8833625
 20
148.74003
 30
0.0
 11
103.6167025
 21
149.00669
 31
0.0
  0
LINE
  8
0
  6
CONTINUOUS
 62
     2
 10
102.316735
 20
149.00669
 30
0.0
 11
103.6167025
 21
149.00669
 31
0.0
  0
LINE
  8
0
  6
CONTINUOUS
 62
     1
 10
114.05
 20
151.25
 30
0.0
 11
103.916695
 21
151.25
 31
0.0
  0
LINE
  8
0
  6
CONTINUOUS
 62
     1
 10
99.3234765
 20
151.25
 30
0.0
 11
97.55
 21
151.25
 31
0.0
  0
LINE
  8
0
  6
LTYPE5
 62
     2
 10
92.38
 20
110.0
 30
0.0
 11
106.849955
 21
110.0
 31
0.0
  0
POINT
  8
0
  6
CONTINUOUS
 62
     2
 10
97.3
 20
107.5
 30
0.0
  0
LINE
  8
0
  6
CONTINUOUS
 62
     2
 10
97.3
 20
107.5
 30
0.0
 11
97.55
 21
107.5
 31
0.0
  0
LINE
  8
0
  6
CONTINUOUS
 62
     2
 10
97.55
 20
107.5
 30
0.0
 11
97.55
 21
112.5
 31
0.0
  0
LINE
  8
0
  6
CONTINUOUS
 62
     2
 10
97.55
 20
112.5
 30
0.0
 11
97.3
 21
112.5
 31
0.0
  0
LINE
  8
0
  6
CONTINUOUS
 62
     2
 10
105.05
 20
109.2866845
 30
0.0
 11
105.05
 21
109.0866895
 31
0.0
  0
LINE
  8
0
  6
CONTINUOUS
 62
     2
 10
103.650035
 20
107.9733825
 30
0.0
 11
103.916695
 21
108.2400425
 31
0.0
  0
LINE
  8
0
  6
CONTINUOUS
 62
     2
 10
103.650035
 20
107.9733825
 30
0.0
 11
102.316735
 21
107.9733825
 31
0.0
  0
LINE
  8
0
  6
CONTINUOUS
 62
     2
 10
99.3234765
 20
107.686723
 30
0.0
 11
99.6568015
 21
107.686723
 31
0.0
  0
LINE
  8
0
  6
CONTINUOUS
 62
     2
 10
100.1767885
 20
108.20671
 30
0.0
 11
100.6434435
 21
108.20671
 31
0.0
  0
LINE
  8
0
  6
CONTINUOUS
 62
     2
 10
103.650035
 20
112.1066125
 30
0.0
 11
103.916695
 21
111.8399525
 31
0.0
  0
LINE
  8
0
  6
CONTINUOUS
 62
     2
 10
103.6167025
 20
111.00664
 30
0.0
 11
103.8833625
 21
111.2733
 31
0.0
  0
LINE
  8
0
  6
CONTINUOUS
 62
     2
 10
103.8833625
 20
110.73998
 30
0.0
 11
103.6167025
 21
111.00664
 31
0.0
  0
LINE
  8
0
  6
CONTINUOUS
 62
     2
 10
102.316735
 20
111.00664
 30
0.0
 11
103.6167025
 21
111.00664
 31
0.0
  0
LINE
  8
0
  6
CONTINUOUS
 62
     2
 10
99.6568015
 20
112.353273
 30
0.0
 11
99.3234765
 21
112.353273
 31
0.0
  0
LINE
  8
0
  6
CONTINUOUS
 62
     2
 10
103.916695
 20
111.0399725
 30
0.0
 11
105.05
 21
111.0399725
 31
0.0
  0
LINE
  8
0
  6
CONTINUOUS
 62
     2
 10
105.023334
 20
110.806645
 30
0.0
 11
103.943361
 21
110.806645
 31
0.0
  0
LINE
  8
0
  6
CONTINUOUS
 62
     2
 10
102.303402
 20
110.806645
 30
0.0
 11
100.823439
 21
110.806645
 31
0.0
  0
LINE
  8
0
  6
CONTINUOUS
 62
     2
 10
100.276786
 20
110.806645
 30
0.0
 11
99.690134
 21
110.806645
 31
0.0
  0
LINE
  8
0
  6
CONTINUOUS
 62
     2
 10
102.316735
 20
112.1066125
 30
0.0
 11
103.650035
 21
112.1066125
 31
0.0
  0
LINE
  8
0
  6
CONTINUOUS
 62
     2
 10
100.5501125
 20
111.80662
 30
0.0
 11
101.0167675
 21
111.80662
 31
0.0
  0
LINE
  8
0
  6
CONTINUOUS
 62
     2
 10
101.0167675
 20
111.80662
 30
0.0
 11
100.6434435
 21
110.20666
 31
0.0
  0
LINE
  8
0
  6
CONTINUOUS
 62
     2
 10
100.1767885
 20
110.20666
 30
0.0
 11
100.5367795
 21
111.793287
 31
0.0
  0
LINE
  8
0
  6
CONTINUOUS
 62
     2
 10
99.6568015
 20
111.00664
 30
0.0
 11
100.358296567
 21
111.00664
 31
0.0
  0
LINE
  8
0
  6
CONTINUOUS
 62
     2
 10
100.891616567
 20
111.00664
 30
0.0
 11
102.316735
 21
111.00664
 31
0.0
  0
LINE
  8
0
  6
CONTINUOUS
 62
     2
 10
100.6434435
 20
110.20666
 30
0.0
 11
100.1767885
 21
110.20666
 31
0.0
  0
LINE
  8
0
  6
CONTINUOUS
 62
     2
 10
100.9767685
 20
109.80667
 30
0.0
 11
100.5634455
 21
109.80667
 31
0.0
  0
LINE
  8
0
  6
CONTINUOUS
 62
     2
 10
105.05
 20
109.2266845
 30
0.0
 11
105.05
 21
109.0266895
 31
0.0
  0
LINE
  8
0
  6
CONTINUOUS
 62
     2
 10
102.316735
 20
109.00669
 30
0.0
 11
100.810106
 21
109.00669
 31
0.0
  0
LINE
  8
0
  6
CONTINUOUS
 62
     2
 10
100.355296434
 20
109.00669
 30
0.0
 11
99.688646434
 21
109.00669
 31
0.0
  0
LINE
  8
0
  6
CONTINUOUS
 62
     2
 10
99.6568015
 20
109.206685
 30
0.0
 11
100.399923417
 21
109.206685
 31
0.0
  0
LINE
  8
0
  6
CONTINUOUS
 62
     2
 10
100.876771
 20
109.206685
 30
0.0
 11
102.290069
 21
109.206685
 31
0.0
  0
LINE
  8
0
  6
CONTINUOUS
 62
     2
 10
103.943361
 20
109.206685
 30
0.0
 11
105.023334
 21
109.206685
 31
0.0
  0
LINE
  8
0
  6
CONTINUOUS
 62
     2
 10
102.316735
 20
107.9733825
 30
0.0
 11
102.316735
 21
112.1066125
 31
0.0
  0
LINE
  8
0
  6
CONTINUOUS
 62
     2
 10
103.916695
 20
111.8399525
 30
0.0
 11
103.916695
 21
108.2400425
 31
0.0
  0
LINE
  8
0
  6
CONTINUOUS
 62
     2
 10
105.05
 20
111.0399725
 30
0.0
 11
105.05
 21
109.2266845
 31
0.0
  0
LINE
  8
0
  6
CONTINUOUS
 62
     2
 10
100.5367795
 20
109.820003
 30
0.0
 11
100.1767885
 21
108.20671
 31
0.0
  0
LINE
  8
0
  6
CONTINUOUS
 62
     2
 10
100.6434435
 20
108.20671
 30
0.0
 11
100.9767685
 21
109.80667
 31
0.0
  0
LINE
  8
0
  6
CONTINUOUS
 62
     2
 10
99.3234765
 20
112.353273
 30
0.0
 11
99.3234765
 21
107.686723
 31
0.0
  0
LINE
  8
0
  6
CONTINUOUS
 62
     2
 10
99.6568015
 20
107.686723
 30
0.0
 11
99.6568015
 21
112.353273
 31
0.0
  0
LINE
  8
0
  6
CONTINUOUS
 62
     2
 10
99.3234765
 20
109.00669
 30
0.0
 11
97.6
 21
109.00669
 31
0.0
  0
LINE
  8
0
  6
CONTINUOUS
 62
     2
 10
97.55
 20
109.206685
 30
0.0
 11
99.3234765
 21
109.206685
 31
0.0
  0
LINE
  8
0
  6
CONTINUOUS
 62
     2
 10
99.290144
 20
110.806645
 30
0.0
 11
97.6
 21
110.806645
 31
0.0
  0
LINE
  8
0
  6
CONTINUOUS
 62
     2
 10
97.6
 20
111.00664
 30
0.0
 11
99.3234765
 21
111.00664
 31
0.0
  0
LINE
  8
0
  6
CONTINUOUS
 62
     2
 10
103.916735
 20
109.00669
 30
0.0
 11
105.046735
 21
109.00669
 31
0.0
  0
LINE
  8
0
  6
CONTINUOUS
 62
     2
 10
103.6167025
 20
109.00669
 30
0.0
 11
103.8833625
 21
109.27335
 31
0.0
  0
LINE
  8
0
  6
CONTINUOUS
 62
     2
 10
103.8833625
 20
108.74003
 30
0.0
 11
103.6167025
 21
109.00669
 31
0.0
  0
LINE
  8
0
  6
CONTINUOUS
 62
     2
 10
102.316735
 20
109.00669
 30
0.0
 11
103.6167025
 21
109.00669
 31
0.0
  0
LINE
  8
0
  6
CONTINUOUS
 62
     1
 10
114.05
 20
108.75
 30
0.0
 11
103.916695
 21
108.75
 31
0.0
  0
LINE
  8
0
  6
CONTINUOUS
 62
     1
 10
99.3234765
 20
108.75
 30
0.0
 11
97.55
 21
108.75
 31
0.0
  0
LINE
  8
0
  6
CONTINUOUS
 62
     1
 10
100.2980185
 20
108.75
 30
0.0
 11
99.6568015
 21
108.75
 31
0.0
  0
LINE
  8
0
  6
CONTINUOUS
 62
     1
 10
100.756628917
 20
108.75
 30
0.0
 11
102.316735
 21
108.75
 31
0.0
  0
LINE
  8
0
  6
CONTINUOUS
 62
     1
 10
102.316735
 20
151.25
 30
0.0
 11
100.8868895
 21
151.25
 31
0.0
  0
LINE
  8
0
  6
CONTINUOUS
 62
     1
 10
100.413512702
 20
151.25
 30
0.0
 11
99.6568015
 21
151.25
 31
0.0
  0
ARC
  8
0
  6
CONTINUOUS
 62
     2
 10
52.0
 20
119.782781814
 30
0.0
 40
25.0
 50
44.950307229
 51
135.195496549
  0
ARC
  8
0
  6
CONTINUOUS
 62
     2
 10
52.0
 20
119.782781814
 30
0.0
 40
27.0
 50
44.950307229
 51
135.195496549
  0
TEXT
  8
0
  6
CONTINUOUS
 62
     2
 10
60.0
 20
46.0
 30
0.5
 40
3.0
  1
３０Ａを超え５０Ａ以下の交流電流計のターミナル部
 50
0.0
 41
0.9
 51
0.0
  7
KANJI7
  0
LINE
  8
0
  6
CONTINUOUS
 62
     2
 10
60.0
 20
45.0
 30
0.0
 11
136.34
 21
45.0
 31
0.0
  0
TEXT
  8
0
  6
CONTINUOUS
 62
     2
 10
173.373628848
 20
58.592171277
 30
0.3
 40
3.0
  1
８７
 50
57.925999125
 41
0.6
 51
0.0
  7
KANJI4
  0
TEXT
  8
0
  6
CONTINUOUS
 62
     2
 10
109.0
 20
132.67
 30
0.3
 40
1.8
  1
±１
 50
90.0
 41
0.666666667
 51
0.0
  7
KANJI2
  0
LINE
  8
0
  6
CONTINUOUS
 62
     2
 10
85.943
 20
82.0
 30
0.0
 11
88.357814566
 21
81.352952387
 31
0.0
  0
LINE
  8
0
  6
CONTINUOUS
 62
     2
 10
85.943
 20
82.0
 30
0.0
 11
88.357814566
 21
82.647047613
 31
0.0
  0
LINE
  8
0
  6
CONTINUOUS
 62
     2
 10
85.943
 20
76.0
 30
0.0
 11
85.943
 21
84.0
 31
0.0
  0
LINE
  8
0
  6
CONTINUOUS
 62
     2
 10
100.943
 20
82.0
 30
0.0
 11
98.528185434
 21
82.647047613
 31
0.0
  0
LINE
  8
0
  6
CONTINUOUS
 62
     2
 10
100.943
 20
82.0
 30
0.0
 11
98.528185434
 21
81.352952387
 31
0.0
  0
LINE
  8
0
  6
CONTINUOUS
 62
     2
 10
100.943
 20
82.0
 30
0.0
 11
85.943
 21
82.0
 31
0.0
  0
TEXT
  8
0
  6
CONTINUOUS
 62
     2
 10
91.307722624
 20
83.0
 30
0.5
 40
3.0
  1
３０
 50
0.0
 41
0.666666667
 51
0.0
  7
KANJI3
  0
LINE
  8
0
  6
CONTINUOUS
 62
     2
 10
100.943
 20
68.2
 30
0.0
 11
100.943
 21
84.0
 31
0.0
  0
LINE
  8
0
  6
CONTINUOUS
 62
     2
 10
201.0
 20
155.0
 30
0.0
 11
220.0
 21
155.0
 31
0.0
  0
LINE
  8
0
  6
CONTINUOUS
 62
     2
 10
201.0
 20
150.0
 30
0.0
 11
214.0
 21
150.0
 31
0.0
  0
LINE
  8
0
  6
CONTINUOUS
 62
     2
 10
203.022
 20
130.0
 30
0.0
 11
214.0
 21
130.0
 31
0.0
  0
LINE
  8
0
  6
CONTINUOUS
 62
     2
 10
201.0
 20
110.0
 30
0.0
 11
214.0
 21
110.0
 31
0.0
  0
LINE
  8
0
  6
CONTINUOUS
 62
     2
 10
201.0
 20
105.0
 30
0.0
 11
220.0
 21
105.0
 31
0.0
  0
LINE
  8
0
  6
CONTINUOUS
 62
     2
 10
200.0
 20
156.0
 30
0.0
 11
200.0
 21
175.0
 31
0.0
  0
LINE
  8
0
  6
CONTINUOUS
 62
     2
 10
150.0
 20
156.0
 30
0.0
 11
150.0
 21
175.0
 31
0.0
  0
LINE
  8
0
  6
CONTINUOUS
 62
     2
 10
114.55
 20
152.25
 30
0.0
 11
114.55
 21
175.0
 31
0.0
  0
LINE
  8
0
  6
CONTINUOUS
 62
     2
 10
105.05
 20
152.25
 30
0.0
 11
105.05
 21
169.0
 31
0.0
  0
LINE
  8
0
  6
CONTINUOUS
 62
     2
 10
121.55
 20
144.649
 30
0.0
 11
121.55
 21
175.0
 31
0.0
  0
LINE
  8
0
  6
CONTINUOUS
 62
     2
 10
175.0
 20
157.873
 30
0.0
 11
175.0
 21
169.0
 31
0.0
  0
ARC
  8
0
  6
CONTINUOUS
 62
     1
 10
155.0
 20
150.0
 30
0.0
 40
5.0
 50
90.0
 51
180.0
  0
LINE
  8
0
  6
CONTINUOUS
 62
     1
 10
155.0
 20
155.0
 30
0.0
 11
195.0
 21
155.0
 31
0.0
  0
ARC
  8
0
  6
CONTINUOUS
 62
     1
 10
195.0
 20
150.0
 30
0.0
 40
5.0
 50
0.0
 51
90.0
  0
LINE
  8
0
  6
CONTINUOUS
 62
     1
 10
200.0
 20
150.0
 30
0.0
 11
200.0
 21
110.0
 31
0.0
  0
ARC
  8
0
  6
CONTINUOUS
 62
     1
 10
195.0
 20
110.0
 30
0.0
 40
5.0
 50
270.0
 51
0.0
  0
LINE
  8
0
  6
CONTINUOUS
 62
     1
 10
150.0
 20
110.0
 30
0.0
 11
150.0
 21
150.0
 31
0.0
  0
LINE
  8
0
  6
CONTINUOUS
 62
     1
 10
195.0
 20
105.0
 30
0.0
 11
155.0
 21
105.0
 31
0.0
  0
ARC
  8
0
  6
CONTINUOUS
 62
     1
 10
155.0
 20
110.0
 30
0.0
 40
5.0
 50
180.0
 51
270.0
  0
ARC
  8
0
  6
CONTINUOUS
 62
     2
 10
155.0
 20
150.0
 30
0.0
 40
4.0
 50
90.0
 51
180.0
  0
ARC
  8
0
  6
CONTINUOUS
 62
     2
 10
195.0
 20
150.0
 30
0.0
 40
4.0
 50
0.0
 51
90.0
  0
ARC
  8
0
  6
CONTINUOUS
 62
     2
 10
195.0
 20
110.0
 30
0.0
 40
4.0
 50
270.0
 51
0.0
  0
ARC
  8
0
  6
CONTINUOUS
 62
     2
 10
155.0
 20
110.0
 30
0.0
 40
4.0
 50
180.0
 51
270.0
  0
LINE
  8
0
  6
CONTINUOUS
 62
     2
 10
199.0
 20
110.0
 30
0.0
 11
199.0
 21
150.0
 31
0.0
  0
LINE
  8
0
  6
CONTINUOUS
 62
     2
 10
155.0
 20
106.0
 30
0.0
 11
195.0
 21
106.0
 31
0.0
  0
LINE
  8
0
  6
CONTINUOUS
 62
     2
 10
151.0
 20
150.0
 30
0.0
 11
151.0
 21
110.0
 31
0.0
  0
LINE
  8
0
  6
CONTINUOUS
 62
     2
 10
195.0
 20
154.0
 30
0.0
 11
155.0
 21
154.0
 31
0.0
  0
LINE
  8
0
  6
CONTINUOUS
 62
     2
 10
33.134893603
 20
138.715106397
 30
0.0
 11
45.886633293
 21
126.75
 31
0.0
  0
LINE
  8
0
  6
LTYPE0
 62
     2
 10
45.020685949
 20
126.75
 30
0.0
 11
32.132893603
 21
139.615456483
 31
0.0
  0
LINE
  8
0
  6
CONTINUOUS
 62
     2
 10
33.084893603
 20
138.665106397
 30
0.0
 11
44.172562056
 21
126.75
 31
0.0
  0
LINE
  8
0
  6
CONTINUOUS
 62
     2
 10
58.979314051
 20
126.75
 30
0.0
 11
71.867106397
 21
139.615456483
 31
0.0
  0
CIRCLE
  8
0
  6
CONTINUOUS
 62
     2
 10
30.9625
 20
122.0
 30
0.0
 40
1.5
  0
LINE
  8
0
  6
CONTINUOUS
 62
     2
 10
30.0875
 20
122.2
 30
0.0
 11
30.5625
 21
122.2
 31
0.0
  0
ARC
  8
0
  6
CONTINUOUS
 62
     2
 10
30.5625
 20
122.4
 30
0.0
 40
0.2
 50
270.0
 51
0.0
  0
LINE
  8
0
  6
CONTINUOUS
 62
     2
 10
30.7625
 20
122.4
 30
0.0
 11
30.7625
 21
122.875
 31
0.0
  0
LINE
  8
0
  6
CONTINUOUS
 62
     2
 10
30.7625
 20
122.875
 30
0.0
 11
31.1625
 21
122.875
 31
0.0
  0
LINE
  8
0
  6
CONTINUOUS
 62
     2
 10
31.1625
 20
122.875
 30
0.0
 11
31.1625
 21
122.4
 31
0.0
  0
ARC
  8
0
  6
CONTINUOUS
 62
     2
 10
31.3625
 20
122.4
 30
0.0
 40
0.2
 50
180.0
 51
270.0
  0
LINE
  8
0
  6
CONTINUOUS
 62
     2
 10
31.3625
 20
122.2
 30
0.0
 11
31.8375
 21
122.2
 31
0.0
  0
LINE
  8
0
  6
CONTINUOUS
 62
     2
 10
31.8375
 20
122.2
 30
0.0
 11
31.8375
 21
121.8
 31
0.0
  0
LINE
  8
0
  6
CONTINUOUS
 62
     2
 10
31.8375
 20
121.8
 30
0.0
 11
31.3625
 21
121.8
 31
0.0
  0
ARC
  8
0
  6
CONTINUOUS
 62
     2
 10
31.3625
 20
121.6
 30
0.0
 40
0.2
 50
90.0
 51
180.0
  0
LINE
  8
0
  6
CONTINUOUS
 62
     2
 10
31.1625
 20
121.6
 30
0.0
 11
31.1625
 21
121.125
 31
0.0
  0
LINE
  8
0
  6
CONTINUOUS
 62
     2
 10
31.1625
 20
121.125
 30
0.0
 11
30.7625
 21
121.125
 31
0.0
  0
LINE
  8
0
  6
CONTINUOUS
 62
     2
 10
30.7625
 20
121.125
 30
0.0
 11
30.7625
 21
121.6
 31
0.0
  0
ARC
  8
0
  6
CONTINUOUS
 62
     2
 10
30.5625
 20
121.6
 30
0.0
 40
0.2
 50
0.0
 51
90.0
  0
LINE
  8
0
  6
CONTINUOUS
 62
     2
 10
30.5625
 20
121.8
 30
0.0
 11
30.0875
 21
121.8
 31
0.0
  0
LINE
  8
0
  6
CONTINUOUS
 62
     2
 10
30.0875
 20
121.8
 30
0.0
 11
30.0875
 21
122.2
 31
0.0
  0
LINE
  8
0
  6
LTYPE0
 62
     2
 10
28.9625
 20
122.0
 30
0.0
 11
32.9625
 21
122.0
 31
0.0
  0
LINE
  8
0
  6
LTYPE0
 62
     2
 10
30.9625
 20
124.0
 30
0.0
 11
30.9625
 21
120.0
 31
0.0
  0
CIRCLE
  8
0
  6
CONTINUOUS
 62
     2
 10
72.9625
 20
122.0
 30
0.0
 40
1.5
  0
LINE
  8
0
  6
CONTINUOUS
 62
     2
 10
72.0875
 20
122.2
 30
0.0
 11
72.5625
 21
122.2
 31
0.0
  0
ARC
  8
0
  6
CONTINUOUS
 62
     2
 10
72.5625
 20
122.4
 30
0.0
 40
0.2
 50
270.0
 51
0.0
  0
LINE
  8
0
  6
CONTINUOUS
 62
     2
 10
72.7625
 20
122.4
 30
0.0
 11
72.7625
 21
122.875
 31
0.0
  0
LINE
  8
0
  6
CONTINUOUS
 62
     2
 10
72.7625
 20
122.875
 30
0.0
 11
73.1625
 21
122.875
 31
0.0
  0
LINE
  8
0
  6
CONTINUOUS
 62
     2
 10
73.1625
 20
122.875
 30
0.0
 11
73.1625
 21
122.4
 31
0.0
  0
ARC
  8
0
  6
CONTINUOUS
 62
     2
 10
73.3625
 20
122.4
 30
0.0
 40
0.2
 50
180.0
 51
270.0
  0
LINE
  8
0
  6
CONTINUOUS
 62
     2
 10
73.3625
 20
122.2
 30
0.0
 11
73.8375
 21
122.2
 31
0.0
  0
LINE
  8
0
  6
CONTINUOUS
 62
     2
 10
73.8375
 20
122.2
 30
0.0
 11
73.8375
 21
121.8
 31
0.0
  0
LINE
  8
0
  6
CONTINUOUS
 62
     2
 10
73.8375
 20
121.8
 30
0.0
 11
73.3625
 21
121.8
 31
0.0
  0
ARC
  8
0
  6
CONTINUOUS
 62
     2
 10
73.3625
 20
121.6
 30
0.0
 40
0.2
 50
90.0
 51
180.0
  0
LINE
  8
0
  6
CONTINUOUS
 62
     2
 10
73.1625
 20
121.6
 30
0.0
 11
73.1625
 21
121.125
 31
0.0
  0
LINE
  8
0
  6
CONTINUOUS
 62
     2
 10
73.1625
 20
121.125
 30
0.0
 11
72.7625
 21
121.125
 31
0.0
  0
LINE
  8
0
  6
CONTINUOUS
 62
     2
 10
72.7625
 20
121.125
 30
0.0
 11
72.7625
 21
121.6
 31
0.0
  0
ARC
  8
0
  6
CONTINUOUS
 62
     2
 10
72.5625
 20
121.6
 30
0.0
 40
0.2
 50
0.0
 51
90.0
  0
LINE
  8
0
  6
CONTINUOUS
 62
     2
 10
72.5625
 20
121.8
 30
0.0
 11
72.0875
 21
121.8
 31
0.0
  0
LINE
  8
0
  6
CONTINUOUS
 62
     2
 10
72.0875
 20
121.8
 30
0.0
 11
72.0875
 21
122.2
 31
0.0
  0
LINE
  8
0
  6
LTYPE0
 62
     2
 10
70.9625
 20
122.0
 30
0.0
 11
74.9625
 21
122.0
 31
0.0
  0
LINE
  8
0
  6
LTYPE0
 62
     2
 10
72.9625
 20
124.0
 30
0.0
 11
72.9625
 21
120.0
 31
0.0
  0
ARC
  8
0
  6
CONTINUOUS
 62
     1
 10
30.0
 20
152.0
 30
0.0
 40
3.0
 50
90.0
 51
180.0
  0
LINE
  8
0
  6
CONTINUOUS
 62
     1
 10
74.0
 20
155.0
 30
0.0
 11
30.0
 21
155.0
 31
0.0
  0
ARC
  8
0
  6
CONTINUOUS
 62
     1
 10
74.0
 20
152.0
 30
0.0
 40
3.0
 50
0.0
 51
90.0
  0
LINE
  8
0
  6
CONTINUOUS
 62
     1
 10
77.0
 20
108.0
 30
0.0
 11
77.0
 21
152.0
 31
0.0
  0
ARC
  8
0
  6
CONTINUOUS
 62
     1
 10
74.0
 20
108.0
 30
0.0
 40
3.0
 50
270.0
 51
0.0
  0
LINE
  8
0
  6
CONTINUOUS
 62
     1
 10
27.0
 20
152.0
 30
0.0
 11
27.0
 21
108.0
 31
0.0
  0
LINE
  8
0
  6
CONTINUOUS
 62
     1
 10
30.0
 20
105.0
 30
0.0
 11
74.0
 21
105.0
 31
0.0
  0
ARC
  8
0
  6
CONTINUOUS
 62
     1
 10
30.0
 20
108.0
 30
0.0
 40
3.0
 50
180.0
 51
270.0
  0
ARC
  8
0
  6
CONTINUOUS
 62
     2
 10
30.0
 20
152.0
 30
0.0
 40
2.0
 50
90.0
 51
180.0
  0
ARC
  8
0
  6
CONTINUOUS
 62
     2
 10
74.0
 20
152.0
 30
0.0
 40
2.0
 50
0.0
 51
90.0
  0
ARC
  8
0
  6
CONTINUOUS
 62
     2
 10
74.0
 20
152.0
 30
0.0
 40
1.25
 50
0.0
 51
90.0
  0
ARC
  8
0
  6
CONTINUOUS
 62
     2
 10
30.0
 20
152.0
 30
0.0
 40
1.25
 50
90.0
 51
180.0
  0
LINE
  8
0
  6
CONTINUOUS
 62
     2
 10
74.0
 20
154.0
 30
0.0
 11
30.0
 21
154.0
 31
0.0
  0
LINE
  8
0
  6
CONTINUOUS
 62
     2
 10
74.0
 20
153.25
 30
0.0
 11
30.0
 21
153.25
 31
0.0
  0
ARC
  8
0
  6
CONTINUOUS
 62
     2
 10
30.0
 20
128.0
 30
0.0
 40
2.0
 50
180.0
 51
270.0
  0
ARC
  8
0
  6
CONTINUOUS
 62
     2
 10
74.0
 20
128.0
 30
0.0
 40
2.0
 50
270.0
 51
0.0
  0
ARC
  8
0
  6
CONTINUOUS
 62
     2
 10
74.0
 20
128.0
 30
0.0
 40
1.25
 50
270.0
 51
0.0
  0
ARC
  8
0
  6
CONTINUOUS
 62
     2
 10
30.0
 20
128.0
 30
0.0
 40
1.25
 50
180.0
 51
270.0
  0
LINE
  8
0
  6
CONTINUOUS
 62
     2
 10
74.0
 20
126.0
 30
0.0
 11
30.0
 21
126.0
 31
0.0
  0
LINE
  8
0
  6
CONTINUOUS
 62
     2
 10
74.0
 20
126.75
 30
0.0
 11
30.0
 21
126.75
 31
0.0
  0
LINE
  8
0
  6
CONTINUOUS
 62
     2
 10
28.0
 20
152.0
 30
0.0
 11
28.0
 21
128.0
 31
0.0
  0
LINE
  8
0
  6
CONTINUOUS
 62
     2
 10
28.75
 20
152.0
 30
0.0
 11
28.75
 21
128.0
 31
0.0
  0
LINE
  8
0
  6
CONTINUOUS
 62
     2
 10
76.0
 20
128.0
 30
0.0
 11
76.0
 21
152.0
 31
0.0
  0
LINE
  8
0
  6
CONTINUOUS
 62
     2
 10
75.25
 20
128.0
 30
0.0
 11
75.25
 21
152.0
 31
0.0
  0
ARC
  8
0
  6
CONTINUOUS
 62
     2
 10
97.2763375
 20
67.833324598
 30
0.0
 40
1.6666625
 50
325.0
 51
35.0
  0
ARC
  8
0
  6
CONTINUOUS
 62
     2
 10
97.2763375
 20
67.833324598
 30
0.0
 40
1.6666625
 50
145.0
 51
215.0
  0
LINE
  8
0
  6
CONTINUOUS
 62
     2
 10
98.943
 20
62.166672098
 30
0.0
 11
98.943
 21
67.833324598
 31
0.0
  0
ARC
  8
0
  6
CONTINUOUS
 62
     2
 10
92.27635
 20
64.999998348
 30
0.0
 40
6.66665
 50
343.5
 51
16.5
  0
ARC
  8
0
  6
CONTINUOUS
 62
     2
 10
102.276325
 20
64.999998348
 30
0.0
 40
6.66665
 50
163.5
 51
196.3
  0
ARC
  8
0
  6
CONTINUOUS
 62
     2
 10
97.2763375
 20
62.166672098
 30
0.0
 40
1.6666625
 50
145.0
 51
215.0
  0
ARC
  8
0
  6
CONTINUOUS
 62
     2
 10
97.2763375
 20
62.166672098
 30
0.0
 40
1.6666625
 50
325.0
 51
35.0
  0
LINE
  8
0
  6
CONTINUOUS
 62
     2
 10
95.87763905
 20
63.128891633
 30
0.0
 11
98.6442988
 21
63.128891633
 31
0.0
  0
LINE
  8
0
  6
CONTINUOUS
 62
     2
 10
98.668465585
 20
66.893429246
 30
0.0
 11
95.884209415
 21
66.893429246
 31
0.0
  0
LINE
  8
0
  6
CONTINUOUS
 62
     2
 10
95.90967425
 20
61.200007848
 30
0.0
 11
98.64300075
 21
61.200007848
 31
0.0
  0
LINE
  8
0
  6
CONTINUOUS
 62
     2
 10
100.943
 20
63.15
 30
0.0
 11
98.943
 21
63.149998348
 31
0.0
  0
LINE
  8
0
  6
CONTINUOUS
 62
     2
 10
100.943
 20
66.85
 30
0.0
 11
98.943
 21
66.849998348
 31
0.0
  0
LINE
  8
0
  6
CONTINUOUS
 62
     2
 10
98.943
 20
62.999998348
 30
0.0
 11
100.712059892
 21
63.0
 31
0.0
  0
LINE
  8
0
  6
CONTINUOUS
 62
     2
 10
98.943
 20
66.999998348
 30
0.0
 11
100.85639746
 21
67.0
 31
0.0
  0
LINE
  8
0
  6
CONTINUOUS
 62
     2
 10
100.85639746
 20
63.0
 30
0.0
 11
98.943
 21
62.999998348
 31
0.0
  0
LINE
  8
0
  6
CONTINUOUS
 62
     2
 10
94.676344
 20
65.066664848
 30
0.0
 11
95.1430095
 21
68.999988348
 31
0.0
  0
POLYLINE
  8
0
  6
CONTINUOUS
 62
     2
 66
     1
  0
VERTEX
  8
0
  6
CONTINUOUS
 62
     2
 10
95.1430095
 20
68.999988348
 30
0.0
  0
VERTEX
  8
0
  6
CONTINUOUS
 62
     2
 10
94.0763455
 20
68.999988348
 30
0.0
  0
VERTEX
  8
0
  6
CONTINUOUS
 62
     2
 10
93.60968
 20
65.066664848
 30
0.0
  0
SEQEND
  0
LINE
  8
0
  6
CONTINUOUS
 62
     2
 10
93.60968
 20
69.066654848
 30
0.0
 11
93.60968
 21
60.930008523
 31
0.0
  0
LINE
  8
0
  6
CONTINUOUS
 62
     2
 10
92.54968265
 20
60.930008523
 30
0.0
 11
92.54968265
 21
69.066654848
 31
0.0
  0
LINE
  8
0
  6
CONTINUOUS
 62
     2
 10
94.0763455
 20
61.000008348
 30
0.0
 11
95.1430095
 21
61.000008348
 31
0.0
  0
LINE
  8
0
  6
CONTINUOUS
 62
     2
 10
93.60968
 20
65.066664848
 30
0.0
 11
94.676344
 21
65.066664848
 31
0.0
  0
LINE
  8
0
  6
CONTINUOUS
 62
     2
 10
95.609675
 20
64.933331848
 30
0.0
 11
94.543011
 21
64.933331848
 31
0.0
  0
LINE
  8
0
  6
CONTINUOUS
 62
     2
 10
94.543011
 20
64.933331848
 30
0.0
 11
94.0763455
 21
61.000008348
 31
0.0
  0
LINE
  8
0
  6
CONTINUOUS
 62
     2
 10
95.1430095
 20
61.000008348
 30
0.0
 11
95.609675
 21
64.933331848
 31
0.0
  0
LINE
  8
0
  6
CONTINUOUS
 62
     2
 10
95.609675
 20
63.149998348
 30
0.0
 11
95.398093059
 21
63.149998348
 31
0.0
  0
LINE
  8
0
  6
CONTINUOUS
 62
     2
 10
95.609675
 20
66.849998348
 30
0.0
 11
94.887925941
 21
66.849998348
 31
0.0
  0
LINE
  8
0
  6
CONTINUOUS
 62
     2
 10
94.905722551
 20
66.999998348
 30
0.0
 11
95.609675
 21
66.999998348
 31
0.0
  0
LINE
  8
0
  6
CONTINUOUS
 62
     2
 10
93.60968
 20
66.999998348
 30
0.0
 11
93.839058551
 21
66.999998348
 31
0.0
  0
LINE
  8
0
  6
CONTINUOUS
 62
     2
 10
93.821261941
 20
66.849998348
 30
0.0
 11
93.60968
 21
66.849998348
 31
0.0
  0
LINE
  8
0
  6
CONTINUOUS
 62
     2
 10
94.331429059
 20
63.149998348
 30
0.0
 11
93.60968
 21
63.149998348
 31
0.0
  0
LINE
  8
0
  6
CONTINUOUS
 62
     2
 10
94.313632449
 20
62.999998348
 30
0.0
 11
93.60968
 21
62.999998348
 31
0.0
  0
LINE
  8
0
  6
CONTINUOUS
 62
     2
 10
95.609675
 20
62.999998348
 30
0.0
 11
95.380296449
 21
62.999998348
 31
0.0
  0
LINE
  8
0
  6
CONTINUOUS
 62
     2
 10
95.380296449
 20
62.999998348
 30
0.0
 11
95.609675
 21
62.999998348
 31
0.0
  0
LINE
  8
0
  6
CONTINUOUS
 62
     2
 10
91.48301865
 20
69.066654848
 30
0.0
 11
93.60968
 21
69.066654848
 31
0.0
  0
LINE
  8
0
  6
CONTINUOUS
 62
     2
 10
91.48301865
 20
60.930008523
 30
0.0
 11
91.48301865
 21
69.066654848
 31
0.0
  0
LINE
  8
0
  6
CONTINUOUS
 62
     2
 10
93.60968
 20
60.930008523
 30
0.0
 11
91.48301865
 21
60.930008523
 31
0.0
  0
LINE
  8
0
  6
CONTINUOUS
 62
     2
 10
98.650869165
 20
68.799988848
 30
0.0
 11
95.911087506
 21
68.799988848
 31
0.0
  0
LINE
  8
0
  6
CONTINUOUS
 62
     2
 10
95.609675
 20
67.833324598
 30
0.0
 11
95.609675
 21
62.166672098
 31
0.0
  0
ARC
  8
0
  6
CONTINUOUS
 62
     2
 10
89.81635615
 20
67.833324598
 30
0.0
 40
1.6666625
 50
325.0
 51
35.0
  0
ARC
  8
0
  6
CONTINUOUS
 62
     2
 10
89.81635615
 20
67.833324598
 30
0.0
 40
1.6666625
 50
145.0
 51
215.0
  0
LINE
  8
0
  6
CONTINUOUS
 62
     2
 10
91.48301865
 20
62.166672098
 30
0.0
 11
91.48301865
 21
67.833324598
 31
0.0
  0
ARC
  8
0
  6
CONTINUOUS
 62
     2
 10
84.81636865
 20
64.999998348
 30
0.0
 40
6.66665
 50
343.5
 51
16.5
  0
ARC
  8
0
  6
CONTINUOUS
 62
     2
 10
94.81634365
 20
64.999998348
 30
0.0
 40
6.66665
 50
163.5
 51
196.3
  0
ARC
  8
0
  6
CONTINUOUS
 62
     2
 10
89.81635615
 20
62.166672098
 30
0.0
 40
1.6666625
 50
145.0
 51
215.0
  0
ARC
  8
0
  6
CONTINUOUS
 62
     2
 10
89.81635615
 20
62.166672098
 30
0.0
 40
1.6666625
 50
325.0
 51
35.0
  0
LINE
  8
0
  6
CONTINUOUS
 62
     2
 10
88.4176577
 20
63.128891633
 30
0.0
 11
91.18431745
 21
63.128891633
 31
0.0
  0
LINE
  8
0
  6
CONTINUOUS
 62
     2
 10
91.208484235
 20
66.893429246
 30
0.0
 11
88.424228065
 21
66.893429246
 31
0.0
  0
LINE
  8
0
  6
CONTINUOUS
 62
     2
 10
88.4496929
 20
61.200007848
 30
0.0
 11
91.1830194
 21
61.200007848
 31
0.0
  0
LINE
  8
0
  6
CONTINUOUS
 62
     2
 10
91.190887815
 20
68.799988848
 30
0.0
 11
88.451106156
 21
68.799988848
 31
0.0
  0
LINE
  8
0
  6
CONTINUOUS
 62
     2
 10
88.14969365
 20
67.833324598
 30
0.0
 11
88.14969365
 21
62.166672098
 31
0.0
  0
LINE
  8
0
  6
CONTINUOUS
 62
     2
 10
86.443
 20
67.0
 30
0.0
 11
88.14969365
 21
66.999999771
 31
0.0
  0
LINE
  8
0
  6
CONTINUOUS
 62
     2
 10
88.14969365
 20
66.849999771
 30
0.0
 11
86.443
 21
66.85
 31
0.0
  0
LINE
  8
0
  6
CONTINUOUS
 62
     2
 10
86.443
 20
63.0
 30
0.0
 11
88.14969365
 21
62.99999983
 31
0.0
  0
LINE
  8
0
  6
CONTINUOUS
 62
     2
 10
88.14969365
 20
63.149999771
 30
0.0
 11
86.443
 21
63.15
 31
0.0
  0
LINE
  8
0
  6
CONTINUOUS
 62
     2
 10
88.14969365
 20
62.999999771
 30
0.0
 11
86.443
 21
63.0
 31
0.0
  0
LINE
  8
0
  6
CONTINUOUS
 62
     2
 10
99.648
 20
61.988
 30
0.0
 11
100.295047613
 21
59.573185434
 31
0.0
  0
LINE
  8
0
  6
CONTINUOUS
 62
     2
 10
99.648
 20
61.988
 30
0.0
 11
101.415766953
 21
60.220233047
 31
0.0
  0
TEXT
  8
0
  6
CONTINUOUS
 62
     2
 10
103.437594413
 20
56.424229936
 30
0.1
 40
3.0
  1
Ｍ８ボルト
 50
0.0
 41
0.9
 51
0.0
  7
KANJI6
  0
LINE
  8
0
  6
CONTINUOUS
 62
     2
 10
99.648
 20
61.988
 30
0.0
 11
103.437594413
 21
55.424229936
 31
0.0
  0
LINE
  8
0
  6
CONTINUOUS
 62
     2
 10
103.437594413
 20
55.424229936
 30
0.0
 11
117.826594413
 21
55.424229936
 31
0.0
  0
TEXT
  8
0
  6
CONTINUOUS
 62
     1
 10
237.0
 20
40.0
 30
0.4
 40
4.0
  1
Ｇｆ－８５
 50
0.0
 41
0.9
 51
0.0
  7
KANJI8
  0
TEXT
  8
0
  6
CONTINUOUS
 62
     1
 10
233.0
 20
28.5
 30
0.4
 40
4.0
  1
角形半埋込形計器　外形図
 50
0.0
 41
0.9
 51
0.0
  7
KANJI8
  0
ENDSEC
  0
EOF
