  0
SECTION
  2
HEADER
  9
$ACADVER
  1
AC1009
  9
$DWGCODEPAGE
  3
dos932
  9
$EXTMIN
 10
0.0
 20
0.0
 30
0.0
  9
$EXTMAX
 10
297.0
 20
210.0
 30
0.0
  9
$LIMMIN
 10
0.0
 20
0.0
  9
$LIMMAX
 10
297.0
 20
210.0
  9
$LTSCALE
 40
1.0
  9
$PDMODE
 70
     0
  0
ENDSEC
  0
SECTION
  2
TABLES
  0
TABLE
  2
VPORT
 70
     1
  0
VPORT
  2
*ACTIVE
 70
     0
 10
0.0
 20
0.0
 11
1.0
 21
1.0
 12
148.5
 22
105.0
 13
0.0
 23
0.0
 14
10.0
 24
10.0
 15
10.0
 25
10.0
 16
0.0
 26
0.0
 36
1.0
 17
0.0
 27
0.0
 37
0.0
 40
297.0
 41
1.414285714
 42
50.0
 43
0.0
 44
0.0
 50
0.0
 51
0.0
 71
     0
 72
  1000
 73
     1
 74
     3
 75
     0
 76
     0
 77
     0
 78
     0
  0
ENDTAB
  0
TABLE
  2
LTYPE
 70
     4
  0
LTYPE
  2
CONTINUOUS
 70
    64
  3
Solid line
 72
    65
 73
     0
 40
0.0
  0
LTYPE
  2
LTYPE1
 70
    64
  3
CENTER
 72
    65
 73
     4
 40
15.0
 49
10.5
 49
-1.5
 49
1.5
 49
-1.5
  0
LTYPE
  2
LTYPE2
 70
    64
  3
HIDDEN
 72
    65
 73
     2
 40
3.0
 49
1.8
 49
-1.2
  0
LTYPE
  2
LTYPE3
 70
    64
  3
HIDDEN
 72
    65
 73
     2
 40
1.5
 49
0.9
 49
-0.6
  0
ENDTAB
  0
TABLE
  2
LAYER
 70
   128
  0
LAYER
  2
0
 70
     0
 62
     7
  6
CONTINUOUS
  0
LAYER
  2
2
 70
     0
 62
     7
  6
CONTINUOUS
  0
LAYER
  2
3
 70
     0
 62
     7
  6
CONTINUOUS
  0
LAYER
  2
4
 70
     0
 62
     7
  6
CONTINUOUS
  0
LAYER
  2
5
 70
     0
 62
     7
  6
CONTINUOUS
  0
LAYER
  2
6
 70
     0
 62
     7
  6
CONTINUOUS
  0
LAYER
  2
7
 70
     0
 62
     7
  6
CONTINUOUS
  0
LAYER
  2
8
 70
     0
 62
     7
  6
CONTINUOUS
  0
LAYER
  2
9
 70
     0
 62
     7
  6
CONTINUOUS
  0
LAYER
  2
10
 70
     0
 62
     7
  6
CONTINUOUS
  0
LAYER
  2
11
 70
     0
 62
     7
  6
CONTINUOUS
  0
LAYER
  2
12
 70
     0
 62
     7
  6
CONTINUOUS
  0
LAYER
  2
13
 70
     0
 62
     7
  6
CONTINUOUS
  0
LAYER
  2
14
 70
     0
 62
     7
  6
CONTINUOUS
  0
LAYER
  2
15
 70
     0
 62
     7
  6
CONTINUOUS
  0
LAYER
  2
16
 70
     0
 62
     7
  6
CONTINUOUS
  0
LAYER
  2
17
 70
     0
 62
     7
  6
CONTINUOUS
  0
LAYER
  2
18
 70
     0
 62
     7
  6
CONTINUOUS
  0
LAYER
  2
19
 70
     0
 62
     7
  6
CONTINUOUS
  0
LAYER
  2
20
 70
     0
 62
     7
  6
CONTINUOUS
  0
LAYER
  2
21
 70
     0
 62
     7
  6
CONTINUOUS
  0
LAYER
  2
22
 70
     0
 62
     7
  6
CONTINUOUS
  0
LAYER
  2
23
 70
     0
 62
     7
  6
CONTINUOUS
  0
LAYER
  2
24
 70
     0
 62
     7
  6
CONTINUOUS
  0
LAYER
  2
25
 70
     0
 62
     7
  6
CONTINUOUS
  0
LAYER
  2
26
 70
     0
 62
     7
  6
CONTINUOUS
  0
LAYER
  2
27
 70
     0
 62
     7
  6
CONTINUOUS
  0
LAYER
  2
28
 70
     0
 62
     7
  6
CONTINUOUS
  0
LAYER
  2
29
 70
     0
 62
     7
  6
CONTINUOUS
  0
LAYER
  2
30
 70
     0
 62
     7
  6
CONTINUOUS
  0
LAYER
  2
31
 70
     0
 62
     7
  6
CONTINUOUS
  0
LAYER
  2
32
 70
     0
 62
     7
  6
CONTINUOUS
  0
LAYER
  2
33
 70
     0
 62
     7
  6
CONTINUOUS
  0
LAYER
  2
34
 70
     0
 62
     7
  6
CONTINUOUS
  0
LAYER
  2
35
 70
     0
 62
     7
  6
CONTINUOUS
  0
LAYER
  2
36
 70
     0
 62
     7
  6
CONTINUOUS
  0
LAYER
  2
37
 70
     0
 62
     7
  6
CONTINUOUS
  0
LAYER
  2
38
 70
     0
 62
     7
  6
CONTINUOUS
  0
LAYER
  2
39
 70
     0
 62
     7
  6
CONTINUOUS
  0
LAYER
  2
40
 70
     0
 62
     7
  6
CONTINUOUS
  0
LAYER
  2
41
 70
     0
 62
     7
  6
CONTINUOUS
  0
LAYER
  2
42
 70
     0
 62
     7
  6
CONTINUOUS
  0
LAYER
  2
43
 70
     0
 62
     7
  6
CONTINUOUS
  0
LAYER
  2
44
 70
     0
 62
     7
  6
CONTINUOUS
  0
LAYER
  2
45
 70
     0
 62
     7
  6
CONTINUOUS
  0
LAYER
  2
46
 70
     0
 62
     7
  6
CONTINUOUS
  0
LAYER
  2
47
 70
     0
 62
     7
  6
CONTINUOUS
  0
LAYER
  2
48
 70
     0
 62
     7
  6
CONTINUOUS
  0
LAYER
  2
49
 70
     0
 62
     7
  6
CONTINUOUS
  0
LAYER
  2
50
 70
     0
 62
     7
  6
CONTINUOUS
  0
LAYER
  2
51
 70
     0
 62
     7
  6
CONTINUOUS
  0
LAYER
  2
52
 70
     0
 62
     7
  6
CONTINUOUS
  0
LAYER
  2
53
 70
     0
 62
     7
  6
CONTINUOUS
  0
LAYER
  2
54
 70
     0
 62
     7
  6
CONTINUOUS
  0
LAYER
  2
55
 70
     0
 62
     7
  6
CONTINUOUS
  0
LAYER
  2
56
 70
     0
 62
     7
  6
CONTINUOUS
  0
LAYER
  2
57
 70
     0
 62
     7
  6
CONTINUOUS
  0
LAYER
  2
58
 70
     0
 62
     7
  6
CONTINUOUS
  0
LAYER
  2
59
 70
     0
 62
     7
  6
CONTINUOUS
  0
LAYER
  2
60
 70
     0
 62
     7
  6
CONTINUOUS
  0
LAYER
  2
61
 70
     0
 62
     7
  6
CONTINUOUS
  0
LAYER
  2
62
 70
     0
 62
     7
  6
CONTINUOUS
  0
LAYER
  2
63
 70
     0
 62
     7
  6
CONTINUOUS
  0
LAYER
  2
64
 70
     0
 62
     7
  6
CONTINUOUS
  0
LAYER
  2
65
 70
     0
 62
     7
  6
CONTINUOUS
  0
LAYER
  2
66
 70
     0
 62
     7
  6
CONTINUOUS
  0
LAYER
  2
67
 70
     0
 62
     7
  6
CONTINUOUS
  0
LAYER
  2
68
 70
     0
 62
     7
  6
CONTINUOUS
  0
LAYER
  2
69
 70
     0
 62
     7
  6
CONTINUOUS
  0
LAYER
  2
70
 70
     0
 62
     7
  6
CONTINUOUS
  0
LAYER
  2
71
 70
     0
 62
     7
  6
CONTINUOUS
  0
LAYER
  2
72
 70
     0
 62
     7
  6
CONTINUOUS
  0
LAYER
  2
73
 70
     0
 62
     7
  6
CONTINUOUS
  0
LAYER
  2
74
 70
     0
 62
     7
  6
CONTINUOUS
  0
LAYER
  2
75
 70
     0
 62
     7
  6
CONTINUOUS
  0
LAYER
  2
76
 70
     0
 62
     7
  6
CONTINUOUS
  0
LAYER
  2
77
 70
     0
 62
     7
  6
CONTINUOUS
  0
LAYER
  2
78
 70
     0
 62
     7
  6
CONTINUOUS
  0
LAYER
  2
79
 70
     0
 62
     7
  6
CONTINUOUS
  0
LAYER
  2
80
 70
     0
 62
     7
  6
CONTINUOUS
  0
LAYER
  2
81
 70
     0
 62
     7
  6
CONTINUOUS
  0
LAYER
  2
82
 70
     0
 62
     7
  6
CONTINUOUS
  0
LAYER
  2
83
 70
     0
 62
     7
  6
CONTINUOUS
  0
LAYER
  2
84
 70
     0
 62
     7
  6
CONTINUOUS
  0
LAYER
  2
85
 70
     0
 62
     7
  6
CONTINUOUS
  0
LAYER
  2
86
 70
     0
 62
     7
  6
CONTINUOUS
  0
LAYER
  2
87
 70
     0
 62
     7
  6
CONTINUOUS
  0
LAYER
  2
88
 70
     0
 62
     7
  6
CONTINUOUS
  0
LAYER
  2
89
 70
     0
 62
     7
  6
CONTINUOUS
  0
LAYER
  2
90
 70
     0
 62
     7
  6
CONTINUOUS
  0
LAYER
  2
91
 70
     0
 62
     7
  6
CONTINUOUS
  0
LAYER
  2
92
 70
     0
 62
     7
  6
CONTINUOUS
  0
LAYER
  2
93
 70
     0
 62
     7
  6
CONTINUOUS
  0
LAYER
  2
94
 70
     0
 62
     7
  6
CONTINUOUS
  0
LAYER
  2
95
 70
     0
 62
     7
  6
CONTINUOUS
  0
LAYER
  2
96
 70
     0
 62
     7
  6
CONTINUOUS
  0
LAYER
  2
97
 70
     0
 62
     7
  6
CONTINUOUS
  0
LAYER
  2
98
 70
     0
 62
     7
  6
CONTINUOUS
  0
LAYER
  2
99
 70
     0
 62
     7
  6
CONTINUOUS
  0
LAYER
  2
100
 70
     0
 62
     7
  6
CONTINUOUS
  0
LAYER
  2
101
 70
     0
 62
     7
  6
CONTINUOUS
  0
LAYER
  2
102
 70
     0
 62
     7
  6
CONTINUOUS
  0
LAYER
  2
103
 70
     0
 62
     7
  6
CONTINUOUS
  0
LAYER
  2
104
 70
     0
 62
     7
  6
CONTINUOUS
  0
LAYER
  2
105
 70
     0
 62
     7
  6
CONTINUOUS
  0
LAYER
  2
106
 70
     0
 62
     7
  6
CONTINUOUS
  0
LAYER
  2
107
 70
     0
 62
     7
  6
CONTINUOUS
  0
LAYER
  2
108
 70
     0
 62
     7
  6
CONTINUOUS
  0
LAYER
  2
109
 70
     0
 62
     7
  6
CONTINUOUS
  0
LAYER
  2
110
 70
     0
 62
     7
  6
CONTINUOUS
  0
LAYER
  2
111
 70
     0
 62
     7
  6
CONTINUOUS
  0
LAYER
  2
112
 70
     0
 62
     7
  6
CONTINUOUS
  0
LAYER
  2
113
 70
     0
 62
     7
  6
CONTINUOUS
  0
LAYER
  2
114
 70
     0
 62
     7
  6
CONTINUOUS
  0
LAYER
  2
115
 70
     0
 62
     7
  6
CONTINUOUS
  0
LAYER
  2
116
 70
     0
 62
     7
  6
CONTINUOUS
  0
LAYER
  2
117
 70
     0
 62
     7
  6
CONTINUOUS
  0
LAYER
  2
118
 70
     0
 62
     7
  6
CONTINUOUS
  0
LAYER
  2
119
 70
     0
 62
     7
  6
CONTINUOUS
  0
LAYER
  2
120
 70
     0
 62
     7
  6
CONTINUOUS
  0
LAYER
  2
121
 70
     0
 62
     7
  6
CONTINUOUS
  0
LAYER
  2
122
 70
     0
 62
     7
  6
CONTINUOUS
  0
LAYER
  2
123
 70
     0
 62
     7
  6
CONTINUOUS
  0
LAYER
  2
124
 70
     0
 62
     7
  6
CONTINUOUS
  0
LAYER
  2
125
 70
     0
 62
     7
  6
CONTINUOUS
  0
LAYER
  2
126
 70
     0
 62
     7
  6
CONTINUOUS
  0
LAYER
  2
127
 70
     0
 62
     7
  6
CONTINUOUS
  0
LAYER
  2
128
 70
     0
 62
     7
  6
CONTINUOUS
  0
ENDTAB
  0
TABLE
  2
STYLE
 70
    12
  0
STYLE
  2
STANDARD
 70
     0
 40
0.0
 41
1.0
 50
0.0
 71
     0
 42
0.2
  3
txt.shx
  4
extfont.shx
  0
STYLE
  2
KANJI0
 70
     0
 40
3.0
 41
0.9
 50
0.0
 71
     0
 42
3.0
  3
txt.shx
  4
extfont.shx
  0
STYLE
  2
KANJI1
 70
     0
 40
3.0
 41
0.6
 50
0.0
 71
     0
 42
3.0
  3
txt.shx
  4
extfont.shx
  0
STYLE
  2
KANJI2
 70
     0
 40
1.8
 41
0.6
 50
0.0
 71
     0
 42
1.8
  3
txt.shx
  4
extfont.shx
  0
STYLE
  2
KANJI3
 70
     0
 40
3.0
 41
0.833333333
 50
0.0
 71
     0
 42
3.0
  3
txt.shx
  4
extfont.shx
  0
STYLE
  2
KANJI4
 70
     0
 40
3.0
 41
0.733333333
 50
0.0
 71
     0
 42
3.0
  3
txt.shx
  4
extfont.shx
  0
STYLE
  2
KANJI5
 70
     0
 40
3.0
 41
0.833333333
 50
0.0
 71
     0
 42
3.0
  3
txt.shx
  4
extfont.shx
  0
STYLE
  2
KANJI6
 70
     0
 40
3.0
 41
0.75
 50
0.0
 71
     0
 42
3.0
  3
txt.shx
  4
extfont.shx
  0
STYLE
  2
KANJI7
 70
     0
 40
4.0
 41
0.75
 50
0.0
 71
     0
 42
4.0
  3
txt.shx
  4
extfont.shx
  0
STYLE
  2
KANJI8
 70
     0
 40
5.8
 41
0.827586207
 50
0.0
 71
     0
 42
5.8
  3
txt.shx
  4
extfont.shx
  0
STYLE
  2
KANJI9
 70
     0
 40
4.0
 41
0.9
 50
0.0
 71
     0
 42
4.0
  3
txt.shx
  4
extfont.shx
  0
STYLE
  2
KANJI10
 70
     0
 40
3.0
 41
0.833333333
 50
0.0
 71
     0
 42
3.0
  3
txt.shx
  4
extfont.shx
  0
ENDTAB
  0
TABLE
  2
VIEW
 70
     0
  0
ENDTAB
  0
ENDSEC
  0
SECTION
  2
BLOCKS
  0
ENDSEC
  0
SECTION
  2
ENTITIES
  0
LINE
  8
0
  6
CONTINUOUS
 62
     1
 10
117.9
 20
168.9
 30
0.0
 11
122.4
 21
168.9
 31
0.0
  0
LINE
  8
0
  6
CONTINUOUS
 62
     1
 10
123.523058987
 20
101.4
 30
0.0
 11
125.023058987
 21
101.4
 31
0.0
  0
LINE
  8
0
  6
CONTINUOUS
 62
     1
 10
125.023058987
 20
161.4
 30
0.0
 11
123.523058987
 21
161.4
 31
0.0
  0
ARC
  8
0
  6
CONTINUOUS
 62
     1
 10
63.4
 20
131.4
 30
0.0
 40
63.5
 50
0.0
 51
26.515396588
  0
LINE
  8
0
  6
CONTINUOUS
 62
     1
 10
120.223058987
 20
159.753377196
 30
0.0
 11
123.523058987
 21
161.4
 31
0.0
  0
ARC
  8
0
  6
CONTINUOUS
 62
     1
 10
63.4
 20
131.4
 30
0.0
 40
63.5
 50
333.481876884
 51
0.0
  0
LINE
  8
0
  6
CONTINUOUS
 62
     1
 10
120.219366986
 20
103.048465027
 30
0.0
 11
123.523058987
 21
101.4
 31
0.0
  0
ARC
  8
0
  6
CONTINUOUS
 62
     1
 10
125.336568529
 20
162.906461083
 30
0.0
 40
1.0
 50
158.588388075
 51
235.869897646
  0
ARC
  8
0
  6
CONTINUOUS
 62
     1
 10
124.945886744
 20
164.041083374
 30
0.0
 40
1.0
 50
162.657981601
 51
238.188655051
  0
ARC
  8
0
  6
CONTINUOUS
 62
     1
 10
124.555204959
 20
165.175705665
 30
0.0
 40
1.0
 50
160.87696549
 51
236.390581326
  0
ARC
  8
0
  6
CONTINUOUS
 62
     1
 10
124.164523173
 20
166.310327955
 30
0.0
 40
1.0
 50
160.87696549
 51
238.188655051
  0
ARC
  8
0
  6
CONTINUOUS
 62
     1
 10
123.773841388
 20
167.444950246
 30
0.0
 40
1.0
 50
160.87696549
 51
238.188655051
  0
ARC
  8
0
  6
CONTINUOUS
 62
     1
 10
123.383159603
 20
168.579572537
 30
0.0
 40
1.0
 50
160.87696549
 51
238.188655051
  0
ARC
  8
0
  6
CONTINUOUS
 62
     1
 10
24.4
 20
131.4
 30
0.0
 40
105.0
 50
0.0
 51
16.970349643
  0
ARC
  8
0
  6
CONTINUOUS
 62
     1
 10
123.376553342
 20
94.240322774
 30
0.0
 40
1.0
 50
120.588388075
 51
197.869897646
  0
ARC
  8
0
  6
CONTINUOUS
 62
     1
 10
123.767235127
 20
95.374945064
 30
0.0
 40
1.0
 50
124.657981601
 51
200.188655051
  0
ARC
  8
0
  6
CONTINUOUS
 62
     1
 10
124.157916913
 20
96.509567355
 30
0.0
 40
1.0
 50
122.87696549
 51
198.390581326
  0
ARC
  8
0
  6
CONTINUOUS
 62
     1
 10
124.548598698
 20
97.644189646
 30
0.0
 40
1.0
 50
122.87696549
 51
200.188655051
  0
ARC
  8
0
  6
CONTINUOUS
 62
     1
 10
124.939280483
 20
98.778811936
 30
0.0
 40
1.0
 50
122.87696549
 51
200.188655051
  0
ARC
  8
0
  6
CONTINUOUS
 62
     1
 10
125.329962269
 20
99.913434227
 30
0.0
 40
1.0
 50
122.87696549
 51
200.188655051
  0
ARC
  8
0
  6
CONTINUOUS
 62
     1
 10
24.4
 20
131.4
 30
0.0
 40
105.0
 50
343.018596483
 51
0.0
  0
LINE
  8
0
  6
CONTINUOUS
 62
     1
 10
101.4
 20
100.28
 30
0.0
 11
100.9
 21
100.28
 31
0.0
  0
LINE
  8
0
  6
CONTINUOUS
 62
     1
 10
100.9
 20
100.28
 30
0.0
 11
100.9
 21
101.15
 31
0.0
  0
LINE
  8
0
  6
CONTINUOUS
 62
     1
 10
100.9
 20
96.65
 30
0.0
 11
100.9
 21
97.52
 31
0.0
  0
LINE
  8
0
  6
CONTINUOUS
 62
     1
 10
100.9
 20
97.52
 30
0.0
 11
101.4
 21
97.52
 31
0.0
  0
LINE
  8
0
  6
CONTINUOUS
 62
     1
 10
101.4
 20
162.52
 30
0.0
 11
100.9
 21
162.52
 31
0.0
  0
LINE
  8
0
  6
CONTINUOUS
 62
     1
 10
100.9
 20
162.52
 30
0.0
 11
100.9
 21
161.65
 31
0.0
  0
LINE
  8
0
  6
CONTINUOUS
 62
     1
 10
101.4
 20
165.28
 30
0.0
 11
100.9
 21
165.28
 31
0.0
  0
LINE
  8
0
  6
CONTINUOUS
 62
     1
 10
100.9
 20
165.28
 30
0.0
 11
100.9
 21
166.15
 31
0.0
  0
LINE
  8
0
  6
CONTINUOUS
 62
     1
 10
99.9
 20
102.65
 30
0.0
 11
99.16
 21
102.65
 31
0.0
  0
LINE
  8
0
  6
CONTINUOUS
 62
     1
 10
100.65
 20
96.65
 30
0.0
 11
100.65
 21
101.15
 31
0.0
  0
LINE
  8
0
  6
CONTINUOUS
 62
     1
 10
100.65
 20
161.65
 30
0.0
 11
100.65
 21
166.15
 31
0.0
  0
ARC
  8
0
  6
CONTINUOUS
 62
     1
 10
98.260596877
 20
164.647614219
 30
0.0
 40
0.966742525
 50
88.472474559
 51
180.0
  0
ARC
  8
0
  6
CONTINUOUS
 62
     1
 10
98.260596877
 20
163.152385781
 30
0.0
 40
0.966742525
 50
180.0
 51
270.0
  0
LINE
  8
0
  6
CONTINUOUS
 62
     1
 10
97.293854352
 20
163.152385781
 30
0.0
 11
97.293854352
 21
164.647614219
 31
0.0
  0
LINE
  8
0
  6
CONTINUOUS
 62
     1
 10
97.384083655
 20
163.616422193
 30
0.0
 11
97.384083655
 21
164.106238405
 31
0.0
  0
LINE
  8
0
  6
CONTINUOUS
 62
     1
 10
98.647293887
 20
162.185643256
 30
0.0
 11
98.247706977
 21
162.185643256
 31
0.0
  0
LINE
  8
0
  6
CONTINUOUS
 62
     1
 10
98.247706977
 20
165.588576943
 30
0.0
 11
98.647293887
 21
165.614356744
 31
0.0
  0
LINE
  8
0
  6
CONTINUOUS
 62
     1
 10
98.647293887
 20
162.185643256
 30
0.0
 11
98.647293887
 21
165.614356744
 31
0.0
  0
ARC
  8
0
  6
CONTINUOUS
 62
     1
 10
98.260596877
 20
99.647614219
 30
0.0
 40
0.966742525
 50
88.472474559
 51
180.0
  0
ARC
  8
0
  6
CONTINUOUS
 62
     1
 10
98.260596877
 20
98.152385781
 30
0.0
 40
0.966742525
 50
180.0
 51
270.0
  0
LINE
  8
0
  6
CONTINUOUS
 62
     1
 10
97.293854352
 20
98.152385781
 30
0.0
 11
97.293854352
 21
99.647614219
 31
0.0
  0
LINE
  8
0
  6
CONTINUOUS
 62
     1
 10
97.384083655
 20
98.616422193
 30
0.0
 11
97.384083655
 21
99.106238405
 31
0.0
  0
LINE
  8
0
  6
CONTINUOUS
 62
     1
 10
98.647293887
 20
97.185643256
 30
0.0
 11
98.247706977
 21
97.185643256
 31
0.0
  0
LINE
  8
0
  6
CONTINUOUS
 62
     1
 10
98.247706977
 20
100.588576943
 30
0.0
 11
98.647293887
 21
100.614356744
 31
0.0
  0
LINE
  8
0
  6
CONTINUOUS
 62
     1
 10
98.647293887
 20
97.185643256
 30
0.0
 11
98.647293887
 21
100.614356744
 31
0.0
  0
ARC
  8
0
  6
CONTINUOUS
 62
     1
 10
100.1
 20
95.35
 30
0.0
 40
0.2
 50
180.0
 51
270.0
  0
ARC
  8
0
  6
CONTINUOUS
 62
     1
 10
100.1
 20
167.45
 30
0.0
 40
0.2
 50
90.0
 51
180.0
  0
LINE
  8
0
  6
CONTINUOUS
 62
     1
 10
100.9
 20
161.65
 30
0.0
 11
100.1
 21
161.65
 31
0.0
  0
ARC
  8
0
  6
CONTINUOUS
 62
     1
 10
100.1
 20
161.45
 30
0.0
 40
0.2
 50
90.0
 51
180.0
  0
LINE
  8
0
  6
CONTINUOUS
 62
     1
 10
100.9
 20
166.15
 30
0.0
 11
100.1
 21
166.15
 31
0.0
  0
LINE
  8
0
  6
CONTINUOUS
 62
     1
 10
99.9
 20
166.35
 30
0.0
 11
99.9
 21
167.45
 31
0.0
  0
ARC
  8
0
  6
CONTINUOUS
 62
     1
 10
100.1
 20
166.35
 30
0.0
 40
0.2
 50
180.0
 51
270.0
  0
LINE
  8
0
  6
CONTINUOUS
 62
     1
 10
100.1
 20
96.65
 30
0.0
 11
100.9
 21
96.65
 31
0.0
  0
LINE
  8
0
  6
CONTINUOUS
 62
     1
 10
99.9
 20
96.45
 30
0.0
 11
99.9
 21
95.35
 31
0.0
  0
ARC
  8
0
  6
CONTINUOUS
 62
     1
 10
100.1
 20
96.45
 30
0.0
 40
0.2
 50
90.0
 51
180.0
  0
LINE
  8
0
  6
CONTINUOUS
 62
     1
 10
100.9
 20
101.15
 30
0.0
 11
100.1
 21
101.15
 31
0.0
  0
LINE
  8
0
  6
CONTINUOUS
 62
     1
 10
99.9
 20
102.65
 30
0.0
 11
99.9
 21
101.35
 31
0.0
  0
ARC
  8
0
  6
CONTINUOUS
 62
     1
 10
100.1
 20
101.35
 30
0.0
 40
0.2
 50
180.0
 51
270.0
  0
LINE
  8
0
  6
CONTINUOUS
 62
     1
 10
112.9
 20
167.65
 30
0.0
 11
112.9
 21
167.45
 31
0.0
  0
LINE
  8
0
  6
CONTINUOUS
 62
     1
 10
118.1
 20
167.45
 30
0.0
 11
118.1
 21
168.85
 31
0.0
  0
LINE
  8
0
  6
CONTINUOUS
 62
     1
 10
112.9
 20
95.15
 30
0.0
 11
112.9
 21
95.35
 31
0.0
  0
LINE
  8
0
  6
CONTINUOUS
 62
     1
 10
118.1
 20
167.45
 30
0.0
 11
118.1
 21
95.35
 31
0.0
  0
LINE
  8
0
  6
CONTINUOUS
 62
     1
 10
118.1
 20
95.35
 30
0.0
 11
118.1
 21
93.9
 31
0.0
  0
LINE
  8
0
  6
CONTINUOUS
 62
     1
 10
100.1
 20
95.15
 30
0.0
 11
117.85
 21
95.15
 31
0.0
  0
LINE
  8
0
  6
CONTINUOUS
 62
     1
 10
117.85
 20
93.9
 30
0.0
 11
122.4
 21
93.9
 31
0.0
  0
LINE
  8
0
  6
CONTINUOUS
 62
     1
 10
117.85
 20
93.9
 30
0.0
 11
117.85
 21
168.875
 31
0.0
  0
LINE
  8
0
  6
CONTINUOUS
 62
     1
 10
117.85
 20
168.875
 30
0.0
 11
117.9
 21
168.9
 31
0.0
  0
LINE
  8
0
  6
CONTINUOUS
 62
     1
 10
100.1
 20
167.65
 30
0.0
 11
117.85
 21
167.65
 31
0.0
  0
LINE
  8
0
  6
CONTINUOUS
 62
     1
 10
112.9
 20
167.45
 30
0.0
 11
117.85
 21
167.45
 31
0.0
  0
LINE
  8
0
  6
CONTINUOUS
 62
     1
 10
112.9
 20
95.35
 30
0.0
 11
117.85
 21
95.35
 31
0.0
  0
LINE
  8
0
  6
CONTINUOUS
 62
     1
 10
154.0
 20
93.9
 30
0.0
 11
174.0
 21
93.9
 31
0.0
  0
LINE
  8
0
  6
CONTINUOUS
 62
     1
 10
174.0
 20
93.9
 30
0.0
 11
174.0
 21
168.9
 31
0.0
  0
LINE
  8
0
  6
CONTINUOUS
 62
     1
 10
174.0
 20
168.9
 30
0.0
 11
154.0
 21
168.9
 31
0.0
  0
LINE
  8
0
  6
CONTINUOUS
 62
     1
 10
154.0
 20
168.9
 30
0.0
 11
154.0
 21
93.9
 31
0.0
  0
LINE
  8
0
  6
CONTINUOUS
 62
     1
 10
153.5
 20
93.9
 30
0.0
 11
154.0
 21
93.9
 31
0.0
  0
ARC
  8
0
  6
CONTINUOUS
 62
     1
 10
153.5
 20
94.9
 30
0.0
 40
1.0
 50
180.0
 51
270.0
  0
LINE
  8
0
  6
CONTINUOUS
 62
     1
 10
154.0
 20
168.9
 30
0.0
 11
153.5
 21
168.9
 31
0.0
  0
LINE
  8
0
  6
CONTINUOUS
 62
     1
 10
152.5
 20
167.9
 30
0.0
 11
152.5
 21
94.9
 31
0.0
  0
ARC
  8
0
  6
CONTINUOUS
 62
     1
 10
153.5
 20
167.9
 30
0.0
 40
1.0
 50
90.0
 51
180.0
  0
LINE
  8
0
  6
CONTINUOUS
 62
     1
 10
174.5
 20
168.9
 30
0.0
 11
174.0
 21
168.9
 31
0.0
  0
ARC
  8
0
  6
CONTINUOUS
 62
     1
 10
174.5
 20
167.9
 30
0.0
 40
1.0
 50
0.0
 51
90.0
  0
LINE
  8
0
  6
CONTINUOUS
 62
     1
 10
174.0
 20
93.9
 30
0.0
 11
174.5
 21
93.9
 31
0.0
  0
LINE
  8
0
  6
CONTINUOUS
 62
     1
 10
175.5
 20
94.9
 30
0.0
 11
175.5
 21
167.9
 31
0.0
  0
ARC
  8
0
  6
CONTINUOUS
 62
     1
 10
174.5
 20
94.9
 30
0.0
 40
1.0
 50
270.0
 51
0.0
  0
LINE
  8
0
  6
CONTINUOUS
 62
     1
 10
154.0
 20
161.4
 30
0.0
 11
174.0
 21
161.4
 31
0.0
  0
LINE
  8
0
  6
CONTINUOUS
 62
     1
 10
154.0
 20
101.4
 30
0.0
 11
174.0
 21
101.4
 31
0.0
  0
CIRCLE
  8
0
  6
CONTINUOUS
 62
     1
 10
164.0
 20
96.9
 30
0.0
 40
1.75
  0
TEXT
  8
0
  6
CONTINUOUS
 62
     1
 10
193.379156198
 20
78.8
 30
0.3
 40
3.0
  1
パネルカット
 50
0.0
 41
0.9
 51
0.0
  7
KANJI0
  0
LINE
  8
0
  6
CONTINUOUS
 62
     1
 10
192.379156198
 20
77.4
 30
0.0
 11
211.379156198
 21
77.4
 31
0.0
  0
LINE
  8
0
  6
CONTINUOUS
 62
     1
 10
125.023058987
 20
45.0
 30
0.0
 11
125.023058987
 21
65.0
 31
0.0
  0
LINE
  8
0
  6
CONTINUOUS
 62
     1
 10
122.436244664
 20
65.0
 30
0.0
 11
122.436244664
 21
45.0
 31
0.0
  0
LINE
  8
0
  6
CONTINUOUS
 62
     1
 10
118.1
 20
45.0
 30
0.0
 11
129.4
 21
45.0
 31
0.0
  0
LINE
  8
0
  6
CONTINUOUS
 62
     1
 10
129.4
 20
45.0
 30
0.0
 11
129.4
 21
65.0
 31
0.0
  0
LINE
  8
0
  6
CONTINUOUS
 62
     1
 10
129.4
 20
65.0
 30
0.0
 11
118.1
 21
65.0
 31
0.0
  0
LINE
  8
0
  6
CONTINUOUS
 62
     1
 10
117.85
 20
65.0
 30
0.0
 11
40.9
 21
65.0
 31
0.0
  0
LINE
  8
0
  6
CONTINUOUS
 62
     1
 10
99.15
 20
65.0
 30
0.0
 11
99.15
 21
57.5
 31
0.0
  0
LINE
  8
0
  6
CONTINUOUS
 62
     1
 10
99.15
 20
57.5
 30
0.0
 11
100.65
 21
57.5
 31
0.0
  0
LINE
  8
0
  6
CONTINUOUS
 62
     1
 10
99.15
 20
52.5
 30
0.0
 11
100.65
 21
52.5
 31
0.0
  0
LINE
  8
0
  6
CONTINUOUS
 62
     1
 10
100.65
 20
52.5
 30
0.0
 11
100.65
 21
57.5
 31
0.0
  0
LINE
  8
0
  6
CONTINUOUS
 62
     1
 10
100.65
 20
57.5
 30
0.0
 11
99.15
 21
57.5
 31
0.0
  0
LINE
  8
0
  6
CONTINUOUS
 62
     1
 10
99.15
 20
57.5
 30
0.0
 11
99.15
 21
52.5
 31
0.0
  0
ARC
  8
0
  6
CONTINUOUS
 62
     1
 10
48.4
 20
45.5
 30
0.0
 40
0.5
 50
180.0
 51
270.0
  0
LINE
  8
0
  6
CONTINUOUS
 62
     1
 10
48.4
 20
45.0
 30
0.0
 11
61.4
 21
45.0
 31
0.0
  0
ARC
  8
0
  6
CONTINUOUS
 62
     1
 10
61.4
 20
45.5
 30
0.0
 40
0.5
 50
270.0
 51
0.0
  0
LINE
  8
0
  6
CONTINUOUS
 62
     1
 10
62.4
 20
47.5
 30
0.0
 11
100.65
 21
47.5
 31
0.0
  0
LINE
  8
0
  6
CONTINUOUS
 62
     1
 10
61.9
 20
45.5
 30
0.0
 11
61.9
 21
47.0
 31
0.0
  0
ARC
  8
0
  6
CONTINUOUS
 62
     1
 10
62.4
 20
47.0
 30
0.0
 40
0.5
 50
90.0
 51
180.0
  0
LINE
  8
0
  6
CONTINUOUS
 62
     1
 10
47.9
 20
48.0
 30
0.0
 11
47.9
 21
45.5
 31
0.0
  0
ARC
  8
0
  6
CONTINUOUS
 62
     1
 10
47.4
 20
48.0
 30
0.0
 40
0.5
 50
0.0
 51
90.0
  0
LINE
  8
0
  6
CONTINUOUS
 62
     1
 10
40.9
 20
65.0
 30
0.0
 11
40.9
 21
49.0
 31
0.0
  0
LINE
  8
0
  6
CONTINUOUS
 62
     1
 10
41.4
 20
48.5
 30
0.0
 11
47.4
 21
48.5
 31
0.0
  0
ARC
  8
0
  6
CONTINUOUS
 62
     1
 10
41.4
 20
49.0
 30
0.0
 40
0.5
 50
180.0
 51
270.0
  0
LINE
  8
0
  6
CONTINUOUS
 62
     1
 10
100.65
 20
57.5
 30
0.0
 11
100.65
 21
45.5
 31
0.0
  0
LINE
  8
0
  6
CONTINUOUS
 62
     1
 10
101.15
 20
45.0
 30
0.0
 11
117.85
 21
45.0
 31
0.0
  0
ARC
  8
0
  6
CONTINUOUS
 62
     1
 10
101.15
 20
45.5
 30
0.0
 40
0.5
 50
180.0
 51
270.0
  0
LINE
  8
0
  6
CONTINUOUS
 62
     1
 10
61.400000674
 20
45.0
 30
0.0
 11
101.15
 21
45.0
 31
0.0
  0
LINE
  8
0
  6
CONTINUOUS
 62
     1
 10
99.148
 20
52.5
 30
0.0
 11
100.648
 21
52.5
 31
0.0
  0
LINE
  8
0
  6
CONTINUOUS
 62
     1
 10
97.213249375
 20
53.030952625
 30
0.0
 11
96.973
 21
53.271202
 31
0.0
  0
LINE
  8
0
  6
CONTINUOUS
 62
     1
 10
97.22285935
 20
54.054414962
 30
0.0
 11
96.973
 21
53.766115712
 31
0.0
  0
LINE
  8
0
  6
CONTINUOUS
 62
     1
 10
96.973
 20
56.25029425
 30
0.0
 11
97.26129925
 21
55.990824925
 31
0.0
  0
LINE
  8
0
  6
CONTINUOUS
 62
     1
 10
96.973
 20
55.697720687
 30
0.0
 11
97.26129925
 21
55.957190012
 31
0.0
  0
LINE
  8
0
  6
CONTINUOUS
 62
     1
 10
97.210366382
 20
54.04
 30
0.0
 11
96.970117007
 21
54.2321995
 31
0.0
  0
LINE
  8
0
  6
CONTINUOUS
 62
     1
 10
97.213249375
 20
53.030952625
 30
0.0
 11
98.59304625
 21
53.030952625
 31
0.0
  0
LINE
  8
0
  6
CONTINUOUS
 62
     1
 10
97.210366382
 20
54.04
 30
0.0
 11
98.59304625
 21
54.04
 31
0.0
  0
LINE
  8
0
  6
CONTINUOUS
 62
     1
 10
98.59304625
 20
55.961995
 30
0.0
 11
97.245282625
 21
55.961995
 31
0.0
  0
LINE
  8
0
  6
CONTINUOUS
 62
     1
 10
98.59304625
 20
53.030952625
 30
0.0
 11
98.59304625
 21
56.9229925
 31
0.0
  0
LINE
  8
0
  6
CONTINUOUS
 62
     1
 10
99.14304625
 20
56.8
 30
0.0
 11
98.59304625
 21
56.8
 31
0.0
  0
LINE
  8
0
  6
CONTINUOUS
 62
     1
 10
98.59304625
 20
56.8
 30
0.0
 11
98.59304625
 21
53.15
 31
0.0
  0
LINE
  8
0
  6
CONTINUOUS
 62
     1
 10
98.59304625
 20
53.15
 30
0.0
 11
99.14304625
 21
53.15
 31
0.0
  0
LINE
  8
0
  6
CONTINUOUS
 62
     1
 10
99.14304625
 20
53.15
 30
0.0
 11
99.14304625
 21
56.8
 31
0.0
  0
LINE
  8
0
  6
CONTINUOUS
 62
     1
 10
99.14304625
 20
55.15
 30
0.0
 11
98.59304625
 21
54.85
 31
0.0
  0
LINE
  8
0
  6
CONTINUOUS
 62
     1
 10
99.14304625
 20
55.3
 30
0.0
 11
98.59304625
 21
55.0
 31
0.0
  0
ARC
  8
0
  6
CONTINUOUS
 62
     1
 10
88.26130299
 20
54.232385781
 30
0.0
 40
0.966742525
 50
180.0
 51
270.0
  0
LINE
  8
0
  6
CONTINUOUS
 62
     1
 10
87.294560465
 20
54.232385781
 30
0.0
 11
87.294560465
 21
55.727614219
 31
0.0
  0
LINE
  8
0
  6
CONTINUOUS
 62
     1
 10
87.384789768
 20
54.696422193
 30
0.0
 11
87.384789768
 21
55.186238405
 31
0.0
  0
LINE
  8
0
  6
CONTINUOUS
 62
     1
 10
88.648
 20
53.265643256
 30
0.0
 11
88.24841309
 21
53.265643256
 31
0.0
  0
LINE
  8
0
  6
CONTINUOUS
 62
     1
 10
109.148
 20
53.5
 30
0.0
 11
113.148
 21
53.5
 31
0.0
  0
LINE
  8
0
  6
CONTINUOUS
 62
     1
 10
113.148
 20
53.5
 30
0.0
 11
113.148
 21
56.5
 31
0.0
  0
LINE
  8
0
  6
CONTINUOUS
 62
     1
 10
113.148
 20
56.5
 30
0.0
 11
109.148
 21
56.5
 31
0.0
  0
LINE
  8
0
  6
CONTINUOUS
 62
     1
 10
109.148
 20
56.5
 30
0.0
 11
109.148
 21
53.5
 31
0.0
  0
LINE
  8
0
  6
CONTINUOUS
 62
     1
 10
109.148
 20
54.0
 30
0.0
 11
100.648
 21
54.0
 31
0.0
  0
LINE
  8
0
  6
CONTINUOUS
 62
     1
 10
88.648
 20
56.0
 30
0.0
 11
96.958
 21
56.0
 31
0.0
  0
LINE
  8
0
  6
CONTINUOUS
 62
     1
 10
100.658
 20
56.0
 30
0.0
 11
109.148
 21
56.0
 31
0.0
  0
POLYLINE
  8
0
  6
CONTINUOUS
 62
     1
 66
     1
 70
     1
  0
VERTEX
  8
0
  6
CONTINUOUS
 62
     1
 10
123.35
 20
56.75
 30
0.0
 42
0.050699051
  0
VERTEX
  8
0
  6
CONTINUOUS
 62
     1
 10
123.284633193
 20
56.743340722
 30
0.0
 42
0.047888382
  0
VERTEX
  8
0
  6
CONTINUOUS
 62
     1
 10
123.219763867
 20
56.723413568
 30
0.0
 42
0.042866866
  0
VERTEX
  8
0
  6
CONTINUOUS
 62
     1
 10
123.155885716
 20
56.690370196
 30
0.0
 42
0.037053014
  0
VERTEX
  8
0
  6
CONTINUOUS
 62
     1
 10
123.093484893
 20
56.644462086
 30
0.0
 42
0.03149445
  0
VERTEX
  8
0
  6
CONTINUOUS
 62
     1
 10
123.033036304
 20
56.586038627
 30
0.0
 42
0.026685798
  0
VERTEX
  8
0
  6
CONTINUOUS
 62
     1
 10
122.975
 20
56.515544457
 30
0.0
 42
0.022738135
  0
VERTEX
  8
0
  6
CONTINUOUS
 62
     1
 10
122.919817673
 20
56.433516078
 30
0.0
 42
0.019580374
  0
VERTEX
  8
0
  6
CONTINUOUS
 62
     1
 10
122.867909293
 20
56.340577775
 30
0.0
 42
0.017083706
  0
VERTEX
  8
0
  6
CONTINUOUS
 62
     1
 10
122.819669914
 20
56.237436867
 30
0.0
 42
0.015118648
  0
VERTEX
  8
0
  6
CONTINUOUS
 62
     1
 10
122.775466668
 20
56.124878317
 30
0.0
 42
0.013574987
  0
VERTEX
  8
0
  6
CONTINUOUS
 62
     1
 10
122.735635967
 20
56.003758764
 30
0.0
 42
0.012365369
  0
VERTEX
  8
0
  6
CONTINUOUS
 62
     1
 10
122.700480947
 20
55.875
 30
0.0
 42
0.011422971
  0
VERTEX
  8
0
  6
CONTINUOUS
 62
     1
 10
122.67026916
 20
55.739581958
 30
0.0
 42
0.010697726
  0
VERTEX
  8
0
  6
CONTINUOUS
 62
     1
 10
122.645230534
 20
55.598535251
 30
0.0
 42
0.010152756
  0
VERTEX
  8
0
  6
CONTINUOUS
 62
     1
 10
122.62555563
 20
55.452933329
 30
0.0
 42
0.0097615
  0
VERTEX
  8
0
  6
CONTINUOUS
 62
     1
 10
122.611394185
 20
55.303884311
 30
0.0
 42
0.009505575
  0
VERTEX
  8
0
  6
CONTINUOUS
 62
     1
 10
122.602853976
 20
55.15252255
 30
0.0
 42
0.009373296
  0
VERTEX
  8
0
  6
CONTINUOUS
 62
     1
 10
122.6
 20
55.0
 30
0.0
 42
0.009358733
  0
VERTEX
  8
0
  6
CONTINUOUS
 62
     1
 10
122.602853976
 20
54.84747745
 30
0.0
 42
0.009461238
  0
VERTEX
  8
0
  6
CONTINUOUS
 62
     1
 10
122.611394185
 20
54.696115689
 30
0.0
 42
0.009685393
  0
VERTEX
  8
0
  6
CONTINUOUS
 62
     1
 10
122.62555563
 20
54.547066671
 30
0.0
 42
0.010041376
  0
VERTEX
  8
0
  6
CONTINUOUS
 62
     1
 10
122.645230534
 20
54.401464749
 30
0.0
 42
0.010545778
  0
VERTEX
  8
0
  6
CONTINUOUS
 62
     1
 10
122.67026916
 20
54.260418042
 30
0.0
 42
0.011222943
  0
VERTEX
  8
0
  6
CONTINUOUS
 62
     1
 10
122.700480947
 20
54.125
 30
0.0
 42
0.01210693
  0
VERTEX
  8
0
  6
CONTINUOUS
 62
     1
 10
122.735635967
 20
53.996241236
 30
0.0
 42
0.013244199
  0
VERTEX
  8
0
  6
CONTINUOUS
 62
     1
 10
122.775466668
 20
53.875121683
 30
0.0
 42
0.014697022
  0
VERTEX
  8
0
  6
CONTINUOUS
 62
     1
 10
122.819669914
 20
53.762563133
 30
0.0
 42
0.0165473
  0
VERTEX
  8
0
  6
CONTINUOUS
 62
     1
 10
122.867909293
 20
53.659422225
 30
0.0
 42
0.018899517
  0
VERTEX
  8
0
  6
CONTINUOUS
 62
     1
 10
122.919817673
 20
53.566483922
 30
0.0
 42
0.021879309
  0
VERTEX
  8
0
  6
CONTINUOUS
 62
     1
 10
122.975
 20
53.484455543
 30
0.0
 42
0.025619082
  0
VERTEX
  8
0
  6
CONTINUOUS
 62
     1
 10
123.033036304
 20
53.413961373
 30
0.0
 42
0.030212853
  0
VERTEX
  8
0
  6
CONTINUOUS
 62
     1
 10
123.093484893
 20
53.355537914
 30
0.0
 42
0.035611414
  0
VERTEX
  8
0
  6
CONTINUOUS
 62
     1
 10
123.155885716
 20
53.309629804
 30
0.0
 42
0.041436988
  0
VERTEX
  8
0
  6
CONTINUOUS
 62
     1
 10
123.219763867
 20
53.276586432
 30
0.0
 42
0.046783888
  0
VERTEX
  8
0
  6
CONTINUOUS
 62
     1
 10
123.284633193
 20
53.256659278
 30
0.0
 42
0.050275899
  0
VERTEX
  8
0
  6
CONTINUOUS
 62
     1
 10
123.35
 20
53.25
 30
0.0
 42
0.050699051
  0
VERTEX
  8
0
  6
CONTINUOUS
 62
     1
 10
123.415366807
 20
53.256659278
 30
0.0
 42
0.047888382
  0
VERTEX
  8
0
  6
CONTINUOUS
 62
     1
 10
123.480236133
 20
53.276586432
 30
0.0
 42
0.042866866
  0
VERTEX
  8
0
  6
CONTINUOUS
 62
     1
 10
123.544114284
 20
53.309629804
 30
0.0
 42
0.037053014
  0
VERTEX
  8
0
  6
CONTINUOUS
 62
     1
 10
123.606515107
 20
53.355537914
 30
0.0
 42
0.03149445
  0
VERTEX
  8
0
  6
CONTINUOUS
 62
     1
 10
123.666963696
 20
53.413961373
 30
0.0
 42
0.026685798
  0
VERTEX
  8
0
  6
CONTINUOUS
 62
     1
 10
123.725
 20
53.484455543
 30
0.0
 42
0.022738135
  0
VERTEX
  8
0
  6
CONTINUOUS
 62
     1
 10
123.780182327
 20
53.566483922
 30
0.0
 42
0.019580374
  0
VERTEX
  8
0
  6
CONTINUOUS
 62
     1
 10
123.832090707
 20
53.659422225
 30
0.0
 42
0.017083706
  0
VERTEX
  8
0
  6
CONTINUOUS
 62
     1
 10
123.880330086
 20
53.762563133
 30
0.0
 42
0.015118648
  0
VERTEX
  8
0
  6
CONTINUOUS
 62
     1
 10
123.924533332
 20
53.875121683
 30
0.0
 42
0.013574987
  0
VERTEX
  8
0
  6
CONTINUOUS
 62
     1
 10
123.964364033
 20
53.996241236
 30
0.0
 42
0.012365369
  0
VERTEX
  8
0
  6
CONTINUOUS
 62
     1
 10
123.999519053
 20
54.125
 30
0.0
 42
0.011422971
  0
VERTEX
  8
0
  6
CONTINUOUS
 62
     1
 10
124.02973084
 20
54.260418042
 30
0.0
 42
0.010697726
  0
VERTEX
  8
0
  6
CONTINUOUS
 62
     1
 10
124.054769466
 20
54.401464749
 30
0.0
 42
0.010152756
  0
VERTEX
  8
0
  6
CONTINUOUS
 62
     1
 10
124.07444437
 20
54.547066671
 30
0.0
 42
0.0097615
  0
VERTEX
  8
0
  6
CONTINUOUS
 62
     1
 10
124.088605815
 20
54.696115689
 30
0.0
 42
0.009505575
  0
VERTEX
  8
0
  6
CONTINUOUS
 62
     1
 10
124.097146024
 20
54.84747745
 30
0.0
 42
0.009373296
  0
VERTEX
  8
0
  6
CONTINUOUS
 62
     1
 10
124.1
 20
55.0
 30
0.0
 42
0.009358733
  0
VERTEX
  8
0
  6
CONTINUOUS
 62
     1
 10
124.097146024
 20
55.15252255
 30
0.0
 42
0.009461238
  0
VERTEX
  8
0
  6
CONTINUOUS
 62
     1
 10
124.088605815
 20
55.303884311
 30
0.0
 42
0.009685393
  0
VERTEX
  8
0
  6
CONTINUOUS
 62
     1
 10
124.07444437
 20
55.452933329
 30
0.0
 42
0.010041376
  0
VERTEX
  8
0
  6
CONTINUOUS
 62
     1
 10
124.054769466
 20
55.598535251
 30
0.0
 42
0.010545778
  0
VERTEX
  8
0
  6
CONTINUOUS
 62
     1
 10
124.02973084
 20
55.739581958
 30
0.0
 42
0.011222943
  0
VERTEX
  8
0
  6
CONTINUOUS
 62
     1
 10
123.999519053
 20
55.875
 30
0.0
 42
0.01210693
  0
VERTEX
  8
0
  6
CONTINUOUS
 62
     1
 10
123.964364033
 20
56.003758764
 30
0.0
 42
0.013244199
  0
VERTEX
  8
0
  6
CONTINUOUS
 62
     1
 10
123.924533332
 20
56.124878317
 30
0.0
 42
0.014697022
  0
VERTEX
  8
0
  6
CONTINUOUS
 62
     1
 10
123.880330086
 20
56.237436867
 30
0.0
 42
0.0165473
  0
VERTEX
  8
0
  6
CONTINUOUS
 62
     1
 10
123.832090707
 20
56.340577775
 30
0.0
 42
0.018899517
  0
VERTEX
  8
0
  6
CONTINUOUS
 62
     1
 10
123.780182327
 20
56.433516078
 30
0.0
 42
0.021879309
  0
VERTEX
  8
0
  6
CONTINUOUS
 62
     1
 10
123.725
 20
56.515544457
 30
0.0
 42
0.025619082
  0
VERTEX
  8
0
  6
CONTINUOUS
 62
     1
 10
123.666963696
 20
56.586038627
 30
0.0
 42
0.030212853
  0
VERTEX
  8
0
  6
CONTINUOUS
 62
     1
 10
123.606515107
 20
56.644462086
 30
0.0
 42
0.035611414
  0
VERTEX
  8
0
  6
CONTINUOUS
 62
     1
 10
123.544114284
 20
56.690370196
 30
0.0
 42
0.041436988
  0
VERTEX
  8
0
  6
CONTINUOUS
 62
     1
 10
123.480236133
 20
56.723413568
 30
0.0
 42
0.046783888
  0
VERTEX
  8
0
  6
CONTINUOUS
 62
     1
 10
123.415366807
 20
56.743340722
 30
0.0
 42
0.050275899
  0
SEQEND
  8
0
  6
CONTINUOUS
 62
     1
  0
ARC
  8
0
  6
CONTINUOUS
 62
     2
 10
24.4
 20
131.4
 30
0.0
 40
104.2
 50
16.7327446
 51
20.745640042
  0
ARC
  8
0
  6
CONTINUOUS
 62
     2
 10
24.4
 20
131.4
 30
0.0
 40
104.2
 50
339.254359958
 51
343.2672554
  0
LINE
  8
0
  6
CONTINUOUS
 62
     2
 10
41.4
 20
153.7
 30
0.0
 11
41.4
 21
109.644491525
 31
0.0
  0
LINE
  8
0
  6
CONTINUOUS
 62
     2
 10
101.4
 20
95.65
 30
0.0
 11
101.4
 21
102.95
 31
0.0
  0
LINE
  8
0
  6
CONTINUOUS
 62
     2
 10
41.4
 20
109.644491525
 30
0.0
 11
101.4
 21
102.983474576
 31
0.0
  0
LINE
  8
0
  6
CONTINUOUS
 62
     2
 10
118.425
 20
95.65
 30
0.0
 11
118.425
 21
94.4
 31
0.0
  0
LINE
  8
0
  6
CONTINUOUS
 62
     2
 10
118.425
 20
94.4
 30
0.0
 11
121.825
 21
94.4
 31
0.0
  0
LINE
  8
0
  6
CONTINUOUS
 62
     2
 10
118.3875
 20
167.15
 30
0.0
 11
118.3875
 21
168.35
 31
0.0
  0
LINE
  8
0
  6
CONTINUOUS
 62
     2
 10
118.3875
 20
168.35
 30
0.0
 11
121.7875
 21
168.35
 31
0.0
  0
CIRCLE
  8
0
  6
CONTINUOUS
 62
     2
 10
105.9
 20
97.65
 30
0.0
 40
1.2495
  0
LINE
  8
0
  6
CONTINUOUS
 62
     2
 10
105.171125
 20
97.8166
 30
0.0
 11
105.5668
 21
97.8166
 31
0.0
  0
ARC
  8
0
  6
CONTINUOUS
 62
     2
 10
105.5668
 20
97.9832
 30
0.0
 40
0.1666
 50
270.0
 51
0.0
  0
LINE
  8
0
  6
CONTINUOUS
 62
     2
 10
105.7334
 20
97.9832
 30
0.0
 11
105.7334
 21
98.378875
 31
0.0
  0
LINE
  8
0
  6
CONTINUOUS
 62
     2
 10
105.7334
 20
98.378875
 30
0.0
 11
106.0666
 21
98.378875
 31
0.0
  0
LINE
  8
0
  6
CONTINUOUS
 62
     2
 10
106.0666
 20
98.378875
 30
0.0
 11
106.0666
 21
97.9832
 31
0.0
  0
ARC
  8
0
  6
CONTINUOUS
 62
     2
 10
106.2332
 20
97.9832
 30
0.0
 40
0.1666
 50
180.0
 51
270.0
  0
LINE
  8
0
  6
CONTINUOUS
 62
     2
 10
106.2332
 20
97.8166
 30
0.0
 11
106.628875
 21
97.8166
 31
0.0
  0
LINE
  8
0
  6
CONTINUOUS
 62
     2
 10
106.628875
 20
97.8166
 30
0.0
 11
106.628875
 21
97.4834
 31
0.0
  0
LINE
  8
0
  6
CONTINUOUS
 62
     2
 10
106.628875
 20
97.4834
 30
0.0
 11
106.2332
 21
97.4834
 31
0.0
  0
ARC
  8
0
  6
CONTINUOUS
 62
     2
 10
106.2332
 20
97.3168
 30
0.0
 40
0.1666
 50
90.0
 51
180.0
  0
LINE
  8
0
  6
CONTINUOUS
 62
     2
 10
106.0666
 20
97.3168
 30
0.0
 11
106.0666
 21
96.921125
 31
0.0
  0
LINE
  8
0
  6
CONTINUOUS
 62
     2
 10
106.0666
 20
96.921125
 30
0.0
 11
105.7334
 21
96.921125
 31
0.0
  0
LINE
  8
0
  6
CONTINUOUS
 62
     2
 10
105.7334
 20
96.921125
 30
0.0
 11
105.7334
 21
97.3168
 31
0.0
  0
ARC
  8
0
  6
CONTINUOUS
 62
     2
 10
105.5668
 20
97.3168
 30
0.0
 40
0.1666
 50
0.0
 51
90.0
  0
LINE
  8
0
  6
CONTINUOUS
 62
     2
 10
105.5668
 20
97.4834
 30
0.0
 11
105.171125
 21
97.4834
 31
0.0
  0
LINE
  8
0
  6
CONTINUOUS
 62
     2
 10
105.171125
 20
97.4834
 30
0.0
 11
105.171125
 21
97.8166
 31
0.0
  0
LINE
  8
0
  6
LTYPE1
 62
     2
 10
104.234
 20
97.65
 30
0.0
 11
107.566
 21
97.65
 31
0.0
  0
LINE
  8
0
  6
LTYPE1
 62
     2
 10
105.9
 20
99.316
 30
0.0
 11
105.9
 21
95.984
 31
0.0
  0
CIRCLE
  8
0
  6
CONTINUOUS
 62
     2
 10
105.9
 20
165.15
 30
0.0
 40
1.2495
  0
LINE
  8
0
  6
CONTINUOUS
 62
     2
 10
105.171125
 20
165.3166
 30
0.0
 11
105.5668
 21
165.3166
 31
0.0
  0
ARC
  8
0
  6
CONTINUOUS
 62
     2
 10
105.5668
 20
165.4832
 30
0.0
 40
0.1666
 50
270.0
 51
0.0
  0
LINE
  8
0
  6
CONTINUOUS
 62
     2
 10
105.7334
 20
165.4832
 30
0.0
 11
105.7334
 21
165.878875
 31
0.0
  0
LINE
  8
0
  6
CONTINUOUS
 62
     2
 10
105.7334
 20
165.878875
 30
0.0
 11
106.0666
 21
165.878875
 31
0.0
  0
LINE
  8
0
  6
CONTINUOUS
 62
     2
 10
106.0666
 20
165.878875
 30
0.0
 11
106.0666
 21
165.4832
 31
0.0
  0
ARC
  8
0
  6
CONTINUOUS
 62
     2
 10
106.2332
 20
165.4832
 30
0.0
 40
0.1666
 50
180.0
 51
270.0
  0
LINE
  8
0
  6
CONTINUOUS
 62
     2
 10
106.2332
 20
165.3166
 30
0.0
 11
106.628875
 21
165.3166
 31
0.0
  0
LINE
  8
0
  6
CONTINUOUS
 62
     2
 10
106.628875
 20
165.3166
 30
0.0
 11
106.628875
 21
164.9834
 31
0.0
  0
LINE
  8
0
  6
CONTINUOUS
 62
     2
 10
106.628875
 20
164.9834
 30
0.0
 11
106.2332
 21
164.9834
 31
0.0
  0
ARC
  8
0
  6
CONTINUOUS
 62
     2
 10
106.2332
 20
164.8168
 30
0.0
 40
0.1666
 50
90.0
 51
180.0
  0
LINE
  8
0
  6
CONTINUOUS
 62
     2
 10
106.0666
 20
164.8168
 30
0.0
 11
106.0666
 21
164.421125
 31
0.0
  0
LINE
  8
0
  6
CONTINUOUS
 62
     2
 10
106.0666
 20
164.421125
 30
0.0
 11
105.7334
 21
164.421125
 31
0.0
  0
LINE
  8
0
  6
CONTINUOUS
 62
     2
 10
105.7334
 20
164.421125
 30
0.0
 11
105.7334
 21
164.8168
 31
0.0
  0
ARC
  8
0
  6
CONTINUOUS
 62
     2
 10
105.5668
 20
164.8168
 30
0.0
 40
0.1666
 50
0.0
 51
90.0
  0
LINE
  8
0
  6
CONTINUOUS
 62
     2
 10
105.5668
 20
164.9834
 30
0.0
 11
105.171125
 21
164.9834
 31
0.0
  0
LINE
  8
0
  6
CONTINUOUS
 62
     2
 10
105.171125
 20
164.9834
 30
0.0
 11
105.171125
 21
165.3166
 31
0.0
  0
LINE
  8
0
  6
LTYPE1
 62
     2
 10
104.234
 20
165.15
 30
0.0
 11
107.566
 21
165.15
 31
0.0
  0
LINE
  8
0
  6
LTYPE1
 62
     2
 10
105.9
 20
166.816
 30
0.0
 11
105.9
 21
163.484
 31
0.0
  0
CIRCLE
  8
0
  6
CONTINUOUS
 62
     2
 10
43.4
 20
151.4
 30
0.0
 40
1.2495
  0
LINE
  8
0
  6
CONTINUOUS
 62
     2
 10
42.671125
 20
151.5666
 30
0.0
 11
43.0668
 21
151.5666
 31
0.0
  0
ARC
  8
0
  6
CONTINUOUS
 62
     2
 10
43.0668
 20
151.7332
 30
0.0
 40
0.1666
 50
270.0
 51
0.0
  0
LINE
  8
0
  6
CONTINUOUS
 62
     2
 10
43.2334
 20
151.7332
 30
0.0
 11
43.2334
 21
152.128875
 31
0.0
  0
LINE
  8
0
  6
CONTINUOUS
 62
     2
 10
43.2334
 20
152.128875
 30
0.0
 11
43.5666
 21
152.128875
 31
0.0
  0
LINE
  8
0
  6
CONTINUOUS
 62
     2
 10
43.5666
 20
152.128875
 30
0.0
 11
43.5666
 21
151.7332
 31
0.0
  0
ARC
  8
0
  6
CONTINUOUS
 62
     2
 10
43.7332
 20
151.7332
 30
0.0
 40
0.1666
 50
180.0
 51
270.0
  0
LINE
  8
0
  6
CONTINUOUS
 62
     2
 10
43.7332
 20
151.5666
 30
0.0
 11
44.128875
 21
151.5666
 31
0.0
  0
LINE
  8
0
  6
CONTINUOUS
 62
     2
 10
44.128875
 20
151.5666
 30
0.0
 11
44.128875
 21
151.2334
 31
0.0
  0
LINE
  8
0
  6
CONTINUOUS
 62
     2
 10
44.128875
 20
151.2334
 30
0.0
 11
43.7332
 21
151.2334
 31
0.0
  0
ARC
  8
0
  6
CONTINUOUS
 62
     2
 10
43.7332
 20
151.0668
 30
0.0
 40
0.1666
 50
90.0
 51
180.0
  0
LINE
  8
0
  6
CONTINUOUS
 62
     2
 10
43.5666
 20
151.0668
 30
0.0
 11
43.5666
 21
150.671125
 31
0.0
  0
LINE
  8
0
  6
CONTINUOUS
 62
     2
 10
43.5666
 20
150.671125
 30
0.0
 11
43.2334
 21
150.671125
 31
0.0
  0
LINE
  8
0
  6
CONTINUOUS
 62
     2
 10
43.2334
 20
150.671125
 30
0.0
 11
43.2334
 21
151.0668
 31
0.0
  0
ARC
  8
0
  6
CONTINUOUS
 62
     2
 10
43.0668
 20
151.0668
 30
0.0
 40
0.1666
 50
0.0
 51
90.0
  0
LINE
  8
0
  6
CONTINUOUS
 62
     2
 10
43.0668
 20
151.2334
 30
0.0
 11
42.671125
 21
151.2334
 31
0.0
  0
LINE
  8
0
  6
CONTINUOUS
 62
     2
 10
42.671125
 20
151.2334
 30
0.0
 11
42.671125
 21
151.5666
 31
0.0
  0
LINE
  8
0
  6
LTYPE1
 62
     2
 10
41.734
 20
151.4
 30
0.0
 11
45.066
 21
151.4
 31
0.0
  0
LINE
  8
0
  6
LTYPE1
 62
     2
 10
43.4
 20
153.066
 30
0.0
 11
43.4
 21
149.734
 31
0.0
  0
CIRCLE
  8
0
  6
CONTINUOUS
 62
     2
 10
43.4
 20
111.4
 30
0.0
 40
1.2495
  0
LINE
  8
0
  6
CONTINUOUS
 62
     2
 10
42.671125
 20
111.5666
 30
0.0
 11
43.0668
 21
111.5666
 31
0.0
  0
ARC
  8
0
  6
CONTINUOUS
 62
     2
 10
43.0668
 20
111.7332
 30
0.0
 40
0.1666
 50
270.0
 51
0.0
  0
LINE
  8
0
  6
CONTINUOUS
 62
     2
 10
43.2334
 20
111.7332
 30
0.0
 11
43.2334
 21
112.128875
 31
0.0
  0
LINE
  8
0
  6
CONTINUOUS
 62
     2
 10
43.2334
 20
112.128875
 30
0.0
 11
43.5666
 21
112.128875
 31
0.0
  0
LINE
  8
0
  6
CONTINUOUS
 62
     2
 10
43.5666
 20
112.128875
 30
0.0
 11
43.5666
 21
111.7332
 31
0.0
  0
ARC
  8
0
  6
CONTINUOUS
 62
     2
 10
43.7332
 20
111.7332
 30
0.0
 40
0.1666
 50
180.0
 51
270.0
  0
LINE
  8
0
  6
CONTINUOUS
 62
     2
 10
43.7332
 20
111.5666
 30
0.0
 11
44.128875
 21
111.5666
 31
0.0
  0
LINE
  8
0
  6
CONTINUOUS
 62
     2
 10
44.128875
 20
111.5666
 30
0.0
 11
44.128875
 21
111.2334
 31
0.0
  0
LINE
  8
0
  6
CONTINUOUS
 62
     2
 10
44.128875
 20
111.2334
 30
0.0
 11
43.7332
 21
111.2334
 31
0.0
  0
ARC
  8
0
  6
CONTINUOUS
 62
     2
 10
43.7332
 20
111.0668
 30
0.0
 40
0.1666
 50
90.0
 51
180.0
  0
LINE
  8
0
  6
CONTINUOUS
 62
     2
 10
43.5666
 20
111.0668
 30
0.0
 11
43.5666
 21
110.671125
 31
0.0
  0
LINE
  8
0
  6
CONTINUOUS
 62
     2
 10
43.5666
 20
110.671125
 30
0.0
 11
43.2334
 21
110.671125
 31
0.0
  0
LINE
  8
0
  6
CONTINUOUS
 62
     2
 10
43.2334
 20
110.671125
 30
0.0
 11
43.2334
 21
111.0668
 31
0.0
  0
ARC
  8
0
  6
CONTINUOUS
 62
     2
 10
43.0668
 20
111.0668
 30
0.0
 40
0.1666
 50
0.0
 51
90.0
  0
LINE
  8
0
  6
CONTINUOUS
 62
     2
 10
43.0668
 20
111.2334
 30
0.0
 11
42.671125
 21
111.2334
 31
0.0
  0
LINE
  8
0
  6
CONTINUOUS
 62
     2
 10
42.671125
 20
111.2334
 30
0.0
 11
42.671125
 21
111.5666
 31
0.0
  0
LINE
  8
0
  6
LTYPE1
 62
     2
 10
41.734
 20
111.4
 30
0.0
 11
45.066
 21
111.4
 31
0.0
  0
LINE
  8
0
  6
LTYPE1
 62
     2
 10
43.4
 20
113.066
 30
0.0
 11
43.4
 21
109.734
 31
0.0
  0
LINE
  8
0
  6
CONTINUOUS
 62
     2
 10
99.15
 20
165.614356744
 30
0.0
 11
98.660183787
 21
165.614356744
 31
0.0
  0
LINE
  8
0
  6
CONTINUOUS
 62
     2
 10
99.15
 20
164.054678804
 30
0.0
 11
98.660183787
 21
163.655091894
 31
0.0
  0
LINE
  8
0
  6
CONTINUOUS
 62
     2
 10
99.15
 20
164.364036412
 30
0.0
 11
98.647293887
 21
163.990229302
 31
0.0
  0
LINE
  8
0
  6
CONTINUOUS
 62
     2
 10
97.293854352
 20
163.629312093
 30
0.0
 11
97.384083655
 21
163.629312093
 31
0.0
  0
LINE
  8
0
  6
CONTINUOUS
 62
     2
 10
97.384083655
 20
164.106238405
 30
0.0
 11
97.306744253
 21
164.106238405
 31
0.0
  0
LINE
  8
0
  6
CONTINUOUS
 62
     2
 10
99.147293887
 20
162.185643256
 30
0.0
 11
98.647293887
 21
162.185643256
 31
0.0
  0
LINE
  8
0
  6
CONTINUOUS
 62
     2
 10
99.15
 20
162.184863455
 30
0.0
 11
99.15
 21
165.614356744
 31
0.0
  0
LINE
  8
0
  6
CONTINUOUS
 62
     2
 10
99.15
 20
100.614356744
 30
0.0
 11
98.660183787
 21
100.614356744
 31
0.0
  0
LINE
  8
0
  6
CONTINUOUS
 62
     2
 10
99.15
 20
99.054678804
 30
0.0
 11
98.660183787
 21
98.655091894
 31
0.0
  0
LINE
  8
0
  6
CONTINUOUS
 62
     2
 10
99.15
 20
99.364036412
 30
0.0
 11
98.647293887
 21
98.990229302
 31
0.0
  0
LINE
  8
0
  6
CONTINUOUS
 62
     2
 10
97.293854352
 20
98.629312093
 30
0.0
 11
97.384083655
 21
98.629312093
 31
0.0
  0
LINE
  8
0
  6
CONTINUOUS
 62
     2
 10
97.384083655
 20
99.106238405
 30
0.0
 11
97.306744253
 21
99.106238405
 31
0.0
  0
LINE
  8
0
  6
CONTINUOUS
 62
     2
 10
99.147293887
 20
97.185643256
 30
0.0
 11
98.647293887
 21
97.185643256
 31
0.0
  0
LINE
  8
0
  6
CONTINUOUS
 62
     2
 10
99.15
 20
97.184863455
 30
0.0
 11
99.15
 21
100.614356744
 31
0.0
  0
LINE
  8
0
  6
LTYPE1
 62
     2
 10
95.484083655
 20
98.9
 30
0.0
 11
102.884083655
 21
98.9
 31
0.0
  0
LINE
  8
0
  6
LTYPE1
 62
     2
 10
95.904083655
 20
163.91
 30
0.0
 11
103.304083655
 21
163.91
 31
0.0
  0
LINE
  8
0
  6
CONTINUOUS
 62
     2
 10
33.393854352
 20
137.65
 30
0.0
 11
25.025
 21
137.65
 31
0.0
  0
LINE
  8
0
  6
CONTINUOUS
 62
     2
 10
27.025
 20
137.65
 30
0.0
 11
26.377952387
 21
135.235185434
 31
0.0
  0
LINE
  8
0
  6
CONTINUOUS
 62
     2
 10
27.025
 20
137.65
 30
0.0
 11
27.672047613
 21
135.235185434
 31
0.0
  0
LINE
  8
0
  6
CONTINUOUS
 62
     2
 10
27.025
 20
137.65
 30
0.0
 11
27.025
 21
125.15
 31
0.0
  0
LINE
  8
0
  6
CONTINUOUS
 62
     2
 10
27.025
 20
125.15
 30
0.0
 11
27.672047613
 21
127.564814566
 31
0.0
  0
LINE
  8
0
  6
CONTINUOUS
 62
     2
 10
27.025
 20
125.15
 30
0.0
 11
26.377952387
 21
127.564814566
 31
0.0
  0
LINE
  8
0
  6
CONTINUOUS
 62
     2
 10
32.893854352
 20
125.15
 30
0.0
 11
25.025
 21
125.15
 31
0.0
  0
TEXT
  8
0
  6
CONTINUOUS
 62
     2
 10
26.025
 20
129.45
 30
0.3
 40
3.0
  1
２５
 50
90.0
 41
0.6
 51
0.0
  7
KANJI1
  0
LINE
  8
0
  6
CONTINUOUS
 62
     2
 10
101.4
 20
167.15
 30
0.0
 11
117.85
 21
167.15
 31
0.0
  0
LINE
  8
0
  6
CONTINUOUS
 62
     2
 10
118.1
 20
167.15
 30
0.0
 11
118.3875
 21
167.15
 31
0.0
  0
LINE
  8
0
  6
CONTINUOUS
 62
     2
 10
101.4
 20
95.65
 30
0.0
 11
117.85
 21
95.65
 31
0.0
  0
LINE
  8
0
  6
CONTINUOUS
 62
     2
 10
118.1
 20
95.65
 30
0.0
 11
118.425
 21
95.65
 31
0.0
  0
LINE
  8
0
  6
CONTINUOUS
 62
     2
 10
117.85
 20
179.525
 30
0.0
 11
129.4
 21
179.525
 31
0.0
  0
LINE
  8
0
  6
CONTINUOUS
 62
     2
 10
129.4
 20
179.525
 30
0.0
 11
126.985185434
 21
180.172047613
 31
0.0
  0
LINE
  8
0
  6
CONTINUOUS
 62
     2
 10
129.4
 20
179.525
 30
0.0
 11
126.985185434
 21
178.877952387
 31
0.0
  0
LINE
  8
0
  6
CONTINUOUS
 62
     2
 10
129.4
 20
137.9
 30
0.0
 11
129.4
 21
181.525
 31
0.0
  0
TEXT
  8
0
  6
CONTINUOUS
 62
     2
 10
121.675
 20
180.525
 30
0.3
 40
3.0
  1
２３
 50
0.0
 41
0.6
 51
0.0
  7
KANJI1
  0
LINE
  8
0
  6
CONTINUOUS
 62
     2
 10
40.9
 20
154.319155043
 30
0.0
 11
40.9
 21
176.6
 31
0.0
  0
LINE
  8
0
  6
CONTINUOUS
 62
     2
 10
40.9
 20
174.6
 30
0.0
 11
99.15
 21
174.6
 31
0.0
  0
LINE
  8
0
  6
CONTINUOUS
 62
     2
 10
99.15
 20
174.6
 30
0.0
 11
96.735185434
 21
175.247047613
 31
0.0
  0
LINE
  8
0
  6
CONTINUOUS
 62
     2
 10
99.15
 20
174.6
 30
0.0
 11
96.735185434
 21
173.952952387
 31
0.0
  0
LINE
  8
0
  6
CONTINUOUS
 62
     2
 10
99.15
 20
173.15
 30
0.0
 11
99.15
 21
176.6
 31
0.0
  0
TEXT
  8
0
  6
CONTINUOUS
 62
     2
 10
67.025
 20
175.6
 30
0.3
 40
3.0
  1
１１８
 50
0.0
 41
0.6
 51
0.0
  7
KANJI1
  0
LINE
  8
0
  6
CONTINUOUS
 62
     2
 10
99.15
 20
174.6
 30
0.0
 11
101.564814566
 21
173.952952387
 31
0.0
  0
LINE
  8
0
  6
CONTINUOUS
 62
     2
 10
99.15
 20
174.6
 30
0.0
 11
101.564814566
 21
175.247047613
 31
0.0
  0
TEXT
  8
0
  6
CONTINUOUS
 62
     2
 10
106.5375
 20
175.6
 30
0.3
 40
3.0
  1
３６
 50
0.0
 41
0.6
 51
0.0
  7
KANJI1
  0
TEXT
  8
0
  6
CONTINUOUS
 62
     2
 10
119.275
 20
175.6
 30
0.3
 40
3.0
  1
９
 50
0.0
 41
0.6
 51
0.0
  7
KANJI1
  0
LINE
  8
0
  6
CONTINUOUS
 62
     2
 10
40.9
 20
174.6
 30
0.0
 11
43.314814566
 21
173.952952387
 31
0.0
  0
LINE
  8
0
  6
CONTINUOUS
 62
     2
 10
40.9
 20
174.6
 30
0.0
 11
43.314814566
 21
175.247047613
 31
0.0
  0
LINE
  8
0
  6
CONTINUOUS
 62
     2
 10
40.9
 20
174.6
 30
0.0
 11
30.4
 21
174.6
 31
0.0
  0
LINE
  8
0
  6
CONTINUOUS
 62
     2
 10
90.1
 20
102.65
 30
0.0
 11
90.747047613
 21
105.064814566
 31
0.0
  0
LINE
  8
0
  6
CONTINUOUS
 62
     2
 10
90.1
 20
102.65
 30
0.0
 11
89.452952387
 21
105.064814566
 31
0.0
  0
LINE
  8
0
  6
CONTINUOUS
 62
     2
 10
98.86
 20
102.65
 30
0.0
 11
88.1
 21
102.65
 31
0.0
  0
LINE
  8
0
  6
CONTINUOUS
 62
     2
 10
123.0
 20
168.9
 30
0.0
 11
139.303439535
 21
168.9
 31
0.0
  0
LINE
  8
0
  6
CONTINUOUS
 62
     2
 10
137.303439535
 20
168.9
 30
0.0
 11
136.656391922
 21
166.485185434
 31
0.0
  0
LINE
  8
0
  6
CONTINUOUS
 62
     2
 10
137.303439535
 20
168.9
 30
0.0
 11
137.950487147
 21
166.485185434
 31
0.0
  0
TEXT
  8
0
  6
CONTINUOUS
 62
     2
 10
136.303439535
 20
127.246733076
 30
0.3
 40
3.0
  1
１５０
 50
90.0
 41
0.6
 51
0.0
  7
KANJI1
  0
TEXT
  8
0
  6
CONTINUOUS
 62
     2
 10
136.303439535
 20
133.246733076
 30
0.18
 40
1.8
  1
±１
 50
90.0
 41
0.6
 51
0.0
  7
KANJI2
  0
TEXT
  8
0
  6
CONTINUOUS
 62
     2
 10
20.0125
 20
129.749196113
 30
0.3
 40
3.0
  1
９０
 50
90.0
 41
0.6
 51
0.0
  7
KANJI1
  0
LINE
  8
0
  6
CONTINUOUS
 62
     2
 10
154.0
 20
95.101167948
 30
0.0
 11
174.0
 21
95.101167948
 31
0.0
  0
LINE
  8
0
  6
CONTINUOUS
 62
     2
 10
154.0
 20
99.618650104
 30
0.0
 11
174.0
 21
99.618650104
 31
0.0
  0
LINE
  8
0
  6
CONTINUOUS
 62
     2
 10
174.0
 20
100.753272395
 30
0.0
 11
154.0
 21
100.753272395
 31
0.0
  0
LINE
  8
0
  6
CONTINUOUS
 62
     2
 10
154.0
 20
167.772548015
 30
0.0
 11
174.0
 21
167.772548015
 31
0.0
  0
LINE
  8
0
  6
CONTINUOUS
 62
     2
 10
174.0
 20
166.637925724
 30
0.0
 11
154.0
 21
166.637925724
 31
0.0
  0
LINE
  8
0
  6
CONTINUOUS
 62
     2
 10
154.0
 20
165.503303433
 30
0.0
 11
174.0
 21
165.503303433
 31
0.0
  0
LINE
  8
0
  6
CONTINUOUS
 62
     2
 10
174.0
 20
164.339158351
 30
0.0
 11
154.0
 21
164.339158351
 31
0.0
  0
LINE
  8
0
  6
CONTINUOUS
 62
     2
 10
154.0
 20
163.213317705
 30
0.0
 11
174.0
 21
163.213317705
 31
0.0
  0
LINE
  8
0
  6
CONTINUOUS
 62
     2
 10
174.0
 20
162.078695414
 30
0.0
 11
154.0
 21
162.078695414
 31
0.0
  0
LINE
  8
0
  6
CONTINUOUS
 62
     2
 10
162.397189125
 20
96.197506371
 30
0.0
 11
154.0
 21
96.197506371
 31
0.0
  0
LINE
  8
0
  6
CONTINUOUS
 62
     2
 10
174.0
 20
96.197506371
 30
0.0
 11
165.602810875
 21
96.197506371
 31
0.0
  0
LINE
  8
0
  6
CONTINUOUS
 62
     2
 10
165.691311525
 20
97.349405523
 30
0.0
 11
174.0
 21
97.349405523
 31
0.0
  0
LINE
  8
0
  6
CONTINUOUS
 62
     2
 10
154.0
 20
97.349405523
 30
0.0
 11
162.308688475
 21
97.349405523
 31
0.0
  0
LINE
  8
0
  6
CONTINUOUS
 62
     2
 10
163.458688475
 20
98.484027814
 30
0.0
 11
154.0
 21
98.484027814
 31
0.0
  0
LINE
  8
0
  6
CONTINUOUS
 62
     2
 10
174.0
 20
98.484027814
 30
0.0
 11
164.508688475
 21
98.484027814
 31
0.0
  0
LINE
  8
0
  6
CONTINUOUS
 62
     2
 10
163.75
 20
95.201167948
 30
0.0
 11
163.75
 21
98.632050808
 31
0.0
  0
LINE
  8
0
  6
CONTINUOUS
 62
     2
 10
164.25
 20
98.632050808
 30
0.0
 11
164.25
 21
95.251167948
 31
0.0
  0
LINE
  8
0
  6
CONTINUOUS
 62
     2
 10
142.85
 20
84.05
 30
0.0
 11
136.85
 21
84.05
 31
0.0
  0
TEXT
  8
0
  6
CONTINUOUS
 62
     2
 10
136.85
 20
85.05
 30
1.0
 40
3.0
  1
指針
 50
0.0
 41
0.833333333
 51
0.0
  7
KANJI3
  0
LINE
  8
0
  6
CONTINUOUS
 62
     2
 10
163.65
 20
95.95
 30
0.0
 11
161.859503695
 21
94.205258478
 31
0.0
  0
LINE
  8
0
  6
CONTINUOUS
 62
     2
 10
163.65
 20
95.95
 30
0.0
 11
162.971755475
 21
93.543761366
 31
0.0
  0
LINE
  8
0
  6
CONTINUOUS
 62
     2
 10
163.65
 20
95.95
 30
0.0
 11
152.35
 21
76.95
 31
0.0
  0
LINE
  8
0
  6
CONTINUOUS
 62
     2
 10
198.65
 20
94.9
 30
0.0
 11
199.297047613
 21
97.314814566
 31
0.0
  0
LINE
  8
0
  6
CONTINUOUS
 62
     2
 10
198.65
 20
94.9
 30
0.0
 11
198.002952387
 21
97.314814566
 31
0.0
  0
LINE
  8
0
  6
CONTINUOUS
 62
     2
 10
198.65
 20
94.9
 30
0.0
 11
198.65
 21
167.9
 31
0.0
  0
LINE
  8
0
  6
CONTINUOUS
 62
     2
 10
198.65
 20
167.9
 30
0.0
 11
198.002952387
 21
165.485185434
 31
0.0
  0
LINE
  8
0
  6
CONTINUOUS
 62
     2
 10
198.65
 20
167.9
 30
0.0
 11
199.297047613
 21
165.485185434
 31
0.0
  0
TEXT
  8
0
  6
CONTINUOUS
 62
     2
 10
197.65
 20
127.23
 30
0.3
 40
3.0
  1
１４６
 50
90.0
 41
0.6
 51
0.0
  7
KANJI1
  0
TEXT
  8
0
  6
CONTINUOUS
 62
     2
 10
197.65
 20
133.23
 30
0.18
 40
1.8
  1
－０
 50
90.0
 41
0.6
 51
0.0
  7
KANJI2
  0
TEXT
  8
0
  6
CONTINUOUS
 62
     2
 10
195.85
 20
133.23
 30
0.18
 40
1.8
  1
＋１
 50
90.0
 41
0.6
 51
0.0
  7
KANJI2
  0
TEXT
  8
0
  6
CONTINUOUS
 62
     2
 10
191.3125
 20
150.65
 30
0.3
 40
3.0
  1
（４０．２　　Ｎ）＋
 50
0.0
 41
0.6
 51
0.0
  7
KANJI1
  0
TEXT
  8
0
  6
CONTINUOUS
 62
     2
 10
201.95
 20
150.45
 30
0.3
 40
3.0
  1
×
 50
0.0
 41
0.9
 51
0.0
  7
KANJI0
  0
TEXT
  8
0
  6
CONTINUOUS
 62
     2
 10
212.45
 20
150.75
 30
0.3
 40
3.0
  1
１．５
 50
0.0
 41
0.9
 51
0.0
  7
KANJI0
  0
TEXT
  8
0
  6
CONTINUOUS
 62
     2
 10
203.05
 20
171.95
 30
0.3
 40
3.0
  1
Ｎ；連結計器個数
 50
0.0
 41
0.9
 51
0.0
  7
KANJI0
  0
LINE
  8
0
  6
CONTINUOUS
 62
     2
 10
202.85
 20
171.05
 30
0.0
 11
227.85
 21
171.05
 31
0.0
  0
LINE
  8
0
  6
CONTINUOUS
 62
     2
 10
117.85
 20
43.5
 30
0.0
 11
118.1
 21
43.5
 31
0.0
  0
LINE
  8
0
  6
CONTINUOUS
 62
     2
 10
118.1
 20
43.5
 30
0.0
 11
118.1
 21
66.5
 31
0.0
  0
LINE
  8
0
  6
CONTINUOUS
 62
     2
 10
118.1
 20
66.5
 30
0.0
 11
117.85
 21
66.5
 31
0.0
  0
LINE
  8
0
  6
CONTINUOUS
 62
     2
 10
117.85
 20
66.5
 30
0.0
 11
117.85
 21
64.0
 31
0.0
  0
LINE
  8
0
  6
CONTINUOUS
 62
     2
 10
117.85
 20
64.0
 30
0.0
 11
113.1
 21
64.0
 31
0.0
  0
LINE
  8
0
  6
CONTINUOUS
 62
     2
 10
113.1
 20
64.0
 30
0.0
 11
113.1
 21
60.0
 31
0.0
  0
LINE
  8
0
  6
CONTINUOUS
 62
     2
 10
113.1
 20
60.0
 30
0.0
 11
117.85
 21
60.0
 31
0.0
  0
LINE
  8
0
  6
CONTINUOUS
 62
     2
 10
117.85
 20
64.0
 30
0.0
 11
117.85
 21
43.5
 31
0.0
  0
LINE
  8
0
  6
CONTINUOUS
 62
     2
 10
117.85
 20
46.0
 30
0.0
 11
113.1
 21
46.0
 31
0.0
  0
LINE
  8
0
  6
CONTINUOUS
 62
     2
 10
113.1
 20
46.0
 30
0.0
 11
113.1
 21
50.0
 31
0.0
  0
LINE
  8
0
  6
CONTINUOUS
 62
     2
 10
113.1
 20
50.0
 30
0.0
 11
117.85
 21
50.0
 31
0.0
  0
LINE
  8
0
  6
CONTINUOUS
 62
     2
 10
124.378206516
 20
65.0
 30
0.0
 11
124.378206516
 21
45.0
 31
0.0
  0
LINE
  8
0
  6
LTYPE1
 62
     2
 10
135.15
 20
55.0
 30
0.0
 11
30.15
 21
55.0
 31
0.0
  0
LINE
  8
0
  6
CONTINUOUS
 62
     2
 10
113.1
 20
46.0
 30
0.0
 11
113.1
 21
45.0
 31
0.0
  0
LINE
  8
0
  6
CONTINUOUS
 62
     2
 10
113.1
 20
64.0
 30
0.0
 11
113.1
 21
65.0
 31
0.0
  0
LINE
  8
0
  6
CONTINUOUS
 62
     2
 10
87.294560465
 20
54.709312093
 30
0.0
 11
87.384789768
 21
54.709312093
 31
0.0
  0
LINE
  8
0
  6
CONTINUOUS
 62
     2
 10
87.384789768
 20
55.186238405
 30
0.0
 11
87.307450366
 21
55.186238405
 31
0.0
  0
LINE
  8
0
  6
CONTINUOUS
 62
     2
 10
129.9
 20
65.0
 30
0.0
 11
144.85
 21
65.0
 31
0.0
  0
LINE
  8
0
  6
CONTINUOUS
 62
     2
 10
142.85
 20
65.0
 30
0.0
 11
142.202952387
 21
62.585185434
 31
0.0
  0
LINE
  8
0
  6
CONTINUOUS
 62
     2
 10
142.85
 20
65.0
 30
0.0
 11
143.497047613
 21
62.585185434
 31
0.0
  0
LINE
  8
0
  6
CONTINUOUS
 62
     2
 10
142.85
 20
65.0
 30
0.0
 11
142.85
 21
45.0
 31
0.0
  0
LINE
  8
0
  6
CONTINUOUS
 62
     2
 10
142.85
 20
45.0
 30
0.0
 11
143.497047613
 21
47.414814566
 31
0.0
  0
LINE
  8
0
  6
CONTINUOUS
 62
     2
 10
142.85
 20
45.0
 30
0.0
 11
142.202952387
 21
47.414814566
 31
0.0
  0
LINE
  8
0
  6
CONTINUOUS
 62
     2
 10
129.9
 20
45.0
 30
0.0
 11
144.85
 21
45.0
 31
0.0
  0
TEXT
  8
0
  6
CONTINUOUS
 62
     2
 10
141.85
 20
53.05
 30
0.3
 40
3.0
  1
４０
 50
90.0
 41
0.6
 51
0.0
  7
KANJI1
  0
LINE
  8
0
  6
CONTINUOUS
 62
     2
 10
151.05
 20
43.5
 30
0.0
 11
151.697047613
 21
45.914814566
 31
0.0
  0
LINE
  8
0
  6
CONTINUOUS
 62
     2
 10
151.05
 20
43.5
 30
0.0
 11
150.402952387
 21
45.914814566
 31
0.0
  0
LINE
  8
0
  6
CONTINUOUS
 62
     2
 10
118.6
 20
43.5
 30
0.0
 11
153.05
 21
43.5
 31
0.0
  0
TEXT
  8
0
  6
CONTINUOUS
 62
     2
 10
150.05
 20
53.075
 30
0.3
 40
3.0
  1
４６
 50
90.0
 41
0.6
 51
0.0
  7
KANJI1
  0
LINE
  8
0
  6
CONTINUOUS
 62
     2
 10
69.05
 20
45.0
 30
0.0
 11
69.697047613
 21
47.414814566
 31
0.0
  0
LINE
  8
0
  6
CONTINUOUS
 62
     2
 10
69.05
 20
45.0
 30
0.0
 11
68.402952387
 21
47.414814566
 31
0.0
  0
LINE
  8
0
  6
CONTINUOUS
 62
     2
 10
69.05
 20
45.0
 30
0.0
 11
69.05
 21
65.0
 31
0.0
  0
LINE
  8
0
  6
CONTINUOUS
 62
     2
 10
69.05
 20
65.0
 30
0.0
 11
68.402952387
 21
62.585185434
 31
0.0
  0
LINE
  8
0
  6
CONTINUOUS
 62
     2
 10
69.05
 20
65.0
 30
0.0
 11
69.697047613
 21
62.585185434
 31
0.0
  0
TEXT
  8
0
  6
CONTINUOUS
 62
     2
 10
68.05
 20
53.05
 30
0.3
 40
3.0
  1
４０
 50
90.0
 41
0.6
 51
0.0
  7
KANJI1
  0
LINE
  8
0
  6
CONTINUOUS
 62
     2
 10
97.35
 20
54.5
 30
0.0
 11
95.970658121
 21
52.414954202
 31
0.0
  0
LINE
  8
0
  6
CONTINUOUS
 62
     2
 10
97.35
 20
54.5
 30
0.0
 11
97.197977792
 21
52.004626431
 31
0.0
  0
LINE
  8
0
  6
CONTINUOUS
 62
     2
 10
97.35
 20
54.5
 30
0.0
 11
91.75
 21
37.75
 31
0.0
  0
LINE
  8
0
  6
CONTINUOUS
 62
     2
 10
91.75
 20
37.75
 30
0.0
 11
64.75
 21
37.75
 31
0.0
  0
TEXT
  8
0
  6
CONTINUOUS
 62
     2
 10
64.75
 20
38.75
 30
1.0
 40
3.0
  1
Ｍ４ナット，ＳＷ
 50
0.0
 41
0.833333333
 51
0.0
  7
KANJI3
  0
LINE
  8
0
  6
CONTINUOUS
 62
     2
 10
111.4
 20
54.3
 30
0.0
 11
110.093591334
 21
52.168499027
 31
0.0
  0
LINE
  8
0
  6
CONTINUOUS
 62
     2
 10
111.4
 20
54.3
 30
0.0
 11
111.334367393
 21
51.800861676
 31
0.0
  0
LINE
  8
0
  6
CONTINUOUS
 62
     2
 10
111.4
 20
54.3
 30
0.0
 11
103.4
 21
27.3
 31
0.0
  0
LINE
  8
0
  6
CONTINUOUS
 62
     2
 10
103.4
 20
27.3
 30
0.0
 11
48.4
 21
27.3
 31
0.0
  0
TEXT
  8
0
  6
CONTINUOUS
 62
     2
 10
48.4
 20
28.3
 30
1.0
 40
3.0
  1
取付ネジキャップ（ナイロン６６）
 50
0.0
 41
0.833333333
 51
0.0
  7
KANJI3
  0
LINE
  8
0
  6
CONTINUOUS
 62
     2
 10
122.815479374
 20
53.77241894
 30
0.0
 11
122.815479374
 21
45.0
 31
0.0
  0
LINE
  8
0
  6
CONTINUOUS
 62
     2
 10
123.20616116
 20
45.0
 30
0.0
 11
123.20616116
 21
53.282485355
 31
0.0
  0
LINE
  8
0
  6
CONTINUOUS
 62
     2
 10
123.596842945
 20
53.347498211
 30
0.0
 11
123.596842945
 21
45.0
 31
0.0
  0
LINE
  8
0
  6
CONTINUOUS
 62
     2
 10
123.98752473
 20
45.0
 30
0.0
 11
123.98752473
 21
54.197498211
 31
0.0
  0
LINE
  8
0
  6
CONTINUOUS
 62
     2
 10
123.98752473
 20
55.921776587
 30
0.0
 11
123.98752473
 21
65.0
 31
0.0
  0
LINE
  8
0
  6
CONTINUOUS
 62
     2
 10
123.596842945
 20
65.0
 30
0.0
 11
123.596842945
 21
56.652501789
 31
0.0
  0
LINE
  8
0
  6
CONTINUOUS
 62
     2
 10
123.20616116
 20
56.717514645
 30
0.0
 11
123.20616116
 21
65.0
 31
0.0
  0
LINE
  8
0
  6
CONTINUOUS
 62
     2
 10
122.815479374
 20
65.0
 30
0.0
 11
122.815479374
 21
56.22758106
 31
0.0
  0
LINE
  8
0
  6
CONTINUOUS
 62
     2
 10
122.615479374
 20
55.27758106
 30
0.0
 11
124.065479374
 21
55.27758106
 31
0.0
  0
LINE
  8
0
  6
CONTINUOUS
 62
     2
 10
122.665479374
 20
54.77758106
 30
0.0
 11
124.065479374
 21
54.77758106
 31
0.0
  0
LINE
  8
0
  6
CONTINUOUS
 62
     2
 10
153.05
 20
167.5
 30
0.0
 11
153.912184393
 21
169.846622695
 31
0.0
  0
LINE
  8
0
  6
CONTINUOUS
 62
     2
 10
153.05
 20
167.5
 30
0.0
 11
152.623362239
 21
169.963327063
 31
0.0
  0
LINE
  8
0
  6
CONTINUOUS
 62
     2
 10
153.05
 20
167.5
 30
0.0
 11
154.2
 21
180.2
 31
0.0
  0
LINE
  8
0
  6
CONTINUOUS
 62
     2
 10
154.2
 20
180.2
 30
0.0
 11
186.1
 21
180.2
 31
0.0
  0
TEXT
  8
0
  6
CONTINUOUS
 62
     2
 10
154.2
 20
181.2
 30
0.5
 40
3.0
  1
化粧枠（エスカッション）
 50
0.0
 41
0.733333333
 51
0.0
  7
KANJI4
  0
LINE
  8
0
  6
CONTINUOUS
 62
     2
 10
108.5
 20
95.15
 30
0.0
 11
109.147047613
 21
97.564814566
 31
0.0
  0
LINE
  8
0
  6
CONTINUOUS
 62
     2
 10
108.5
 20
95.15
 30
0.0
 11
107.852952387
 21
97.564814566
 31
0.0
  0
LINE
  8
0
  6
CONTINUOUS
 62
     2
 10
139.8
 20
53.05
 30
0.0
 11
138.61352019
 21
50.849485137
 31
0.0
  0
LINE
  8
0
  6
CONTINUOUS
 62
     2
 10
139.8
 20
53.05
 30
0.0
 11
139.872735775
 21
50.551058323
 31
0.0
  0
LINE
  8
0
  6
CONTINUOUS
 62
     2
 10
139.8
 20
53.05
 30
0.0
 11
135.7
 21
35.75
 31
0.0
  0
LINE
  8
0
  6
CONTINUOUS
 62
     2
 10
135.7
 20
35.75
 30
0.0
 11
120.0
 21
35.75
 31
0.0
  0
TEXT
  8
0
  6
CONTINUOUS
 62
     2
 10
120.0
 20
36.75
 30
0.5
 40
3.0
  1
計器本体寸法
 50
0.0
 41
0.733333333
 51
0.0
  7
KANJI4
  0
LINE
  8
0
  6
CONTINUOUS
 62
     2
 10
148.2
 20
52.85
 30
0.0
 11
147.059525415
 21
50.62529379
 31
0.0
  0
LINE
  8
0
  6
CONTINUOUS
 62
     2
 10
148.2
 20
52.85
 30
0.0
 11
148.324673142
 21
50.353110614
 31
0.0
  0
LINE
  8
0
  6
CONTINUOUS
 62
     2
 10
148.2
 20
52.85
 30
0.0
 11
142.8
 21
27.75
 31
0.0
  0
LINE
  8
0
  6
CONTINUOUS
 62
     2
 10
142.8
 20
27.75
 30
0.0
 11
124.4
 21
27.75
 31
0.0
  0
TEXT
  8
0
  6
CONTINUOUS
 62
     2
 10
124.4
 20
28.75
 30
0.5
 40
3.0
  1
化粧枠実装寸法
 50
0.0
 41
0.733333333
 51
0.0
  7
KANJI4
  0
LINE
  8
0
  6
LTYPE1
 62
     2
 10
42.2
 20
137.65
 30
0.0
 11
33.2
 21
137.65
 31
0.0
  0
LINE
  8
0
  6
LTYPE1
 62
     2
 10
42.2
 20
125.15
 30
0.0
 11
33.2
 21
125.15
 31
0.0
  0
LINE
  8
0
  6
LTYPE1
 62
     2
 10
42.2
 20
54.5
 30
0.0
 11
33.2
 21
54.5
 31
0.0
  0
ARC
  8
0
  6
LTYPE2
 62
     2
 10
35.15
 20
132.275
 30
0.0
 40
0.5
 50
180.0
 51
270.0
  0
LINE
  8
0
  6
LTYPE2
 62
     2
 10
35.149999523
 20
131.775
 30
0.0
 11
40.65
 21
131.775
 31
0.0
  0
LINE
  8
0
  6
LTYPE3
 62
     2
 10
40.9
 20
139.65
 30
0.0
 11
36.9
 21
139.65
 31
0.0
  0
ARC
  8
0
  6
LTYPE3
 62
     2
 10
36.9
 20
138.65
 30
0.0
 40
1.0
 50
90.0
 51
180.0
  0
ARC
  8
0
  6
LTYPE3
 62
     2
 10
36.9
 20
138.15
 30
0.0
 40
3.0
 50
90.0
 51
180.0
  0
LINE
  8
0
  6
LTYPE3
 62
     2
 10
36.9
 20
141.15
 30
0.0
 11
40.9
 21
141.15
 31
0.0
  0
LINE
  8
0
  6
LTYPE3
 62
     2
 10
39.7
 20
139.55
 30
0.0
 11
36.464110106
 21
139.55
 31
0.0
  0
LINE
  8
0
  6
LTYPE3
 62
     2
 10
39.745
 20
139.65
 30
0.0
 11
39.7
 21
139.55
 31
0.0
  0
LINE
  8
0
  6
LTYPE3
 62
     2
 10
36.1
 20
139.25
 30
0.0
 11
37.3
 21
139.25
 31
0.0
  0
LINE
  8
0
  6
LTYPE3
 62
     2
 10
36.9
 20
140.4
 30
0.0
 11
40.9
 21
140.4
 31
0.0
  0
LINE
  8
0
  6
LTYPE3
 62
     2
 10
39.745
 20
139.65
 30
0.0
 11
40.15
 21
140.4
 31
0.0
  0
ARC
  8
0
  6
LTYPE3
 62
     2
 10
36.9
 20
138.15
 30
0.0
 40
2.25
 50
90.0
 51
180.0
  0
LINE
  8
0
  6
LTYPE3
 62
     2
 10
36.464110106
 20
139.55
 30
0.0
 11
35.138608505
 21
139.55
 31
0.0
  0
ARC
  8
0
  6
LTYPE3
 62
     2
 10
35.65
 20
140.25
 30
0.0
 40
1.0
 50
233.765367437
 51
270.0
  0
LINE
  8
0
  6
LTYPE3
 62
     2
 10
35.65
 20
139.25
 30
0.0
 11
36.1
 21
139.25
 31
0.0
  0
ARC
  8
0
  6
LTYPE3
 62
     2
 10
36.9
 20
136.65
 30
0.0
 40
1.0
 50
180.0
 51
270.0
  0
LINE
  8
0
  6
LTYPE3
 62
     2
 10
36.9
 20
135.65
 30
0.0
 11
40.65
 21
135.65
 31
0.0
  0
LINE
  8
0
  6
LTYPE3
 62
     2
 10
39.7
 20
135.75
 30
0.0
 11
36.464110106
 21
135.75
 31
0.0
  0
LINE
  8
0
  6
LTYPE3
 62
     2
 10
39.745
 20
135.65
 30
0.0
 11
39.7
 21
135.75
 31
0.0
  0
LINE
  8
0
  6
LTYPE3
 62
     2
 10
36.1
 20
136.05
 30
0.0
 11
37.3
 21
136.05
 31
0.0
  0
LINE
  8
0
  6
LTYPE3
 62
     2
 10
35.65
 20
136.05
 30
0.0
 11
36.1
 21
136.05
 31
0.0
  0
ARC
  8
0
  6
LTYPE3
 62
     2
 10
35.65
 20
135.05
 30
0.0
 40
1.0
 50
90.0
 51
180.0
  0
LINE
  8
0
  6
LTYPE3
 62
     2
 10
35.9
 20
138.65
 30
0.0
 11
35.9
 21
136.65
 31
0.0
  0
LINE
  8
0
  6
LTYPE3
 62
     2
 10
37.3
 20
136.05
 30
0.0
 11
37.3
 21
139.25
 31
0.0
  0
LINE
  8
0
  6
LTYPE3
 62
     2
 10
34.65
 20
132.275
 30
0.0
 11
34.65
 21
138.15
 31
0.0
  0
LINE
  8
0
  6
LTYPE3
 62
     2
 10
40.65
 20
127.15
 30
0.0
 11
40.65
 21
135.65
 31
0.0
  0
LINE
  8
0
  6
LTYPE3
 62
     2
 10
40.9
 20
141.15
 30
0.0
 11
40.9
 21
121.65
 31
0.0
  0
LINE
  8
0
  6
LTYPE3
 62
     2
 10
33.9
 20
124.65
 30
0.0
 11
33.9
 21
138.15
 31
0.0
  0
LINE
  8
0
  6
CONTINUOUS
 62
     2
 10
40.9
 20
104.180246512
 30
0.0
 11
38.485185434
 21
104.827294125
 31
0.0
  0
LINE
  8
0
  6
CONTINUOUS
 62
     2
 10
40.9
 20
104.180246512
 30
0.0
 11
38.485185434
 21
103.533198899
 31
0.0
  0
LINE
  8
0
  6
CONTINUOUS
 62
     2
 10
40.9
 20
104.180246512
 30
0.0
 11
33.9
 21
104.180246512
 31
0.0
  0
LINE
  8
0
  6
CONTINUOUS
 62
     2
 10
33.9
 20
104.180246512
 30
0.0
 11
36.314814566
 21
103.533198899
 31
0.0
  0
LINE
  8
0
  6
CONTINUOUS
 62
     2
 10
33.9
 20
104.180246512
 30
0.0
 11
36.314814566
 21
104.827294125
 31
0.0
  0
LINE
  8
0
  6
CONTINUOUS
 62
     2
 10
33.9
 20
123.65
 30
0.0
 11
33.9
 21
102.180246512
 31
0.0
  0
TEXT
  8
0
  6
CONTINUOUS
 62
     2
 10
35.45
 20
105.180246512
 30
0.3
 40
3.0
  1
１４
 50
0.0
 41
0.6
 51
0.0
  7
KANJI1
  0
LINE
  8
0
  6
LTYPE1
 62
     2
 10
32.4
 20
54.5
 30
0.0
 11
48.9
 21
54.5
 31
0.0
  0
ARC
  8
0
  6
LTYPE2
 62
     2
 10
34.65
 20
53.85
 30
0.0
 40
0.25
 50
180.0
 51
270.0
  0
LINE
  8
0
  6
LTYPE2
 62
     2
 10
34.4
 20
53.85
 30
0.0
 11
34.4
 21
55.15
 31
0.0
  0
LINE
  8
0
  6
LTYPE2
 62
     2
 10
37.3
 20
53.6
 30
0.0
 11
34.65
 21
53.6
 31
0.0
  0
ARC
  8
0
  6
LTYPE3
 62
     2
 10
36.9
 20
54.0
 30
0.0
 40
3.0
 50
180.0
 51
270.0
  0
LINE
  8
0
  6
LTYPE3
 62
     2
 10
40.9
 20
51.0
 30
0.0
 11
36.9
 21
51.0
 31
0.0
  0
LINE
  8
0
  6
LTYPE3
 62
     2
 10
40.9
 20
51.75
 30
0.0
 11
40.65
 21
51.75
 31
0.0
  0
ARC
  8
0
  6
LTYPE3
 62
     2
 10
36.9
 20
54.0
 30
0.0
 40
2.25
 50
183.012787504
 51
270.0
  0
LINE
  8
0
  6
LTYPE3
 62
     2
 10
36.9
 20
51.75
 30
0.0
 11
40.65
 21
51.75
 31
0.0
  0
ARC
  8
0
  6
LTYPE3
 62
     2
 10
35.65
 20
51.9
 30
0.0
 40
1.0
 50
90.0
 51
126.234632563
  0
LINE
  8
0
  6
LTYPE3
 62
     2
 10
35.65
 20
52.9
 30
0.0
 11
37.3
 21
52.9
 31
0.0
  0
LINE
  8
0
  6
LTYPE3
 62
     2
 10
33.9
 20
54.0
 30
0.0
 11
33.9
 21
59.5
 31
0.0
  0
ARC
  8
0
  6
LTYPE3
 62
     2
 10
36.9
 20
59.5
 30
0.0
 40
3.0
 50
90.0
 51
180.0
  0
LINE
  8
0
  6
LTYPE3
 62
     2
 10
36.9
 20
62.5
 30
0.0
 11
40.9
 21
62.5
 31
0.0
  0
LINE
  8
0
  6
LTYPE3
 62
     2
 10
40.9
 20
61.75
 30
0.0
 11
40.65
 21
61.75
 31
0.0
  0
ARC
  8
0
  6
LTYPE3
 62
     2
 10
34.65
 20
55.15
 30
0.0
 40
0.25
 50
90.0
 51
180.0
  0
LINE
  8
0
  6
LTYPE3
 62
     2
 10
36.9
 20
61.75
 30
0.0
 11
40.65
 21
61.75
 31
0.0
  0
ARC
  8
0
  6
LTYPE3
 62
     2
 10
36.9
 20
59.5
 30
0.0
 40
2.25
 50
86.734838817
 51
180.0
  0
LINE
  8
0
  6
LTYPE3
 62
     2
 10
35.9
 20
61.5
 30
0.0
 11
35.9
 21
62.328427125
 31
0.0
  0
LINE
  8
0
  6
LTYPE3
 62
     2
 10
35.65
 20
56.1
 30
0.0
 11
37.3
 21
56.1
 31
0.0
  0
LINE
  8
0
  6
LTYPE3
 62
     2
 10
34.65
 20
57.1
 30
0.0
 11
34.65
 21
59.5
 31
0.0
  0
ARC
  8
0
  6
LTYPE3
 62
     2
 10
35.65
 20
57.1
 30
0.0
 40
1.0
 50
180.0
 51
270.0
  0
LINE
  8
0
  6
LTYPE3
 62
     2
 10
34.65
 20
53.873858801
 30
0.0
 11
34.65
 21
57.1
 31
0.0
  0
LINE
  8
0
  6
LTYPE3
 62
     2
 10
34.65
 20
55.4
 30
0.0
 11
37.3
 21
55.4
 31
0.0
  0
LINE
  8
0
  6
LTYPE3
 62
     2
 10
40.9
 20
62.5
 30
0.0
 11
40.9
 21
51.0
 31
0.0
  0
LINE
  8
0
  6
LTYPE3
 62
     2
 10
40.65
 20
62.5
 30
0.0
 11
40.65
 21
51.75
 31
0.0
  0
LINE
  8
0
  6
LTYPE3
 62
     2
 10
37.3
 20
52.9
 30
0.0
 11
37.3
 21
56.1
 31
0.0
  0
LINE
  8
0
  6
CONTINUOUS
 62
     2
 10
35.55
 20
55.45
 30
0.0
 11
36.829268106
 21
57.597899698
 31
0.0
  0
LINE
  8
0
  6
CONTINUOUS
 62
     2
 10
35.55
 20
55.45
 30
0.0
 11
35.583928829
 21
57.949769756
 31
0.0
  0
LINE
  8
0
  6
CONTINUOUS
 62
     2
 10
35.55
 20
55.45
 30
0.0
 11
39.065191258
 21
67.890972552
 31
0.0
  0
TEXT
  8
0
  6
CONTINUOUS
 62
     2
 10
40.470866657
 20
69.15
 30
0.5
 40
3.0
  1
Ｍ４ターミナルネジ
 50
0.0
 41
0.833333333
 51
0.0
  7
KANJI5
  0
LINE
  8
0
  6
CONTINUOUS
 62
     2
 10
39.138379348
 20
68.15
 30
0.0
 11
66.970866657
 21
68.15
 31
0.0
  0
LINE
  8
0
  6
CONTINUOUS
 62
     2
 10
35.838379348
 20
62.15
 30
0.0
 11
37.102569883
 21
64.306808358
 31
0.0
  0
LINE
  8
0
  6
CONTINUOUS
 62
     2
 10
35.838379348
 20
62.15
 30
0.0
 11
35.854796288
 21
64.649946096
 31
0.0
  0
LINE
  8
0
  6
CONTINUOUS
 62
     2
 10
35.838379348
 20
62.15
 30
0.0
 11
39.138379348
 21
74.15
 31
0.0
  0
LINE
  8
0
  6
CONTINUOUS
 62
     2
 10
39.138379348
 20
74.15
 30
0.0
 11
56.838379348
 21
74.15
 31
0.0
  0
TEXT
  8
0
  6
CONTINUOUS
 62
     2
 10
39.138379348
 20
75.15
 30
0.3
 40
3.0
  1
端子キャップ
 50
0.0
 41
0.9
 51
0.0
  7
KANJI0
  0
LINE
  8
0
  6
CONTINUOUS
 62
     2
 10
34.9
 20
174.6
 30
0.0
 11
32.485185434
 21
175.247047613
 31
0.0
  0
LINE
  8
0
  6
CONTINUOUS
 62
     2
 10
34.9
 20
174.6
 30
0.0
 11
32.485185434
 21
173.952952387
 31
0.0
  0
TEXT
  8
0
  6
CONTINUOUS
 62
     2
 10
36.2
 20
175.6
 30
0.3
 40
3.0
  1
１２
 50
0.0
 41
0.6
 51
0.0
  7
KANJI1
  0
TEXT
  8
0
  6
CONTINUOUS
 62
     2
 10
73.621927176
 20
180.525
 30
0.3
 40
3.0
  1
１６６
 50
0.0
 41
0.6
 51
0.0
  7
KANJI1
  0
LINE
  8
0
  6
CONTINUOUS
 62
     5
 10
35.0
 20
136.85
 30
0.0
 11
35.2
 21
136.65
 31
0.0
  0
LINE
  8
0
  6
CONTINUOUS
 62
     5
 10
35.0
 20
138.45
 30
0.0
 11
35.2
 21
138.65
 31
0.0
  0
LINE
  8
0
  6
CONTINUOUS
 62
     5
 10
35.0
 20
136.85
 30
0.0
 11
35.0
 21
138.45
 31
0.0
  0
LINE
  8
0
  6
CONTINUOUS
 62
     5
 10
35.2
 20
136.65
 30
0.0
 11
35.2
 21
138.65
 31
0.0
  0
LINE
  8
0
  6
CONTINUOUS
 62
     5
 10
37.35
 20
136.65
 30
0.0
 11
35.2
 21
136.65
 31
0.0
  0
LINE
  8
0
  6
CONTINUOUS
 62
     5
 10
37.35
 20
136.85
 30
0.0
 11
35.0
 21
136.85
 31
0.0
  0
LINE
  8
0
  6
CONTINUOUS
 62
     5
 10
37.35
 20
138.45
 30
0.0
 11
35.0
 21
138.45
 31
0.0
  0
LINE
  8
0
  6
CONTINUOUS
 62
     5
 10
37.35
 20
138.65
 30
0.0
 11
35.2
 21
138.65
 31
0.0
  0
LINE
  8
0
  6
CONTINUOUS
 62
     5
 10
40.9
 20
135.65
 30
0.0
 11
40.5
 21
135.65
 31
0.0
  0
POINT
  8
0
  6
CONTINUOUS
 62
     5
 10
40.5
 20
135.65
 30
0.0
  0
LINE
  8
0
  6
CONTINUOUS
 62
     5
 10
40.5
 20
139.65
 30
0.0
 11
40.9
 21
139.65
 31
0.0
  0
LINE
  8
0
  6
CONTINUOUS
 62
     5
 10
40.5
 20
135.65
 30
0.0
 11
40.5
 21
139.65
 31
0.0
  0
LINE
  8
0
  6
CONTINUOUS
 62
     5
 10
40.5
 20
139.35
 30
0.0
 11
40.5
 21
135.95
 31
0.0
  0
LINE
  8
0
  6
CONTINUOUS
 62
     5
 10
40.5
 20
135.95
 30
0.0
 11
40.312361163
 21
135.625
 31
0.0
  0
LINE
  8
0
  6
CONTINUOUS
 62
     5
 10
40.5
 20
139.35
 30
0.0
 11
40.5
 21
135.95
 31
0.0
  0
LINE
  8
0
  6
CONTINUOUS
 62
     5
 10
40.5
 20
139.35
 30
0.0
 11
40.312361163
 21
139.675
 31
0.0
  0
LINE
  8
0
  6
CONTINUOUS
 62
     5
 10
40.312361163
 20
138.6625
 30
0.0
 11
40.5
 21
138.9875
 31
0.0
  0
LINE
  8
0
  6
CONTINUOUS
 62
     5
 10
40.312361163
 20
138.6625
 30
0.0
 11
40.5
 21
138.3375
 31
0.0
  0
LINE
  8
0
  6
CONTINUOUS
 62
     5
 10
40.312361163
 20
136.6375
 30
0.0
 11
40.5
 21
136.3125
 31
0.0
  0
LINE
  8
0
  6
CONTINUOUS
 62
     5
 10
40.312361163
 20
136.6375
 30
0.0
 11
40.5
 21
136.9625
 31
0.0
  0
LINE
  8
0
  6
CONTINUOUS
 62
     5
 10
39.487638837
 20
138.6625
 30
0.0
 11
39.3
 21
138.9875
 31
0.0
  0
LINE
  8
0
  6
CONTINUOUS
 62
     5
 10
39.487638837
 20
138.6625
 30
0.0
 11
39.3
 21
138.3375
 31
0.0
  0
LINE
  8
0
  6
CONTINUOUS
 62
     5
 10
39.487638837
 20
136.6375
 30
0.0
 11
39.3
 21
136.3125
 31
0.0
  0
LINE
  8
0
  6
CONTINUOUS
 62
     5
 10
39.487638837
 20
136.6375
 30
0.0
 11
39.3
 21
136.9625
 31
0.0
  0
LINE
  8
0
  6
CONTINUOUS
 62
     5
 10
39.3
 20
135.95
 30
0.0
 11
39.487638837
 21
135.625
 31
0.0
  0
LINE
  8
0
  6
CONTINUOUS
 62
     5
 10
40.312361163
 20
135.625
 30
0.0
 11
39.487638837
 21
135.625
 31
0.0
  0
LINE
  8
0
  6
CONTINUOUS
 62
     5
 10
39.487638837
 20
139.675
 30
0.0
 11
40.312361163
 21
139.675
 31
0.0
  0
LINE
  8
0
  6
CONTINUOUS
 62
     5
 10
39.3
 20
139.35
 30
0.0
 11
39.487638837
 21
139.675
 31
0.0
  0
LINE
  8
0
  6
CONTINUOUS
 62
     5
 10
39.487638837
 20
138.6625
 30
0.0
 11
40.312361163
 21
138.6625
 31
0.0
  0
LINE
  8
0
  6
CONTINUOUS
 62
     5
 10
39.487638837
 20
136.6375
 30
0.0
 11
40.312361163
 21
136.6375
 31
0.0
  0
LINE
  8
0
  6
CONTINUOUS
 62
     5
 10
39.05
 20
139.775
 30
0.0
 11
39.05
 21
139.35
 31
0.0
  0
LINE
  8
0
  6
CONTINUOUS
 62
     5
 10
39.05
 20
135.525
 30
0.0
 11
39.05
 21
135.95
 31
0.0
  0
LINE
  8
0
  6
CONTINUOUS
 62
     5
 10
39.05
 20
135.525
 30
0.0
 11
39.3
 21
135.525
 31
0.0
  0
LINE
  8
0
  6
CONTINUOUS
 62
     5
 10
39.05
 20
135.95
 30
0.0
 11
39.05
 21
139.35
 31
0.0
  0
LINE
  8
0
  6
CONTINUOUS
 62
     5
 10
38.55
 20
135.75
 30
0.0
 11
39.05
 21
135.75
 31
0.0
  0
LINE
  8
0
  6
CONTINUOUS
 62
     5
 10
38.55
 20
135.75
 30
0.0
 11
38.55
 21
139.55
 31
0.0
  0
LINE
  8
0
  6
CONTINUOUS
 62
     5
 10
38.55
 20
139.55
 30
0.0
 11
39.05
 21
139.55
 31
0.0
  0
LINE
  8
0
  6
CONTINUOUS
 62
     5
 10
39.05
 20
139.55
 30
0.0
 11
39.05
 21
139.35
 31
0.0
  0
LINE
  8
0
  6
CONTINUOUS
 62
     5
 10
39.05
 20
135.75
 30
0.0
 11
39.05
 21
135.95
 31
0.0
  0
LINE
  8
0
  6
CONTINUOUS
 62
     5
 10
39.05
 20
139.775
 30
0.0
 11
39.3
 21
139.775
 31
0.0
  0
LINE
  8
0
  6
CONTINUOUS
 62
     5
 10
39.3
 20
135.525
 30
0.0
 11
39.3
 21
139.775
 31
0.0
  0
LINE
  8
0
  6
CONTINUOUS
 62
     5
 10
38.55
 20
135.95
 30
0.0
 11
38.362361163
 21
135.625
 31
0.0
  0
LINE
  8
0
  6
CONTINUOUS
 62
     5
 10
38.55
 20
139.35
 30
0.0
 11
38.55
 21
135.95
 31
0.0
  0
LINE
  8
0
  6
CONTINUOUS
 62
     5
 10
38.55
 20
139.35
 30
0.0
 11
38.362361163
 21
139.675
 31
0.0
  0
LINE
  8
0
  6
CONTINUOUS
 62
     5
 10
38.362361163
 20
138.6625
 30
0.0
 11
38.55
 21
138.9875
 31
0.0
  0
LINE
  8
0
  6
CONTINUOUS
 62
     5
 10
38.362361163
 20
138.6625
 30
0.0
 11
38.55
 21
138.3375
 31
0.0
  0
LINE
  8
0
  6
CONTINUOUS
 62
     5
 10
38.362361163
 20
136.6375
 30
0.0
 11
38.55
 21
136.3125
 31
0.0
  0
LINE
  8
0
  6
CONTINUOUS
 62
     5
 10
38.362361163
 20
136.6375
 30
0.0
 11
38.55
 21
136.9625
 31
0.0
  0
LINE
  8
0
  6
CONTINUOUS
 62
     5
 10
37.537638837
 20
138.6625
 30
0.0
 11
37.35
 21
138.9875
 31
0.0
  0
LINE
  8
0
  6
CONTINUOUS
 62
     5
 10
37.35
 20
135.95
 30
0.0
 11
37.35
 21
139.35
 31
0.0
  0
LINE
  8
0
  6
CONTINUOUS
 62
     5
 10
37.537638837
 20
138.6625
 30
0.0
 11
37.35
 21
138.3375
 31
0.0
  0
LINE
  8
0
  6
CONTINUOUS
 62
     5
 10
37.537638837
 20
136.6375
 30
0.0
 11
37.35
 21
136.3125
 31
0.0
  0
LINE
  8
0
  6
CONTINUOUS
 62
     5
 10
37.537638837
 20
136.6375
 30
0.0
 11
37.35
 21
136.9625
 31
0.0
  0
LINE
  8
0
  6
CONTINUOUS
 62
     5
 10
37.35
 20
135.95
 30
0.0
 11
37.537638837
 21
135.625
 31
0.0
  0
LINE
  8
0
  6
CONTINUOUS
 62
     5
 10
38.362361163
 20
135.625
 30
0.0
 11
37.537638837
 21
135.625
 31
0.0
  0
LINE
  8
0
  6
CONTINUOUS
 62
     5
 10
37.537638837
 20
139.675
 30
0.0
 11
38.362361163
 21
139.675
 31
0.0
  0
LINE
  8
0
  6
CONTINUOUS
 62
     5
 10
37.35
 20
139.35
 30
0.0
 11
37.537638837
 21
139.675
 31
0.0
  0
LINE
  8
0
  6
CONTINUOUS
 62
     5
 10
37.537638837
 20
138.6625
 30
0.0
 11
38.362361163
 21
138.6625
 31
0.0
  0
LINE
  8
0
  6
CONTINUOUS
 62
     5
 10
37.537638837
 20
136.6375
 30
0.0
 11
38.362361163
 21
136.6375
 31
0.0
  0
LINE
  8
0
  6
CONTINUOUS
 62
     5
 10
39.05
 20
137.55
 30
0.0
 11
38.55
 21
137.55
 31
0.0
  0
LINE
  8
0
  6
CONTINUOUS
 62
     5
 10
38.55
 20
137.75
 30
0.0
 11
39.05
 21
137.75
 31
0.0
  0
ARC
  8
0
  6
LTYPE2
 62
     2
 10
35.15
 20
130.525
 30
0.0
 40
0.5
 50
90.0
 51
180.0
  0
LINE
  8
0
  6
LTYPE2
 62
     2
 10
35.149999523
 20
131.025
 30
0.0
 11
40.65
 21
131.025
 31
0.0
  0
LINE
  8
0
  6
LTYPE3
 62
     2
 10
40.9
 20
123.15
 30
0.0
 11
36.9
 21
123.15
 31
0.0
  0
ARC
  8
0
  6
LTYPE3
 62
     2
 10
36.9
 20
124.15
 30
0.0
 40
1.0
 50
180.0
 51
270.0
  0
ARC
  8
0
  6
LTYPE3
 62
     2
 10
36.9
 20
124.65
 30
0.0
 40
3.0
 50
180.0
 51
270.0
  0
LINE
  8
0
  6
LTYPE3
 62
     2
 10
36.9
 20
121.65
 30
0.0
 11
40.9
 21
121.65
 31
0.0
  0
LINE
  8
0
  6
LTYPE3
 62
     2
 10
39.7
 20
123.25
 30
0.0
 11
36.464110106
 21
123.25
 31
0.0
  0
LINE
  8
0
  6
LTYPE3
 62
     2
 10
39.745
 20
123.15
 30
0.0
 11
39.7
 21
123.25
 31
0.0
  0
LINE
  8
0
  6
LTYPE3
 62
     2
 10
36.1
 20
123.55
 30
0.0
 11
37.3
 21
123.55
 31
0.0
  0
LINE
  8
0
  6
LTYPE3
 62
     2
 10
36.9
 20
122.4
 30
0.0
 11
40.9
 21
122.4
 31
0.0
  0
LINE
  8
0
  6
LTYPE3
 62
     2
 10
39.745
 20
123.15
 30
0.0
 11
40.15
 21
122.4
 31
0.0
  0
ARC
  8
0
  6
LTYPE3
 62
     2
 10
36.9
 20
124.65
 30
0.0
 40
2.25
 50
180.0
 51
270.0
  0
LINE
  8
0
  6
LTYPE3
 62
     2
 10
36.464110106
 20
123.25
 30
0.0
 11
35.138608505
 21
123.25
 31
0.0
  0
ARC
  8
0
  6
LTYPE3
 62
     2
 10
35.65
 20
122.55
 30
0.0
 40
1.0
 50
90.0
 51
126.234632563
  0
LINE
  8
0
  6
LTYPE3
 62
     2
 10
35.65
 20
123.55
 30
0.0
 11
36.1
 21
123.55
 31
0.0
  0
ARC
  8
0
  6
LTYPE3
 62
     2
 10
36.9
 20
126.15
 30
0.0
 40
1.0
 50
90.0
 51
180.0
  0
LINE
  8
0
  6
LTYPE3
 62
     2
 10
36.9
 20
127.15
 30
0.0
 11
40.65
 21
127.15
 31
0.0
  0
LINE
  8
0
  6
LTYPE3
 62
     2
 10
39.7
 20
127.05
 30
0.0
 11
36.464110106
 21
127.05
 31
0.0
  0
LINE
  8
0
  6
LTYPE3
 62
     2
 10
39.745
 20
127.15
 30
0.0
 11
39.7
 21
127.05
 31
0.0
  0
LINE
  8
0
  6
LTYPE3
 62
     2
 10
36.1
 20
126.75
 30
0.0
 11
37.3
 21
126.75
 31
0.0
  0
LINE
  8
0
  6
LTYPE3
 62
     2
 10
35.65
 20
126.75
 30
0.0
 11
36.1
 21
126.75
 31
0.0
  0
ARC
  8
0
  6
LTYPE3
 62
     2
 10
35.65
 20
127.75
 30
0.0
 40
1.0
 50
180.0
 51
270.0
  0
LINE
  8
0
  6
LTYPE3
 62
     2
 10
35.9
 20
124.15
 30
0.0
 11
35.9
 21
126.15
 31
0.0
  0
LINE
  8
0
  6
LTYPE3
 62
     2
 10
37.3
 20
126.75
 30
0.0
 11
37.3
 21
123.55
 31
0.0
  0
LINE
  8
0
  6
LTYPE3
 62
     2
 10
34.65
 20
130.525
 30
0.0
 11
34.65
 21
124.65
 31
0.0
  0
LINE
  8
0
  6
CONTINUOUS
 62
     5
 10
35.0
 20
125.95
 30
0.0
 11
35.2
 21
126.15
 31
0.0
  0
LINE
  8
0
  6
CONTINUOUS
 62
     5
 10
35.0
 20
124.35
 30
0.0
 11
35.2
 21
124.15
 31
0.0
  0
LINE
  8
0
  6
CONTINUOUS
 62
     5
 10
35.0
 20
125.95
 30
0.0
 11
35.0
 21
124.35
 31
0.0
  0
LINE
  8
0
  6
CONTINUOUS
 62
     5
 10
35.2
 20
126.15
 30
0.0
 11
35.2
 21
124.15
 31
0.0
  0
LINE
  8
0
  6
CONTINUOUS
 62
     5
 10
37.35
 20
126.15
 30
0.0
 11
35.2
 21
126.15
 31
0.0
  0
LINE
  8
0
  6
CONTINUOUS
 62
     5
 10
37.35
 20
125.95
 30
0.0
 11
35.0
 21
125.95
 31
0.0
  0
LINE
  8
0
  6
CONTINUOUS
 62
     5
 10
37.35
 20
124.35
 30
0.0
 11
35.0
 21
124.35
 31
0.0
  0
LINE
  8
0
  6
CONTINUOUS
 62
     5
 10
37.35
 20
124.15
 30
0.0
 11
35.2
 21
124.15
 31
0.0
  0
LINE
  8
0
  6
CONTINUOUS
 62
     5
 10
40.9
 20
127.15
 30
0.0
 11
40.5
 21
127.15
 31
0.0
  0
POINT
  8
0
  6
CONTINUOUS
 62
     5
 10
40.5
 20
127.15
 30
0.0
  0
LINE
  8
0
  6
CONTINUOUS
 62
     5
 10
40.5
 20
123.15
 30
0.0
 11
40.9
 21
123.15
 31
0.0
  0
LINE
  8
0
  6
CONTINUOUS
 62
     5
 10
40.5
 20
127.15
 30
0.0
 11
40.5
 21
123.15
 31
0.0
  0
LINE
  8
0
  6
CONTINUOUS
 62
     5
 10
40.5
 20
123.45
 30
0.0
 11
40.5
 21
126.85
 31
0.0
  0
LINE
  8
0
  6
CONTINUOUS
 62
     5
 10
40.5
 20
126.85
 30
0.0
 11
40.312361163
 21
127.175
 31
0.0
  0
LINE
  8
0
  6
CONTINUOUS
 62
     5
 10
40.5
 20
123.45
 30
0.0
 11
40.5
 21
126.85
 31
0.0
  0
LINE
  8
0
  6
CONTINUOUS
 62
     5
 10
40.5
 20
123.45
 30
0.0
 11
40.312361163
 21
123.125
 31
0.0
  0
LINE
  8
0
  6
CONTINUOUS
 62
     5
 10
40.312361163
 20
124.1375
 30
0.0
 11
40.5
 21
123.8125
 31
0.0
  0
LINE
  8
0
  6
CONTINUOUS
 62
     5
 10
40.312361163
 20
124.1375
 30
0.0
 11
40.5
 21
124.4625
 31
0.0
  0
LINE
  8
0
  6
CONTINUOUS
 62
     5
 10
40.312361163
 20
126.1625
 30
0.0
 11
40.5
 21
126.4875
 31
0.0
  0
LINE
  8
0
  6
CONTINUOUS
 62
     5
 10
40.312361163
 20
126.1625
 30
0.0
 11
40.5
 21
125.8375
 31
0.0
  0
LINE
  8
0
  6
CONTINUOUS
 62
     5
 10
39.487638837
 20
124.1375
 30
0.0
 11
39.3
 21
123.8125
 31
0.0
  0
LINE
  8
0
  6
CONTINUOUS
 62
     5
 10
39.487638837
 20
124.1375
 30
0.0
 11
39.3
 21
124.4625
 31
0.0
  0
LINE
  8
0
  6
CONTINUOUS
 62
     5
 10
39.487638837
 20
126.1625
 30
0.0
 11
39.3
 21
126.4875
 31
0.0
  0
LINE
  8
0
  6
CONTINUOUS
 62
     5
 10
39.487638837
 20
126.1625
 30
0.0
 11
39.3
 21
125.8375
 31
0.0
  0
LINE
  8
0
  6
CONTINUOUS
 62
     5
 10
39.3
 20
126.85
 30
0.0
 11
39.487638837
 21
127.175
 31
0.0
  0
LINE
  8
0
  6
CONTINUOUS
 62
     5
 10
40.312361163
 20
127.175
 30
0.0
 11
39.487638837
 21
127.175
 31
0.0
  0
LINE
  8
0
  6
CONTINUOUS
 62
     5
 10
39.487638837
 20
123.125
 30
0.0
 11
40.312361163
 21
123.125
 31
0.0
  0
LINE
  8
0
  6
CONTINUOUS
 62
     5
 10
39.3
 20
123.45
 30
0.0
 11
39.487638837
 21
123.125
 31
0.0
  0
LINE
  8
0
  6
CONTINUOUS
 62
     5
 10
39.487638837
 20
124.1375
 30
0.0
 11
40.312361163
 21
124.1375
 31
0.0
  0
LINE
  8
0
  6
CONTINUOUS
 62
     5
 10
39.487638837
 20
126.1625
 30
0.0
 11
40.312361163
 21
126.1625
 31
0.0
  0
LINE
  8
0
  6
CONTINUOUS
 62
     5
 10
39.05
 20
123.025
 30
0.0
 11
39.05
 21
123.45
 31
0.0
  0
LINE
  8
0
  6
CONTINUOUS
 62
     5
 10
39.05
 20
127.275
 30
0.0
 11
39.05
 21
126.85
 31
0.0
  0
LINE
  8
0
  6
CONTINUOUS
 62
     5
 10
39.05
 20
127.275
 30
0.0
 11
39.3
 21
127.275
 31
0.0
  0
LINE
  8
0
  6
CONTINUOUS
 62
     5
 10
39.05
 20
126.85
 30
0.0
 11
39.05
 21
123.45
 31
0.0
  0
LINE
  8
0
  6
CONTINUOUS
 62
     5
 10
38.55
 20
127.05
 30
0.0
 11
39.05
 21
127.05
 31
0.0
  0
LINE
  8
0
  6
CONTINUOUS
 62
     5
 10
38.55
 20
127.05
 30
0.0
 11
38.55
 21
123.25
 31
0.0
  0
LINE
  8
0
  6
CONTINUOUS
 62
     5
 10
38.55
 20
123.25
 30
0.0
 11
39.05
 21
123.25
 31
0.0
  0
LINE
  8
0
  6
CONTINUOUS
 62
     5
 10
39.05
 20
123.25
 30
0.0
 11
39.05
 21
123.45
 31
0.0
  0
LINE
  8
0
  6
CONTINUOUS
 62
     5
 10
39.05
 20
127.05
 30
0.0
 11
39.05
 21
126.85
 31
0.0
  0
LINE
  8
0
  6
CONTINUOUS
 62
     5
 10
39.05
 20
123.025
 30
0.0
 11
39.3
 21
123.025
 31
0.0
  0
LINE
  8
0
  6
CONTINUOUS
 62
     5
 10
39.3
 20
127.275
 30
0.0
 11
39.3
 21
123.025
 31
0.0
  0
LINE
  8
0
  6
CONTINUOUS
 62
     5
 10
38.55
 20
126.85
 30
0.0
 11
38.362361163
 21
127.175
 31
0.0
  0
LINE
  8
0
  6
CONTINUOUS
 62
     5
 10
38.55
 20
123.45
 30
0.0
 11
38.55
 21
126.85
 31
0.0
  0
LINE
  8
0
  6
CONTINUOUS
 62
     5
 10
38.55
 20
123.45
 30
0.0
 11
38.362361163
 21
123.125
 31
0.0
  0
LINE
  8
0
  6
CONTINUOUS
 62
     5
 10
38.362361163
 20
124.1375
 30
0.0
 11
38.55
 21
123.8125
 31
0.0
  0
LINE
  8
0
  6
CONTINUOUS
 62
     5
 10
38.362361163
 20
124.1375
 30
0.0
 11
38.55
 21
124.4625
 31
0.0
  0
LINE
  8
0
  6
CONTINUOUS
 62
     5
 10
38.362361163
 20
126.1625
 30
0.0
 11
38.55
 21
126.4875
 31
0.0
  0
LINE
  8
0
  6
CONTINUOUS
 62
     5
 10
38.362361163
 20
126.1625
 30
0.0
 11
38.55
 21
125.8375
 31
0.0
  0
LINE
  8
0
  6
CONTINUOUS
 62
     5
 10
37.537638837
 20
124.1375
 30
0.0
 11
37.35
 21
123.8125
 31
0.0
  0
LINE
  8
0
  6
CONTINUOUS
 62
     5
 10
37.35
 20
126.85
 30
0.0
 11
37.35
 21
123.45
 31
0.0
  0
LINE
  8
0
  6
CONTINUOUS
 62
     5
 10
37.537638837
 20
124.1375
 30
0.0
 11
37.35
 21
124.4625
 31
0.0
  0
LINE
  8
0
  6
CONTINUOUS
 62
     5
 10
37.537638837
 20
126.1625
 30
0.0
 11
37.35
 21
126.4875
 31
0.0
  0
LINE
  8
0
  6
CONTINUOUS
 62
     5
 10
37.537638837
 20
126.1625
 30
0.0
 11
37.35
 21
125.8375
 31
0.0
  0
LINE
  8
0
  6
CONTINUOUS
 62
     5
 10
37.35
 20
126.85
 30
0.0
 11
37.537638837
 21
127.175
 31
0.0
  0
LINE
  8
0
  6
CONTINUOUS
 62
     5
 10
38.362361163
 20
127.175
 30
0.0
 11
37.537638837
 21
127.175
 31
0.0
  0
LINE
  8
0
  6
CONTINUOUS
 62
     5
 10
37.537638837
 20
123.125
 30
0.0
 11
38.362361163
 21
123.125
 31
0.0
  0
LINE
  8
0
  6
CONTINUOUS
 62
     5
 10
37.35
 20
123.45
 30
0.0
 11
37.537638837
 21
123.125
 31
0.0
  0
LINE
  8
0
  6
CONTINUOUS
 62
     5
 10
37.537638837
 20
124.1375
 30
0.0
 11
38.362361163
 21
124.1375
 31
0.0
  0
LINE
  8
0
  6
CONTINUOUS
 62
     5
 10
37.537638837
 20
126.1625
 30
0.0
 11
38.362361163
 21
126.1625
 31
0.0
  0
LINE
  8
0
  6
CONTINUOUS
 62
     5
 10
39.05
 20
125.25
 30
0.0
 11
38.55
 21
125.25
 31
0.0
  0
LINE
  8
0
  6
CONTINUOUS
 62
     5
 10
38.55
 20
125.05
 30
0.0
 11
39.05
 21
125.05
 31
0.0
  0
LINE
  8
0
  6
CONTINUOUS
 62
     5
 10
35.0
 20
53.7
 30
0.0
 11
35.2
 21
53.5
 31
0.0
  0
LINE
  8
0
  6
CONTINUOUS
 62
     5
 10
35.0
 20
55.3
 30
0.0
 11
35.2
 21
55.5
 31
0.0
  0
LINE
  8
0
  6
CONTINUOUS
 62
     5
 10
35.0
 20
53.7
 30
0.0
 11
35.0
 21
55.3
 31
0.0
  0
LINE
  8
0
  6
CONTINUOUS
 62
     5
 10
35.2
 20
53.5
 30
0.0
 11
35.2
 21
55.5
 31
0.0
  0
LINE
  8
0
  6
CONTINUOUS
 62
     5
 10
37.35
 20
53.5
 30
0.0
 11
35.2
 21
53.5
 31
0.0
  0
LINE
  8
0
  6
CONTINUOUS
 62
     5
 10
37.35
 20
53.7
 30
0.0
 11
35.0
 21
53.7
 31
0.0
  0
LINE
  8
0
  6
CONTINUOUS
 62
     5
 10
37.35
 20
55.3
 30
0.0
 11
35.0
 21
55.3
 31
0.0
  0
LINE
  8
0
  6
CONTINUOUS
 62
     5
 10
37.35
 20
55.5
 30
0.0
 11
35.2
 21
55.5
 31
0.0
  0
LINE
  8
0
  6
CONTINUOUS
 62
     5
 10
40.9
 20
52.5
 30
0.0
 11
40.5
 21
52.5
 31
0.0
  0
POINT
  8
0
  6
CONTINUOUS
 62
     5
 10
40.5
 20
52.5
 30
0.0
  0
LINE
  8
0
  6
CONTINUOUS
 62
     5
 10
40.5
 20
56.5
 30
0.0
 11
40.9
 21
56.5
 31
0.0
  0
LINE
  8
0
  6
CONTINUOUS
 62
     5
 10
40.5
 20
52.5
 30
0.0
 11
40.5
 21
56.5
 31
0.0
  0
LINE
  8
0
  6
CONTINUOUS
 62
     5
 10
40.5
 20
56.2
 30
0.0
 11
40.5
 21
52.8
 31
0.0
  0
LINE
  8
0
  6
CONTINUOUS
 62
     5
 10
40.5
 20
52.8
 30
0.0
 11
40.312361163
 21
52.475
 31
0.0
  0
LINE
  8
0
  6
CONTINUOUS
 62
     5
 10
40.5
 20
56.2
 30
0.0
 11
40.5
 21
52.8
 31
0.0
  0
LINE
  8
0
  6
CONTINUOUS
 62
     5
 10
40.5
 20
56.2
 30
0.0
 11
40.312361163
 21
56.525
 31
0.0
  0
LINE
  8
0
  6
CONTINUOUS
 62
     5
 10
40.312361163
 20
55.5125
 30
0.0
 11
40.5
 21
55.8375
 31
0.0
  0
LINE
  8
0
  6
CONTINUOUS
 62
     5
 10
40.312361163
 20
55.5125
 30
0.0
 11
40.5
 21
55.1875
 31
0.0
  0
LINE
  8
0
  6
CONTINUOUS
 62
     5
 10
40.312361163
 20
53.4875
 30
0.0
 11
40.5
 21
53.1625
 31
0.0
  0
LINE
  8
0
  6
CONTINUOUS
 62
     5
 10
40.312361163
 20
53.4875
 30
0.0
 11
40.5
 21
53.8125
 31
0.0
  0
LINE
  8
0
  6
CONTINUOUS
 62
     5
 10
39.487638837
 20
55.5125
 30
0.0
 11
39.3
 21
55.8375
 31
0.0
  0
LINE
  8
0
  6
CONTINUOUS
 62
     5
 10
39.487638837
 20
55.5125
 30
0.0
 11
39.3
 21
55.1875
 31
0.0
  0
LINE
  8
0
  6
CONTINUOUS
 62
     5
 10
39.487638837
 20
53.4875
 30
0.0
 11
39.3
 21
53.1625
 31
0.0
  0
LINE
  8
0
  6
CONTINUOUS
 62
     5
 10
39.487638837
 20
53.4875
 30
0.0
 11
39.3
 21
53.8125
 31
0.0
  0
LINE
  8
0
  6
CONTINUOUS
 62
     5
 10
39.3
 20
52.8
 30
0.0
 11
39.487638837
 21
52.475
 31
0.0
  0
LINE
  8
0
  6
CONTINUOUS
 62
     5
 10
40.312361163
 20
52.475
 30
0.0
 11
39.487638837
 21
52.475
 31
0.0
  0
LINE
  8
0
  6
CONTINUOUS
 62
     5
 10
39.487638837
 20
56.525
 30
0.0
 11
40.312361163
 21
56.525
 31
0.0
  0
LINE
  8
0
  6
CONTINUOUS
 62
     5
 10
39.3
 20
56.2
 30
0.0
 11
39.487638837
 21
56.525
 31
0.0
  0
LINE
  8
0
  6
CONTINUOUS
 62
     5
 10
39.487638837
 20
55.5125
 30
0.0
 11
40.312361163
 21
55.5125
 31
0.0
  0
LINE
  8
0
  6
CONTINUOUS
 62
     5
 10
39.487638837
 20
53.4875
 30
0.0
 11
40.312361163
 21
53.4875
 31
0.0
  0
LINE
  8
0
  6
CONTINUOUS
 62
     5
 10
39.05
 20
56.625
 30
0.0
 11
39.05
 21
56.2
 31
0.0
  0
LINE
  8
0
  6
CONTINUOUS
 62
     5
 10
39.05
 20
52.375
 30
0.0
 11
39.05
 21
52.8
 31
0.0
  0
LINE
  8
0
  6
CONTINUOUS
 62
     5
 10
39.05
 20
52.375
 30
0.0
 11
39.3
 21
52.375
 31
0.0
  0
LINE
  8
0
  6
CONTINUOUS
 62
     5
 10
39.05
 20
52.8
 30
0.0
 11
39.05
 21
56.2
 31
0.0
  0
LINE
  8
0
  6
CONTINUOUS
 62
     5
 10
38.55
 20
52.6
 30
0.0
 11
39.05
 21
52.6
 31
0.0
  0
LINE
  8
0
  6
CONTINUOUS
 62
     5
 10
38.55
 20
52.6
 30
0.0
 11
38.55
 21
56.4
 31
0.0
  0
LINE
  8
0
  6
CONTINUOUS
 62
     5
 10
38.55
 20
56.4
 30
0.0
 11
39.05
 21
56.4
 31
0.0
  0
LINE
  8
0
  6
CONTINUOUS
 62
     5
 10
39.05
 20
56.4
 30
0.0
 11
39.05
 21
56.2
 31
0.0
  0
LINE
  8
0
  6
CONTINUOUS
 62
     5
 10
39.05
 20
52.6
 30
0.0
 11
39.05
 21
52.8
 31
0.0
  0
LINE
  8
0
  6
CONTINUOUS
 62
     5
 10
39.05
 20
56.625
 30
0.0
 11
39.3
 21
56.625
 31
0.0
  0
LINE
  8
0
  6
CONTINUOUS
 62
     5
 10
39.3
 20
52.375
 30
0.0
 11
39.3
 21
56.625
 31
0.0
  0
LINE
  8
0
  6
CONTINUOUS
 62
     5
 10
38.55
 20
52.8
 30
0.0
 11
38.362361163
 21
52.475
 31
0.0
  0
LINE
  8
0
  6
CONTINUOUS
 62
     5
 10
38.55
 20
56.2
 30
0.0
 11
38.55
 21
52.8
 31
0.0
  0
LINE
  8
0
  6
CONTINUOUS
 62
     5
 10
38.55
 20
56.2
 30
0.0
 11
38.362361163
 21
56.525
 31
0.0
  0
LINE
  8
0
  6
CONTINUOUS
 62
     5
 10
38.362361163
 20
55.5125
 30
0.0
 11
38.55
 21
55.8375
 31
0.0
  0
LINE
  8
0
  6
CONTINUOUS
 62
     5
 10
38.362361163
 20
55.5125
 30
0.0
 11
38.55
 21
55.1875
 31
0.0
  0
LINE
  8
0
  6
CONTINUOUS
 62
     5
 10
38.362361163
 20
53.4875
 30
0.0
 11
38.55
 21
53.1625
 31
0.0
  0
LINE
  8
0
  6
CONTINUOUS
 62
     5
 10
38.362361163
 20
53.4875
 30
0.0
 11
38.55
 21
53.8125
 31
0.0
  0
LINE
  8
0
  6
CONTINUOUS
 62
     5
 10
37.537638837
 20
55.5125
 30
0.0
 11
37.35
 21
55.8375
 31
0.0
  0
LINE
  8
0
  6
CONTINUOUS
 62
     5
 10
37.35
 20
52.8
 30
0.0
 11
37.35
 21
56.2
 31
0.0
  0
LINE
  8
0
  6
CONTINUOUS
 62
     5
 10
37.537638837
 20
55.5125
 30
0.0
 11
37.35
 21
55.1875
 31
0.0
  0
LINE
  8
0
  6
CONTINUOUS
 62
     5
 10
37.537638837
 20
53.4875
 30
0.0
 11
37.35
 21
53.1625
 31
0.0
  0
LINE
  8
0
  6
CONTINUOUS
 62
     5
 10
37.537638837
 20
53.4875
 30
0.0
 11
37.35
 21
53.8125
 31
0.0
  0
LINE
  8
0
  6
CONTINUOUS
 62
     5
 10
37.35
 20
52.8
 30
0.0
 11
37.537638837
 21
52.475
 31
0.0
  0
LINE
  8
0
  6
CONTINUOUS
 62
     5
 10
38.362361163
 20
52.475
 30
0.0
 11
37.537638837
 21
52.475
 31
0.0
  0
LINE
  8
0
  6
CONTINUOUS
 62
     5
 10
37.537638837
 20
56.525
 30
0.0
 11
38.362361163
 21
56.525
 31
0.0
  0
LINE
  8
0
  6
CONTINUOUS
 62
     5
 10
37.35
 20
56.2
 30
0.0
 11
37.537638837
 21
56.525
 31
0.0
  0
LINE
  8
0
  6
CONTINUOUS
 62
     5
 10
37.537638837
 20
55.5125
 30
0.0
 11
38.362361163
 21
55.5125
 31
0.0
  0
LINE
  8
0
  6
CONTINUOUS
 62
     5
 10
37.537638837
 20
53.4875
 30
0.0
 11
38.362361163
 21
53.4875
 31
0.0
  0
LINE
  8
0
  6
CONTINUOUS
 62
     5
 10
39.05
 20
54.4
 30
0.0
 11
38.55
 21
54.4
 31
0.0
  0
LINE
  8
0
  6
CONTINUOUS
 62
     5
 10
38.55
 20
54.6
 30
0.0
 11
39.05
 21
54.6
 31
0.0
  0
TEXT
  8
0
  6
CONTINUOUS
 62
     2
 10
127.85
 20
77.95
 30
0.3
 40
3.0
  1
機械的零位調整器
 50
0.0
 41
0.9
 51
0.0
  7
KANJI0
  0
LINE
  8
0
  6
CONTINUOUS
 62
     2
 10
152.35
 20
76.95
 30
0.0
 11
126.85
 21
76.95
 31
0.0
  0
LINE
  8
0
  6
CONTINUOUS
 62
     2
 10
118.6
 20
66.5
 30
0.0
 11
153.05
 21
66.5
 31
0.0
  0
LINE
  8
0
  6
CONTINUOUS
 62
     2
 10
151.05
 20
66.5
 30
0.0
 11
150.402952387
 21
64.085185434
 31
0.0
  0
LINE
  8
0
  6
CONTINUOUS
 62
     2
 10
151.05
 20
66.5
 30
0.0
 11
151.697047613
 21
64.085185434
 31
0.0
  0
LINE
  8
0
  6
CONTINUOUS
 62
     2
 10
151.05
 20
66.5
 30
0.0
 11
151.05
 21
43.45
 31
0.0
  0
POLYLINE
  8
0
  6
CONTINUOUS
 62
     1
 66
     1
 70
     1
  0
VERTEX
  8
0
  6
CONTINUOUS
 62
     1
 10
191.254156198
 20
94.9
 30
0.0
  0
VERTEX
  8
0
  6
CONTINUOUS
 62
     1
 10
212.104156198
 20
94.9
 30
0.0
  0
VERTEX
  8
0
  6
CONTINUOUS
 62
     1
 10
212.104156198
 20
167.9
 30
0.0
  0
VERTEX
  8
0
  6
CONTINUOUS
 62
     1
 10
191.254156198
 20
167.9
 30
0.0
  0
SEQEND
  0
LINE
  8
0
  6
CONTINUOUS
 62
     2
 10
191.254156198
 20
149.64888635
 30
0.0
 11
193.668970763
 21
149.001838737
 31
0.0
  0
LINE
  8
0
  6
CONTINUOUS
 62
     2
 10
191.254156198
 20
149.64888635
 30
0.0
 11
193.668970763
 21
150.295933963
 31
0.0
  0
LINE
  8
0
  6
CONTINUOUS
 62
     2
 10
212.104156198
 20
149.64888635
 30
0.0
 11
209.689341632
 21
150.295933963
 31
0.0
  0
LINE
  8
0
  6
CONTINUOUS
 62
     2
 10
212.104156198
 20
149.64888635
 30
0.0
 11
209.689341632
 21
149.001838737
 31
0.0
  0
LINE
  8
0
  6
CONTINUOUS
 62
     2
 10
191.254156198
 20
149.64888635
 30
0.0
 11
212.104156198
 21
149.64888635
 31
0.0
  0
TEXT
  8
0
  6
CONTINUOUS
 62
     2
 10
161.427979374
 20
52.72858106
 30
0.2
 40
3.0
  1
２，パネルカット後，パネル前面から計器をはめ込む。
 50
0.0
 41
0.75
 51
0.0
  7
KANJI6
  0
TEXT
  8
0
  6
CONTINUOUS
 62
     2
 10
161.727979374
 20
42.57658106
 30
0.2
 40
3.0
  1
４，Ｍ４×４５押ネジでパネル面を押しつけて固定する。
 50
0.0
 41
0.75
 51
0.0
  7
KANJI6
  0
TEXT
  8
0
  6
CONTINUOUS
 62
     2
 10
161.727979374
 20
37.32858106
 30
0.2
 40
3.0
  1
５，Ｍ４ナットでロックする。
 50
0.0
 41
0.75
 51
0.0
  7
KANJI6
  0
TEXT
  8
0
  6
CONTINUOUS
 62
     2
 10
161.727979374
 20
47.62358106
 30
0.2
 40
3.0
  1
３，計器本体に取外した取付金具をＭ４ネジで止める。
 50
0.0
 41
0.75
 51
0.0
  7
KANJI6
  0
TEXT
  8
0
  6
CONTINUOUS
 62
     6
 10
161.427979374
 20
65.62758106
 30
0.3
 40
4.0
  1
計器の取付け方
 50
0.0
 41
0.75
 51
0.0
  7
KANJI7
  0
LINE
  8
0
  6
CONTINUOUS
 62
     2
 10
160.627979374
 20
64.52758106
 30
0.0
 11
183.627979374
 21
64.52758106
 31
0.0
  0
LINE
  8
0
  6
CONTINUOUS
 62
     2
 10
184.279156198
 20
171.9
 30
0.0
 11
183.632108585
 21
169.485185434
 31
0.0
  0
LINE
  8
0
  6
CONTINUOUS
 62
     2
 10
184.279156198
 20
171.9
 30
0.0
 11
184.92620381
 21
169.485185434
 31
0.0
  0
LINE
  8
0
  6
CONTINUOUS
 62
     2
 10
167.1
 20
171.9
 30
0.0
 11
186.279156198
 21
171.9
 31
0.0
  0
LINE
  8
0
  6
CONTINUOUS
 62
     2
 10
184.279156198
 20
90.9
 30
0.0
 11
184.279156198
 21
171.9
 31
0.0
  0
LINE
  8
0
  6
CONTINUOUS
 62
     2
 10
166.9
 20
90.9
 30
0.0
 11
186.279156198
 21
90.9
 31
0.0
  0
LINE
  8
0
  6
CONTINUOUS
 62
     2
 10
184.279156198
 20
90.9
 30
0.0
 11
184.92620381
 21
93.314814566
 31
0.0
  0
LINE
  8
0
  6
CONTINUOUS
 62
     2
 10
184.279156198
 20
90.9
 30
0.0
 11
183.632108585
 21
93.314814566
 31
0.0
  0
ARC
  8
0
  6
CONTINUOUS
 62
     1
 10
164.0
 20
93.4
 30
0.0
 40
1.5
 50
160.528779366
 51
11.309932474
  0
LINE
  8
0
  6
CONTINUOUS
 62
     1
 10
161.5
 20
90.9
 30
0.0
 11
166.5
 21
90.9
 31
0.0
  0
LINE
  8
0
  6
CONTINUOUS
 62
     1
 10
97.215249375
 20
91.430952625
 30
0.0
 11
96.975
 21
91.671202
 31
0.0
  0
LINE
  8
0
  6
CONTINUOUS
 62
     1
 10
97.22485935
 20
92.454414962
 30
0.0
 11
96.975
 21
92.166115712
 31
0.0
  0
LINE
  8
0
  6
CONTINUOUS
 62
     1
 10
96.975
 20
94.65029425
 30
0.0
 11
97.26329925
 21
94.390824925
 31
0.0
  0
LINE
  8
0
  6
CONTINUOUS
 62
     1
 10
96.975
 20
94.097720687
 30
0.0
 11
97.26329925
 21
94.357190012
 31
0.0
  0
LINE
  8
0
  6
CONTINUOUS
 62
     1
 10
97.212366382
 20
92.44
 30
0.0
 11
96.972117007
 21
92.6321995
 31
0.0
  0
LINE
  8
0
  6
CONTINUOUS
 62
     1
 10
97.215249375
 20
91.430952625
 30
0.0
 11
98.59504625
 21
91.430952625
 31
0.0
  0
LINE
  8
0
  6
CONTINUOUS
 62
     1
 10
97.212366382
 20
92.44
 30
0.0
 11
98.59504625
 21
92.44
 31
0.0
  0
LINE
  8
0
  6
CONTINUOUS
 62
     1
 10
98.59504625
 20
94.361995
 30
0.0
 11
97.247282625
 21
94.361995
 31
0.0
  0
LINE
  8
0
  6
CONTINUOUS
 62
     1
 10
98.59504625
 20
91.430952625
 30
0.0
 11
98.59504625
 21
95.3229925
 31
0.0
  0
LINE
  8
0
  6
CONTINUOUS
 62
     1
 10
99.14504625
 20
95.2
 30
0.0
 11
98.59504625
 21
95.2
 31
0.0
  0
LINE
  8
0
  6
CONTINUOUS
 62
     1
 10
98.59504625
 20
95.2
 30
0.0
 11
98.59504625
 21
91.55
 31
0.0
  0
LINE
  8
0
  6
CONTINUOUS
 62
     1
 10
98.59504625
 20
91.55
 30
0.0
 11
99.14504625
 21
91.55
 31
0.0
  0
LINE
  8
0
  6
CONTINUOUS
 62
     1
 10
99.14504625
 20
91.55
 30
0.0
 11
99.14504625
 21
95.2
 31
0.0
  0
LINE
  8
0
  6
CONTINUOUS
 62
     1
 10
99.14504625
 20
93.55
 30
0.0
 11
98.59504625
 21
93.25
 31
0.0
  0
LINE
  8
0
  6
CONTINUOUS
 62
     1
 10
99.14504625
 20
93.7
 30
0.0
 11
98.59504625
 21
93.4
 31
0.0
  0
ARC
  8
0
  6
CONTINUOUS
 62
     1
 10
88.26330299
 20
92.632385781
 30
0.0
 40
0.966742525
 50
180.0
 51
270.0
  0
LINE
  8
0
  6
CONTINUOUS
 62
     1
 10
87.296560465
 20
92.632385781
 30
0.0
 11
87.296560465
 21
94.127614219
 31
0.0
  0
LINE
  8
0
  6
CONTINUOUS
 62
     1
 10
87.386789768
 20
93.096422193
 30
0.0
 11
87.386789768
 21
93.586238405
 31
0.0
  0
LINE
  8
0
  6
CONTINUOUS
 62
     1
 10
88.65
 20
91.665643256
 30
0.0
 11
88.25041309
 21
91.665643256
 31
0.0
  0
LINE
  8
0
  6
CONTINUOUS
 62
     1
 10
88.65
 20
94.4
 30
0.0
 11
96.96
 21
94.4
 31
0.0
  0
LINE
  8
0
  6
CONTINUOUS
 62
     2
 10
87.296560465
 20
93.109312093
 30
0.0
 11
87.386789768
 21
93.109312093
 31
0.0
  0
LINE
  8
0
  6
CONTINUOUS
 62
     2
 10
87.386789768
 20
93.586238405
 30
0.0
 11
87.309450366
 21
93.586238405
 31
0.0
  0
LINE
  8
0
  6
CONTINUOUS
 62
     2
 10
91.803439535
 20
92.6
 30
0.0
 11
89.843627995
 21
91.047859952
 31
0.0
  0
LINE
  8
0
  6
CONTINUOUS
 62
     2
 10
91.803439535
 20
92.6
 30
0.0
 11
90.882262978
 21
90.275901518
 31
0.0
  0
POLYLINE
  8
0
  6
CONTINUOUS
 62
     1
 66
     1
  0
VERTEX
  8
0
  6
CONTINUOUS
 62
     1
 10
109.15
 20
91.9
 30
0.0
  0
VERTEX
  8
0
  6
CONTINUOUS
 62
     1
 10
113.15
 20
91.9
 30
0.0
  0
VERTEX
  8
0
  6
CONTINUOUS
 62
     1
 10
113.15
 20
94.9
 30
0.0
  0
VERTEX
  8
0
  6
CONTINUOUS
 62
     1
 10
109.15
 20
94.9
 30
0.0
  0
VERTEX
  8
0
  6
CONTINUOUS
 62
     1
 10
109.15
 20
91.9
 30
0.0
  0
SEQEND
  0
LINE
  8
0
  6
CONTINUOUS
 62
     1
 10
109.15
 20
92.4
 30
0.0
 11
100.65
 21
92.4
 31
0.0
  0
LINE
  8
0
  6
CONTINUOUS
 62
     1
 10
100.66
 20
94.4
 30
0.0
 11
109.15
 21
94.4
 31
0.0
  0
LINE
  8
0
  6
CONTINUOUS
 62
     2
 10
91.803439535
 20
92.6
 30
0.0
 11
86.303439535
 21
85.2
 31
0.0
  0
LINE
  8
0
  6
CONTINUOUS
 62
     2
 10
86.303439535
 20
85.2
 30
0.0
 11
65.603439535
 21
85.2
 31
0.0
  0
TEXT
  8
0
  6
CONTINUOUS
 62
     2
 10
65.603439535
 20
86.2
 30
0.3
 40
3.0
  1
取付用Ｍ４×４５ネジ
 50
0.0
 41
0.6
 51
0.0
  7
KANJI1
  0
LINE
  8
0
  6
LTYPE1
 62
     2
 10
85.096560465
 20
93.4
 30
0.0
 11
117.096560465
 21
93.4
 31
0.0
  0
LINE
  8
0
  6
CONTINUOUS
 62
     1
 10
99.15
 20
90.9
 30
0.0
 11
100.65
 21
90.9
 31
0.0
  0
LINE
  8
0
  6
CONTINUOUS
 62
     1
 10
100.65
 20
90.9
 30
0.0
 11
100.65
 21
95.15
 31
0.0
  0
LINE
  8
0
  6
CONTINUOUS
 62
     1
 10
99.16
 20
102.65
 30
0.0
 11
99.1506
 21
90.9
 31
0.0
  0
LINE
  8
0
  6
CONTINUOUS
 62
     2
 10
108.5
 20
167.65
 30
0.0
 11
107.852952387
 21
165.235185434
 31
0.0
  0
LINE
  8
0
  6
CONTINUOUS
 62
     2
 10
108.5
 20
167.65
 30
0.0
 11
109.147047613
 21
165.235185434
 31
0.0
  0
LINE
  8
0
  6
CONTINUOUS
 62
     2
 10
108.5
 20
167.65
 30
0.0
 11
108.5
 21
95.15
 31
0.0
  0
LINE
  8
0
  6
CONTINUOUS
 62
     2
 10
90.1
 20
160.15
 30
0.0
 11
90.1
 21
102.65
 31
0.0
  0
LINE
  8
0
  6
CONTINUOUS
 62
     2
 10
98.7
 20
160.15
 30
0.0
 11
88.1
 21
160.15
 31
0.0
  0
LINE
  8
0
  6
CONTINUOUS
 62
     2
 10
90.1
 20
160.15
 30
0.0
 11
89.452952387
 21
157.735185434
 31
0.0
  0
LINE
  8
0
  6
CONTINUOUS
 62
     2
 10
90.1
 20
160.15
 30
0.0
 11
90.747047613
 21
157.735185434
 31
0.0
  0
LINE
  8
0
  6
CONTINUOUS
 62
     2
 10
41.4
 20
153.7
 30
0.0
 11
101.4
 21
159.802564103
 31
0.0
  0
LINE
  8
0
  6
CONTINUOUS
 62
     2
 10
101.4
 20
167.15
 30
0.0
 11
101.4
 21
159.802564103
 31
0.0
  0
LINE
  8
0
  6
CONTINUOUS
 62
     1
 10
99.15
 20
160.15
 30
0.0
 11
99.9
 21
160.15
 31
0.0
  0
LINE
  8
0
  6
CONTINUOUS
 62
     1
 10
99.9
 20
160.15
 30
0.0
 11
99.9
 21
161.45
 31
0.0
  0
LINE
  8
0
  6
CONTINUOUS
 62
     1
 10
40.9
 20
153.9
 30
0.0
 11
99.9
 21
160.15
 31
0.0
  0
LINE
  8
0
  6
CONTINUOUS
 62
     2
 10
40.679932297
 20
153.9
 30
0.0
 11
19.0125
 21
153.9
 31
0.0
  0
LINE
  8
0
  6
CONTINUOUS
 62
     2
 10
21.0125
 20
153.9
 30
0.0
 11
20.365452387
 21
151.485185434
 31
0.0
  0
LINE
  8
0
  6
CONTINUOUS
 62
     2
 10
21.0125
 20
153.9
 30
0.0
 11
21.659547613
 21
151.485185434
 31
0.0
  0
LINE
  8
0
  6
CONTINUOUS
 62
     2
 10
40.9
 20
108.469246512
 30
0.0
 11
40.9
 21
102.180246512
 31
0.0
  0
LINE
  8
0
  6
CONTINUOUS
 62
     1
 10
40.9
 20
153.9
 30
0.0
 11
40.9
 21
108.9
 31
0.0
  0
LINE
  8
0
  6
CONTINUOUS
 62
     1
 10
40.9
 20
108.9
 30
0.0
 11
99.9
 21
102.65
 31
0.0
  0
LINE
  8
0
  6
CONTINUOUS
 62
     2
 10
21.0125
 20
108.9
 30
0.0
 11
21.659547613
 21
111.314814566
 31
0.0
  0
LINE
  8
0
  6
CONTINUOUS
 62
     2
 10
21.0125
 20
108.9
 30
0.0
 11
20.365452387
 21
111.314814566
 31
0.0
  0
LINE
  8
0
  6
CONTINUOUS
 62
     2
 10
40.677932184
 20
108.9
 30
0.0
 11
19.0125
 21
108.9
 31
0.0
  0
LINE
  8
0
  6
CONTINUOUS
 62
     2
 10
21.0125
 20
153.9
 30
0.0
 11
21.0125
 21
108.9
 31
0.0
  0
ARC
  8
0
  6
CONTINUOUS
 62
     1
 10
89.616742525
 20
168.632385781
 30
0.0
 40
0.966742525
 50
180.0
 51
270.0
  0
LINE
  8
0
  6
CONTINUOUS
 62
     1
 10
88.65
 20
168.632385781
 30
0.0
 11
88.65
 21
170.127614219
 31
0.0
  0
LINE
  8
0
  6
CONTINUOUS
 62
     1
 10
88.740229302
 20
169.096422193
 30
0.0
 11
88.740229302
 21
169.586238405
 31
0.0
  0
LINE
  8
0
  6
CONTINUOUS
 62
     1
 10
90.003439535
 20
167.665643256
 30
0.0
 11
89.603852624
 21
167.665643256
 31
0.0
  0
LINE
  8
0
  6
CONTINUOUS
 62
     1
 10
109.15
 20
167.9
 30
0.0
 11
113.15
 21
167.9
 31
0.0
  0
LINE
  8
0
  6
CONTINUOUS
 62
     1
 10
113.15
 20
167.9
 30
0.0
 11
113.15
 21
170.9
 31
0.0
  0
LINE
  8
0
  6
CONTINUOUS
 62
     1
 10
113.15
 20
170.9
 30
0.0
 11
109.15
 21
170.9
 31
0.0
  0
LINE
  8
0
  6
CONTINUOUS
 62
     1
 10
109.15
 20
170.9
 30
0.0
 11
109.15
 21
167.9
 31
0.0
  0
LINE
  8
0
  6
CONTINUOUS
 62
     1
 10
109.15
 20
168.4
 30
0.0
 11
100.65
 21
168.4
 31
0.0
  0
LINE
  8
0
  6
CONTINUOUS
 62
     1
 10
100.65
 20
170.4
 30
0.0
 11
109.15
 21
170.4
 31
0.0
  0
LINE
  8
0
  6
CONTINUOUS
 62
     1
 10
97.220203125
 20
167.430952625
 30
0.0
 11
96.97995375
 21
167.671202
 31
0.0
  0
LINE
  8
0
  6
CONTINUOUS
 62
     1
 10
97.2298131
 20
168.454414962
 30
0.0
 11
96.97995375
 21
168.166115712
 31
0.0
  0
LINE
  8
0
  6
CONTINUOUS
 62
     1
 10
96.97995375
 20
170.65029425
 30
0.0
 11
97.268253
 21
170.390824925
 31
0.0
  0
LINE
  8
0
  6
CONTINUOUS
 62
     1
 10
96.97995375
 20
170.097720687
 30
0.0
 11
97.268253
 21
170.357190012
 31
0.0
  0
LINE
  8
0
  6
CONTINUOUS
 62
     1
 10
97.217320132
 20
168.44
 30
0.0
 11
96.977070757
 21
168.6321995
 31
0.0
  0
LINE
  8
0
  6
CONTINUOUS
 62
     1
 10
97.220203125
 20
167.430952625
 30
0.0
 11
98.6
 21
167.430952625
 31
0.0
  0
LINE
  8
0
  6
CONTINUOUS
 62
     1
 10
97.217320132
 20
168.44
 30
0.0
 11
98.6
 21
168.44
 31
0.0
  0
LINE
  8
0
  6
CONTINUOUS
 62
     1
 10
98.6
 20
170.361995
 30
0.0
 11
97.252236375
 21
170.361995
 31
0.0
  0
LINE
  8
0
  6
CONTINUOUS
 62
     1
 10
98.6
 20
167.430952625
 30
0.0
 11
98.6
 21
171.3229925
 31
0.0
  0
LINE
  8
0
  6
CONTINUOUS
 62
     1
 10
99.15
 20
171.2
 30
0.0
 11
98.6
 21
171.2
 31
0.0
  0
LINE
  8
0
  6
CONTINUOUS
 62
     1
 10
98.6
 20
171.2
 30
0.0
 11
98.6
 21
167.55
 31
0.0
  0
LINE
  8
0
  6
CONTINUOUS
 62
     1
 10
98.6
 20
167.55
 30
0.0
 11
99.15
 21
167.55
 31
0.0
  0
LINE
  8
0
  6
CONTINUOUS
 62
     1
 10
99.15
 20
167.55
 30
0.0
 11
99.15
 21
171.2
 31
0.0
  0
LINE
  8
0
  6
CONTINUOUS
 62
     1
 10
99.15
 20
169.55
 30
0.0
 11
98.6
 21
169.25
 31
0.0
  0
LINE
  8
0
  6
CONTINUOUS
 62
     1
 10
99.15
 20
169.7
 30
0.0
 11
98.6
 21
169.4
 31
0.0
  0
LINE
  8
0
  6
CONTINUOUS
 62
     1
 10
96.97995375
 20
168.4
 30
0.0
 11
90.003439535
 21
168.4
 31
0.0
  0
LINE
  8
0
  6
CONTINUOUS
 62
     1
 10
90.003439535
 20
170.4
 30
0.0
 11
96.97995375
 21
170.4
 31
0.0
  0
LINE
  8
0
  6
CONTINUOUS
 62
     2
 10
88.65
 20
169.109312093
 30
0.0
 11
88.740229302
 21
169.109312093
 31
0.0
  0
LINE
  8
0
  6
CONTINUOUS
 62
     2
 10
88.740229302
 20
169.586238405
 30
0.0
 11
88.6628899
 21
169.586238405
 31
0.0
  0
LINE
  8
0
  6
CONTINUOUS
 62
     1
 10
100.65
 20
171.9
 30
0.0
 11
99.15
 21
171.9
 31
0.0
  0
LINE
  8
0
  6
CONTINUOUS
 62
     1
 10
99.15
 20
171.9
 30
0.0
 11
99.15
 21
160.15
 31
0.0
  0
LINE
  8
0
  6
CONTINUOUS
 62
     1
 10
100.65
 20
167.65
 30
0.0
 11
100.65
 21
171.9
 31
0.0
  0
LINE
  8
0
  6
CONTINUOUS
 62
     2
 10
86.403439535
 20
169.4
 30
0.0
 11
77.1
 21
169.4
 31
0.0
  0
LINE
  8
0
  6
LTYPE1
 62
     2
 10
86.403439535
 20
169.4
 30
0.0
 11
116.403439535
 21
169.4
 31
0.0
  0
LINE
  8
0
  6
CONTINUOUS
 62
     2
 10
79.1
 20
169.4
 30
0.0
 11
78.452952387
 21
166.985185434
 31
0.0
  0
LINE
  8
0
  6
CONTINUOUS
 62
     2
 10
79.1
 20
169.4
 30
0.0
 11
79.747047613
 21
166.985185434
 31
0.0
  0
LINE
  8
0
  6
CONTINUOUS
 62
     1
 10
161.5
 20
93.9
 30
0.0
 11
161.5
 21
90.9
 31
0.0
  0
LINE
  8
0
  6
CONTINUOUS
 62
     1
 10
166.5
 20
90.9
 30
0.0
 11
166.5
 21
93.9
 31
0.0
  0
ARC
  8
0
  6
CONTINUOUS
 62
     1
 10
164.0
 20
169.4
 30
0.0
 40
1.5
 50
341.849401284
 51
199.471220635
  0
LINE
  8
0
  6
CONTINUOUS
 62
     1
 10
161.5
 20
171.9
 30
0.0
 11
166.5
 21
171.9
 31
0.0
  0
LINE
  8
0
  6
CONTINUOUS
 62
     1
 10
161.5
 20
168.9
 30
0.0
 11
161.5
 21
171.9
 31
0.0
  0
LINE
  8
0
  6
CONTINUOUS
 62
     1
 10
166.5
 20
171.9
 30
0.0
 11
166.5
 21
168.9
 31
0.0
  0
LINE
  8
0
  6
CONTINUOUS
 62
     2
 10
34.9
 20
179.525
 30
0.0
 11
37.314814566
 21
178.877952387
 31
0.0
  0
LINE
  8
0
  6
CONTINUOUS
 62
     2
 10
34.9
 20
179.525
 30
0.0
 11
37.314814566
 21
180.172047613
 31
0.0
  0
LINE
  8
0
  6
CONTINUOUS
 62
     2
 10
34.9
 20
138.75
 30
0.0
 11
34.9
 21
181.525
 31
0.0
  0
LINE
  8
0
  6
CONTINUOUS
 62
     2
 10
34.9
 20
179.525
 30
0.0
 11
117.85
 21
179.525
 31
0.0
  0
LINE
  8
0
  6
CONTINUOUS
 62
     2
 10
117.9
 20
179.525
 30
0.0
 11
115.485185434
 21
180.172047613
 31
0.0
  0
LINE
  8
0
  6
CONTINUOUS
 62
     2
 10
117.9
 20
169.15
 30
0.0
 11
117.9
 21
181.525
 31
0.0
  0
LINE
  8
0
  6
CONTINUOUS
 62
     2
 10
117.9
 20
179.525
 30
0.0
 11
120.314814566
 21
180.172047613
 31
0.0
  0
LINE
  8
0
  6
CONTINUOUS
 62
     2
 10
117.9
 20
179.525
 30
0.0
 11
115.485185434
 21
178.877952387
 31
0.0
  0
LINE
  8
0
  6
CONTINUOUS
 62
     2
 10
117.9
 20
179.525
 30
0.0
 11
120.314814566
 21
178.877952387
 31
0.0
  0
LINE
  8
0
  6
CONTINUOUS
 62
     2
 10
117.9
 20
174.6
 30
0.0
 11
115.485185434
 21
175.247047613
 31
0.0
  0
LINE
  8
0
  6
CONTINUOUS
 62
     2
 10
117.9
 20
174.6
 30
0.0
 11
115.485185434
 21
173.952952387
 31
0.0
  0
LINE
  8
0
  6
CONTINUOUS
 62
     2
 10
122.4
 20
174.6
 30
0.0
 11
124.814814566
 21
173.952952387
 31
0.0
  0
LINE
  8
0
  6
CONTINUOUS
 62
     2
 10
122.4
 20
174.6
 30
0.0
 11
124.814814566
 21
175.247047613
 31
0.0
  0
LINE
  8
0
  6
CONTINUOUS
 62
     2
 10
122.4
 20
169.4
 30
0.0
 11
122.4
 21
176.6
 31
0.0
  0
LINE
  8
0
  6
CONTINUOUS
 62
     2
 10
99.05
 20
174.6
 30
0.0
 11
127.4
 21
174.6
 31
0.0
  0
POLYLINE
  8
0
  6
CONTINUOUS
 62
     2
 66
     1
  0
VERTEX
  8
0
  6
CONTINUOUS
 62
     2
 10
137.303439535
 20
168.866533848
 30
0.0
  0
VERTEX
  8
0
  6
CONTINUOUS
 62
     2
 10
137.303439535
 20
93.9
 30
0.0
  0
VERTEX
  8
0
  6
CONTINUOUS
 62
     2
 10
137.950487147
 20
96.314814566
 30
0.0
  0
SEQEND
  0
LINE
  8
0
  6
CONTINUOUS
 62
     2
 10
137.303439535
 20
93.9
 30
0.0
 11
136.656391922
 21
96.314814566
 31
0.0
  0
LINE
  8
0
  6
CONTINUOUS
 62
     2
 10
122.924797589
 20
93.9
 30
0.0
 11
139.303439535
 21
93.9
 31
0.0
  0
LINE
  8
0
  6
CONTINUOUS
 62
     2
 10
85.096560465
 20
93.4
 30
0.0
 11
77.1
 21
93.4
 31
0.0
  0
LINE
  8
0
  6
CONTINUOUS
 62
     2
 10
79.1
 20
93.4
 30
0.0
 11
79.747047613
 21
95.814814566
 31
0.0
  0
LINE
  8
0
  6
CONTINUOUS
 62
     2
 10
79.1
 20
93.4
 30
0.0
 11
78.452952387
 21
95.814814566
 31
0.0
  0
LINE
  8
0
  6
CONTINUOUS
 62
     2
 10
79.1
 20
169.4
 30
0.0
 11
79.1
 21
93.4
 31
0.0
  0
LINE
  8
0
  6
CONTINUOUS
 62
     1
 10
98.59304625
 20
56.9229925
 30
0.0
 11
97.237274312
 21
56.9229925
 31
0.0
  0
LINE
  8
0
  6
CONTINUOUS
 62
     1
 10
97.237274312
 20
56.9229925
 30
0.0
 11
96.973
 21
56.658718187
 31
0.0
  0
LINE
  8
0
  6
CONTINUOUS
 62
     1
 10
96.973
 20
56.658718187
 30
0.0
 11
96.973
 21
53.271202
 31
0.0
  0
LINE
  8
0
  6
CONTINUOUS
 62
     1
 10
96.973
 20
54.0
 30
0.0
 11
88.648
 21
54.0
 31
0.0
  0
LINE
  8
0
  6
CONTINUOUS
 62
     1
 10
88.648
 20
53.265643256
 30
0.0
 11
88.648
 21
56.734
 31
0.0
  0
LINE
  8
0
  6
CONTINUOUS
 62
     1
 10
88.648
 20
56.734356744
 30
0.0
 11
88.24841309
 21
56.734356744
 31
0.0
  0
ARC
  8
0
  6
CONTINUOUS
 62
     1
 10
88.26130299
 20
55.767614219
 30
0.0
 40
0.966742525
 50
90.0
 51
180.0
  0
LINE
  8
0
  6
CONTINUOUS
 62
     1
 10
96.975
 20
92.4
 30
0.0
 11
88.65
 21
92.4
 31
0.0
  0
LINE
  8
0
  6
CONTINUOUS
 62
     1
 10
98.6
 20
171.3229925
 30
0.0
 11
97.244228062
 21
171.3229925
 31
0.0
  0
POLYLINE
  8
0
  6
CONTINUOUS
 62
     1
 66
     1
  0
VERTEX
  8
0
  6
CONTINUOUS
 62
     1
 10
97.244228062
 20
171.3229925
 30
0.0
  0
VERTEX
  8
0
  6
CONTINUOUS
 62
     1
 10
96.97995375
 20
171.058718187
 30
0.0
  0
VERTEX
  8
0
  6
CONTINUOUS
 62
     1
 10
96.97995375
 20
167.671202
 30
0.0
  0
SEQEND
  0
LINE
  8
0
  6
CONTINUOUS
 62
     1
 10
98.59504625
 20
95.3229925
 30
0.0
 11
97.239274313
 21
95.3229925
 31
0.0
  0
POLYLINE
  8
0
  6
CONTINUOUS
 62
     1
 66
     1
  0
VERTEX
  8
0
  6
CONTINUOUS
 62
     1
 10
97.239274313
 20
95.3229925
 30
0.0
  0
VERTEX
  8
0
  6
CONTINUOUS
 62
     1
 10
96.975
 20
95.058718187
 30
0.0
  0
VERTEX
  8
0
  6
CONTINUOUS
 62
     1
 10
96.975
 20
91.671202
 30
0.0
  0
SEQEND
  0
LINE
  8
0
  6
CONTINUOUS
 62
     1
 10
90.003439535
 20
167.665643256
 30
0.0
 11
90.003439535
 21
171.134
 31
0.0
  0
ARC
  8
0
  6
CONTINUOUS
 62
     1
 10
89.616742525
 20
170.167614219
 30
0.0
 40
0.966742525
 50
90.0
 51
180.0
  0
LINE
  8
0
  6
CONTINUOUS
 62
     1
 10
90.003439535
 20
171.134356744
 30
0.0
 11
89.603852624
 21
171.134356744
 31
0.0
  0
LINE
  8
0
  6
CONTINUOUS
 62
     1
 10
90.003439535
 20
171.134356744
 30
0.0
 11
90.003439535
 21
167.666
 31
0.0
  0
LINE
  8
0
  6
CONTINUOUS
 62
     1
 10
88.65
 20
91.665643256
 30
0.0
 11
88.65
 21
95.134
 31
0.0
  0
ARC
  8
0
  6
CONTINUOUS
 62
     1
 10
88.26330299
 20
94.167614219
 30
0.0
 40
0.966742525
 50
90.0
 51
180.0
  0
LINE
  8
0
  6
CONTINUOUS
 62
     1
 10
88.65
 20
95.134356744
 30
0.0
 11
88.25041309
 21
95.134356744
 31
0.0
  0
TEXT
  8
0
  6
CONTINUOUS
 62
     3
 10
233.558
 20
17.0
 30
0.2
 40
5.8
  1
ＭＳ－１３１４６
 50
0.0
 41
0.827586207
 51
0.0
  7
KANJI8
  0
LINE
  8
0
  6
CONTINUOUS
 62
     2
 10
172.5
 20
101.4
 30
0.0
 11
172.5
 21
161.4
 31
0.0
  0
LINE
  8
0
  6
CONTINUOUS
 62
     2
 10
155.5
 20
161.4
 30
0.0
 11
155.5
 21
101.4
 31
0.0
  0
LINE
  8
0
  6
CONTINUOUS
 62
     2
 10
157.0
 20
101.4
 30
0.0
 11
157.0
 21
106.85
 31
0.0
  0
LINE
  8
0
  6
CONTINUOUS
 62
     2
 10
157.0
 20
109.271428571
 30
0.0
 11
157.0
 21
161.4
 31
0.0
  0
LINE
  8
0
  6
CONTINUOUS
 62
     2
 10
156.55
 20
107.65
 30
0.0
 11
154.778056494
 21
105.886419491
 31
0.0
  0
LINE
  8
0
  6
CONTINUOUS
 62
     2
 10
156.55
 20
107.65
 30
0.0
 11
155.897242165
 21
105.236722725
 31
0.0
  0
LINE
  8
0
  6
CONTINUOUS
 62
     2
 10
157.0
 20
103.4
 30
0.0
 11
172.5
 21
103.4
 31
0.0
  0
LINE
  8
0
  6
CONTINUOUS
 62
     2
 10
157.0
 20
159.9
 30
0.0
 11
172.5
 21
159.9
 31
0.0
  0
LINE
  8
0
  6
CONTINUOUS
 62
     1
 10
155.669
 20
107.8
 30
0.0
 11
155.669
 21
108.3
 31
0.0
  0
LINE
  8
0
  6
CONTINUOUS
 62
     1
 10
164.169
 20
107.8
 30
0.0
 11
164.169
 21
108.3
 31
0.0
  0
LINE
  8
0
  6
CONTINUOUS
 62
     1
 10
155.669
 20
108.3
 30
0.0
 11
164.169
 21
108.3
 31
0.0
  0
LINE
  8
0
  6
CONTINUOUS
 62
     1
 10
155.669
 20
107.8
 30
0.0
 11
164.169
 21
107.8
 31
0.0
  0
LINE
  8
0
  6
CONTINUOUS
 62
     2
 10
142.85
 20
84.05
 30
0.0
 11
156.55
 21
107.65
 31
0.0
  0
TEXT
  8
0
  6
CONTINUOUS
 62
     2
 10
183.94
 20
127.734
 30
0.3
 40
3.0
  1
１６２
 50
90.0
 41
0.6
 51
0.0
  7
KANJI1
  0
TEXT
  8
0
  6
CONTINUOUS
 62
     2
 10
89.1
 20
127.805
 30
0.3
 40
3.0
  1
１１５
 50
90.0
 41
0.6
 51
0.0
  7
KANJI1
  0
TEXT
  8
0
  6
CONTINUOUS
 62
     2
 10
107.802
 20
129.533
 30
0.3
 40
3.0
  1
１４５
 50
90.0
 41
0.6
 51
0.0
  7
KANJI1
  0
TEXT
  8
0
  6
CONTINUOUS
 62
     2
 10
78.313
 20
129.317
 30
0.3
 40
3.0
  1
１５２
 50
90.0
 41
0.6
 51
0.0
  7
KANJI1
  0
TEXT
  8
0
  6
CONTINUOUS
 62
     1
 10
234.0
 20
29.0
 30
0.4
 40
4.0
  1
エッジワイズ形計器　外形図
 50
0.0
 41
0.9
 51
0.0
  7
KANJI9
  0
TEXT
  8
0
  6
CONTINUOUS
 62
     1
 10
231.559
 20
40.0
 30
0.4
 40
4.0
  1
□Ｅｆ－１５０ＮＴ（横形：Ｙ）
 50
0.0
 41
0.9
 51
0.0
  7
KANJI9
  0
TEXT
  8
0
  6
CONTINUOUS
 62
     2
 10
231.332
 20
34.0
 30
0.3
 40
3.0
  1
端子キャップ付
 50
0.0
 41
0.9
 51
0.0
  7
KANJI0
  0
TEXT
  8
0
  6
CONTINUOUS
 62
     2
 10
251.253
 20
34.178
 30
0.0
 40
3.0
  1
（指針：棒形、目盛板：平板）
 50
0.0
 41
0.833333333
 51
0.0
  7
KANJI10
  0
LINE
  8
0
  6
LTYPE1
 62
     2
 10
32.0
 20
131.4
 30
0.0
 11
131.0
 21
131.4
 31
0.0
  0
LINE
  8
0
  6
LTYPE1
 62
     2
 10
150.0
 20
131.4
 30
0.0
 11
178.0
 21
131.4
 31
0.0
  0
LINE
  8
0
  6
LTYPE1
 62
     2
 10
164.0
 20
174.0
 30
0.0
 11
164.0
 21
87.0
 31
0.0
  0
LINE
  8
0
  6
LTYPE1
 62
     2
 10
201.679156198
 20
170.0
 30
0.0
 11
201.679156198
 21
91.0
 31
0.0
  0
LINE
  8
0
  6
LTYPE1
 62
     2
 10
188.0
 20
131.4
 30
0.0
 11
194.15
 21
131.4
 31
0.0
  0
LINE
  8
0
  6
LTYPE1
 62
     2
 10
198.15
 20
131.4
 30
0.0
 11
214.0
 21
131.4
 31
0.0
  0
ENDSEC
  0
EOF
