  0
SECTION
  2
HEADER
  9
$ACADVER
  1
AC1009
  9
$DWGCODEPAGE
  3
dos932
  9
$EXTMIN
 10
0.0
 20
0.0
 30
0.0
  9
$EXTMAX
 10
297.0
 20
210.0
 30
0.0
  9
$LIMMIN
 10
0.0
 20
0.0
  9
$LIMMAX
 10
297.0
 20
210.0
  9
$LTSCALE
 40
1.0
  9
$PDMODE
 70
     0
  0
ENDSEC
  0
SECTION
  2
TABLES
  0
TABLE
  2
VPORT
 70
     1
  0
VPORT
  2
*ACTIVE
 70
     0
 10
0.0
 20
0.0
 11
1.0
 21
1.0
 12
148.5
 22
105.0
 13
0.0
 23
0.0
 14
10.0
 24
10.0
 15
10.0
 25
10.0
 16
0.0
 26
0.0
 36
1.0
 17
0.0
 27
0.0
 37
0.0
 40
297.0
 41
1.414285714
 42
50.0
 43
0.0
 44
0.0
 50
0.0
 51
0.0
 71
     0
 72
  1000
 73
     1
 74
     3
 75
     0
 76
     0
 77
     0
 78
     0
  0
ENDTAB
  0
TABLE
  2
LTYPE
 70
     6
  0
LTYPE
  2
CONTINUOUS
 70
    64
  3
Solid line
 72
    65
 73
     0
 40
0.0
  0
LTYPE
  2
LTYPE1
 70
    64
  3
CENTER
 72
    65
 73
     4
 40
15.0
 49
10.5
 49
-1.5
 49
1.5
 49
-1.5
  0
LTYPE
  2
LTYPE2
 70
    64
  3
HIDDEN
 72
    65
 73
     2
 40
3.0
 49
1.8
 49
-1.2
  0
LTYPE
  2
LTYPE3
 70
    64
  3
HIDDEN
 72
    65
 73
     2
 40
1.5
 49
0.9
 49
-0.6
  0
LTYPE
  2
LTYPE4
 70
    64
  3
CENTERX2
 72
    65
 73
     4
 40
15.0
 49
12.75
 49
-0.75
 49
0.75
 49
-0.75
  0
LTYPE
  2
LTYPE5
 70
    64
  3
CENTER
 72
    65
 73
     4
 40
5.0
 49
3.5
 49
-0.5
 49
0.5
 49
-0.5
  0
ENDTAB
  0
TABLE
  2
LAYER
 70
   128
  0
LAYER
  2
0
 70
     0
 62
     7
  6
CONTINUOUS
  0
LAYER
  2
2
 70
     0
 62
     7
  6
CONTINUOUS
  0
LAYER
  2
3
 70
     0
 62
     7
  6
CONTINUOUS
  0
LAYER
  2
4
 70
     0
 62
     7
  6
CONTINUOUS
  0
LAYER
  2
5
 70
     0
 62
     7
  6
CONTINUOUS
  0
LAYER
  2
6
 70
     0
 62
     7
  6
CONTINUOUS
  0
LAYER
  2
7
 70
     0
 62
     7
  6
CONTINUOUS
  0
LAYER
  2
8
 70
     0
 62
     7
  6
CONTINUOUS
  0
LAYER
  2
9
 70
     0
 62
     7
  6
CONTINUOUS
  0
LAYER
  2
10
 70
     0
 62
     7
  6
CONTINUOUS
  0
LAYER
  2
11
 70
     0
 62
     7
  6
CONTINUOUS
  0
LAYER
  2
12
 70
     0
 62
     7
  6
CONTINUOUS
  0
LAYER
  2
13
 70
     0
 62
     7
  6
CONTINUOUS
  0
LAYER
  2
14
 70
     0
 62
     7
  6
CONTINUOUS
  0
LAYER
  2
15
 70
     0
 62
     7
  6
CONTINUOUS
  0
LAYER
  2
16
 70
     0
 62
     7
  6
CONTINUOUS
  0
LAYER
  2
17
 70
     0
 62
     7
  6
CONTINUOUS
  0
LAYER
  2
18
 70
     0
 62
     7
  6
CONTINUOUS
  0
LAYER
  2
19
 70
     0
 62
     7
  6
CONTINUOUS
  0
LAYER
  2
20
 70
     0
 62
     7
  6
CONTINUOUS
  0
LAYER
  2
21
 70
     0
 62
     7
  6
CONTINUOUS
  0
LAYER
  2
22
 70
     0
 62
     7
  6
CONTINUOUS
  0
LAYER
  2
23
 70
     0
 62
     7
  6
CONTINUOUS
  0
LAYER
  2
24
 70
     0
 62
     7
  6
CONTINUOUS
  0
LAYER
  2
25
 70
     0
 62
     7
  6
CONTINUOUS
  0
LAYER
  2
26
 70
     0
 62
     7
  6
CONTINUOUS
  0
LAYER
  2
27
 70
     0
 62
     7
  6
CONTINUOUS
  0
LAYER
  2
28
 70
     0
 62
     7
  6
CONTINUOUS
  0
LAYER
  2
29
 70
     0
 62
     7
  6
CONTINUOUS
  0
LAYER
  2
30
 70
     0
 62
     7
  6
CONTINUOUS
  0
LAYER
  2
31
 70
     0
 62
     7
  6
CONTINUOUS
  0
LAYER
  2
32
 70
     0
 62
     7
  6
CONTINUOUS
  0
LAYER
  2
33
 70
     0
 62
     7
  6
CONTINUOUS
  0
LAYER
  2
34
 70
     0
 62
     7
  6
CONTINUOUS
  0
LAYER
  2
35
 70
     0
 62
     7
  6
CONTINUOUS
  0
LAYER
  2
36
 70
     0
 62
     7
  6
CONTINUOUS
  0
LAYER
  2
37
 70
     0
 62
     7
  6
CONTINUOUS
  0
LAYER
  2
38
 70
     0
 62
     7
  6
CONTINUOUS
  0
LAYER
  2
39
 70
     0
 62
     7
  6
CONTINUOUS
  0
LAYER
  2
40
 70
     0
 62
     7
  6
CONTINUOUS
  0
LAYER
  2
41
 70
     0
 62
     7
  6
CONTINUOUS
  0
LAYER
  2
42
 70
     0
 62
     7
  6
CONTINUOUS
  0
LAYER
  2
43
 70
     0
 62
     7
  6
CONTINUOUS
  0
LAYER
  2
44
 70
     0
 62
     7
  6
CONTINUOUS
  0
LAYER
  2
45
 70
     0
 62
     7
  6
CONTINUOUS
  0
LAYER
  2
46
 70
     0
 62
     7
  6
CONTINUOUS
  0
LAYER
  2
47
 70
     0
 62
     7
  6
CONTINUOUS
  0
LAYER
  2
48
 70
     0
 62
     7
  6
CONTINUOUS
  0
LAYER
  2
49
 70
     0
 62
     7
  6
CONTINUOUS
  0
LAYER
  2
50
 70
     0
 62
     7
  6
CONTINUOUS
  0
LAYER
  2
51
 70
     0
 62
     7
  6
CONTINUOUS
  0
LAYER
  2
52
 70
     0
 62
     7
  6
CONTINUOUS
  0
LAYER
  2
53
 70
     0
 62
     7
  6
CONTINUOUS
  0
LAYER
  2
54
 70
     0
 62
     7
  6
CONTINUOUS
  0
LAYER
  2
55
 70
     0
 62
     7
  6
CONTINUOUS
  0
LAYER
  2
56
 70
     0
 62
     7
  6
CONTINUOUS
  0
LAYER
  2
57
 70
     0
 62
     7
  6
CONTINUOUS
  0
LAYER
  2
58
 70
     0
 62
     7
  6
CONTINUOUS
  0
LAYER
  2
59
 70
     0
 62
     7
  6
CONTINUOUS
  0
LAYER
  2
60
 70
     0
 62
     7
  6
CONTINUOUS
  0
LAYER
  2
61
 70
     0
 62
     7
  6
CONTINUOUS
  0
LAYER
  2
62
 70
     0
 62
     7
  6
CONTINUOUS
  0
LAYER
  2
63
 70
     0
 62
     7
  6
CONTINUOUS
  0
LAYER
  2
64
 70
     0
 62
     7
  6
CONTINUOUS
  0
LAYER
  2
65
 70
     0
 62
     7
  6
CONTINUOUS
  0
LAYER
  2
66
 70
     0
 62
     7
  6
CONTINUOUS
  0
LAYER
  2
67
 70
     0
 62
     7
  6
CONTINUOUS
  0
LAYER
  2
68
 70
     0
 62
     7
  6
CONTINUOUS
  0
LAYER
  2
69
 70
     0
 62
     7
  6
CONTINUOUS
  0
LAYER
  2
70
 70
     0
 62
     7
  6
CONTINUOUS
  0
LAYER
  2
71
 70
     0
 62
     7
  6
CONTINUOUS
  0
LAYER
  2
72
 70
     0
 62
     7
  6
CONTINUOUS
  0
LAYER
  2
73
 70
     0
 62
     7
  6
CONTINUOUS
  0
LAYER
  2
74
 70
     0
 62
     7
  6
CONTINUOUS
  0
LAYER
  2
75
 70
     0
 62
     7
  6
CONTINUOUS
  0
LAYER
  2
76
 70
     0
 62
     7
  6
CONTINUOUS
  0
LAYER
  2
77
 70
     0
 62
     7
  6
CONTINUOUS
  0
LAYER
  2
78
 70
     0
 62
     7
  6
CONTINUOUS
  0
LAYER
  2
79
 70
     0
 62
     7
  6
CONTINUOUS
  0
LAYER
  2
80
 70
     0
 62
     7
  6
CONTINUOUS
  0
LAYER
  2
81
 70
     0
 62
     7
  6
CONTINUOUS
  0
LAYER
  2
82
 70
     0
 62
     7
  6
CONTINUOUS
  0
LAYER
  2
83
 70
     0
 62
     7
  6
CONTINUOUS
  0
LAYER
  2
84
 70
     0
 62
     7
  6
CONTINUOUS
  0
LAYER
  2
85
 70
     0
 62
     7
  6
CONTINUOUS
  0
LAYER
  2
86
 70
     0
 62
     7
  6
CONTINUOUS
  0
LAYER
  2
87
 70
     0
 62
     7
  6
CONTINUOUS
  0
LAYER
  2
88
 70
     0
 62
     7
  6
CONTINUOUS
  0
LAYER
  2
89
 70
     0
 62
     7
  6
CONTINUOUS
  0
LAYER
  2
90
 70
     0
 62
     7
  6
CONTINUOUS
  0
LAYER
  2
91
 70
     0
 62
     7
  6
CONTINUOUS
  0
LAYER
  2
92
 70
     0
 62
     7
  6
CONTINUOUS
  0
LAYER
  2
93
 70
     0
 62
     7
  6
CONTINUOUS
  0
LAYER
  2
94
 70
     0
 62
     7
  6
CONTINUOUS
  0
LAYER
  2
95
 70
     0
 62
     7
  6
CONTINUOUS
  0
LAYER
  2
96
 70
     0
 62
     7
  6
CONTINUOUS
  0
LAYER
  2
97
 70
     0
 62
     7
  6
CONTINUOUS
  0
LAYER
  2
98
 70
     0
 62
     7
  6
CONTINUOUS
  0
LAYER
  2
99
 70
     0
 62
     7
  6
CONTINUOUS
  0
LAYER
  2
100
 70
     0
 62
     7
  6
CONTINUOUS
  0
LAYER
  2
101
 70
     0
 62
     7
  6
CONTINUOUS
  0
LAYER
  2
102
 70
     0
 62
     7
  6
CONTINUOUS
  0
LAYER
  2
103
 70
     0
 62
     7
  6
CONTINUOUS
  0
LAYER
  2
104
 70
     0
 62
     7
  6
CONTINUOUS
  0
LAYER
  2
105
 70
     0
 62
     7
  6
CONTINUOUS
  0
LAYER
  2
106
 70
     0
 62
     7
  6
CONTINUOUS
  0
LAYER
  2
107
 70
     0
 62
     7
  6
CONTINUOUS
  0
LAYER
  2
108
 70
     0
 62
     7
  6
CONTINUOUS
  0
LAYER
  2
109
 70
     0
 62
     7
  6
CONTINUOUS
  0
LAYER
  2
110
 70
     0
 62
     7
  6
CONTINUOUS
  0
LAYER
  2
111
 70
     0
 62
     7
  6
CONTINUOUS
  0
LAYER
  2
112
 70
     0
 62
     7
  6
CONTINUOUS
  0
LAYER
  2
113
 70
     0
 62
     7
  6
CONTINUOUS
  0
LAYER
  2
114
 70
     0
 62
     7
  6
CONTINUOUS
  0
LAYER
  2
115
 70
     0
 62
     7
  6
CONTINUOUS
  0
LAYER
  2
116
 70
     0
 62
     7
  6
CONTINUOUS
  0
LAYER
  2
117
 70
     0
 62
     7
  6
CONTINUOUS
  0
LAYER
  2
118
 70
     0
 62
     7
  6
CONTINUOUS
  0
LAYER
  2
119
 70
     0
 62
     7
  6
CONTINUOUS
  0
LAYER
  2
120
 70
     0
 62
     7
  6
CONTINUOUS
  0
LAYER
  2
121
 70
     0
 62
     7
  6
CONTINUOUS
  0
LAYER
  2
122
 70
     0
 62
     7
  6
CONTINUOUS
  0
LAYER
  2
123
 70
     0
 62
     7
  6
CONTINUOUS
  0
LAYER
  2
124
 70
     0
 62
     7
  6
CONTINUOUS
  0
LAYER
  2
125
 70
     0
 62
     7
  6
CONTINUOUS
  0
LAYER
  2
126
 70
     0
 62
     7
  6
CONTINUOUS
  0
LAYER
  2
127
 70
     0
 62
     7
  6
CONTINUOUS
  0
LAYER
  2
128
 70
     0
 62
     7
  6
CONTINUOUS
  0
ENDTAB
  0
TABLE
  2
STYLE
 70
    13
  0
STYLE
  2
STANDARD
 70
     0
 40
0.0
 41
1.0
 50
0.0
 71
     0
 42
0.2
  3
txt.shx
  4
extfont.shx
  0
STYLE
  2
KANJI0
 70
     0
 40
3.0
 41
0.6
 50
0.0
 71
     0
 42
3.0
  3
txt.shx
  4
extfont.shx
  0
STYLE
  2
KANJI1
 70
     0
 40
2.0
 41
0.9
 50
0.0
 71
     0
 42
2.0
  3
txt.shx
  4
extfont.shx
  0
STYLE
  2
KANJI2
 70
     0
 40
3.0
 41
0.866666667
 50
0.0
 71
     0
 42
3.0
  3
txt.shx
  4
extfont.shx
  0
STYLE
  2
KANJI3
 70
     0
 40
3.0
 41
0.9
 50
0.0
 71
     0
 42
3.0
  3
txt.shx
  4
extfont.shx
  0
STYLE
  2
KANJI4
 70
     0
 40
3.0
 41
0.833333333
 50
0.0
 71
     0
 42
3.0
  3
txt.shx
  4
extfont.shx
  0
STYLE
  2
KANJI5
 70
     0
 40
5.8
 41
0.827586207
 50
0.0
 71
     0
 42
5.8
  3
txt.shx
  4
extfont.shx
  0
STYLE
  2
KANJI6
 70
     0
 40
3.5
 41
0.9
 50
0.0
 71
     0
 42
3.5
  3
txt.shx
  4
extfont.shx
  0
STYLE
  2
KANJI7
 70
     0
 40
3.0
 41
0.75
 50
0.0
 71
     0
 42
3.0
  3
txt.shx
  4
extfont.shx
  0
STYLE
  2
KANJI8
 70
     0
 40
3.0
 41
0.6
 50
0.0
 71
     0
 42
3.0
  3
txt.shx
  4
extfont.shx
  0
STYLE
  2
KANJI9
 70
     0
 40
1.8
 41
0.6
 50
0.0
 71
     0
 42
1.8
  3
txt.shx
  4
extfont.shx
  0
STYLE
  2
KANJI10
 70
     0
 40
4.0
 41
0.9
 50
0.0
 71
     0
 42
4.0
  3
txt.shx
  4
extfont.shx
  0
STYLE
  2
KANJI11
 70
     0
 40
2.5
 41
0.92
 50
0.0
 71
     0
 42
2.5
  3
txt.shx
  4
extfont.shx
  0
ENDTAB
  0
TABLE
  2
VIEW
 70
     0
  0
ENDTAB
  0
ENDSEC
  0
SECTION
  2
BLOCKS
  0
ENDSEC
  0
SECTION
  2
ENTITIES
  0
LINE
  8
0
  6
CONTINUOUS
 62
     1
 10
123.523058987
 20
96.4
 30
0.0
 11
125.023058987
 21
96.4
 31
0.0
  0
LINE
  8
0
  6
CONTINUOUS
 62
     1
 10
125.023058987
 20
156.4
 30
0.0
 11
123.523058987
 21
156.4
 31
0.0
  0
ARC
  8
0
  6
CONTINUOUS
 62
     1
 10
63.4
 20
126.4
 30
0.0
 40
63.5
 50
0.0
 51
26.515396588
  0
LINE
  8
0
  6
CONTINUOUS
 62
     1
 10
120.223058987
 20
154.753377196
 30
0.0
 11
123.523058987
 21
156.4
 31
0.0
  0
ARC
  8
0
  6
CONTINUOUS
 62
     1
 10
63.4
 20
126.4
 30
0.0
 40
63.5
 50
333.481876884
 51
0.0
  0
LINE
  8
0
  6
CONTINUOUS
 62
     1
 10
120.219366986
 20
98.048465027
 30
0.0
 11
123.523058987
 21
96.4
 31
0.0
  0
ARC
  8
0
  6
CONTINUOUS
 62
     1
 10
24.4
 20
126.4
 30
0.0
 40
105.0
 50
0.0
 51
16.970349643
  0
ARC
  8
0
  6
CONTINUOUS
 62
     1
 10
123.376553342
 20
89.240322774
 30
0.0
 40
1.0
 50
120.588388075
 51
197.869897646
  0
ARC
  8
0
  6
CONTINUOUS
 62
     1
 10
123.767235127
 20
90.374945064
 30
0.0
 40
1.0
 50
124.657981601
 51
200.188655051
  0
ARC
  8
0
  6
CONTINUOUS
 62
     1
 10
124.157916913
 20
91.509567355
 30
0.0
 40
1.0
 50
122.87696549
 51
198.390581326
  0
ARC
  8
0
  6
CONTINUOUS
 62
     1
 10
124.548598698
 20
92.644189646
 30
0.0
 40
1.0
 50
122.87696549
 51
200.188655051
  0
ARC
  8
0
  6
CONTINUOUS
 62
     1
 10
124.939280483
 20
93.778811936
 30
0.0
 40
1.0
 50
122.87696549
 51
200.188655051
  0
ARC
  8
0
  6
CONTINUOUS
 62
     1
 10
125.329962269
 20
94.913434227
 30
0.0
 40
1.0
 50
122.87696549
 51
200.188655051
  0
ARC
  8
0
  6
CONTINUOUS
 62
     1
 10
24.4
 20
126.4
 30
0.0
 40
105.0
 50
343.018596483
 51
0.0
  0
LINE
  8
0
  6
CONTINUOUS
 62
     1
 10
101.4
 20
95.28
 30
0.0
 11
100.9
 21
95.28
 31
0.0
  0
LINE
  8
0
  6
CONTINUOUS
 62
     1
 10
100.9
 20
95.28
 30
0.0
 11
100.9
 21
96.15
 31
0.0
  0
LINE
  8
0
  6
CONTINUOUS
 62
     1
 10
100.9
 20
91.65
 30
0.0
 11
100.9
 21
92.52
 31
0.0
  0
LINE
  8
0
  6
CONTINUOUS
 62
     1
 10
100.9
 20
92.52
 30
0.0
 11
101.4
 21
92.52
 31
0.0
  0
LINE
  8
0
  6
CONTINUOUS
 62
     1
 10
101.4
 20
157.52
 30
0.0
 11
100.9
 21
157.52
 31
0.0
  0
LINE
  8
0
  6
CONTINUOUS
 62
     1
 10
100.9
 20
157.52
 30
0.0
 11
100.9
 21
156.65
 31
0.0
  0
LINE
  8
0
  6
CONTINUOUS
 62
     1
 10
101.4
 20
160.28
 30
0.0
 11
100.9
 21
160.28
 31
0.0
  0
LINE
  8
0
  6
CONTINUOUS
 62
     1
 10
100.9
 20
160.28
 30
0.0
 11
100.9
 21
161.15
 31
0.0
  0
LINE
  8
0
  6
CONTINUOUS
 62
     1
 10
99.15
 20
155.17
 30
0.0
 11
99.9
 21
155.17
 31
0.0
  0
LINE
  8
0
  6
CONTINUOUS
 62
     1
 10
99.9
 20
97.65
 30
0.0
 11
99.16
 21
97.65
 31
0.0
  0
LINE
  8
0
  6
CONTINUOUS
 62
     1
 10
100.65
 20
91.65
 30
0.0
 11
100.65
 21
96.15
 31
0.0
  0
LINE
  8
0
  6
CONTINUOUS
 62
     1
 10
100.65
 20
156.65
 30
0.0
 11
100.65
 21
161.15
 31
0.0
  0
ARC
  8
0
  6
CONTINUOUS
 62
     1
 10
98.260596877
 20
159.647614219
 30
0.0
 40
0.966742525
 50
88.472474559
 51
180.0
  0
ARC
  8
0
  6
CONTINUOUS
 62
     1
 10
98.260596877
 20
158.152385781
 30
0.0
 40
0.966742525
 50
180.0
 51
270.0
  0
LINE
  8
0
  6
CONTINUOUS
 62
     1
 10
97.293854352
 20
158.152385781
 30
0.0
 11
97.293854352
 21
159.647614219
 31
0.0
  0
LINE
  8
0
  6
CONTINUOUS
 62
     1
 10
97.384083655
 20
158.616422193
 30
0.0
 11
97.384083655
 21
159.106238405
 31
0.0
  0
LINE
  8
0
  6
CONTINUOUS
 62
     1
 10
98.647293887
 20
157.185643256
 30
0.0
 11
98.247706977
 21
157.185643256
 31
0.0
  0
LINE
  8
0
  6
CONTINUOUS
 62
     1
 10
98.247706977
 20
160.588576943
 30
0.0
 11
98.647293887
 21
160.614356744
 31
0.0
  0
LINE
  8
0
  6
CONTINUOUS
 62
     1
 10
98.647293887
 20
157.185643256
 30
0.0
 11
98.647293887
 21
160.614356744
 31
0.0
  0
ARC
  8
0
  6
CONTINUOUS
 62
     1
 10
98.260596877
 20
94.647614219
 30
0.0
 40
0.966742525
 50
88.472474559
 51
180.0
  0
ARC
  8
0
  6
CONTINUOUS
 62
     1
 10
98.260596877
 20
93.152385781
 30
0.0
 40
0.966742525
 50
180.0
 51
270.0
  0
LINE
  8
0
  6
CONTINUOUS
 62
     1
 10
97.293854352
 20
93.152385781
 30
0.0
 11
97.293854352
 21
94.647614219
 31
0.0
  0
LINE
  8
0
  6
CONTINUOUS
 62
     1
 10
97.384083655
 20
93.616422193
 30
0.0
 11
97.384083655
 21
94.106238405
 31
0.0
  0
LINE
  8
0
  6
CONTINUOUS
 62
     1
 10
98.647293887
 20
92.185643256
 30
0.0
 11
98.247706977
 21
92.185643256
 31
0.0
  0
LINE
  8
0
  6
CONTINUOUS
 62
     1
 10
98.247706977
 20
95.588576943
 30
0.0
 11
98.647293887
 21
95.614356744
 31
0.0
  0
LINE
  8
0
  6
CONTINUOUS
 62
     1
 10
98.647293887
 20
92.185643256
 30
0.0
 11
98.647293887
 21
95.614356744
 31
0.0
  0
LINE
  8
0
  6
CONTINUOUS
 62
     1
 10
99.9
 20
155.15
 30
0.0
 11
41.079932297
 21
149.218145715
 31
0.0
  0
ARC
  8
0
  6
CONTINUOUS
 62
     1
 10
41.1
 20
149.019155043
 30
0.0
 40
0.2
 50
95.758664088
 51
180.0
  0
LINE
  8
0
  6
CONTINUOUS
 62
     1
 10
41.077932184
 20
104.180246512
 30
0.0
 11
99.9
 21
97.65
 31
0.0
  0
LINE
  8
0
  6
CONTINUOUS
 62
     1
 10
40.9
 20
149.019155043
 30
0.0
 11
40.9
 21
104.379025312
 31
0.0
  0
ARC
  8
0
  6
CONTINUOUS
 62
     1
 10
41.1
 20
104.379025312
 30
0.0
 40
0.2
 50
180.0
 51
263.665137598
  0
ARC
  8
0
  6
CONTINUOUS
 62
     1
 10
100.1
 20
90.35
 30
0.0
 40
0.2
 50
180.0
 51
270.0
  0
ARC
  8
0
  6
CONTINUOUS
 62
     1
 10
100.1
 20
162.45
 30
0.0
 40
0.2
 50
90.0
 51
180.0
  0
LINE
  8
0
  6
CONTINUOUS
 62
     1
 10
100.9
 20
156.65
 30
0.0
 11
100.1
 21
156.65
 31
0.0
  0
LINE
  8
0
  6
CONTINUOUS
 62
     1
 10
99.9
 20
155.15
 30
0.0
 11
99.9
 21
156.45
 31
0.0
  0
ARC
  8
0
  6
CONTINUOUS
 62
     1
 10
100.1
 20
156.45
 30
0.0
 40
0.2
 50
90.0
 51
180.0
  0
LINE
  8
0
  6
CONTINUOUS
 62
     1
 10
100.9
 20
161.15
 30
0.0
 11
100.1
 21
161.15
 31
0.0
  0
LINE
  8
0
  6
CONTINUOUS
 62
     1
 10
99.9
 20
161.35
 30
0.0
 11
99.9
 21
162.45
 31
0.0
  0
ARC
  8
0
  6
CONTINUOUS
 62
     1
 10
100.1
 20
161.35
 30
0.0
 40
0.2
 50
180.0
 51
270.0
  0
LINE
  8
0
  6
CONTINUOUS
 62
     1
 10
100.1
 20
91.65
 30
0.0
 11
100.9
 21
91.65
 31
0.0
  0
LINE
  8
0
  6
CONTINUOUS
 62
     1
 10
99.9
 20
91.45
 30
0.0
 11
99.9
 21
90.35
 31
0.0
  0
ARC
  8
0
  6
CONTINUOUS
 62
     1
 10
100.1
 20
91.45
 30
0.0
 40
0.2
 50
90.0
 51
180.0
  0
LINE
  8
0
  6
CONTINUOUS
 62
     1
 10
100.9
 20
96.15
 30
0.0
 11
100.1
 21
96.15
 31
0.0
  0
LINE
  8
0
  6
CONTINUOUS
 62
     1
 10
99.9
 20
97.65
 30
0.0
 11
99.9
 21
96.35
 31
0.0
  0
ARC
  8
0
  6
CONTINUOUS
 62
     1
 10
100.1
 20
96.35
 30
0.0
 40
0.2
 50
180.0
 51
270.0
  0
LINE
  8
0
  6
CONTINUOUS
 62
     1
 10
112.9
 20
162.65
 30
0.0
 11
112.9
 21
162.45
 31
0.0
  0
LINE
  8
0
  6
CONTINUOUS
 62
     1
 10
112.9
 20
90.15
 30
0.0
 11
112.9
 21
90.35
 31
0.0
  0
LINE
  8
0
  6
CONTINUOUS
 62
     1
 10
100.1
 20
90.15
 30
0.0
 11
117.85
 21
90.15
 31
0.0
  0
LINE
  8
0
  6
CONTINUOUS
 62
     1
 10
117.85
 20
88.9
 30
0.0
 11
122.4
 21
88.9
 31
0.0
  0
LINE
  8
0
  6
CONTINUOUS
 62
     1
 10
117.85
 20
88.9
 30
0.0
 11
117.85
 21
163.875
 31
0.0
  0
LINE
  8
0
  6
CONTINUOUS
 62
     1
 10
117.85
 20
163.875
 30
0.0
 11
117.9
 21
163.9
 31
0.0
  0
LINE
  8
0
  6
CONTINUOUS
 62
     1
 10
100.1
 20
162.65
 30
0.0
 11
117.85
 21
162.65
 31
0.0
  0
LINE
  8
0
  6
CONTINUOUS
 62
     1
 10
112.9
 20
162.45
 30
0.0
 11
117.85
 21
162.45
 31
0.0
  0
LINE
  8
0
  6
CONTINUOUS
 62
     1
 10
112.9
 20
90.35
 30
0.0
 11
117.85
 21
90.35
 31
0.0
  0
LINE
  8
0
  6
CONTINUOUS
 62
     1
 10
125.023058987
 20
40.0
 30
0.0
 11
125.023058987
 21
60.0
 31
0.0
  0
LINE
  8
0
  6
CONTINUOUS
 62
     1
 10
122.436244664
 20
60.0
 30
0.0
 11
122.436244664
 21
40.0
 31
0.0
  0
LINE
  8
0
  6
CONTINUOUS
 62
     1
 10
118.1
 20
40.0
 30
0.0
 11
129.4
 21
40.0
 31
0.0
  0
LINE
  8
0
  6
CONTINUOUS
 62
     1
 10
129.4
 20
40.0
 30
0.0
 11
129.4
 21
60.0
 31
0.0
  0
LINE
  8
0
  6
CONTINUOUS
 62
     1
 10
129.4
 20
60.0
 30
0.0
 11
118.1
 21
60.0
 31
0.0
  0
LINE
  8
0
  6
CONTINUOUS
 62
     1
 10
117.85
 20
60.0
 30
0.0
 11
40.9
 21
60.0
 31
0.0
  0
LINE
  8
0
  6
CONTINUOUS
 62
     1
 10
99.15
 20
60.0
 30
0.0
 11
99.15
 21
52.5
 31
0.0
  0
LINE
  8
0
  6
CONTINUOUS
 62
     1
 10
99.15
 20
52.5
 30
0.0
 11
100.65
 21
52.5
 31
0.0
  0
LINE
  8
0
  6
CONTINUOUS
 62
     1
 10
99.15
 20
47.5
 30
0.0
 11
100.65
 21
47.5
 31
0.0
  0
LINE
  8
0
  6
CONTINUOUS
 62
     1
 10
100.65
 20
47.5
 30
0.0
 11
100.65
 21
52.5
 31
0.0
  0
LINE
  8
0
  6
CONTINUOUS
 62
     1
 10
100.65
 20
52.5
 30
0.0
 11
99.15
 21
52.5
 31
0.0
  0
LINE
  8
0
  6
CONTINUOUS
 62
     1
 10
99.15
 20
52.5
 30
0.0
 11
99.15
 21
47.5
 31
0.0
  0
ARC
  8
0
  6
CONTINUOUS
 62
     1
 10
48.4
 20
40.5
 30
0.0
 40
0.5
 50
180.0
 51
270.0
  0
LINE
  8
0
  6
CONTINUOUS
 62
     1
 10
48.4
 20
40.0
 30
0.0
 11
61.4
 21
40.0
 31
0.0
  0
ARC
  8
0
  6
CONTINUOUS
 62
     1
 10
61.4
 20
40.5
 30
0.0
 40
0.5
 50
270.0
 51
0.0
  0
LINE
  8
0
  6
CONTINUOUS
 62
     1
 10
62.4
 20
42.5
 30
0.0
 11
100.65
 21
42.5
 31
0.0
  0
LINE
  8
0
  6
CONTINUOUS
 62
     1
 10
61.9
 20
40.5
 30
0.0
 11
61.9
 21
42.0
 31
0.0
  0
ARC
  8
0
  6
CONTINUOUS
 62
     1
 10
62.4
 20
42.0
 30
0.0
 40
0.5
 50
90.0
 51
180.0
  0
LINE
  8
0
  6
CONTINUOUS
 62
     1
 10
47.9
 20
43.0
 30
0.0
 11
47.9
 21
40.5
 31
0.0
  0
LINE
  8
0
  6
CONTINUOUS
 62
     1
 10
100.65
 20
52.5
 30
0.0
 11
100.65
 21
40.5
 31
0.0
  0
LINE
  8
0
  6
CONTINUOUS
 62
     1
 10
101.15
 20
40.0
 30
0.0
 11
117.85
 21
40.0
 31
0.0
  0
ARC
  8
0
  6
CONTINUOUS
 62
     1
 10
101.15
 20
40.5
 30
0.0
 40
0.5
 50
180.0
 51
270.0
  0
LINE
  8
0
  6
CONTINUOUS
 62
     1
 10
61.400000674
 20
40.0
 30
0.0
 11
101.15
 21
40.0
 31
0.0
  0
LINE
  8
0
  6
CONTINUOUS
 62
     1
 10
99.148
 20
47.5
 30
0.0
 11
100.648
 21
47.5
 31
0.0
  0
LINE
  8
0
  6
CONTINUOUS
 62
     1
 10
97.213249375
 20
48.030952625
 30
0.0
 11
96.973
 21
48.271202
 31
0.0
  0
LINE
  8
0
  6
CONTINUOUS
 62
     1
 10
97.22285935
 20
49.054414962
 30
0.0
 11
96.973
 21
48.766115712
 31
0.0
  0
LINE
  8
0
  6
CONTINUOUS
 62
     1
 10
96.973
 20
51.25029425
 30
0.0
 11
97.26129925
 21
50.990824925
 31
0.0
  0
LINE
  8
0
  6
CONTINUOUS
 62
     1
 10
96.973
 20
50.697720687
 30
0.0
 11
97.26129925
 21
50.957190012
 31
0.0
  0
LINE
  8
0
  6
CONTINUOUS
 62
     1
 10
97.26129925
 20
51.947017437
 30
0.0
 11
96.973
 21
51.658718187
 31
0.0
  0
LINE
  8
0
  6
CONTINUOUS
 62
     1
 10
96.973
 20
51.677938137
 30
0.0
 11
96.973
 21
48.271202
 31
0.0
  0
LINE
  8
0
  6
CONTINUOUS
 62
     1
 10
97.210366382
 20
49.04
 30
0.0
 11
96.970117007
 21
49.2321995
 31
0.0
  0
LINE
  8
0
  6
CONTINUOUS
 62
     1
 10
97.213249375
 20
48.030952625
 30
0.0
 11
98.59304625
 21
48.030952625
 31
0.0
  0
LINE
  8
0
  6
CONTINUOUS
 62
     1
 10
97.210366382
 20
49.04
 30
0.0
 11
98.59304625
 21
49.04
 31
0.0
  0
LINE
  8
0
  6
CONTINUOUS
 62
     1
 10
98.59304625
 20
50.961995
 30
0.0
 11
97.245282625
 21
50.961995
 31
0.0
  0
LINE
  8
0
  6
CONTINUOUS
 62
     1
 10
98.59304625
 20
51.9229925
 30
0.0
 11
97.213249375
 21
51.9229925
 31
0.0
  0
LINE
  8
0
  6
CONTINUOUS
 62
     1
 10
98.59304625
 20
48.030952625
 30
0.0
 11
98.59304625
 21
51.9229925
 31
0.0
  0
LINE
  8
0
  6
CONTINUOUS
 62
     1
 10
99.14304625
 20
51.8
 30
0.0
 11
98.59304625
 21
51.8
 31
0.0
  0
LINE
  8
0
  6
CONTINUOUS
 62
     1
 10
98.59304625
 20
51.8
 30
0.0
 11
98.59304625
 21
48.15
 31
0.0
  0
LINE
  8
0
  6
CONTINUOUS
 62
     1
 10
98.59304625
 20
48.15
 30
0.0
 11
99.14304625
 21
48.15
 31
0.0
  0
LINE
  8
0
  6
CONTINUOUS
 62
     1
 10
99.14304625
 20
48.15
 30
0.0
 11
99.14304625
 21
51.8
 31
0.0
  0
LINE
  8
0
  6
CONTINUOUS
 62
     1
 10
99.14304625
 20
50.15
 30
0.0
 11
98.59304625
 21
49.85
 31
0.0
  0
LINE
  8
0
  6
CONTINUOUS
 62
     1
 10
99.14304625
 20
50.3
 30
0.0
 11
98.59304625
 21
50.0
 31
0.0
  0
ARC
  8
0
  6
CONTINUOUS
 62
     1
 10
88.26130299
 20
50.727614219
 30
0.0
 40
0.966742525
 50
88.472474559
 51
180.0
  0
ARC
  8
0
  6
CONTINUOUS
 62
     1
 10
88.26130299
 20
49.232385781
 30
0.0
 40
0.966742525
 50
180.0
 51
270.0
  0
LINE
  8
0
  6
CONTINUOUS
 62
     1
 10
87.294560465
 20
49.232385781
 30
0.0
 11
87.294560465
 21
50.727614219
 31
0.0
  0
LINE
  8
0
  6
CONTINUOUS
 62
     1
 10
87.384789768
 20
49.696422193
 30
0.0
 11
87.384789768
 21
50.186238405
 31
0.0
  0
LINE
  8
0
  6
CONTINUOUS
 62
     1
 10
88.648
 20
48.265643256
 30
0.0
 11
88.24841309
 21
48.265643256
 31
0.0
  0
LINE
  8
0
  6
CONTINUOUS
 62
     1
 10
88.24841309
 20
51.668576943
 30
0.0
 11
88.648
 21
51.694356744
 31
0.0
  0
LINE
  8
0
  6
CONTINUOUS
 62
     1
 10
88.648
 20
48.265643256
 30
0.0
 11
88.648
 21
51.694356744
 31
0.0
  0
LINE
  8
0
  6
CONTINUOUS
 62
     1
 10
109.148
 20
48.5
 30
0.0
 11
113.148
 21
48.5
 31
0.0
  0
LINE
  8
0
  6
CONTINUOUS
 62
     1
 10
113.148
 20
48.5
 30
0.0
 11
113.148
 21
51.5
 31
0.0
  0
LINE
  8
0
  6
CONTINUOUS
 62
     1
 10
113.148
 20
51.5
 30
0.0
 11
109.148
 21
51.5
 31
0.0
  0
LINE
  8
0
  6
CONTINUOUS
 62
     1
 10
109.148
 20
51.5
 30
0.0
 11
109.148
 21
48.5
 31
0.0
  0
LINE
  8
0
  6
CONTINUOUS
 62
     1
 10
109.148
 20
49.0
 30
0.0
 11
100.648
 21
49.0
 31
0.0
  0
LINE
  8
0
  6
CONTINUOUS
 62
     1
 10
96.973
 20
49.0
 30
0.0
 11
88.613
 21
49.0
 31
0.0
  0
LINE
  8
0
  6
CONTINUOUS
 62
     1
 10
88.648
 20
51.0
 30
0.0
 11
96.958
 21
51.0
 31
0.0
  0
LINE
  8
0
  6
CONTINUOUS
 62
     1
 10
100.658
 20
51.0
 30
0.0
 11
109.148
 21
51.0
 31
0.0
  0
POLYLINE
  8
0
  6
CONTINUOUS
 62
     1
 66
     1
 70
     1
  0
VERTEX
  8
0
  6
CONTINUOUS
 62
     1
 10
123.35
 20
51.75
 30
0.0
 42
0.050699051
  0
VERTEX
  8
0
  6
CONTINUOUS
 62
     1
 10
123.284633193
 20
51.743340722
 30
0.0
 42
0.047888382
  0
VERTEX
  8
0
  6
CONTINUOUS
 62
     1
 10
123.219763867
 20
51.723413568
 30
0.0
 42
0.042866866
  0
VERTEX
  8
0
  6
CONTINUOUS
 62
     1
 10
123.155885716
 20
51.690370196
 30
0.0
 42
0.037053014
  0
VERTEX
  8
0
  6
CONTINUOUS
 62
     1
 10
123.093484893
 20
51.644462086
 30
0.0
 42
0.03149445
  0
VERTEX
  8
0
  6
CONTINUOUS
 62
     1
 10
123.033036304
 20
51.586038627
 30
0.0
 42
0.026685798
  0
VERTEX
  8
0
  6
CONTINUOUS
 62
     1
 10
122.975
 20
51.515544457
 30
0.0
 42
0.022738135
  0
VERTEX
  8
0
  6
CONTINUOUS
 62
     1
 10
122.919817673
 20
51.433516078
 30
0.0
 42
0.019580374
  0
VERTEX
  8
0
  6
CONTINUOUS
 62
     1
 10
122.867909293
 20
51.340577775
 30
0.0
 42
0.017083706
  0
VERTEX
  8
0
  6
CONTINUOUS
 62
     1
 10
122.819669914
 20
51.237436867
 30
0.0
 42
0.015118648
  0
VERTEX
  8
0
  6
CONTINUOUS
 62
     1
 10
122.775466668
 20
51.124878317
 30
0.0
 42
0.013574987
  0
VERTEX
  8
0
  6
CONTINUOUS
 62
     1
 10
122.735635967
 20
51.003758764
 30
0.0
 42
0.012365369
  0
VERTEX
  8
0
  6
CONTINUOUS
 62
     1
 10
122.700480947
 20
50.875
 30
0.0
 42
0.011422971
  0
VERTEX
  8
0
  6
CONTINUOUS
 62
     1
 10
122.67026916
 20
50.739581958
 30
0.0
 42
0.010697726
  0
VERTEX
  8
0
  6
CONTINUOUS
 62
     1
 10
122.645230534
 20
50.598535251
 30
0.0
 42
0.010152756
  0
VERTEX
  8
0
  6
CONTINUOUS
 62
     1
 10
122.62555563
 20
50.452933329
 30
0.0
 42
0.0097615
  0
VERTEX
  8
0
  6
CONTINUOUS
 62
     1
 10
122.611394185
 20
50.303884311
 30
0.0
 42
0.009505575
  0
VERTEX
  8
0
  6
CONTINUOUS
 62
     1
 10
122.602853976
 20
50.15252255
 30
0.0
 42
0.009373296
  0
VERTEX
  8
0
  6
CONTINUOUS
 62
     1
 10
122.6
 20
50.0
 30
0.0
 42
0.009358733
  0
VERTEX
  8
0
  6
CONTINUOUS
 62
     1
 10
122.602853976
 20
49.84747745
 30
0.0
 42
0.009461238
  0
VERTEX
  8
0
  6
CONTINUOUS
 62
     1
 10
122.611394185
 20
49.696115689
 30
0.0
 42
0.009685393
  0
VERTEX
  8
0
  6
CONTINUOUS
 62
     1
 10
122.62555563
 20
49.547066671
 30
0.0
 42
0.010041376
  0
VERTEX
  8
0
  6
CONTINUOUS
 62
     1
 10
122.645230534
 20
49.401464749
 30
0.0
 42
0.010545778
  0
VERTEX
  8
0
  6
CONTINUOUS
 62
     1
 10
122.67026916
 20
49.260418042
 30
0.0
 42
0.011222943
  0
VERTEX
  8
0
  6
CONTINUOUS
 62
     1
 10
122.700480947
 20
49.125
 30
0.0
 42
0.01210693
  0
VERTEX
  8
0
  6
CONTINUOUS
 62
     1
 10
122.735635967
 20
48.996241236
 30
0.0
 42
0.013244199
  0
VERTEX
  8
0
  6
CONTINUOUS
 62
     1
 10
122.775466668
 20
48.875121683
 30
0.0
 42
0.014697022
  0
VERTEX
  8
0
  6
CONTINUOUS
 62
     1
 10
122.819669914
 20
48.762563133
 30
0.0
 42
0.0165473
  0
VERTEX
  8
0
  6
CONTINUOUS
 62
     1
 10
122.867909293
 20
48.659422225
 30
0.0
 42
0.018899517
  0
VERTEX
  8
0
  6
CONTINUOUS
 62
     1
 10
122.919817673
 20
48.566483922
 30
0.0
 42
0.021879309
  0
VERTEX
  8
0
  6
CONTINUOUS
 62
     1
 10
122.975
 20
48.484455543
 30
0.0
 42
0.025619082
  0
VERTEX
  8
0
  6
CONTINUOUS
 62
     1
 10
123.033036304
 20
48.413961373
 30
0.0
 42
0.030212853
  0
VERTEX
  8
0
  6
CONTINUOUS
 62
     1
 10
123.093484893
 20
48.355537914
 30
0.0
 42
0.035611414
  0
VERTEX
  8
0
  6
CONTINUOUS
 62
     1
 10
123.155885716
 20
48.309629804
 30
0.0
 42
0.041436988
  0
VERTEX
  8
0
  6
CONTINUOUS
 62
     1
 10
123.219763867
 20
48.276586432
 30
0.0
 42
0.046783888
  0
VERTEX
  8
0
  6
CONTINUOUS
 62
     1
 10
123.284633193
 20
48.256659278
 30
0.0
 42
0.050275899
  0
VERTEX
  8
0
  6
CONTINUOUS
 62
     1
 10
123.35
 20
48.25
 30
0.0
 42
0.050699051
  0
VERTEX
  8
0
  6
CONTINUOUS
 62
     1
 10
123.415366807
 20
48.256659278
 30
0.0
 42
0.047888382
  0
VERTEX
  8
0
  6
CONTINUOUS
 62
     1
 10
123.480236133
 20
48.276586432
 30
0.0
 42
0.042866866
  0
VERTEX
  8
0
  6
CONTINUOUS
 62
     1
 10
123.544114284
 20
48.309629804
 30
0.0
 42
0.037053014
  0
VERTEX
  8
0
  6
CONTINUOUS
 62
     1
 10
123.606515107
 20
48.355537914
 30
0.0
 42
0.03149445
  0
VERTEX
  8
0
  6
CONTINUOUS
 62
     1
 10
123.666963696
 20
48.413961373
 30
0.0
 42
0.026685798
  0
VERTEX
  8
0
  6
CONTINUOUS
 62
     1
 10
123.725
 20
48.484455543
 30
0.0
 42
0.022738135
  0
VERTEX
  8
0
  6
CONTINUOUS
 62
     1
 10
123.780182327
 20
48.566483922
 30
0.0
 42
0.019580374
  0
VERTEX
  8
0
  6
CONTINUOUS
 62
     1
 10
123.832090707
 20
48.659422225
 30
0.0
 42
0.017083706
  0
VERTEX
  8
0
  6
CONTINUOUS
 62
     1
 10
123.880330086
 20
48.762563133
 30
0.0
 42
0.015118648
  0
VERTEX
  8
0
  6
CONTINUOUS
 62
     1
 10
123.924533332
 20
48.875121683
 30
0.0
 42
0.013574987
  0
VERTEX
  8
0
  6
CONTINUOUS
 62
     1
 10
123.964364033
 20
48.996241236
 30
0.0
 42
0.012365369
  0
VERTEX
  8
0
  6
CONTINUOUS
 62
     1
 10
123.999519053
 20
49.125
 30
0.0
 42
0.011422971
  0
VERTEX
  8
0
  6
CONTINUOUS
 62
     1
 10
124.02973084
 20
49.260418042
 30
0.0
 42
0.010697726
  0
VERTEX
  8
0
  6
CONTINUOUS
 62
     1
 10
124.054769466
 20
49.401464749
 30
0.0
 42
0.010152756
  0
VERTEX
  8
0
  6
CONTINUOUS
 62
     1
 10
124.07444437
 20
49.547066671
 30
0.0
 42
0.0097615
  0
VERTEX
  8
0
  6
CONTINUOUS
 62
     1
 10
124.088605815
 20
49.696115689
 30
0.0
 42
0.009505575
  0
VERTEX
  8
0
  6
CONTINUOUS
 62
     1
 10
124.097146024
 20
49.84747745
 30
0.0
 42
0.009373296
  0
VERTEX
  8
0
  6
CONTINUOUS
 62
     1
 10
124.1
 20
50.0
 30
0.0
 42
0.009358733
  0
VERTEX
  8
0
  6
CONTINUOUS
 62
     1
 10
124.097146024
 20
50.15252255
 30
0.0
 42
0.009461238
  0
VERTEX
  8
0
  6
CONTINUOUS
 62
     1
 10
124.088605815
 20
50.303884311
 30
0.0
 42
0.009685393
  0
VERTEX
  8
0
  6
CONTINUOUS
 62
     1
 10
124.07444437
 20
50.452933329
 30
0.0
 42
0.010041376
  0
VERTEX
  8
0
  6
CONTINUOUS
 62
     1
 10
124.054769466
 20
50.598535251
 30
0.0
 42
0.010545778
  0
VERTEX
  8
0
  6
CONTINUOUS
 62
     1
 10
124.02973084
 20
50.739581958
 30
0.0
 42
0.011222943
  0
VERTEX
  8
0
  6
CONTINUOUS
 62
     1
 10
123.999519053
 20
50.875
 30
0.0
 42
0.01210693
  0
VERTEX
  8
0
  6
CONTINUOUS
 62
     1
 10
123.964364033
 20
51.003758764
 30
0.0
 42
0.013244199
  0
VERTEX
  8
0
  6
CONTINUOUS
 62
     1
 10
123.924533332
 20
51.124878317
 30
0.0
 42
0.014697022
  0
VERTEX
  8
0
  6
CONTINUOUS
 62
     1
 10
123.880330086
 20
51.237436867
 30
0.0
 42
0.0165473
  0
VERTEX
  8
0
  6
CONTINUOUS
 62
     1
 10
123.832090707
 20
51.340577775
 30
0.0
 42
0.018899517
  0
VERTEX
  8
0
  6
CONTINUOUS
 62
     1
 10
123.780182327
 20
51.433516078
 30
0.0
 42
0.021879309
  0
VERTEX
  8
0
  6
CONTINUOUS
 62
     1
 10
123.725
 20
51.515544457
 30
0.0
 42
0.025619082
  0
VERTEX
  8
0
  6
CONTINUOUS
 62
     1
 10
123.666963696
 20
51.586038627
 30
0.0
 42
0.030212853
  0
VERTEX
  8
0
  6
CONTINUOUS
 62
     1
 10
123.606515107
 20
51.644462086
 30
0.0
 42
0.035611414
  0
VERTEX
  8
0
  6
CONTINUOUS
 62
     1
 10
123.544114284
 20
51.690370196
 30
0.0
 42
0.041436988
  0
VERTEX
  8
0
  6
CONTINUOUS
 62
     1
 10
123.480236133
 20
51.723413568
 30
0.0
 42
0.046783888
  0
VERTEX
  8
0
  6
CONTINUOUS
 62
     1
 10
123.415366807
 20
51.743340722
 30
0.0
 42
0.050275899
  0
SEQEND
  8
0
  6
CONTINUOUS
 62
     1
  0
ARC
  8
0
  6
CONTINUOUS
 62
     2
 10
24.4
 20
126.4
 30
0.0
 40
104.2
 50
16.7327446
 51
20.745640042
  0
ARC
  8
0
  6
CONTINUOUS
 62
     2
 10
24.4
 20
126.4
 30
0.0
 40
104.2
 50
339.254359958
 51
343.2672554
  0
LINE
  8
0
  6
CONTINUOUS
 62
     2
 10
41.4
 20
148.7
 30
0.0
 11
41.4
 21
104.644491525
 31
0.0
  0
LINE
  8
0
  6
CONTINUOUS
 62
     2
 10
101.4
 20
162.15
 30
0.0
 11
101.4
 21
154.75
 31
0.0
  0
LINE
  8
0
  6
CONTINUOUS
 62
     2
 10
41.4
 20
148.7
 30
0.0
 11
101.4
 21
154.802564103
 31
0.0
  0
LINE
  8
0
  6
CONTINUOUS
 62
     2
 10
101.4
 20
90.65
 30
0.0
 11
101.4
 21
97.95
 31
0.0
  0
LINE
  8
0
  6
CONTINUOUS
 62
     2
 10
41.4
 20
104.644491525
 30
0.0
 11
101.4
 21
97.983474576
 31
0.0
  0
LINE
  8
0
  6
CONTINUOUS
 62
     2
 10
118.425
 20
90.65
 30
0.0
 11
118.425
 21
89.4
 31
0.0
  0
LINE
  8
0
  6
CONTINUOUS
 62
     2
 10
118.425
 20
89.4
 30
0.0
 11
121.825
 21
89.4
 31
0.0
  0
LINE
  8
0
  6
CONTINUOUS
 62
     2
 10
118.3875
 20
162.15
 30
0.0
 11
118.3875
 21
163.35
 31
0.0
  0
LINE
  8
0
  6
CONTINUOUS
 62
     2
 10
118.3875
 20
163.35
 30
0.0
 11
121.7875
 21
163.35
 31
0.0
  0
CIRCLE
  8
0
  6
CONTINUOUS
 62
     2
 10
105.9
 20
92.65
 30
0.0
 40
1.2495
  0
LINE
  8
0
  6
CONTINUOUS
 62
     2
 10
105.171125
 20
92.8166
 30
0.0
 11
105.5668
 21
92.8166
 31
0.0
  0
ARC
  8
0
  6
CONTINUOUS
 62
     2
 10
105.5668
 20
92.9832
 30
0.0
 40
0.1666
 50
270.0
 51
0.0
  0
LINE
  8
0
  6
CONTINUOUS
 62
     2
 10
105.7334
 20
92.9832
 30
0.0
 11
105.7334
 21
93.378875
 31
0.0
  0
LINE
  8
0
  6
CONTINUOUS
 62
     2
 10
105.7334
 20
93.378875
 30
0.0
 11
106.0666
 21
93.378875
 31
0.0
  0
LINE
  8
0
  6
CONTINUOUS
 62
     2
 10
106.0666
 20
93.378875
 30
0.0
 11
106.0666
 21
92.9832
 31
0.0
  0
ARC
  8
0
  6
CONTINUOUS
 62
     2
 10
106.2332
 20
92.9832
 30
0.0
 40
0.1666
 50
180.0
 51
270.0
  0
LINE
  8
0
  6
CONTINUOUS
 62
     2
 10
106.2332
 20
92.8166
 30
0.0
 11
106.628875
 21
92.8166
 31
0.0
  0
LINE
  8
0
  6
CONTINUOUS
 62
     2
 10
106.628875
 20
92.8166
 30
0.0
 11
106.628875
 21
92.4834
 31
0.0
  0
LINE
  8
0
  6
CONTINUOUS
 62
     2
 10
106.628875
 20
92.4834
 30
0.0
 11
106.2332
 21
92.4834
 31
0.0
  0
ARC
  8
0
  6
CONTINUOUS
 62
     2
 10
106.2332
 20
92.3168
 30
0.0
 40
0.1666
 50
90.0
 51
180.0
  0
LINE
  8
0
  6
CONTINUOUS
 62
     2
 10
106.0666
 20
92.3168
 30
0.0
 11
106.0666
 21
91.921125
 31
0.0
  0
LINE
  8
0
  6
CONTINUOUS
 62
     2
 10
106.0666
 20
91.921125
 30
0.0
 11
105.7334
 21
91.921125
 31
0.0
  0
LINE
  8
0
  6
CONTINUOUS
 62
     2
 10
105.7334
 20
91.921125
 30
0.0
 11
105.7334
 21
92.3168
 31
0.0
  0
ARC
  8
0
  6
CONTINUOUS
 62
     2
 10
105.5668
 20
92.3168
 30
0.0
 40
0.1666
 50
0.0
 51
90.0
  0
LINE
  8
0
  6
CONTINUOUS
 62
     2
 10
105.5668
 20
92.4834
 30
0.0
 11
105.171125
 21
92.4834
 31
0.0
  0
LINE
  8
0
  6
CONTINUOUS
 62
     2
 10
105.171125
 20
92.4834
 30
0.0
 11
105.171125
 21
92.8166
 31
0.0
  0
CIRCLE
  8
0
  6
CONTINUOUS
 62
     2
 10
105.9
 20
160.15
 30
0.0
 40
1.2495
  0
LINE
  8
0
  6
CONTINUOUS
 62
     2
 10
105.171125
 20
160.3166
 30
0.0
 11
105.5668
 21
160.3166
 31
0.0
  0
ARC
  8
0
  6
CONTINUOUS
 62
     2
 10
105.5668
 20
160.4832
 30
0.0
 40
0.1666
 50
270.0
 51
0.0
  0
LINE
  8
0
  6
CONTINUOUS
 62
     2
 10
105.7334
 20
160.4832
 30
0.0
 11
105.7334
 21
160.878875
 31
0.0
  0
LINE
  8
0
  6
CONTINUOUS
 62
     2
 10
105.7334
 20
160.878875
 30
0.0
 11
106.0666
 21
160.878875
 31
0.0
  0
LINE
  8
0
  6
CONTINUOUS
 62
     2
 10
106.0666
 20
160.878875
 30
0.0
 11
106.0666
 21
160.4832
 31
0.0
  0
ARC
  8
0
  6
CONTINUOUS
 62
     2
 10
106.2332
 20
160.4832
 30
0.0
 40
0.1666
 50
180.0
 51
270.0
  0
LINE
  8
0
  6
CONTINUOUS
 62
     2
 10
106.2332
 20
160.3166
 30
0.0
 11
106.628875
 21
160.3166
 31
0.0
  0
LINE
  8
0
  6
CONTINUOUS
 62
     2
 10
106.628875
 20
160.3166
 30
0.0
 11
106.628875
 21
159.9834
 31
0.0
  0
LINE
  8
0
  6
CONTINUOUS
 62
     2
 10
106.628875
 20
159.9834
 30
0.0
 11
106.2332
 21
159.9834
 31
0.0
  0
ARC
  8
0
  6
CONTINUOUS
 62
     2
 10
106.2332
 20
159.8168
 30
0.0
 40
0.1666
 50
90.0
 51
180.0
  0
LINE
  8
0
  6
CONTINUOUS
 62
     2
 10
106.0666
 20
159.8168
 30
0.0
 11
106.0666
 21
159.421125
 31
0.0
  0
LINE
  8
0
  6
CONTINUOUS
 62
     2
 10
106.0666
 20
159.421125
 30
0.0
 11
105.7334
 21
159.421125
 31
0.0
  0
LINE
  8
0
  6
CONTINUOUS
 62
     2
 10
105.7334
 20
159.421125
 30
0.0
 11
105.7334
 21
159.8168
 31
0.0
  0
ARC
  8
0
  6
CONTINUOUS
 62
     2
 10
105.5668
 20
159.8168
 30
0.0
 40
0.1666
 50
0.0
 51
90.0
  0
LINE
  8
0
  6
CONTINUOUS
 62
     2
 10
105.5668
 20
159.9834
 30
0.0
 11
105.171125
 21
159.9834
 31
0.0
  0
LINE
  8
0
  6
CONTINUOUS
 62
     2
 10
105.171125
 20
159.9834
 30
0.0
 11
105.171125
 21
160.3166
 31
0.0
  0
CIRCLE
  8
0
  6
CONTINUOUS
 62
     2
 10
43.4
 20
146.4
 30
0.0
 40
1.2495
  0
LINE
  8
0
  6
CONTINUOUS
 62
     2
 10
42.671125
 20
146.5666
 30
0.0
 11
43.0668
 21
146.5666
 31
0.0
  0
ARC
  8
0
  6
CONTINUOUS
 62
     2
 10
43.0668
 20
146.7332
 30
0.0
 40
0.1666
 50
270.0
 51
0.0
  0
LINE
  8
0
  6
CONTINUOUS
 62
     2
 10
43.2334
 20
146.7332
 30
0.0
 11
43.2334
 21
147.128875
 31
0.0
  0
LINE
  8
0
  6
CONTINUOUS
 62
     2
 10
43.2334
 20
147.128875
 30
0.0
 11
43.5666
 21
147.128875
 31
0.0
  0
LINE
  8
0
  6
CONTINUOUS
 62
     2
 10
43.5666
 20
147.128875
 30
0.0
 11
43.5666
 21
146.7332
 31
0.0
  0
ARC
  8
0
  6
CONTINUOUS
 62
     2
 10
43.7332
 20
146.7332
 30
0.0
 40
0.1666
 50
180.0
 51
270.0
  0
LINE
  8
0
  6
CONTINUOUS
 62
     2
 10
43.7332
 20
146.5666
 30
0.0
 11
44.128875
 21
146.5666
 31
0.0
  0
LINE
  8
0
  6
CONTINUOUS
 62
     2
 10
44.128875
 20
146.5666
 30
0.0
 11
44.128875
 21
146.2334
 31
0.0
  0
LINE
  8
0
  6
CONTINUOUS
 62
     2
 10
44.128875
 20
146.2334
 30
0.0
 11
43.7332
 21
146.2334
 31
0.0
  0
ARC
  8
0
  6
CONTINUOUS
 62
     2
 10
43.7332
 20
146.0668
 30
0.0
 40
0.1666
 50
90.0
 51
180.0
  0
LINE
  8
0
  6
CONTINUOUS
 62
     2
 10
43.5666
 20
146.0668
 30
0.0
 11
43.5666
 21
145.671125
 31
0.0
  0
LINE
  8
0
  6
CONTINUOUS
 62
     2
 10
43.5666
 20
145.671125
 30
0.0
 11
43.2334
 21
145.671125
 31
0.0
  0
LINE
  8
0
  6
CONTINUOUS
 62
     2
 10
43.2334
 20
145.671125
 30
0.0
 11
43.2334
 21
146.0668
 31
0.0
  0
ARC
  8
0
  6
CONTINUOUS
 62
     2
 10
43.0668
 20
146.0668
 30
0.0
 40
0.1666
 50
0.0
 51
90.0
  0
LINE
  8
0
  6
CONTINUOUS
 62
     2
 10
43.0668
 20
146.2334
 30
0.0
 11
42.671125
 21
146.2334
 31
0.0
  0
LINE
  8
0
  6
CONTINUOUS
 62
     2
 10
42.671125
 20
146.2334
 30
0.0
 11
42.671125
 21
146.5666
 31
0.0
  0
CIRCLE
  8
0
  6
CONTINUOUS
 62
     2
 10
43.4
 20
106.4
 30
0.0
 40
1.2495
  0
LINE
  8
0
  6
CONTINUOUS
 62
     2
 10
42.671125
 20
106.5666
 30
0.0
 11
43.0668
 21
106.5666
 31
0.0
  0
ARC
  8
0
  6
CONTINUOUS
 62
     2
 10
43.0668
 20
106.7332
 30
0.0
 40
0.1666
 50
270.0
 51
0.0
  0
LINE
  8
0
  6
CONTINUOUS
 62
     2
 10
43.2334
 20
106.7332
 30
0.0
 11
43.2334
 21
107.128875
 31
0.0
  0
LINE
  8
0
  6
CONTINUOUS
 62
     2
 10
43.2334
 20
107.128875
 30
0.0
 11
43.5666
 21
107.128875
 31
0.0
  0
LINE
  8
0
  6
CONTINUOUS
 62
     2
 10
43.5666
 20
107.128875
 30
0.0
 11
43.5666
 21
106.7332
 31
0.0
  0
ARC
  8
0
  6
CONTINUOUS
 62
     2
 10
43.7332
 20
106.7332
 30
0.0
 40
0.1666
 50
180.0
 51
270.0
  0
LINE
  8
0
  6
CONTINUOUS
 62
     2
 10
43.7332
 20
106.5666
 30
0.0
 11
44.128875
 21
106.5666
 31
0.0
  0
LINE
  8
0
  6
CONTINUOUS
 62
     2
 10
44.128875
 20
106.5666
 30
0.0
 11
44.128875
 21
106.2334
 31
0.0
  0
LINE
  8
0
  6
CONTINUOUS
 62
     2
 10
44.128875
 20
106.2334
 30
0.0
 11
43.7332
 21
106.2334
 31
0.0
  0
ARC
  8
0
  6
CONTINUOUS
 62
     2
 10
43.7332
 20
106.0668
 30
0.0
 40
0.1666
 50
90.0
 51
180.0
  0
LINE
  8
0
  6
CONTINUOUS
 62
     2
 10
43.5666
 20
106.0668
 30
0.0
 11
43.5666
 21
105.671125
 31
0.0
  0
LINE
  8
0
  6
CONTINUOUS
 62
     2
 10
43.5666
 20
105.671125
 30
0.0
 11
43.2334
 21
105.671125
 31
0.0
  0
LINE
  8
0
  6
CONTINUOUS
 62
     2
 10
43.2334
 20
105.671125
 30
0.0
 11
43.2334
 21
106.0668
 31
0.0
  0
ARC
  8
0
  6
CONTINUOUS
 62
     2
 10
43.0668
 20
106.0668
 30
0.0
 40
0.1666
 50
0.0
 51
90.0
  0
LINE
  8
0
  6
CONTINUOUS
 62
     2
 10
43.0668
 20
106.2334
 30
0.0
 11
42.671125
 21
106.2334
 31
0.0
  0
LINE
  8
0
  6
CONTINUOUS
 62
     2
 10
42.671125
 20
106.2334
 30
0.0
 11
42.671125
 21
106.5666
 31
0.0
  0
LINE
  8
0
  6
CONTINUOUS
 62
     2
 10
99.15
 20
160.614356744
 30
0.0
 11
98.660183787
 21
160.614356744
 31
0.0
  0
LINE
  8
0
  6
CONTINUOUS
 62
     2
 10
99.15
 20
159.054678804
 30
0.0
 11
98.660183787
 21
158.655091894
 31
0.0
  0
LINE
  8
0
  6
CONTINUOUS
 62
     2
 10
99.15
 20
159.364036412
 30
0.0
 11
98.647293887
 21
158.990229302
 31
0.0
  0
LINE
  8
0
  6
CONTINUOUS
 62
     2
 10
97.293854352
 20
158.629312093
 30
0.0
 11
97.384083655
 21
158.629312093
 31
0.0
  0
LINE
  8
0
  6
CONTINUOUS
 62
     2
 10
97.384083655
 20
159.106238405
 30
0.0
 11
97.306744253
 21
159.106238405
 31
0.0
  0
LINE
  8
0
  6
CONTINUOUS
 62
     2
 10
99.147293887
 20
157.185643256
 30
0.0
 11
98.647293887
 21
157.185643256
 31
0.0
  0
LINE
  8
0
  6
CONTINUOUS
 62
     2
 10
99.15
 20
157.184863455
 30
0.0
 11
99.15
 21
160.614356744
 31
0.0
  0
LINE
  8
0
  6
CONTINUOUS
 62
     2
 10
99.15
 20
95.614356744
 30
0.0
 11
98.660183787
 21
95.614356744
 31
0.0
  0
LINE
  8
0
  6
CONTINUOUS
 62
     2
 10
99.15
 20
94.054678804
 30
0.0
 11
98.660183787
 21
93.655091894
 31
0.0
  0
LINE
  8
0
  6
CONTINUOUS
 62
     2
 10
99.15
 20
94.364036412
 30
0.0
 11
98.647293887
 21
93.990229302
 31
0.0
  0
LINE
  8
0
  6
CONTINUOUS
 62
     2
 10
97.293854352
 20
93.629312093
 30
0.0
 11
97.384083655
 21
93.629312093
 31
0.0
  0
LINE
  8
0
  6
CONTINUOUS
 62
     2
 10
97.384083655
 20
94.106238405
 30
0.0
 11
97.306744253
 21
94.106238405
 31
0.0
  0
LINE
  8
0
  6
CONTINUOUS
 62
     2
 10
99.147293887
 20
92.185643256
 30
0.0
 11
98.647293887
 21
92.185643256
 31
0.0
  0
LINE
  8
0
  6
CONTINUOUS
 62
     2
 10
99.15
 20
92.184863455
 30
0.0
 11
99.15
 21
95.614356744
 31
0.0
  0
LINE
  8
0
  6
CONTINUOUS
 62
     2
 10
101.4
 20
162.15
 30
0.0
 11
117.85
 21
162.15
 31
0.0
  0
LINE
  8
0
  6
CONTINUOUS
 62
     2
 10
118.1
 20
162.15
 30
0.0
 11
118.3875
 21
162.15
 31
0.0
  0
LINE
  8
0
  6
CONTINUOUS
 62
     2
 10
101.4
 20
90.65
 30
0.0
 11
117.85
 21
90.65
 31
0.0
  0
LINE
  8
0
  6
CONTINUOUS
 62
     2
 10
118.1
 20
90.65
 30
0.0
 11
118.425
 21
90.65
 31
0.0
  0
LINE
  8
0
  6
CONTINUOUS
 62
     2
 10
40.9
 20
149.319155043
 30
0.0
 11
40.9
 21
171.6
 31
0.0
  0
LINE
  8
0
  6
CONTINUOUS
 62
     2
 10
40.9
 20
169.6
 30
0.0
 11
99.15
 21
169.6
 31
0.0
  0
LINE
  8
0
  6
CONTINUOUS
 62
     2
 10
99.15
 20
169.6
 30
0.0
 11
96.735185434
 21
170.247047613
 31
0.0
  0
LINE
  8
0
  6
CONTINUOUS
 62
     2
 10
99.15
 20
169.6
 30
0.0
 11
96.735185434
 21
168.952952387
 31
0.0
  0
LINE
  8
0
  6
CONTINUOUS
 62
     2
 10
99.15
 20
168.15
 30
0.0
 11
99.15
 21
171.6
 31
0.0
  0
LINE
  8
0
  6
CONTINUOUS
 62
     2
 10
99.15
 20
169.6
 30
0.0
 11
101.564814566
 21
168.952952387
 31
0.0
  0
LINE
  8
0
  6
CONTINUOUS
 62
     2
 10
99.15
 20
169.6
 30
0.0
 11
101.564814566
 21
170.247047613
 31
0.0
  0
LINE
  8
0
  6
CONTINUOUS
 62
     2
 10
99.15
 20
169.6
 30
0.0
 11
117.825
 21
169.6
 31
0.0
  0
LINE
  8
0
  6
CONTINUOUS
 62
     2
 10
117.85
 20
169.6
 30
0.0
 11
115.435185434
 21
170.247047613
 31
0.0
  0
LINE
  8
0
  6
CONTINUOUS
 62
     2
 10
117.85
 20
169.6
 30
0.0
 11
115.435185434
 21
168.952952387
 31
0.0
  0
LINE
  8
0
  6
CONTINUOUS
 62
     2
 10
122.5
 20
169.6
 30
0.0
 11
124.914814566
 21
168.952952387
 31
0.0
  0
LINE
  8
0
  6
CONTINUOUS
 62
     2
 10
122.5
 20
169.6
 30
0.0
 11
124.914814566
 21
170.247047613
 31
0.0
  0
LINE
  8
0
  6
CONTINUOUS
 62
     2
 10
122.5
 20
164.4
 30
0.0
 11
122.5
 21
171.6
 31
0.0
  0
LINE
  8
0
  6
CONTINUOUS
 62
     2
 10
117.85
 20
169.6
 30
0.0
 11
127.5
 21
169.6
 31
0.0
  0
LINE
  8
0
  6
CONTINUOUS
 62
     2
 10
40.9
 20
169.6
 30
0.0
 11
43.314814566
 21
168.952952387
 31
0.0
  0
LINE
  8
0
  6
CONTINUOUS
 62
     2
 10
40.9
 20
169.6
 30
0.0
 11
43.314814566
 21
170.247047613
 31
0.0
  0
LINE
  8
0
  6
CONTINUOUS
 62
     2
 10
98.7
 20
155.17
 30
0.0
 11
88.1
 21
155.17
 31
0.0
  0
LINE
  8
0
  6
CONTINUOUS
 62
     2
 10
90.1
 20
155.17
 30
0.0
 11
89.452952387
 21
152.755185434
 31
0.0
  0
LINE
  8
0
  6
CONTINUOUS
 62
     2
 10
90.1
 20
155.17
 30
0.0
 11
90.747047613
 21
152.755185434
 31
0.0
  0
LINE
  8
0
  6
CONTINUOUS
 62
     2
 10
90.1
 20
155.17
 30
0.0
 11
90.1
 21
97.65
 31
0.0
  0
LINE
  8
0
  6
CONTINUOUS
 62
     2
 10
90.1
 20
97.65
 30
0.0
 11
90.747047613
 21
100.064814566
 31
0.0
  0
LINE
  8
0
  6
CONTINUOUS
 62
     2
 10
90.1
 20
97.65
 30
0.0
 11
89.452952387
 21
100.064814566
 31
0.0
  0
LINE
  8
0
  6
CONTINUOUS
 62
     2
 10
98.86
 20
97.65
 30
0.0
 11
88.1
 21
97.65
 31
0.0
  0
TEXT
  8
0
  6
CONTINUOUS
 62
     2
 10
89.1
 20
123.41
 30
0.3
 40
3.0
  1
１１５
 50
90.0
 41
0.6
 51
0.0
  7
KANJI0
  0
LINE
  8
0
  6
CONTINUOUS
 62
     2
 10
117.85
 20
38.5
 30
0.0
 11
118.1
 21
38.5
 31
0.0
  0
LINE
  8
0
  6
CONTINUOUS
 62
     2
 10
118.1
 20
38.5
 30
0.0
 11
118.1
 21
61.5
 31
0.0
  0
LINE
  8
0
  6
CONTINUOUS
 62
     2
 10
118.1
 20
61.5
 30
0.0
 11
117.85
 21
61.5
 31
0.0
  0
LINE
  8
0
  6
CONTINUOUS
 62
     2
 10
117.85
 20
61.5
 30
0.0
 11
117.85
 21
59.0
 31
0.0
  0
LINE
  8
0
  6
CONTINUOUS
 62
     2
 10
117.85
 20
59.0
 30
0.0
 11
113.1
 21
59.0
 31
0.0
  0
LINE
  8
0
  6
CONTINUOUS
 62
     2
 10
113.1
 20
59.0
 30
0.0
 11
113.1
 21
55.0
 31
0.0
  0
LINE
  8
0
  6
CONTINUOUS
 62
     2
 10
113.1
 20
55.0
 30
0.0
 11
117.85
 21
55.0
 31
0.0
  0
LINE
  8
0
  6
CONTINUOUS
 62
     2
 10
117.85
 20
59.0
 30
0.0
 11
117.85
 21
38.5
 31
0.0
  0
LINE
  8
0
  6
CONTINUOUS
 62
     2
 10
117.85
 20
41.0
 30
0.0
 11
113.1
 21
41.0
 31
0.0
  0
LINE
  8
0
  6
CONTINUOUS
 62
     2
 10
113.1
 20
41.0
 30
0.0
 11
113.1
 21
45.0
 31
0.0
  0
LINE
  8
0
  6
CONTINUOUS
 62
     2
 10
113.1
 20
45.0
 30
0.0
 11
117.85
 21
45.0
 31
0.0
  0
LINE
  8
0
  6
CONTINUOUS
 62
     2
 10
124.378206516
 20
60.0
 30
0.0
 11
124.378206516
 21
40.0
 31
0.0
  0
LINE
  8
0
  6
CONTINUOUS
 62
     2
 10
113.1
 20
41.0
 30
0.0
 11
113.1
 21
40.0
 31
0.0
  0
LINE
  8
0
  6
CONTINUOUS
 62
     2
 10
113.1
 20
59.0
 30
0.0
 11
113.1
 21
60.0
 31
0.0
  0
LINE
  8
0
  6
CONTINUOUS
 62
     2
 10
87.294560465
 20
49.709312093
 30
0.0
 11
87.384789768
 21
49.709312093
 31
0.0
  0
LINE
  8
0
  6
CONTINUOUS
 62
     2
 10
87.384789768
 20
50.186238405
 30
0.0
 11
87.307450366
 21
50.186238405
 31
0.0
  0
LINE
  8
0
  6
CONTINUOUS
 62
     2
 10
97.35
 20
49.5
 30
0.0
 11
95.970658121
 21
47.414954202
 31
0.0
  0
LINE
  8
0
  6
CONTINUOUS
 62
     2
 10
97.35
 20
49.5
 30
0.0
 11
97.197977792
 21
47.004626431
 31
0.0
  0
LINE
  8
0
  6
CONTINUOUS
 62
     2
 10
97.35
 20
49.5
 30
0.0
 11
91.75
 21
32.75
 31
0.0
  0
LINE
  8
0
  6
CONTINUOUS
 62
     2
 10
91.75
 20
32.75
 30
0.0
 11
64.75
 21
32.75
 31
0.0
  0
LINE
  8
0
  6
CONTINUOUS
 62
     2
 10
111.4
 20
49.3
 30
0.0
 11
110.093591334
 21
47.168499027
 31
0.0
  0
LINE
  8
0
  6
CONTINUOUS
 62
     2
 10
111.4
 20
49.3
 30
0.0
 11
111.334367393
 21
46.800861676
 31
0.0
  0
LINE
  8
0
  6
CONTINUOUS
 62
     2
 10
111.4
 20
49.3
 30
0.0
 11
103.4
 21
22.3
 31
0.0
  0
LINE
  8
0
  6
CONTINUOUS
 62
     2
 10
122.815479374
 20
48.77241894
 30
0.0
 11
122.815479374
 21
40.0
 31
0.0
  0
LINE
  8
0
  6
CONTINUOUS
 62
     2
 10
123.20616116
 20
40.0
 30
0.0
 11
123.20616116
 21
48.282485355
 31
0.0
  0
LINE
  8
0
  6
CONTINUOUS
 62
     2
 10
123.596842945
 20
48.347498211
 30
0.0
 11
123.596842945
 21
40.0
 31
0.0
  0
LINE
  8
0
  6
CONTINUOUS
 62
     2
 10
123.98752473
 20
40.0
 30
0.0
 11
123.98752473
 21
49.197498211
 31
0.0
  0
LINE
  8
0
  6
CONTINUOUS
 62
     2
 10
123.98752473
 20
50.921776587
 30
0.0
 11
123.98752473
 21
60.0
 31
0.0
  0
LINE
  8
0
  6
CONTINUOUS
 62
     2
 10
123.596842945
 20
60.0
 30
0.0
 11
123.596842945
 21
51.652501789
 31
0.0
  0
LINE
  8
0
  6
CONTINUOUS
 62
     2
 10
123.20616116
 20
51.717514645
 30
0.0
 11
123.20616116
 21
60.0
 31
0.0
  0
LINE
  8
0
  6
CONTINUOUS
 62
     2
 10
122.815479374
 20
60.0
 30
0.0
 11
122.815479374
 21
51.22758106
 31
0.0
  0
LINE
  8
0
  6
CONTINUOUS
 62
     2
 10
122.615479374
 20
50.27758106
 30
0.0
 11
124.065479374
 21
50.27758106
 31
0.0
  0
LINE
  8
0
  6
CONTINUOUS
 62
     2
 10
122.665479374
 20
49.77758106
 30
0.0
 11
124.065479374
 21
49.77758106
 31
0.0
  0
LINE
  8
0
  6
CONTINUOUS
 62
     2
 10
148.2
 20
47.85
 30
0.0
 11
147.059525415
 21
45.62529379
 31
0.0
  0
LINE
  8
0
  6
CONTINUOUS
 62
     2
 10
148.2
 20
47.85
 30
0.0
 11
148.324673142
 21
45.353110614
 31
0.0
  0
LINE
  8
0
  6
CONTINUOUS
 62
     2
 10
148.2
 20
47.85
 30
0.0
 11
142.8
 21
22.75
 31
0.0
  0
LINE
  8
0
  6
LTYPE1
 62
     2
 10
78.6
 20
126.4
 30
0.0
 11
85.6
 21
126.4
 31
0.0
  0
LINE
  8
0
  6
CONTINUOUS
 62
     2
 10
128.345564967
 20
160.493888593
 30
0.0
 11
128.583329096
 21
160.571142841
 31
0.0
  0
LINE
  8
0
  6
CONTINUOUS
 62
     2
 10
128.583329096
 20
160.571142841
 30
0.0
 11
127.656278113
 21
163.42431239
 31
0.0
  0
LINE
  8
0
  6
CONTINUOUS
 62
     2
 10
127.418513984
 20
163.347058141
 30
0.0
 11
127.656278113
 21
163.42431239
 31
0.0
  0
LINE
  8
0
  6
CONTINUOUS
 62
     2
 10
127.341259736
 20
163.584822271
 30
0.0
 11
128.422819216
 21
160.256124463
 31
0.0
  0
LINE
  8
0
  6
CONTINUOUS
 62
     1
 10
117.9
 20
163.9
 30
0.0
 11
122.435886548
 21
163.9
 31
0.0
  0
LINE
  8
0
  6
CONTINUOUS
 62
     2
 10
123.984318223
 20
158.7665183
 30
0.0
 11
128.275197789
 21
160.7104565
 31
0.0
  0
LINE
  8
0
  6
CONTINUOUS
 62
     2
 10
124.127373031
 20
158.466596384
 30
0.0
 11
128.345564967
 21
160.493888593
 31
0.0
  0
LINE
  8
0
  6
CONTINUOUS
 62
     2
 10
128.036927946
 20
161.44377567
 30
0.0
 11
123.625147193
 21
159.808292337
 31
0.0
  0
LINE
  8
0
  6
CONTINUOUS
 62
     2
 10
123.938630404
 20
159.388409139
 30
0.0
 11
128.139048517
 21
161.12948087
 31
0.0
  0
LINE
  8
0
  6
CONTINUOUS
 62
     2
 10
122.779594622
 20
162.552064053
 30
0.0
 11
127.405985058
 21
163.385618211
 31
0.0
  0
LINE
  8
0
  6
CONTINUOUS
 62
     2
 10
122.812871767
 20
162.168296333
 30
0.0
 11
127.488881163
 21
163.130490234
 31
0.0
  0
LINE
  8
0
  6
CONTINUOUS
 62
     2
 10
122.775395892
 20
162.500687051
 30
0.0
 11
127.418513984
 21
163.347058141
 31
0.0
  0
LINE
  8
0
  6
CONTINUOUS
 62
     2
 10
123.174823346
 20
161.644214718
 30
0.0
 11
127.625030434
 21
162.711465864
 31
0.0
  0
LINE
  8
0
  6
CONTINUOUS
 62
     2
 10
122.834828505
 20
162.10106828
 30
0.0
 11
127.510731964
 21
163.063240383
 31
0.0
  0
LINE
  8
0
  6
CONTINUOUS
 62
     2
 10
123.092269987
 20
161.713198632
 30
0.0
 11
127.598268777
 21
162.793829774
 31
0.0
  0
LINE
  8
0
  6
CONTINUOUS
 62
     2
 10
123.20489011
 20
161.02907294
 30
0.0
 11
127.757056894
 21
162.3051302
 31
0.0
  0
LINE
  8
0
  6
CONTINUOUS
 62
     2
 10
127.727151005
 20
162.397171063
 30
0.0
 11
123.182210077
 21
161.123082179
 31
0.0
  0
LINE
  8
0
  6
CONTINUOUS
 62
     2
 10
123.594014531
 20
159.89981989
 30
0.0
 11
128.007022057
 21
161.535816534
 31
0.0
  0
LINE
  8
0
  6
CONTINUOUS
 62
     2
 10
123.511515086
 20
160.552977021
 30
0.0
 11
127.866588626
 21
161.968026193
 31
0.0
  0
LINE
  8
0
  6
CONTINUOUS
 62
     2
 10
127.897490325
 20
161.872920541
 30
0.0
 11
123.608316969
 21
160.479283637
 31
0.0
  0
LINE
  8
0
  6
CONTINUOUS
 62
     2
 10
122.701700881
 20
162.847715986
 30
0.0
 11
127.341259736
 21
163.584822271
 31
0.0
  0
LINE
  8
0
  6
CONTINUOUS
 62
     2
 10
124.39519848
 20
158.206372385
 30
0.0
 11
128.422819216
 21
160.256124463
 31
0.0
  0
LINE
  8
0
  6
CONTINUOUS
 62
     2
 10
124.157494279
 20
158.425910779
 30
0.0
 11
128.358093893
 21
160.455328523
 31
0.0
  0
LINE
  8
0
  6
CONTINUOUS
 62
     2
 10
123.967164053
 20
158.835895911
 30
0.0
 11
128.253346987
 21
160.777706351
 31
0.0
  0
LINE
  8
0
  6
CONTINUOUS
 62
     2
 10
123.983751284
 20
159.31365512
 30
0.0
 11
128.165810174
 21
161.04711696
 31
0.0
  0
ARC
  8
0
  6
CONTINUOUS
 62
     1
 10
125.334112759
 20
157.899290778
 30
0.0
 40
1.0
 50
158.588388075
 51
235.869897646
  0
ARC
  8
0
  6
CONTINUOUS
 62
     1
 10
124.943430974
 20
159.033913069
 30
0.0
 40
1.0
 50
162.657981601
 51
238.188655051
  0
ARC
  8
0
  6
CONTINUOUS
 62
     1
 10
124.552749189
 20
160.168535359
 30
0.0
 40
1.0
 50
160.87696549
 51
236.390581326
  0
ARC
  8
0
  6
CONTINUOUS
 62
     1
 10
124.162067403
 20
161.30315765
 30
0.0
 40
1.0
 50
160.87696549
 51
238.188655051
  0
ARC
  8
0
  6
CONTINUOUS
 62
     1
 10
123.771385618
 20
162.437779941
 30
0.0
 40
1.0
 50
160.87696549
 51
238.188655051
  0
ARC
  8
0
  6
CONTINUOUS
 62
     1
 10
123.380703833
 20
163.572402232
 30
0.0
 40
1.0
 50
160.87696549
 51
238.188655051
  0
LINE
  8
0
  6
CONTINUOUS
 62
     1
 10
150.0
 20
88.9
 30
0.0
 11
170.0
 21
88.9
 31
0.0
  0
LINE
  8
0
  6
CONTINUOUS
 62
     1
 10
170.0
 20
88.9
 30
0.0
 11
170.0
 21
163.9
 31
0.0
  0
LINE
  8
0
  6
CONTINUOUS
 62
     1
 10
170.0
 20
163.9
 30
0.0
 11
150.0
 21
163.9
 31
0.0
  0
LINE
  8
0
  6
CONTINUOUS
 62
     1
 10
150.0
 20
163.9
 30
0.0
 11
150.0
 21
88.9
 31
0.0
  0
LINE
  8
0
  6
CONTINUOUS
 62
     1
 10
149.5
 20
88.9
 30
0.0
 11
150.0
 21
88.9
 31
0.0
  0
ARC
  8
0
  6
CONTINUOUS
 62
     1
 10
149.5
 20
89.9
 30
0.0
 40
1.0
 50
180.0
 51
270.0
  0
LINE
  8
0
  6
CONTINUOUS
 62
     1
 10
150.0
 20
163.9
 30
0.0
 11
149.5
 21
163.9
 31
0.0
  0
LINE
  8
0
  6
CONTINUOUS
 62
     1
 10
148.5
 20
162.9
 30
0.0
 11
148.5
 21
89.9
 31
0.0
  0
ARC
  8
0
  6
CONTINUOUS
 62
     1
 10
149.5
 20
162.9
 30
0.0
 40
1.0
 50
90.0
 51
180.0
  0
LINE
  8
0
  6
CONTINUOUS
 62
     1
 10
170.5
 20
163.9
 30
0.0
 11
170.0
 21
163.9
 31
0.0
  0
ARC
  8
0
  6
CONTINUOUS
 62
     1
 10
170.5
 20
162.9
 30
0.0
 40
1.0
 50
0.0
 51
90.0
  0
LINE
  8
0
  6
CONTINUOUS
 62
     1
 10
170.0
 20
88.9
 30
0.0
 11
170.5
 21
88.9
 31
0.0
  0
LINE
  8
0
  6
CONTINUOUS
 62
     1
 10
171.5
 20
89.9
 30
0.0
 11
171.5
 21
162.9
 31
0.0
  0
ARC
  8
0
  6
CONTINUOUS
 62
     1
 10
170.5
 20
89.9
 30
0.0
 40
1.0
 50
270.0
 51
0.0
  0
LINE
  8
0
  6
CONTINUOUS
 62
     1
 10
150.0
 20
156.4
 30
0.0
 11
170.0
 21
156.4
 31
0.0
  0
LINE
  8
0
  6
CONTINUOUS
 62
     1
 10
150.0
 20
96.4
 30
0.0
 11
170.0
 21
96.4
 31
0.0
  0
CIRCLE
  8
0
  6
CONTINUOUS
 62
     1
 10
160.0
 20
91.9
 30
0.0
 40
1.75
  0
LINE
  8
0
  6
LTYPE1
 62
     2
 10
160.0
 20
172.4
 30
0.0
 11
160.0
 21
75.9
 31
0.0
  0
LINE
  8
0
  6
CONTINUOUS
 62
     2
 10
150.0
 20
90.101167948
 30
0.0
 11
170.0
 21
90.101167948
 31
0.0
  0
LINE
  8
0
  6
CONTINUOUS
 62
     2
 10
150.0
 20
94.618650104
 30
0.0
 11
170.0
 21
94.618650104
 31
0.0
  0
LINE
  8
0
  6
CONTINUOUS
 62
     2
 10
170.0
 20
95.753272395
 30
0.0
 11
150.0
 21
95.753272395
 31
0.0
  0
LINE
  8
0
  6
CONTINUOUS
 62
     2
 10
170.0
 20
157.078695414
 30
0.0
 11
150.0
 21
157.078695414
 31
0.0
  0
LINE
  8
0
  6
CONTINUOUS
 62
     2
 10
158.397189125
 20
91.197506371
 30
0.0
 11
150.0
 21
91.197506371
 31
0.0
  0
LINE
  8
0
  6
CONTINUOUS
 62
     2
 10
170.0
 20
91.197506371
 30
0.0
 11
161.602810875
 21
91.197506371
 31
0.0
  0
LINE
  8
0
  6
CONTINUOUS
 62
     2
 10
161.691311525
 20
92.349405523
 30
0.0
 11
170.0
 21
92.349405523
 31
0.0
  0
LINE
  8
0
  6
CONTINUOUS
 62
     2
 10
150.0
 20
92.349405523
 30
0.0
 11
158.308688475
 21
92.349405523
 31
0.0
  0
LINE
  8
0
  6
CONTINUOUS
 62
     2
 10
159.458688475
 20
93.484027814
 30
0.0
 11
150.0
 21
93.484027814
 31
0.0
  0
LINE
  8
0
  6
CONTINUOUS
 62
     2
 10
170.0
 20
93.484027814
 30
0.0
 11
160.508688475
 21
93.484027814
 31
0.0
  0
LINE
  8
0
  6
CONTINUOUS
 62
     2
 10
159.75
 20
90.201167948
 30
0.0
 11
159.75
 21
93.632050808
 31
0.0
  0
LINE
  8
0
  6
CONTINUOUS
 62
     2
 10
160.25
 20
93.632050808
 30
0.0
 11
160.25
 21
90.251167948
 31
0.0
  0
LINE
  8
0
  6
CONTINUOUS
 62
     2
 10
151.5
 20
156.4
 30
0.0
 11
151.5
 21
96.4
 31
0.0
  0
LINE
  8
0
  6
CONTINUOUS
 62
     2
 10
153.0
 20
154.4
 30
0.0
 11
156.0
 21
154.4
 31
0.0
  0
LINE
  8
0
  6
CONTINUOUS
 62
     2
 10
156.0
 20
154.4
 30
0.0
 11
157.0
 21
154.9
 31
0.0
  0
LINE
  8
0
  6
CONTINUOUS
 62
     2
 10
157.0
 20
154.9
 30
0.0
 11
168.5
 21
154.9
 31
0.0
  0
LINE
  8
0
  6
CONTINUOUS
 62
     2
 10
153.0
 20
97.9
 30
0.0
 11
156.0
 21
97.9
 31
0.0
  0
LINE
  8
0
  6
CONTINUOUS
 62
     2
 10
156.0
 20
97.9
 30
0.0
 11
157.0
 21
98.4
 31
0.0
  0
LINE
  8
0
  6
CONTINUOUS
 62
     2
 10
157.0
 20
98.4
 30
0.0
 11
168.5
 21
98.4
 31
0.0
  0
LINE
  8
0
  6
CONTINUOUS
 62
     2
 10
152.55
 20
102.65
 30
0.0
 11
150.778056494
 21
100.886419491
 31
0.0
  0
LINE
  8
0
  6
CONTINUOUS
 62
     2
 10
152.55
 20
102.65
 30
0.0
 11
151.897242165
 21
100.236722725
 31
0.0
  0
LINE
  8
0
  6
CONTINUOUS
 62
     2
 10
159.65
 20
90.95
 30
0.0
 11
157.859503695
 21
89.205258478
 31
0.0
  0
LINE
  8
0
  6
CONTINUOUS
 62
     2
 10
159.65
 20
90.95
 30
0.0
 11
158.971755475
 21
88.543761366
 31
0.0
  0
LINE
  8
0
  6
CONTINUOUS
 62
     2
 10
159.65
 20
90.95
 30
0.0
 11
148.35
 21
71.95
 31
0.0
  0
LINE
  8
0
  6
CONTINUOUS
 62
     2
 10
149.05
 20
162.5
 30
0.0
 11
149.912184393
 21
164.846622695
 31
0.0
  0
LINE
  8
0
  6
CONTINUOUS
 62
     2
 10
149.05
 20
162.5
 30
0.0
 11
148.623362239
 21
164.963327063
 31
0.0
  0
LINE
  8
0
  6
CONTINUOUS
 62
     2
 10
149.05
 20
162.5
 30
0.0
 11
150.2
 21
175.2
 31
0.0
  0
LINE
  8
0
  6
LTYPE1
 62
     2
 10
141.3
 20
126.4
 30
0.0
 11
175.779156198
 21
126.4
 31
0.0
  0
ARC
  8
0
  6
CONTINUOUS
 62
     1
 10
164.15
 20
120.911037961
 30
0.0
 40
0.05
 50
180.0
 51
251.565051177
  0
LINE
  8
0
  6
CONTINUOUS
 62
     1
 10
164.1
 20
120.911037961
 30
0.0
 11
164.1
 21
121.075
 31
0.0
  0
ARC
  8
0
  6
CONTINUOUS
 62
     1
 10
164.15
 20
121.075
 30
0.0
 40
0.05
 50
90.0
 51
180.0
  0
LINE
  8
0
  6
CONTINUOUS
 62
     1
 10
164.15
 20
121.125
 30
0.0
 11
168.5
 21
121.125
 31
0.0
  0
ARC
  8
0
  6
CONTINUOUS
 62
     1
 10
168.5
 20
121.025
 30
0.0
 40
0.1
 50
0.0
 51
90.0
  0
LINE
  8
0
  6
CONTINUOUS
 62
     1
 10
168.468377223
 20
119.418874259
 30
0.0
 11
164.134188612
 21
120.863603796
 31
0.0
  0
LINE
  8
0
  6
CONTINUOUS
 62
     1
 10
168.6
 20
121.025
 30
0.0
 11
168.6
 21
119.513742589
 31
0.0
  0
ARC
  8
0
  6
CONTINUOUS
 62
     1
 10
168.5
 20
119.513742589
 30
0.0
 40
0.1
 50
251.565051177
 51
0.0
  0
ARC
  8
0
  6
CONTINUOUS
 62
     1
 10
164.15
 20
131.238962039
 30
0.0
 40
0.05
 50
108.434948823
 51
180.0
  0
LINE
  8
0
  6
CONTINUOUS
 62
     1
 10
164.1
 20
131.238962039
 30
0.0
 11
164.1
 21
131.075
 31
0.0
  0
ARC
  8
0
  6
CONTINUOUS
 62
     1
 10
164.15
 20
131.075
 30
0.0
 40
0.05
 50
180.0
 51
270.0
  0
LINE
  8
0
  6
CONTINUOUS
 62
     1
 10
164.15
 20
131.025
 30
0.0
 11
168.5
 21
131.025
 31
0.0
  0
ARC
  8
0
  6
CONTINUOUS
 62
     1
 10
168.5
 20
131.125
 30
0.0
 40
0.1
 50
270.0
 51
0.0
  0
LINE
  8
0
  6
CONTINUOUS
 62
     1
 10
168.468377223
 20
132.731125741
 30
0.0
 11
164.134188612
 21
131.286396204
 31
0.0
  0
LINE
  8
0
  6
CONTINUOUS
 62
     1
 10
168.6
 20
131.125
 30
0.0
 11
168.6
 21
132.636257411
 31
0.0
  0
ARC
  8
0
  6
CONTINUOUS
 62
     1
 10
168.5
 20
132.636257411
 30
0.0
 40
0.1
 50
0.0
 51
108.434948823
  0
LINE
  8
0
  6
CONTINUOUS
 62
     2
 10
168.5
 20
132.741666667
 30
0.0
 11
168.5
 21
156.4
 31
0.0
  0
LINE
  8
0
  6
CONTINUOUS
 62
     2
 10
168.5
 20
121.125
 30
0.0
 11
168.5
 21
131.025
 31
0.0
  0
LINE
  8
0
  6
CONTINUOUS
 62
     2
 10
168.5
 20
96.4
 30
0.0
 11
168.5
 21
119.408333333
 31
0.0
  0
LINE
  8
0
  6
CONTINUOUS
 62
     1
 10
157.6
 20
102.55
 30
0.0
 11
158.0
 21
102.95
 31
0.0
  0
LINE
  8
0
  6
CONTINUOUS
 62
     1
 10
158.0
 20
103.15
 30
0.0
 11
157.6
 21
103.55
 31
0.0
  0
LINE
  8
0
  6
CONTINUOUS
 62
     1
 10
158.0
 20
103.15
 30
0.0
 11
160.0
 21
103.15
 31
0.0
  0
LINE
  8
0
  6
CONTINUOUS
 62
     1
 10
160.0
 20
103.15
 30
0.0
 11
160.0
 21
102.95
 31
0.0
  0
LINE
  8
0
  6
CONTINUOUS
 62
     1
 10
160.0
 20
102.95
 30
0.0
 11
158.0
 21
102.95
 31
0.0
  0
LINE
  8
0
  6
CONTINUOUS
 62
     1
 10
157.6
 20
103.55
 30
0.0
 11
151.85
 21
103.583275463
 31
0.0
  0
LINE
  8
0
  6
CONTINUOUS
 62
     1
 10
151.85
 20
102.516724537
 30
0.0
 11
151.85
 21
103.583275463
 31
0.0
  0
LINE
  8
0
  6
CONTINUOUS
 62
     1
 10
151.85
 20
102.516724537
 30
0.0
 11
157.6
 21
102.55
 31
0.0
  0
LINE
  8
0
  6
CONTINUOUS
 62
     2
 10
153.0
 20
96.4
 30
0.0
 11
153.0
 21
102.52337963
 31
0.0
  0
LINE
  8
0
  6
CONTINUOUS
 62
     2
 10
153.0
 20
103.57662037
 30
0.0
 11
153.0
 21
156.4
 31
0.0
  0
CIRCLE
  8
0
  6
CONTINUOUS
 62
     2
 10
155.5
 20
161.9
 30
0.0
 40
1.5
  0
CIRCLE
  8
0
  6
CONTINUOUS
 62
     2
 10
155.5
 20
161.9
 30
0.0
 40
1.75
  0
LINE
  8
0
  6
CONTINUOUS
 62
     2
 10
153.984455543
 20
162.775
 30
0.0
 11
153.334936491
 21
161.65
 31
0.0
  0
LINE
  8
0
  6
CONTINUOUS
 62
     2
 10
157.015544457
 20
162.775
 30
0.0
 11
157.665063509
 21
161.65
 31
0.0
  0
LINE
  8
0
  6
CONTINUOUS
 62
     2
 10
155.55
 20
160.15
 30
0.0
 11
155.55
 21
157.9
 31
0.0
  0
LINE
  8
0
  6
CONTINUOUS
 62
     2
 10
155.45
 20
157.9
 30
0.0
 11
155.45
 21
160.15
 31
0.0
  0
LINE
  8
0
  6
CONTINUOUS
 62
     2
 10
155.095362962
 20
160.196688852
 30
0.0
 11
154.901248679
 21
157.972244482
 31
0.0
  0
LINE
  8
0
  6
CONTINUOUS
 62
     2
 10
154.804656096
 20
157.998126387
 30
0.0
 11
154.99877038
 21
160.222570756
 31
0.0
  0
LINE
  8
0
  6
CONTINUOUS
 62
     2
 10
154.66830127
 20
160.359455543
 30
0.0
 11
154.29330127
 21
158.209936491
 31
0.0
  0
LINE
  8
0
  6
CONTINUOUS
 62
     2
 10
154.20669873
 20
158.259936491
 30
0.0
 11
154.58169873
 21
160.409455543
 31
0.0
  0
LINE
  8
0
  6
CONTINUOUS
 62
     2
 10
154.297918472
 20
160.627207794
 30
0.0
 11
153.767588386
 21
158.596877708
 31
0.0
  0
LINE
  8
0
  6
CONTINUOUS
 62
     2
 10
153.696877708
 20
158.667588386
 30
0.0
 11
154.227207794
 21
160.697918472
 31
0.0
  0
LINE
  8
0
  6
CONTINUOUS
 62
     2
 10
154.009455543
 20
160.98169873
 30
0.0
 11
153.359936491
 21
159.10669873
 31
0.0
  0
LINE
  8
0
  6
CONTINUOUS
 62
     2
 10
153.309936491
 20
159.19330127
 30
0.0
 11
153.959455543
 21
161.06830127
 31
0.0
  0
LINE
  8
0
  6
CONTINUOUS
 62
     2
 10
153.098126387
 20
159.704656096
 30
0.0
 11
153.822570756
 21
161.39877038
 31
0.0
  0
LINE
  8
0
  6
CONTINUOUS
 62
     2
 10
153.072244482
 20
159.801248679
 30
0.0
 11
153.796688852
 21
161.495362962
 31
0.0
  0
LINE
  8
0
  6
CONTINUOUS
 62
     2
 10
153.75
 20
161.85
 30
0.0
 11
153.0
 21
160.35
 31
0.0
  0
LINE
  8
0
  6
CONTINUOUS
 62
     2
 10
153.0
 20
160.45
 30
0.0
 11
153.75
 21
161.95
 31
0.0
  0
ARC
  8
0
  6
CONTINUOUS
 62
     2
 10
155.5
 20
160.4
 30
0.0
 40
2.5
 50
150.0
 51
30.0
  0
LINE
  8
0
  6
CONTINUOUS
 62
     2
 10
155.904637038
 20
160.196688852
 30
0.0
 11
156.098751321
 21
157.972244482
 31
0.0
  0
LINE
  8
0
  6
CONTINUOUS
 62
     2
 10
156.195343904
 20
157.998126387
 30
0.0
 11
156.00122962
 21
160.222570756
 31
0.0
  0
LINE
  8
0
  6
CONTINUOUS
 62
     2
 10
156.33169873
 20
160.359455543
 30
0.0
 11
156.70669873
 21
158.209936491
 31
0.0
  0
LINE
  8
0
  6
CONTINUOUS
 62
     2
 10
156.79330127
 20
158.259936491
 30
0.0
 11
156.41830127
 21
160.409455543
 31
0.0
  0
LINE
  8
0
  6
CONTINUOUS
 62
     2
 10
156.702081528
 20
160.627207794
 30
0.0
 11
157.232411614
 21
158.596877708
 31
0.0
  0
LINE
  8
0
  6
CONTINUOUS
 62
     2
 10
157.303122292
 20
158.667588386
 30
0.0
 11
156.772792206
 21
160.697918472
 31
0.0
  0
LINE
  8
0
  6
CONTINUOUS
 62
     2
 10
156.990544457
 20
160.98169873
 30
0.0
 11
157.640063509
 21
159.10669873
 31
0.0
  0
LINE
  8
0
  6
CONTINUOUS
 62
     2
 10
157.690063509
 20
159.19330127
 30
0.0
 11
157.040544457
 21
161.06830127
 31
0.0
  0
LINE
  8
0
  6
CONTINUOUS
 62
     2
 10
157.901873613
 20
159.704656096
 30
0.0
 11
157.177429244
 21
161.39877038
 31
0.0
  0
LINE
  8
0
  6
CONTINUOUS
 62
     2
 10
157.927755518
 20
159.801248679
 30
0.0
 11
157.203311148
 21
161.495362962
 31
0.0
  0
LINE
  8
0
  6
CONTINUOUS
 62
     2
 10
157.25
 20
161.85
 30
0.0
 11
158.0
 21
160.35
 31
0.0
  0
LINE
  8
0
  6
CONTINUOUS
 62
     2
 10
158.0
 20
160.45
 30
0.0
 11
157.25
 21
161.95
 31
0.0
  0
TEXT
  8
0
  6
CONTINUOUS
 62
     1
 10
154.6
 20
160.9
 30
0.2
 40
2.0
  1
Ｌ
 50
0.0
 41
0.9
 51
0.0
  7
KANJI1
  0
CIRCLE
  8
0
  6
CONTINUOUS
 62
     2
 10
164.5
 20
161.9
 30
0.0
 40
1.5
  0
CIRCLE
  8
0
  6
CONTINUOUS
 62
     2
 10
164.5
 20
161.9
 30
0.0
 40
1.75
  0
LINE
  8
0
  6
CONTINUOUS
 62
     2
 10
162.984455543
 20
162.775
 30
0.0
 11
162.334936491
 21
161.65
 31
0.0
  0
LINE
  8
0
  6
CONTINUOUS
 62
     2
 10
166.015544457
 20
162.775
 30
0.0
 11
166.665063509
 21
161.65
 31
0.0
  0
LINE
  8
0
  6
CONTINUOUS
 62
     2
 10
164.55
 20
160.15
 30
0.0
 11
164.55
 21
157.9
 31
0.0
  0
LINE
  8
0
  6
CONTINUOUS
 62
     2
 10
164.45
 20
157.9
 30
0.0
 11
164.45
 21
160.15
 31
0.0
  0
LINE
  8
0
  6
CONTINUOUS
 62
     2
 10
164.095362962
 20
160.196688852
 30
0.0
 11
163.901248679
 21
157.972244482
 31
0.0
  0
LINE
  8
0
  6
CONTINUOUS
 62
     2
 10
163.804656096
 20
157.998126387
 30
0.0
 11
163.99877038
 21
160.222570756
 31
0.0
  0
LINE
  8
0
  6
CONTINUOUS
 62
     2
 10
163.66830127
 20
160.359455543
 30
0.0
 11
163.29330127
 21
158.209936491
 31
0.0
  0
LINE
  8
0
  6
CONTINUOUS
 62
     2
 10
163.20669873
 20
158.259936491
 30
0.0
 11
163.58169873
 21
160.409455543
 31
0.0
  0
LINE
  8
0
  6
CONTINUOUS
 62
     2
 10
163.297918472
 20
160.627207794
 30
0.0
 11
162.767588386
 21
158.596877708
 31
0.0
  0
LINE
  8
0
  6
CONTINUOUS
 62
     2
 10
162.696877708
 20
158.667588386
 30
0.0
 11
163.227207794
 21
160.697918472
 31
0.0
  0
LINE
  8
0
  6
CONTINUOUS
 62
     2
 10
163.009455543
 20
160.98169873
 30
0.0
 11
162.359936491
 21
159.10669873
 31
0.0
  0
LINE
  8
0
  6
CONTINUOUS
 62
     2
 10
162.309936491
 20
159.19330127
 30
0.0
 11
162.959455543
 21
161.06830127
 31
0.0
  0
LINE
  8
0
  6
CONTINUOUS
 62
     2
 10
162.098126387
 20
159.704656096
 30
0.0
 11
162.822570756
 21
161.39877038
 31
0.0
  0
LINE
  8
0
  6
CONTINUOUS
 62
     2
 10
162.072244482
 20
159.801248679
 30
0.0
 11
162.796688852
 21
161.495362962
 31
0.0
  0
LINE
  8
0
  6
CONTINUOUS
 62
     2
 10
162.75
 20
161.85
 30
0.0
 11
162.0
 21
160.35
 31
0.0
  0
LINE
  8
0
  6
CONTINUOUS
 62
     2
 10
162.0
 20
160.45
 30
0.0
 11
162.75
 21
161.95
 31
0.0
  0
ARC
  8
0
  6
CONTINUOUS
 62
     2
 10
164.5
 20
160.4
 30
0.0
 40
2.5
 50
150.0
 51
30.0
  0
LINE
  8
0
  6
CONTINUOUS
 62
     2
 10
164.904637038
 20
160.196688852
 30
0.0
 11
165.098751321
 21
157.972244482
 31
0.0
  0
LINE
  8
0
  6
CONTINUOUS
 62
     2
 10
165.195343904
 20
157.998126387
 30
0.0
 11
165.00122962
 21
160.222570756
 31
0.0
  0
LINE
  8
0
  6
CONTINUOUS
 62
     2
 10
165.33169873
 20
160.359455543
 30
0.0
 11
165.70669873
 21
158.209936491
 31
0.0
  0
LINE
  8
0
  6
CONTINUOUS
 62
     2
 10
165.79330127
 20
158.259936491
 30
0.0
 11
165.41830127
 21
160.409455543
 31
0.0
  0
LINE
  8
0
  6
CONTINUOUS
 62
     2
 10
165.702081528
 20
160.627207794
 30
0.0
 11
166.232411614
 21
158.596877708
 31
0.0
  0
LINE
  8
0
  6
CONTINUOUS
 62
     2
 10
166.303122292
 20
158.667588386
 30
0.0
 11
165.772792206
 21
160.697918472
 31
0.0
  0
LINE
  8
0
  6
CONTINUOUS
 62
     2
 10
165.990544457
 20
160.98169873
 30
0.0
 11
166.640063509
 21
159.10669873
 31
0.0
  0
LINE
  8
0
  6
CONTINUOUS
 62
     2
 10
166.690063509
 20
159.19330127
 30
0.0
 11
166.040544457
 21
161.06830127
 31
0.0
  0
LINE
  8
0
  6
CONTINUOUS
 62
     2
 10
166.901873613
 20
159.704656096
 30
0.0
 11
166.177429244
 21
161.39877038
 31
0.0
  0
LINE
  8
0
  6
CONTINUOUS
 62
     2
 10
166.927755518
 20
159.801248679
 30
0.0
 11
166.203311148
 21
161.495362962
 31
0.0
  0
LINE
  8
0
  6
CONTINUOUS
 62
     2
 10
166.25
 20
161.85
 30
0.0
 11
167.0
 21
160.35
 31
0.0
  0
LINE
  8
0
  6
CONTINUOUS
 62
     2
 10
167.0
 20
160.45
 30
0.0
 11
166.25
 21
161.95
 31
0.0
  0
TEXT
  8
0
  6
CONTINUOUS
 62
     1
 10
163.6
 20
160.9
 30
0.2
 40
2.0
  1
Ｈ
 50
0.0
 41
0.9
 51
0.0
  7
KANJI1
  0
LINE
  8
0
  6
CONTINUOUS
 62
     2
 10
150.0
 20
158.213317705
 30
0.0
 11
154.293891149
 21
158.213317705
 31
0.0
  0
LINE
  8
0
  6
CONTINUOUS
 62
     2
 10
153.23623875
 20
159.339158351
 30
0.0
 11
150.0
 21
159.339158351
 31
0.0
  0
LINE
  8
0
  6
CONTINUOUS
 62
     2
 10
150.0
 20
160.503303433
 30
0.0
 11
153.026651717
 21
160.503303433
 31
0.0
  0
LINE
  8
0
  6
CONTINUOUS
 62
     2
 10
153.327965404
 20
161.637925724
 30
0.0
 11
150.0
 21
161.637925724
 31
0.0
  0
LINE
  8
0
  6
CONTINUOUS
 62
     2
 10
150.0
 20
162.772548015
 30
0.0
 11
153.983042531
 21
162.772548015
 31
0.0
  0
LINE
  8
0
  6
CONTINUOUS
 62
     2
 10
165.693392122
 20
158.213317705
 30
0.0
 11
170.0
 21
158.213317705
 31
0.0
  0
LINE
  8
0
  6
CONTINUOUS
 62
     2
 10
156.711784032
 20
158.213317705
 30
0.0
 11
163.293392122
 21
158.213317705
 31
0.0
  0
LINE
  8
0
  6
CONTINUOUS
 62
     2
 10
162.23623875
 20
159.339158351
 30
0.0
 11
157.76376125
 21
159.339158351
 31
0.0
  0
LINE
  8
0
  6
CONTINUOUS
 62
     2
 10
170.0
 20
159.339158351
 30
0.0
 11
166.76376125
 21
159.339158351
 31
0.0
  0
LINE
  8
0
  6
CONTINUOUS
 62
     2
 10
166.999478884
 20
160.503303433
 30
0.0
 11
170.0
 21
160.503303433
 31
0.0
  0
LINE
  8
0
  6
CONTINUOUS
 62
     2
 10
157.997864768
 20
160.503303433
 30
0.0
 11
162.026651717
 21
160.503303433
 31
0.0
  0
LINE
  8
0
  6
CONTINUOUS
 62
     2
 10
162.334937758
 20
161.637925724
 30
0.0
 11
157.672034596
 21
161.637925724
 31
0.0
  0
LINE
  8
0
  6
CONTINUOUS
 62
     2
 10
170.0
 20
161.637925724
 30
0.0
 11
166.665062733
 21
161.637925724
 31
0.0
  0
LINE
  8
0
  6
CONTINUOUS
 62
     2
 10
165.984456325
 20
162.772548015
 30
0.0
 11
170.0
 21
162.772548015
 31
0.0
  0
LINE
  8
0
  6
CONTINUOUS
 62
     2
 10
157.016957469
 20
162.772548015
 30
0.0
 11
162.984456325
 21
162.772548015
 31
0.0
  0
LINE
  8
0
  6
CONTINUOUS
 62
     2
 10
168.535886548
 20
131.5
 30
0.0
 11
168.842128761
 21
129.018827756
 31
0.0
  0
LINE
  8
0
  6
CONTINUOUS
 62
     2
 10
168.535886548
 20
131.5
 30
0.0
 11
170.041686207
 21
129.504362912
 31
0.0
  0
LINE
  8
0
  6
CONTINUOUS
 62
     2
 10
168.535886548
 20
131.5
 30
0.0
 11
175.335886548
 21
114.7
 31
0.0
  0
LINE
  8
0
  6
CONTINUOUS
 62
     2
 10
168.585886548
 20
120.25
 30
0.0
 11
170.04020743
 21
118.216542164
 31
0.0
  0
LINE
  8
0
  6
CONTINUOUS
 62
     2
 10
168.585886548
 20
120.25
 30
0.0
 11
170.862094295
 21
119.216134297
 31
0.0
  0
LINE
  8
0
  6
CONTINUOUS
 62
     2
 10
168.585886548
 20
120.25
 30
0.0
 11
175.335886548
 21
114.7
 31
0.0
  0
LINE
  8
0
  6
CONTINUOUS
 62
     2
 10
141.02690678
 20
82.8
 30
0.0
 11
131.25
 21
82.8
 31
0.0
  0
LINE
  8
0
  6
CONTINUOUS
 62
     2
 10
152.55
 20
102.65
 30
0.0
 11
141.02690678
 21
82.8
 31
0.0
  0
LINE
  8
0
  6
CONTINUOUS
 62
     2
 10
156.0
 20
102.540740741
 30
0.0
 11
156.0
 21
97.95
 31
0.0
  0
LINE
  8
0
  6
CONTINUOUS
 62
     2
 10
156.0
 20
154.4
 30
0.0
 11
156.0
 21
103.559259259
 31
0.0
  0
LINE
  8
0
  6
CONTINUOUS
 62
     2
 10
157.0
 20
103.553472222
 30
0.0
 11
157.0
 21
154.9
 31
0.0
  0
LINE
  8
0
  6
CONTINUOUS
 62
     2
 10
157.0
 20
98.4
 30
0.0
 11
157.0
 21
102.546527778
 31
0.0
  0
LINE
  8
0
  6
CONTINUOUS
 62
     2
 10
41.4
 20
169.6
 30
0.0
 11
30.9
 21
169.6
 31
0.0
  0
LINE
  8
0
  6
CONTINUOUS
 62
     2
 10
35.4
 20
169.6
 30
0.0
 11
32.985185434
 21
170.247047613
 31
0.0
  0
LINE
  8
0
  6
CONTINUOUS
 62
     2
 10
35.4
 20
169.6
 30
0.0
 11
32.985185434
 21
168.952952387
 31
0.0
  0
TEXT
  8
0
  6
CONTINUOUS
 62
     2
 10
114.25
 20
78.8
 30
0.1
 40
3.0
  1
（蛍光赤色，当社Ｇｆ－１１０用指標）
 50
0.0
 41
0.866666667
 51
0.0
  7
KANJI2
  0
LINE
  8
0
  6
CONTINUOUS
 62
     2
 10
103.4
 20
22.3
 30
0.0
 11
55.4
 21
22.3
 31
0.0
  0
TEXT
  8
0
  6
CONTINUOUS
 62
     2
 10
175.335886548
 20
115.7
 30
0.3
 40
3.0
  1
上下限設定指針
 50
0.0
 41
0.9
 51
0.0
  7
KANJI3
  0
TEXT
  8
0
  6
CONTINUOUS
 62
     2
 10
181.735886548
 20
110.7
 30
0.3
 40
3.0
  1
（黒色）
 50
0.0
 41
0.9
 51
0.0
  7
KANJI3
  0
TEXT
  8
0
  6
CONTINUOUS
 62
     2
 10
150.2
 20
176.2
 30
0.3
 40
3.0
  1
化粧枠（エスカッション）
 50
0.0
 41
0.9
 51
0.0
  7
KANJI3
  0
TEXT
  8
0
  6
CONTINUOUS
 62
     2
 10
55.4
 20
23.3
 30
0.3
 40
3.0
  1
取付ネジキャップ（ナイロン６６）
 50
0.0
 41
0.9
 51
0.0
  7
KANJI3
  0
TEXT
  8
0
  6
CONTINUOUS
 62
     2
 10
65.75
 20
33.75
 30
0.3
 40
3.0
  1
Ｍ４ナット，ＳＷ
 50
0.0
 41
0.9
 51
0.0
  7
KANJI3
  0
TEXT
  8
0
  6
CONTINUOUS
 62
     2
 10
121.4
 20
23.75
 30
0.3
 40
3.0
  1
化粧枠実装寸法
 50
0.0
 41
0.9
 51
0.0
  7
KANJI3
  0
LINE
  8
0
  6
CONTINUOUS
 62
     2
 10
142.8
 20
22.75
 30
0.0
 11
120.803439535
 21
22.75
 31
0.0
  0
TEXT
  8
0
  6
CONTINUOUS
 62
     2
 10
132.25
 20
83.8
 30
0.3
 40
3.0
  1
棒指針
 50
0.0
 41
0.9
 51
0.0
  7
KANJI3
  0
LINE
  8
0
  6
LTYPE1
 62
     2
 10
42.2
 20
132.65
 30
0.0
 11
33.2
 21
132.65
 31
0.0
  0
LINE
  8
0
  6
LTYPE1
 62
     2
 10
42.2
 20
120.15
 30
0.0
 11
33.2
 21
120.15
 31
0.0
  0
ARC
  8
0
  6
LTYPE2
 62
     2
 10
35.15
 20
127.275
 30
0.0
 40
0.5
 50
180.0
 51
270.0
  0
LINE
  8
0
  6
LTYPE2
 62
     2
 10
35.149999523
 20
126.775
 30
0.0
 11
40.65
 21
126.775
 31
0.0
  0
LINE
  8
0
  6
LTYPE3
 62
     2
 10
40.9
 20
134.65
 30
0.0
 11
36.9
 21
134.65
 31
0.0
  0
ARC
  8
0
  6
LTYPE3
 62
     2
 10
36.9
 20
133.65
 30
0.0
 40
1.0
 50
90.0
 51
180.0
  0
ARC
  8
0
  6
LTYPE3
 62
     2
 10
36.9
 20
133.15
 30
0.0
 40
3.0
 50
90.0
 51
180.0
  0
LINE
  8
0
  6
LTYPE3
 62
     2
 10
36.9
 20
136.15
 30
0.0
 11
40.9
 21
136.15
 31
0.0
  0
LINE
  8
0
  6
LTYPE3
 62
     2
 10
39.7
 20
134.55
 30
0.0
 11
36.464110106
 21
134.55
 31
0.0
  0
LINE
  8
0
  6
LTYPE3
 62
     2
 10
39.745
 20
134.65
 30
0.0
 11
39.7
 21
134.55
 31
0.0
  0
LINE
  8
0
  6
LTYPE3
 62
     2
 10
36.1
 20
134.25
 30
0.0
 11
37.3
 21
134.25
 31
0.0
  0
LINE
  8
0
  6
LTYPE3
 62
     2
 10
36.9
 20
135.4
 30
0.0
 11
40.9
 21
135.4
 31
0.0
  0
LINE
  8
0
  6
LTYPE3
 62
     2
 10
39.745
 20
134.65
 30
0.0
 11
40.15
 21
135.4
 31
0.0
  0
ARC
  8
0
  6
LTYPE3
 62
     2
 10
36.9
 20
133.15
 30
0.0
 40
2.25
 50
90.0
 51
180.0
  0
LINE
  8
0
  6
LTYPE3
 62
     2
 10
36.464110106
 20
134.55
 30
0.0
 11
35.138608505
 21
134.55
 31
0.0
  0
ARC
  8
0
  6
LTYPE3
 62
     2
 10
35.65
 20
135.25
 30
0.0
 40
1.0
 50
233.765367437
 51
270.0
  0
LINE
  8
0
  6
LTYPE3
 62
     2
 10
35.65
 20
134.25
 30
0.0
 11
36.1
 21
134.25
 31
0.0
  0
ARC
  8
0
  6
LTYPE3
 62
     2
 10
36.9
 20
131.65
 30
0.0
 40
1.0
 50
180.0
 51
270.0
  0
LINE
  8
0
  6
LTYPE3
 62
     2
 10
36.9
 20
130.65
 30
0.0
 11
40.65
 21
130.65
 31
0.0
  0
LINE
  8
0
  6
LTYPE3
 62
     2
 10
39.7
 20
130.75
 30
0.0
 11
36.464110106
 21
130.75
 31
0.0
  0
LINE
  8
0
  6
LTYPE3
 62
     2
 10
39.745
 20
130.65
 30
0.0
 11
39.7
 21
130.75
 31
0.0
  0
LINE
  8
0
  6
LTYPE3
 62
     2
 10
36.1
 20
131.05
 30
0.0
 11
37.3
 21
131.05
 31
0.0
  0
LINE
  8
0
  6
LTYPE3
 62
     2
 10
35.65
 20
131.05
 30
0.0
 11
36.1
 21
131.05
 31
0.0
  0
ARC
  8
0
  6
LTYPE3
 62
     2
 10
35.65
 20
130.05
 30
0.0
 40
1.0
 50
90.0
 51
180.0
  0
LINE
  8
0
  6
LTYPE3
 62
     2
 10
35.9
 20
133.65
 30
0.0
 11
35.9
 21
131.65
 31
0.0
  0
LINE
  8
0
  6
LTYPE3
 62
     2
 10
37.3
 20
131.05
 30
0.0
 11
37.3
 21
134.25
 31
0.0
  0
LINE
  8
0
  6
LTYPE3
 62
     2
 10
34.65
 20
127.275
 30
0.0
 11
34.65
 21
133.15
 31
0.0
  0
LINE
  8
0
  6
LTYPE3
 62
     2
 10
40.65
 20
122.15
 30
0.0
 11
40.65
 21
130.65
 31
0.0
  0
LINE
  8
0
  6
LTYPE3
 62
     2
 10
40.9
 20
136.15
 30
0.0
 11
40.9
 21
116.65
 31
0.0
  0
LINE
  8
0
  6
LTYPE3
 62
     2
 10
33.9
 20
119.65
 30
0.0
 11
33.9
 21
133.15
 31
0.0
  0
LINE
  8
0
  6
CONTINUOUS
 62
     5
 10
35.0
 20
131.85
 30
0.0
 11
35.2
 21
131.65
 31
0.0
  0
LINE
  8
0
  6
CONTINUOUS
 62
     5
 10
35.0
 20
133.45
 30
0.0
 11
35.2
 21
133.65
 31
0.0
  0
LINE
  8
0
  6
CONTINUOUS
 62
     5
 10
35.0
 20
131.85
 30
0.0
 11
35.0
 21
133.45
 31
0.0
  0
LINE
  8
0
  6
CONTINUOUS
 62
     5
 10
35.2
 20
131.65
 30
0.0
 11
35.2
 21
133.65
 31
0.0
  0
LINE
  8
0
  6
CONTINUOUS
 62
     5
 10
37.35
 20
131.65
 30
0.0
 11
35.2
 21
131.65
 31
0.0
  0
LINE
  8
0
  6
CONTINUOUS
 62
     5
 10
37.35
 20
131.85
 30
0.0
 11
35.0
 21
131.85
 31
0.0
  0
LINE
  8
0
  6
CONTINUOUS
 62
     5
 10
37.35
 20
133.45
 30
0.0
 11
35.0
 21
133.45
 31
0.0
  0
LINE
  8
0
  6
CONTINUOUS
 62
     5
 10
37.35
 20
133.65
 30
0.0
 11
35.2
 21
133.65
 31
0.0
  0
LINE
  8
0
  6
CONTINUOUS
 62
     5
 10
40.9
 20
130.65
 30
0.0
 11
40.5
 21
130.65
 31
0.0
  0
POINT
  8
0
  6
CONTINUOUS
 62
     5
 10
40.5
 20
130.65
 30
0.0
  0
LINE
  8
0
  6
CONTINUOUS
 62
     5
 10
40.5
 20
134.65
 30
0.0
 11
40.9
 21
134.65
 31
0.0
  0
LINE
  8
0
  6
CONTINUOUS
 62
     5
 10
40.5
 20
130.65
 30
0.0
 11
40.5
 21
134.65
 31
0.0
  0
LINE
  8
0
  6
CONTINUOUS
 62
     5
 10
40.5
 20
134.35
 30
0.0
 11
40.5
 21
130.95
 31
0.0
  0
LINE
  8
0
  6
CONTINUOUS
 62
     5
 10
40.5
 20
130.95
 30
0.0
 11
40.312361163
 21
130.625
 31
0.0
  0
LINE
  8
0
  6
CONTINUOUS
 62
     5
 10
40.5
 20
134.35
 30
0.0
 11
40.312361163
 21
134.675
 31
0.0
  0
LINE
  8
0
  6
CONTINUOUS
 62
     5
 10
40.312361163
 20
133.6625
 30
0.0
 11
40.5
 21
133.9875
 31
0.0
  0
LINE
  8
0
  6
CONTINUOUS
 62
     5
 10
40.312361163
 20
133.6625
 30
0.0
 11
40.5
 21
133.3375
 31
0.0
  0
LINE
  8
0
  6
CONTINUOUS
 62
     5
 10
40.312361163
 20
131.6375
 30
0.0
 11
40.5
 21
131.3125
 31
0.0
  0
LINE
  8
0
  6
CONTINUOUS
 62
     5
 10
40.312361163
 20
131.6375
 30
0.0
 11
40.5
 21
131.9625
 31
0.0
  0
LINE
  8
0
  6
CONTINUOUS
 62
     5
 10
39.487638837
 20
133.6625
 30
0.0
 11
39.3
 21
133.9875
 31
0.0
  0
LINE
  8
0
  6
CONTINUOUS
 62
     5
 10
39.487638837
 20
133.6625
 30
0.0
 11
39.3
 21
133.3375
 31
0.0
  0
LINE
  8
0
  6
CONTINUOUS
 62
     5
 10
39.487638837
 20
131.6375
 30
0.0
 11
39.3
 21
131.3125
 31
0.0
  0
LINE
  8
0
  6
CONTINUOUS
 62
     5
 10
39.487638837
 20
131.6375
 30
0.0
 11
39.3
 21
131.9625
 31
0.0
  0
LINE
  8
0
  6
CONTINUOUS
 62
     5
 10
39.3
 20
130.95
 30
0.0
 11
39.487638837
 21
130.625
 31
0.0
  0
LINE
  8
0
  6
CONTINUOUS
 62
     5
 10
40.312361163
 20
130.625
 30
0.0
 11
39.487638837
 21
130.625
 31
0.0
  0
LINE
  8
0
  6
CONTINUOUS
 62
     5
 10
39.487638837
 20
134.675
 30
0.0
 11
40.312361163
 21
134.675
 31
0.0
  0
LINE
  8
0
  6
CONTINUOUS
 62
     5
 10
39.3
 20
134.35
 30
0.0
 11
39.487638837
 21
134.675
 31
0.0
  0
LINE
  8
0
  6
CONTINUOUS
 62
     5
 10
39.487638837
 20
133.6625
 30
0.0
 11
40.312361163
 21
133.6625
 31
0.0
  0
LINE
  8
0
  6
CONTINUOUS
 62
     5
 10
39.487638837
 20
131.6375
 30
0.0
 11
40.312361163
 21
131.6375
 31
0.0
  0
LINE
  8
0
  6
CONTINUOUS
 62
     5
 10
39.05
 20
134.775
 30
0.0
 11
39.05
 21
134.35
 31
0.0
  0
LINE
  8
0
  6
CONTINUOUS
 62
     5
 10
39.05
 20
130.525
 30
0.0
 11
39.05
 21
130.95
 31
0.0
  0
LINE
  8
0
  6
CONTINUOUS
 62
     5
 10
39.05
 20
130.525
 30
0.0
 11
39.3
 21
130.525
 31
0.0
  0
LINE
  8
0
  6
CONTINUOUS
 62
     5
 10
39.05
 20
130.95
 30
0.0
 11
39.05
 21
134.35
 31
0.0
  0
LINE
  8
0
  6
CONTINUOUS
 62
     5
 10
38.55
 20
130.75
 30
0.0
 11
39.05
 21
130.75
 31
0.0
  0
LINE
  8
0
  6
CONTINUOUS
 62
     5
 10
38.55
 20
130.75
 30
0.0
 11
38.55
 21
134.55
 31
0.0
  0
LINE
  8
0
  6
CONTINUOUS
 62
     5
 10
38.55
 20
134.55
 30
0.0
 11
39.05
 21
134.55
 31
0.0
  0
LINE
  8
0
  6
CONTINUOUS
 62
     5
 10
39.05
 20
134.55
 30
0.0
 11
39.05
 21
134.35
 31
0.0
  0
LINE
  8
0
  6
CONTINUOUS
 62
     5
 10
39.05
 20
130.75
 30
0.0
 11
39.05
 21
130.95
 31
0.0
  0
LINE
  8
0
  6
CONTINUOUS
 62
     5
 10
39.05
 20
134.775
 30
0.0
 11
39.3
 21
134.775
 31
0.0
  0
LINE
  8
0
  6
CONTINUOUS
 62
     5
 10
39.3
 20
130.525
 30
0.0
 11
39.3
 21
134.775
 31
0.0
  0
LINE
  8
0
  6
CONTINUOUS
 62
     5
 10
38.55
 20
130.95
 30
0.0
 11
38.362361163
 21
130.625
 31
0.0
  0
LINE
  8
0
  6
CONTINUOUS
 62
     5
 10
38.55
 20
134.35
 30
0.0
 11
38.55
 21
130.95
 31
0.0
  0
LINE
  8
0
  6
CONTINUOUS
 62
     5
 10
38.55
 20
134.35
 30
0.0
 11
38.362361163
 21
134.675
 31
0.0
  0
LINE
  8
0
  6
CONTINUOUS
 62
     5
 10
38.362361163
 20
133.6625
 30
0.0
 11
38.55
 21
133.9875
 31
0.0
  0
LINE
  8
0
  6
CONTINUOUS
 62
     5
 10
38.362361163
 20
133.6625
 30
0.0
 11
38.55
 21
133.3375
 31
0.0
  0
LINE
  8
0
  6
CONTINUOUS
 62
     5
 10
38.362361163
 20
131.6375
 30
0.0
 11
38.55
 21
131.3125
 31
0.0
  0
LINE
  8
0
  6
CONTINUOUS
 62
     5
 10
38.362361163
 20
131.6375
 30
0.0
 11
38.55
 21
131.9625
 31
0.0
  0
LINE
  8
0
  6
CONTINUOUS
 62
     5
 10
37.537638837
 20
133.6625
 30
0.0
 11
37.35
 21
133.9875
 31
0.0
  0
LINE
  8
0
  6
CONTINUOUS
 62
     5
 10
37.35
 20
130.95
 30
0.0
 11
37.35
 21
134.35
 31
0.0
  0
LINE
  8
0
  6
CONTINUOUS
 62
     5
 10
37.537638837
 20
133.6625
 30
0.0
 11
37.35
 21
133.3375
 31
0.0
  0
LINE
  8
0
  6
CONTINUOUS
 62
     5
 10
37.537638837
 20
131.6375
 30
0.0
 11
37.35
 21
131.3125
 31
0.0
  0
LINE
  8
0
  6
CONTINUOUS
 62
     5
 10
37.537638837
 20
131.6375
 30
0.0
 11
37.35
 21
131.9625
 31
0.0
  0
LINE
  8
0
  6
CONTINUOUS
 62
     5
 10
37.35
 20
130.95
 30
0.0
 11
37.537638837
 21
130.625
 31
0.0
  0
LINE
  8
0
  6
CONTINUOUS
 62
     5
 10
38.362361163
 20
130.625
 30
0.0
 11
37.537638837
 21
130.625
 31
0.0
  0
LINE
  8
0
  6
CONTINUOUS
 62
     5
 10
37.537638837
 20
134.675
 30
0.0
 11
38.362361163
 21
134.675
 31
0.0
  0
LINE
  8
0
  6
CONTINUOUS
 62
     5
 10
37.35
 20
134.35
 30
0.0
 11
37.537638837
 21
134.675
 31
0.0
  0
LINE
  8
0
  6
CONTINUOUS
 62
     5
 10
37.537638837
 20
133.6625
 30
0.0
 11
38.362361163
 21
133.6625
 31
0.0
  0
LINE
  8
0
  6
CONTINUOUS
 62
     5
 10
37.537638837
 20
131.6375
 30
0.0
 11
38.362361163
 21
131.6375
 31
0.0
  0
LINE
  8
0
  6
CONTINUOUS
 62
     5
 10
39.05
 20
132.55
 30
0.0
 11
38.55
 21
132.55
 31
0.0
  0
LINE
  8
0
  6
CONTINUOUS
 62
     5
 10
38.55
 20
132.75
 30
0.0
 11
39.05
 21
132.75
 31
0.0
  0
ARC
  8
0
  6
LTYPE2
 62
     2
 10
35.15
 20
125.525
 30
0.0
 40
0.5
 50
90.0
 51
180.0
  0
LINE
  8
0
  6
LTYPE2
 62
     2
 10
35.149999523
 20
126.025
 30
0.0
 11
40.65
 21
126.025
 31
0.0
  0
LINE
  8
0
  6
LTYPE3
 62
     2
 10
40.9
 20
118.15
 30
0.0
 11
36.9
 21
118.15
 31
0.0
  0
ARC
  8
0
  6
LTYPE3
 62
     2
 10
36.9
 20
119.15
 30
0.0
 40
1.0
 50
180.0
 51
270.0
  0
ARC
  8
0
  6
LTYPE3
 62
     2
 10
36.9
 20
119.65
 30
0.0
 40
3.0
 50
180.0
 51
270.0
  0
LINE
  8
0
  6
LTYPE3
 62
     2
 10
36.9
 20
116.65
 30
0.0
 11
40.9
 21
116.65
 31
0.0
  0
LINE
  8
0
  6
LTYPE3
 62
     2
 10
39.7
 20
118.25
 30
0.0
 11
36.464110106
 21
118.25
 31
0.0
  0
LINE
  8
0
  6
LTYPE3
 62
     2
 10
39.745
 20
118.15
 30
0.0
 11
39.7
 21
118.25
 31
0.0
  0
LINE
  8
0
  6
LTYPE3
 62
     2
 10
36.1
 20
118.55
 30
0.0
 11
37.3
 21
118.55
 31
0.0
  0
LINE
  8
0
  6
LTYPE3
 62
     2
 10
36.9
 20
117.4
 30
0.0
 11
40.9
 21
117.4
 31
0.0
  0
LINE
  8
0
  6
LTYPE3
 62
     2
 10
39.745
 20
118.15
 30
0.0
 11
40.15
 21
117.4
 31
0.0
  0
ARC
  8
0
  6
LTYPE3
 62
     2
 10
36.9
 20
119.65
 30
0.0
 40
2.25
 50
180.0
 51
270.0
  0
LINE
  8
0
  6
LTYPE3
 62
     2
 10
36.464110106
 20
118.25
 30
0.0
 11
35.138608505
 21
118.25
 31
0.0
  0
ARC
  8
0
  6
LTYPE3
 62
     2
 10
35.65
 20
117.55
 30
0.0
 40
1.0
 50
90.0
 51
126.234632563
  0
LINE
  8
0
  6
LTYPE3
 62
     2
 10
35.65
 20
118.55
 30
0.0
 11
36.1
 21
118.55
 31
0.0
  0
ARC
  8
0
  6
LTYPE3
 62
     2
 10
36.9
 20
121.15
 30
0.0
 40
1.0
 50
90.0
 51
180.0
  0
LINE
  8
0
  6
LTYPE3
 62
     2
 10
36.9
 20
122.15
 30
0.0
 11
40.65
 21
122.15
 31
0.0
  0
LINE
  8
0
  6
LTYPE3
 62
     2
 10
39.7
 20
122.05
 30
0.0
 11
36.464110106
 21
122.05
 31
0.0
  0
LINE
  8
0
  6
LTYPE3
 62
     2
 10
39.745
 20
122.15
 30
0.0
 11
39.7
 21
122.05
 31
0.0
  0
LINE
  8
0
  6
LTYPE3
 62
     2
 10
36.1
 20
121.75
 30
0.0
 11
37.3
 21
121.75
 31
0.0
  0
LINE
  8
0
  6
LTYPE3
 62
     2
 10
35.65
 20
121.75
 30
0.0
 11
36.1
 21
121.75
 31
0.0
  0
ARC
  8
0
  6
LTYPE3
 62
     2
 10
35.65
 20
122.75
 30
0.0
 40
1.0
 50
180.0
 51
270.0
  0
LINE
  8
0
  6
LTYPE3
 62
     2
 10
35.9
 20
119.15
 30
0.0
 11
35.9
 21
121.15
 31
0.0
  0
LINE
  8
0
  6
LTYPE3
 62
     2
 10
37.3
 20
121.75
 30
0.0
 11
37.3
 21
118.55
 31
0.0
  0
LINE
  8
0
  6
LTYPE3
 62
     2
 10
34.65
 20
125.525
 30
0.0
 11
34.65
 21
119.65
 31
0.0
  0
LINE
  8
0
  6
CONTINUOUS
 62
     5
 10
35.0
 20
120.95
 30
0.0
 11
35.2
 21
121.15
 31
0.0
  0
LINE
  8
0
  6
CONTINUOUS
 62
     5
 10
35.0
 20
119.35
 30
0.0
 11
35.2
 21
119.15
 31
0.0
  0
LINE
  8
0
  6
CONTINUOUS
 62
     5
 10
35.0
 20
120.95
 30
0.0
 11
35.0
 21
119.35
 31
0.0
  0
LINE
  8
0
  6
CONTINUOUS
 62
     5
 10
35.2
 20
121.15
 30
0.0
 11
35.2
 21
119.15
 31
0.0
  0
LINE
  8
0
  6
CONTINUOUS
 62
     5
 10
37.35
 20
121.15
 30
0.0
 11
35.2
 21
121.15
 31
0.0
  0
LINE
  8
0
  6
CONTINUOUS
 62
     5
 10
37.35
 20
120.95
 30
0.0
 11
35.0
 21
120.95
 31
0.0
  0
LINE
  8
0
  6
CONTINUOUS
 62
     5
 10
37.35
 20
119.35
 30
0.0
 11
35.0
 21
119.35
 31
0.0
  0
LINE
  8
0
  6
CONTINUOUS
 62
     5
 10
37.35
 20
119.15
 30
0.0
 11
35.2
 21
119.15
 31
0.0
  0
LINE
  8
0
  6
CONTINUOUS
 62
     5
 10
40.9
 20
122.15
 30
0.0
 11
40.5
 21
122.15
 31
0.0
  0
POINT
  8
0
  6
CONTINUOUS
 62
     5
 10
40.5
 20
122.15
 30
0.0
  0
LINE
  8
0
  6
CONTINUOUS
 62
     5
 10
40.5
 20
118.15
 30
0.0
 11
40.9
 21
118.15
 31
0.0
  0
LINE
  8
0
  6
CONTINUOUS
 62
     5
 10
40.5
 20
122.15
 30
0.0
 11
40.5
 21
118.15
 31
0.0
  0
LINE
  8
0
  6
CONTINUOUS
 62
     5
 10
40.5
 20
118.45
 30
0.0
 11
40.5
 21
121.85
 31
0.0
  0
LINE
  8
0
  6
CONTINUOUS
 62
     5
 10
40.5
 20
121.85
 30
0.0
 11
40.312361163
 21
122.175
 31
0.0
  0
LINE
  8
0
  6
CONTINUOUS
 62
     5
 10
40.5
 20
118.45
 30
0.0
 11
40.312361163
 21
118.125
 31
0.0
  0
LINE
  8
0
  6
CONTINUOUS
 62
     5
 10
40.312361163
 20
119.1375
 30
0.0
 11
40.5
 21
118.8125
 31
0.0
  0
LINE
  8
0
  6
CONTINUOUS
 62
     5
 10
40.312361163
 20
119.1375
 30
0.0
 11
40.5
 21
119.4625
 31
0.0
  0
LINE
  8
0
  6
CONTINUOUS
 62
     5
 10
40.312361163
 20
121.1625
 30
0.0
 11
40.5
 21
121.4875
 31
0.0
  0
LINE
  8
0
  6
CONTINUOUS
 62
     5
 10
40.312361163
 20
121.1625
 30
0.0
 11
40.5
 21
120.8375
 31
0.0
  0
LINE
  8
0
  6
CONTINUOUS
 62
     5
 10
39.487638837
 20
119.1375
 30
0.0
 11
39.3
 21
118.8125
 31
0.0
  0
LINE
  8
0
  6
CONTINUOUS
 62
     5
 10
39.487638837
 20
119.1375
 30
0.0
 11
39.3
 21
119.4625
 31
0.0
  0
LINE
  8
0
  6
CONTINUOUS
 62
     5
 10
39.487638837
 20
121.1625
 30
0.0
 11
39.3
 21
121.4875
 31
0.0
  0
LINE
  8
0
  6
CONTINUOUS
 62
     5
 10
39.487638837
 20
121.1625
 30
0.0
 11
39.3
 21
120.8375
 31
0.0
  0
LINE
  8
0
  6
CONTINUOUS
 62
     5
 10
39.3
 20
121.85
 30
0.0
 11
39.487638837
 21
122.175
 31
0.0
  0
LINE
  8
0
  6
CONTINUOUS
 62
     5
 10
40.312361163
 20
122.175
 30
0.0
 11
39.487638837
 21
122.175
 31
0.0
  0
LINE
  8
0
  6
CONTINUOUS
 62
     5
 10
39.487638837
 20
118.125
 30
0.0
 11
40.312361163
 21
118.125
 31
0.0
  0
LINE
  8
0
  6
CONTINUOUS
 62
     5
 10
39.3
 20
118.45
 30
0.0
 11
39.487638837
 21
118.125
 31
0.0
  0
LINE
  8
0
  6
CONTINUOUS
 62
     5
 10
39.487638837
 20
119.1375
 30
0.0
 11
40.312361163
 21
119.1375
 31
0.0
  0
LINE
  8
0
  6
CONTINUOUS
 62
     5
 10
39.487638837
 20
121.1625
 30
0.0
 11
40.312361163
 21
121.1625
 31
0.0
  0
LINE
  8
0
  6
CONTINUOUS
 62
     5
 10
39.05
 20
118.025
 30
0.0
 11
39.05
 21
118.45
 31
0.0
  0
LINE
  8
0
  6
CONTINUOUS
 62
     5
 10
39.05
 20
122.275
 30
0.0
 11
39.05
 21
121.85
 31
0.0
  0
LINE
  8
0
  6
CONTINUOUS
 62
     5
 10
39.05
 20
122.275
 30
0.0
 11
39.3
 21
122.275
 31
0.0
  0
LINE
  8
0
  6
CONTINUOUS
 62
     5
 10
39.05
 20
121.85
 30
0.0
 11
39.05
 21
118.45
 31
0.0
  0
LINE
  8
0
  6
CONTINUOUS
 62
     5
 10
38.55
 20
122.05
 30
0.0
 11
39.05
 21
122.05
 31
0.0
  0
LINE
  8
0
  6
CONTINUOUS
 62
     5
 10
38.55
 20
122.05
 30
0.0
 11
38.55
 21
118.25
 31
0.0
  0
LINE
  8
0
  6
CONTINUOUS
 62
     5
 10
38.55
 20
118.25
 30
0.0
 11
39.05
 21
118.25
 31
0.0
  0
LINE
  8
0
  6
CONTINUOUS
 62
     5
 10
39.05
 20
118.25
 30
0.0
 11
39.05
 21
118.45
 31
0.0
  0
LINE
  8
0
  6
CONTINUOUS
 62
     5
 10
39.05
 20
122.05
 30
0.0
 11
39.05
 21
121.85
 31
0.0
  0
LINE
  8
0
  6
CONTINUOUS
 62
     5
 10
39.05
 20
118.025
 30
0.0
 11
39.3
 21
118.025
 31
0.0
  0
LINE
  8
0
  6
CONTINUOUS
 62
     5
 10
39.3
 20
122.275
 30
0.0
 11
39.3
 21
118.025
 31
0.0
  0
LINE
  8
0
  6
CONTINUOUS
 62
     5
 10
38.55
 20
121.85
 30
0.0
 11
38.362361163
 21
122.175
 31
0.0
  0
LINE
  8
0
  6
CONTINUOUS
 62
     5
 10
38.55
 20
118.45
 30
0.0
 11
38.55
 21
121.85
 31
0.0
  0
LINE
  8
0
  6
CONTINUOUS
 62
     5
 10
38.55
 20
118.45
 30
0.0
 11
38.362361163
 21
118.125
 31
0.0
  0
LINE
  8
0
  6
CONTINUOUS
 62
     5
 10
38.362361163
 20
119.1375
 30
0.0
 11
38.55
 21
118.8125
 31
0.0
  0
LINE
  8
0
  6
CONTINUOUS
 62
     5
 10
38.362361163
 20
119.1375
 30
0.0
 11
38.55
 21
119.4625
 31
0.0
  0
LINE
  8
0
  6
CONTINUOUS
 62
     5
 10
38.362361163
 20
121.1625
 30
0.0
 11
38.55
 21
121.4875
 31
0.0
  0
LINE
  8
0
  6
CONTINUOUS
 62
     5
 10
38.362361163
 20
121.1625
 30
0.0
 11
38.55
 21
120.8375
 31
0.0
  0
LINE
  8
0
  6
CONTINUOUS
 62
     5
 10
37.537638837
 20
119.1375
 30
0.0
 11
37.35
 21
118.8125
 31
0.0
  0
LINE
  8
0
  6
CONTINUOUS
 62
     5
 10
37.35
 20
121.85
 30
0.0
 11
37.35
 21
118.45
 31
0.0
  0
LINE
  8
0
  6
CONTINUOUS
 62
     5
 10
37.537638837
 20
119.1375
 30
0.0
 11
37.35
 21
119.4625
 31
0.0
  0
LINE
  8
0
  6
CONTINUOUS
 62
     5
 10
37.537638837
 20
121.1625
 30
0.0
 11
37.35
 21
121.4875
 31
0.0
  0
LINE
  8
0
  6
CONTINUOUS
 62
     5
 10
37.537638837
 20
121.1625
 30
0.0
 11
37.35
 21
120.8375
 31
0.0
  0
LINE
  8
0
  6
CONTINUOUS
 62
     5
 10
37.35
 20
121.85
 30
0.0
 11
37.537638837
 21
122.175
 31
0.0
  0
LINE
  8
0
  6
CONTINUOUS
 62
     5
 10
38.362361163
 20
122.175
 30
0.0
 11
37.537638837
 21
122.175
 31
0.0
  0
LINE
  8
0
  6
CONTINUOUS
 62
     5
 10
37.537638837
 20
118.125
 30
0.0
 11
38.362361163
 21
118.125
 31
0.0
  0
LINE
  8
0
  6
CONTINUOUS
 62
     5
 10
37.35
 20
118.45
 30
0.0
 11
37.537638837
 21
118.125
 31
0.0
  0
LINE
  8
0
  6
CONTINUOUS
 62
     5
 10
37.537638837
 20
119.1375
 30
0.0
 11
38.362361163
 21
119.1375
 31
0.0
  0
LINE
  8
0
  6
CONTINUOUS
 62
     5
 10
37.537638837
 20
121.1625
 30
0.0
 11
38.362361163
 21
121.1625
 31
0.0
  0
LINE
  8
0
  6
CONTINUOUS
 62
     5
 10
39.05
 20
120.25
 30
0.0
 11
38.55
 21
120.25
 31
0.0
  0
LINE
  8
0
  6
CONTINUOUS
 62
     5
 10
38.55
 20
120.05
 30
0.0
 11
39.05
 21
120.05
 31
0.0
  0
TEXT
  8
0
  6
CONTINUOUS
 62
     2
 10
36.2
 20
170.6
 30
0.3
 40
3.0
  1
１２
 50
0.0
 41
0.6
 51
0.0
  7
KANJI0
  0
LINE
  8
0
  6
CONTINUOUS
 62
     1
 10
40.9
 20
60.0
 30
0.0
 11
40.9
 21
44.0
 31
0.0
  0
ARC
  8
0
  6
LTYPE2
 62
     2
 10
34.65
 20
48.85
 30
0.0
 40
0.25
 50
180.0
 51
270.0
  0
LINE
  8
0
  6
LTYPE2
 62
     2
 10
34.4
 20
48.85
 30
0.0
 11
34.4
 21
50.15
 31
0.0
  0
LINE
  8
0
  6
LTYPE2
 62
     2
 10
37.3
 20
48.6
 30
0.0
 11
34.65
 21
48.6
 31
0.0
  0
ARC
  8
0
  6
LTYPE3
 62
     2
 10
36.9
 20
49.0
 30
0.0
 40
3.0
 50
180.0
 51
270.0
  0
LINE
  8
0
  6
LTYPE3
 62
     2
 10
40.9
 20
46.0
 30
0.0
 11
36.9
 21
46.0
 31
0.0
  0
LINE
  8
0
  6
LTYPE3
 62
     2
 10
40.9
 20
46.75
 30
0.0
 11
40.65
 21
46.75
 31
0.0
  0
ARC
  8
0
  6
LTYPE3
 62
     2
 10
36.9
 20
49.0
 30
0.0
 40
2.25
 50
183.012787504
 51
270.0
  0
LINE
  8
0
  6
LTYPE3
 62
     2
 10
36.9
 20
46.75
 30
0.0
 11
40.65
 21
46.75
 31
0.0
  0
ARC
  8
0
  6
LTYPE3
 62
     2
 10
35.65
 20
46.9
 30
0.0
 40
1.0
 50
90.0
 51
126.234632563
  0
LINE
  8
0
  6
LTYPE3
 62
     2
 10
35.65
 20
47.9
 30
0.0
 11
37.3
 21
47.9
 31
0.0
  0
LINE
  8
0
  6
LTYPE3
 62
     2
 10
33.9
 20
49.0
 30
0.0
 11
33.9
 21
54.5
 31
0.0
  0
ARC
  8
0
  6
LTYPE3
 62
     2
 10
36.9
 20
54.5
 30
0.0
 40
3.0
 50
90.0
 51
180.0
  0
LINE
  8
0
  6
LTYPE3
 62
     2
 10
36.9
 20
57.5
 30
0.0
 11
40.9
 21
57.5
 31
0.0
  0
LINE
  8
0
  6
LTYPE3
 62
     2
 10
40.9
 20
56.75
 30
0.0
 11
40.65
 21
56.75
 31
0.0
  0
ARC
  8
0
  6
LTYPE3
 62
     2
 10
34.65
 20
50.15
 30
0.0
 40
0.25
 50
90.0
 51
180.0
  0
LINE
  8
0
  6
LTYPE3
 62
     2
 10
36.9
 20
56.75
 30
0.0
 11
40.65
 21
56.75
 31
0.0
  0
ARC
  8
0
  6
LTYPE3
 62
     2
 10
36.9
 20
54.5
 30
0.0
 40
2.25
 50
86.734838817
 51
180.0
  0
LINE
  8
0
  6
LTYPE3
 62
     2
 10
35.9
 20
56.5
 30
0.0
 11
35.9
 21
57.328427125
 31
0.0
  0
LINE
  8
0
  6
LTYPE3
 62
     2
 10
35.65
 20
51.1
 30
0.0
 11
37.3
 21
51.1
 31
0.0
  0
LINE
  8
0
  6
LTYPE3
 62
     2
 10
34.65
 20
52.1
 30
0.0
 11
34.65
 21
54.5
 31
0.0
  0
ARC
  8
0
  6
LTYPE3
 62
     2
 10
35.65
 20
52.1
 30
0.0
 40
1.0
 50
180.0
 51
270.0
  0
LINE
  8
0
  6
LTYPE3
 62
     2
 10
34.65
 20
48.873858801
 30
0.0
 11
34.65
 21
52.1
 31
0.0
  0
LINE
  8
0
  6
LTYPE3
 62
     2
 10
34.65
 20
50.4
 30
0.0
 11
37.3
 21
50.4
 31
0.0
  0
LINE
  8
0
  6
LTYPE3
 62
     2
 10
40.9
 20
57.5
 30
0.0
 11
40.9
 21
46.0
 31
0.0
  0
LINE
  8
0
  6
LTYPE3
 62
     2
 10
40.65
 20
57.5
 30
0.0
 11
40.65
 21
46.75
 31
0.0
  0
LINE
  8
0
  6
LTYPE3
 62
     2
 10
37.3
 20
47.9
 30
0.0
 11
37.3
 21
51.1
 31
0.0
  0
LINE
  8
0
  6
CONTINUOUS
 62
     2
 10
35.55
 20
50.45
 30
0.0
 11
36.829268106
 21
52.597899698
 31
0.0
  0
LINE
  8
0
  6
CONTINUOUS
 62
     2
 10
35.55
 20
50.45
 30
0.0
 11
35.583928829
 21
52.949769756
 31
0.0
  0
LINE
  8
0
  6
CONTINUOUS
 62
     2
 10
35.838379348
 20
57.15
 30
0.0
 11
37.102569883
 21
59.306808358
 31
0.0
  0
LINE
  8
0
  6
CONTINUOUS
 62
     2
 10
35.838379348
 20
57.15
 30
0.0
 11
35.854796288
 21
59.649946096
 31
0.0
  0
LINE
  8
0
  6
CONTINUOUS
 62
     5
 10
35.0
 20
48.7
 30
0.0
 11
35.2
 21
48.5
 31
0.0
  0
LINE
  8
0
  6
CONTINUOUS
 62
     5
 10
35.0
 20
50.3
 30
0.0
 11
35.2
 21
50.5
 31
0.0
  0
LINE
  8
0
  6
CONTINUOUS
 62
     5
 10
35.0
 20
48.7
 30
0.0
 11
35.0
 21
50.3
 31
0.0
  0
LINE
  8
0
  6
CONTINUOUS
 62
     5
 10
35.2
 20
48.5
 30
0.0
 11
35.2
 21
50.5
 31
0.0
  0
LINE
  8
0
  6
CONTINUOUS
 62
     5
 10
37.35
 20
48.5
 30
0.0
 11
35.2
 21
48.5
 31
0.0
  0
LINE
  8
0
  6
CONTINUOUS
 62
     5
 10
37.35
 20
48.7
 30
0.0
 11
35.0
 21
48.7
 31
0.0
  0
LINE
  8
0
  6
CONTINUOUS
 62
     5
 10
37.35
 20
50.3
 30
0.0
 11
35.0
 21
50.3
 31
0.0
  0
LINE
  8
0
  6
CONTINUOUS
 62
     5
 10
37.35
 20
50.5
 30
0.0
 11
35.2
 21
50.5
 31
0.0
  0
LINE
  8
0
  6
CONTINUOUS
 62
     5
 10
40.9
 20
47.5
 30
0.0
 11
40.5
 21
47.5
 31
0.0
  0
POINT
  8
0
  6
CONTINUOUS
 62
     5
 10
40.5
 20
47.5
 30
0.0
  0
LINE
  8
0
  6
CONTINUOUS
 62
     5
 10
40.5
 20
51.5
 30
0.0
 11
40.9
 21
51.5
 31
0.0
  0
LINE
  8
0
  6
CONTINUOUS
 62
     5
 10
40.5
 20
47.5
 30
0.0
 11
40.5
 21
51.5
 31
0.0
  0
LINE
  8
0
  6
CONTINUOUS
 62
     5
 10
40.5
 20
51.2
 30
0.0
 11
40.5
 21
47.8
 31
0.0
  0
LINE
  8
0
  6
CONTINUOUS
 62
     5
 10
40.5
 20
47.8
 30
0.0
 11
40.312361163
 21
47.475
 31
0.0
  0
LINE
  8
0
  6
CONTINUOUS
 62
     5
 10
40.5
 20
51.2
 30
0.0
 11
40.312361163
 21
51.525
 31
0.0
  0
LINE
  8
0
  6
CONTINUOUS
 62
     5
 10
40.312361163
 20
50.5125
 30
0.0
 11
40.5
 21
50.8375
 31
0.0
  0
LINE
  8
0
  6
CONTINUOUS
 62
     5
 10
40.312361163
 20
50.5125
 30
0.0
 11
40.5
 21
50.1875
 31
0.0
  0
LINE
  8
0
  6
CONTINUOUS
 62
     5
 10
40.312361163
 20
48.4875
 30
0.0
 11
40.5
 21
48.1625
 31
0.0
  0
LINE
  8
0
  6
CONTINUOUS
 62
     5
 10
40.312361163
 20
48.4875
 30
0.0
 11
40.5
 21
48.8125
 31
0.0
  0
LINE
  8
0
  6
CONTINUOUS
 62
     5
 10
39.487638837
 20
50.5125
 30
0.0
 11
39.3
 21
50.8375
 31
0.0
  0
LINE
  8
0
  6
CONTINUOUS
 62
     5
 10
39.487638837
 20
50.5125
 30
0.0
 11
39.3
 21
50.1875
 31
0.0
  0
LINE
  8
0
  6
CONTINUOUS
 62
     5
 10
39.487638837
 20
48.4875
 30
0.0
 11
39.3
 21
48.1625
 31
0.0
  0
LINE
  8
0
  6
CONTINUOUS
 62
     5
 10
39.487638837
 20
48.4875
 30
0.0
 11
39.3
 21
48.8125
 31
0.0
  0
LINE
  8
0
  6
CONTINUOUS
 62
     5
 10
39.3
 20
47.8
 30
0.0
 11
39.487638837
 21
47.475
 31
0.0
  0
LINE
  8
0
  6
CONTINUOUS
 62
     5
 10
40.312361163
 20
47.475
 30
0.0
 11
39.487638837
 21
47.475
 31
0.0
  0
LINE
  8
0
  6
CONTINUOUS
 62
     5
 10
39.487638837
 20
51.525
 30
0.0
 11
40.312361163
 21
51.525
 31
0.0
  0
LINE
  8
0
  6
CONTINUOUS
 62
     5
 10
39.3
 20
51.2
 30
0.0
 11
39.487638837
 21
51.525
 31
0.0
  0
LINE
  8
0
  6
CONTINUOUS
 62
     5
 10
39.487638837
 20
50.5125
 30
0.0
 11
40.312361163
 21
50.5125
 31
0.0
  0
LINE
  8
0
  6
CONTINUOUS
 62
     5
 10
39.487638837
 20
48.4875
 30
0.0
 11
40.312361163
 21
48.4875
 31
0.0
  0
LINE
  8
0
  6
CONTINUOUS
 62
     5
 10
39.05
 20
51.625
 30
0.0
 11
39.05
 21
51.2
 31
0.0
  0
LINE
  8
0
  6
CONTINUOUS
 62
     5
 10
39.05
 20
47.375
 30
0.0
 11
39.05
 21
47.8
 31
0.0
  0
LINE
  8
0
  6
CONTINUOUS
 62
     5
 10
39.05
 20
47.375
 30
0.0
 11
39.3
 21
47.375
 31
0.0
  0
LINE
  8
0
  6
CONTINUOUS
 62
     5
 10
39.05
 20
47.8
 30
0.0
 11
39.05
 21
51.2
 31
0.0
  0
LINE
  8
0
  6
CONTINUOUS
 62
     5
 10
38.55
 20
47.6
 30
0.0
 11
39.05
 21
47.6
 31
0.0
  0
LINE
  8
0
  6
CONTINUOUS
 62
     5
 10
38.55
 20
47.6
 30
0.0
 11
38.55
 21
51.4
 31
0.0
  0
LINE
  8
0
  6
CONTINUOUS
 62
     5
 10
38.55
 20
51.4
 30
0.0
 11
39.05
 21
51.4
 31
0.0
  0
LINE
  8
0
  6
CONTINUOUS
 62
     5
 10
39.05
 20
51.4
 30
0.0
 11
39.05
 21
51.2
 31
0.0
  0
LINE
  8
0
  6
CONTINUOUS
 62
     5
 10
39.05
 20
47.6
 30
0.0
 11
39.05
 21
47.8
 31
0.0
  0
LINE
  8
0
  6
CONTINUOUS
 62
     5
 10
39.05
 20
51.625
 30
0.0
 11
39.3
 21
51.625
 31
0.0
  0
LINE
  8
0
  6
CONTINUOUS
 62
     5
 10
39.3
 20
47.375
 30
0.0
 11
39.3
 21
51.625
 31
0.0
  0
LINE
  8
0
  6
CONTINUOUS
 62
     5
 10
38.55
 20
47.8
 30
0.0
 11
38.362361163
 21
47.475
 31
0.0
  0
LINE
  8
0
  6
CONTINUOUS
 62
     5
 10
38.55
 20
51.2
 30
0.0
 11
38.55
 21
47.8
 31
0.0
  0
LINE
  8
0
  6
CONTINUOUS
 62
     5
 10
38.55
 20
51.2
 30
0.0
 11
38.362361163
 21
51.525
 31
0.0
  0
LINE
  8
0
  6
CONTINUOUS
 62
     5
 10
38.362361163
 20
50.5125
 30
0.0
 11
38.55
 21
50.8375
 31
0.0
  0
LINE
  8
0
  6
CONTINUOUS
 62
     5
 10
38.362361163
 20
50.5125
 30
0.0
 11
38.55
 21
50.1875
 31
0.0
  0
LINE
  8
0
  6
CONTINUOUS
 62
     5
 10
38.362361163
 20
48.4875
 30
0.0
 11
38.55
 21
48.1625
 31
0.0
  0
LINE
  8
0
  6
CONTINUOUS
 62
     5
 10
38.362361163
 20
48.4875
 30
0.0
 11
38.55
 21
48.8125
 31
0.0
  0
LINE
  8
0
  6
CONTINUOUS
 62
     5
 10
37.537638837
 20
50.5125
 30
0.0
 11
37.35
 21
50.8375
 31
0.0
  0
LINE
  8
0
  6
CONTINUOUS
 62
     5
 10
37.35
 20
47.8
 30
0.0
 11
37.35
 21
51.2
 31
0.0
  0
LINE
  8
0
  6
CONTINUOUS
 62
     5
 10
37.537638837
 20
50.5125
 30
0.0
 11
37.35
 21
50.1875
 31
0.0
  0
LINE
  8
0
  6
CONTINUOUS
 62
     5
 10
37.537638837
 20
48.4875
 30
0.0
 11
37.35
 21
48.1625
 31
0.0
  0
LINE
  8
0
  6
CONTINUOUS
 62
     5
 10
37.537638837
 20
48.4875
 30
0.0
 11
37.35
 21
48.8125
 31
0.0
  0
LINE
  8
0
  6
CONTINUOUS
 62
     5
 10
37.35
 20
47.8
 30
0.0
 11
37.537638837
 21
47.475
 31
0.0
  0
LINE
  8
0
  6
CONTINUOUS
 62
     5
 10
38.362361163
 20
47.475
 30
0.0
 11
37.537638837
 21
47.475
 31
0.0
  0
LINE
  8
0
  6
CONTINUOUS
 62
     5
 10
37.537638837
 20
51.525
 30
0.0
 11
38.362361163
 21
51.525
 31
0.0
  0
LINE
  8
0
  6
CONTINUOUS
 62
     5
 10
37.35
 20
51.2
 30
0.0
 11
37.537638837
 21
51.525
 31
0.0
  0
LINE
  8
0
  6
CONTINUOUS
 62
     5
 10
37.537638837
 20
50.5125
 30
0.0
 11
38.362361163
 21
50.5125
 31
0.0
  0
LINE
  8
0
  6
CONTINUOUS
 62
     5
 10
37.537638837
 20
48.4875
 30
0.0
 11
38.362361163
 21
48.4875
 31
0.0
  0
LINE
  8
0
  6
CONTINUOUS
 62
     5
 10
39.05
 20
49.4
 30
0.0
 11
38.55
 21
49.4
 31
0.0
  0
LINE
  8
0
  6
CONTINUOUS
 62
     5
 10
38.55
 20
49.6
 30
0.0
 11
39.05
 21
49.6
 31
0.0
  0
LINE
  8
0
  6
CONTINUOUS
 62
     2
 10
35.55
 20
50.45
 30
0.0
 11
39.065191258
 21
62.890972552
 31
0.0
  0
TEXT
  8
0
  6
CONTINUOUS
 62
     2
 10
40.470866657
 20
64.15
 30
0.5
 40
3.0
  1
Ｍ４ターミナルネジ
 50
0.0
 41
0.833333333
 51
0.0
  7
KANJI4
  0
LINE
  8
0
  6
CONTINUOUS
 62
     2
 10
39.138379348
 20
63.15
 30
0.0
 11
66.970866657
 21
63.15
 31
0.0
  0
LINE
  8
0
  6
CONTINUOUS
 62
     2
 10
35.838379348
 20
57.15
 30
0.0
 11
39.138379348
 21
69.15
 31
0.0
  0
LINE
  8
0
  6
CONTINUOUS
 62
     2
 10
39.138379348
 20
69.15
 30
0.0
 11
56.838379348
 21
69.15
 31
0.0
  0
TEXT
  8
0
  6
CONTINUOUS
 62
     2
 10
39.138379348
 20
70.15
 30
0.3
 40
3.0
  1
端子キャップ
 50
0.0
 41
0.9
 51
0.0
  7
KANJI3
  0
ARC
  8
0
  6
CONTINUOUS
 62
     1
 10
47.4
 20
43.0
 30
0.0
 40
0.5
 50
0.0
 51
90.0
  0
LINE
  8
0
  6
CONTINUOUS
 62
     1
 10
41.4
 20
43.5
 30
0.0
 11
47.4
 21
43.5
 31
0.0
  0
ARC
  8
0
  6
CONTINUOUS
 62
     1
 10
41.4
 20
44.0
 30
0.0
 40
0.5
 50
180.0
 51
270.0
  0
TEXT
  8
0
  6
CONTINUOUS
 62
     3
 10
235.0
 20
12.0
 30
0.2
 40
5.8
  1
ＭＳ－１２９４８
 50
0.0
 41
0.827586207
 51
0.0
  7
KANJI5
  0
TEXT
  8
0
  6
CONTINUOUS
 62
     2
 10
124.6
 20
72.95
 30
0.3
 40
3.0
  1
機械的零位調整器
 50
0.0
 41
0.9
 51
0.0
  7
KANJI3
  0
LINE
  8
0
  6
CONTINUOUS
 62
     2
 10
148.35
 20
71.95
 30
0.0
 11
123.399
 21
71.95
 31
0.0
  0
ARC
  8
0
  6
CONTINUOUS
 62
     1
 10
160.0
 20
164.4
 30
0.0
 40
1.5
 50
341.849401284
 51
199.471220635
  0
LINE
  8
0
  6
CONTINUOUS
 62
     1
 10
157.5
 20
166.9
 30
0.0
 11
162.5
 21
166.9
 31
0.0
  0
LINE
  8
0
  6
CONTINUOUS
 62
     1
 10
157.5
 20
163.9
 30
0.0
 11
157.5
 21
166.9
 31
0.0
  0
LINE
  8
0
  6
CONTINUOUS
 62
     1
 10
162.5
 20
166.9
 30
0.0
 11
162.5
 21
163.9
 31
0.0
  0
LINE
  8
0
  6
CONTINUOUS
 62
     1
 10
157.5
 20
85.9
 30
0.0
 11
162.5
 21
85.9
 31
0.0
  0
LINE
  8
0
  6
CONTINUOUS
 62
     1
 10
157.5
 20
88.9
 30
0.0
 11
157.5
 21
85.9
 31
0.0
  0
LINE
  8
0
  6
CONTINUOUS
 62
     1
 10
162.5
 20
85.9
 30
0.0
 11
162.5
 21
88.9
 31
0.0
  0
ARC
  8
0
  6
CONTINUOUS
 62
     1
 10
160.0
 20
88.4
 30
0.0
 40
1.5
 50
160.528779366
 51
19.471220634
  0
LINE
  8
0
  6
CONTINUOUS
 62
     1
 10
109.15
 20
162.9
 30
0.0
 11
113.15
 21
162.9
 31
0.0
  0
LINE
  8
0
  6
CONTINUOUS
 62
     1
 10
113.15
 20
162.9
 30
0.0
 11
113.15
 21
165.9
 31
0.0
  0
LINE
  8
0
  6
CONTINUOUS
 62
     1
 10
113.15
 20
165.9
 30
0.0
 11
109.15
 21
165.9
 31
0.0
  0
LINE
  8
0
  6
CONTINUOUS
 62
     1
 10
109.15
 20
165.9
 30
0.0
 11
109.15
 21
162.9
 31
0.0
  0
LINE
  8
0
  6
CONTINUOUS
 62
     1
 10
109.15
 20
163.4
 30
0.0
 11
100.65
 21
163.4
 31
0.0
  0
LINE
  8
0
  6
CONTINUOUS
 62
     1
 10
100.65
 20
165.4
 30
0.0
 11
109.15
 21
165.4
 31
0.0
  0
LINE
  8
0
  6
CONTINUOUS
 62
     1
 10
100.65
 20
162.65
 30
0.0
 11
100.65
 21
166.9
 31
0.0
  0
LINE
  8
0
  6
LTYPE1
 62
     2
 10
86.403439535
 20
164.4
 30
0.0
 11
116.403439535
 21
164.4
 31
0.0
  0
ARC
  8
0
  6
CONTINUOUS
 62
     1
 10
89.616742525
 20
163.632385781
 30
0.0
 40
0.966742525
 50
180.0
 51
270.0
  0
LINE
  8
0
  6
CONTINUOUS
 62
     1
 10
88.65
 20
163.632385781
 30
0.0
 11
88.65
 21
165.127614219
 31
0.0
  0
LINE
  8
0
  6
CONTINUOUS
 62
     1
 10
88.740229302
 20
164.096422193
 30
0.0
 11
88.740229302
 21
164.586238405
 31
0.0
  0
LINE
  8
0
  6
CONTINUOUS
 62
     1
 10
90.003439535
 20
162.665643256
 30
0.0
 11
89.603852624
 21
162.665643256
 31
0.0
  0
LINE
  8
0
  6
CONTINUOUS
 62
     1
 10
97.220203125
 20
162.430952625
 30
0.0
 11
96.97995375
 21
162.671202
 31
0.0
  0
LINE
  8
0
  6
CONTINUOUS
 62
     1
 10
97.2298131
 20
163.454414962
 30
0.0
 11
96.97995375
 21
163.166115712
 31
0.0
  0
LINE
  8
0
  6
CONTINUOUS
 62
     1
 10
96.97995375
 20
165.65029425
 30
0.0
 11
97.268253
 21
165.390824925
 31
0.0
  0
LINE
  8
0
  6
CONTINUOUS
 62
     1
 10
96.97995375
 20
165.097720687
 30
0.0
 11
97.268253
 21
165.357190012
 31
0.0
  0
LINE
  8
0
  6
CONTINUOUS
 62
     1
 10
97.217320132
 20
163.44
 30
0.0
 11
96.977070757
 21
163.6321995
 31
0.0
  0
LINE
  8
0
  6
CONTINUOUS
 62
     1
 10
97.220203125
 20
162.430952625
 30
0.0
 11
98.6
 21
162.430952625
 31
0.0
  0
LINE
  8
0
  6
CONTINUOUS
 62
     1
 10
97.217320132
 20
163.44
 30
0.0
 11
98.6
 21
163.44
 31
0.0
  0
LINE
  8
0
  6
CONTINUOUS
 62
     1
 10
98.6
 20
165.361995
 30
0.0
 11
97.252236375
 21
165.361995
 31
0.0
  0
LINE
  8
0
  6
CONTINUOUS
 62
     1
 10
98.6
 20
162.430952625
 30
0.0
 11
98.6
 21
166.3229925
 31
0.0
  0
LINE
  8
0
  6
CONTINUOUS
 62
     1
 10
99.15
 20
166.2
 30
0.0
 11
98.6
 21
166.2
 31
0.0
  0
LINE
  8
0
  6
CONTINUOUS
 62
     1
 10
98.6
 20
166.2
 30
0.0
 11
98.6
 21
162.55
 31
0.0
  0
LINE
  8
0
  6
CONTINUOUS
 62
     1
 10
98.6
 20
162.55
 30
0.0
 11
99.15
 21
162.55
 31
0.0
  0
LINE
  8
0
  6
CONTINUOUS
 62
     1
 10
99.15
 20
162.55
 30
0.0
 11
99.15
 21
166.2
 31
0.0
  0
LINE
  8
0
  6
CONTINUOUS
 62
     1
 10
99.15
 20
164.55
 30
0.0
 11
98.6
 21
164.25
 31
0.0
  0
LINE
  8
0
  6
CONTINUOUS
 62
     1
 10
99.15
 20
164.7
 30
0.0
 11
98.6
 21
164.4
 31
0.0
  0
LINE
  8
0
  6
CONTINUOUS
 62
     1
 10
96.97995375
 20
163.4
 30
0.0
 11
90.003439535
 21
163.4
 31
0.0
  0
LINE
  8
0
  6
CONTINUOUS
 62
     1
 10
90.003439535
 20
165.4
 30
0.0
 11
96.97995375
 21
165.4
 31
0.0
  0
LINE
  8
0
  6
CONTINUOUS
 62
     2
 10
88.65
 20
164.109312093
 30
0.0
 11
88.740229302
 21
164.109312093
 31
0.0
  0
LINE
  8
0
  6
CONTINUOUS
 62
     2
 10
88.740229302
 20
164.586238405
 30
0.0
 11
88.6628899
 21
164.586238405
 31
0.0
  0
LINE
  8
0
  6
CONTINUOUS
 62
     1
 10
100.65
 20
166.9
 30
0.0
 11
99.15
 21
166.9
 31
0.0
  0
LINE
  8
0
  6
CONTINUOUS
 62
     1
 10
99.15
 20
166.9
 30
0.0
 11
99.15
 21
155.15
 31
0.0
  0
LINE
  8
0
  6
CONTINUOUS
 62
     1
 10
98.6
 20
166.3229925
 30
0.0
 11
97.244228062
 21
166.3229925
 31
0.0
  0
LINE
  8
0
  6
CONTINUOUS
 62
     1
 10
97.244228062
 20
166.3229925
 30
0.0
 11
96.97995375
 21
166.058718187
 31
0.0
  0
LINE
  8
0
  6
CONTINUOUS
 62
     1
 10
96.97995375
 20
166.058718187
 30
0.0
 11
96.97995375
 21
162.671202
 31
0.0
  0
LINE
  8
0
  6
CONTINUOUS
 62
     1
 10
90.003439535
 20
162.665643256
 30
0.0
 11
90.003439535
 21
166.134
 31
0.0
  0
ARC
  8
0
  6
CONTINUOUS
 62
     1
 10
89.616742525
 20
165.167614219
 30
0.0
 40
0.966742525
 50
90.0
 51
180.0
  0
LINE
  8
0
  6
CONTINUOUS
 62
     1
 10
90.003439535
 20
166.134356744
 30
0.0
 11
89.603852624
 21
166.134356744
 31
0.0
  0
LINE
  8
0
  6
CONTINUOUS
 62
     1
 10
90.003439535
 20
166.134356744
 30
0.0
 11
90.003439535
 21
162.666
 31
0.0
  0
LINE
  8
0
  6
CONTINUOUS
 62
     2
 10
108.5
 20
90.15
 30
0.0
 11
109.147047613
 21
92.564814566
 31
0.0
  0
LINE
  8
0
  6
CONTINUOUS
 62
     2
 10
108.5
 20
90.15
 30
0.0
 11
107.852952387
 21
92.564814566
 31
0.0
  0
LINE
  8
0
  6
CONTINUOUS
 62
     1
 10
113.15
 20
89.9
 30
0.0
 11
109.15
 21
89.9
 31
0.0
  0
LINE
  8
0
  6
CONTINUOUS
 62
     1
 10
109.15
 20
89.9
 30
0.0
 11
109.15
 21
86.9
 31
0.0
  0
LINE
  8
0
  6
CONTINUOUS
 62
     1
 10
109.15
 20
87.4
 30
0.0
 11
100.65
 21
87.4
 31
0.0
  0
LINE
  8
0
  6
CONTINUOUS
 62
     1
 10
100.66
 20
89.4
 30
0.0
 11
109.15
 21
89.4
 31
0.0
  0
LINE
  8
0
  6
LTYPE1
 62
     2
 10
85.096560465
 20
88.4
 30
0.0
 11
117.096560465
 21
88.4
 31
0.0
  0
LINE
  8
0
  6
CONTINUOUS
 62
     1
 10
99.15
 20
85.9
 30
0.0
 11
100.65
 21
85.9
 31
0.0
  0
LINE
  8
0
  6
CONTINUOUS
 62
     1
 10
100.65
 20
85.9
 30
0.0
 11
100.65
 21
90.15
 31
0.0
  0
LINE
  8
0
  6
CONTINUOUS
 62
     1
 10
99.16
 20
97.65
 30
0.0
 11
99.1506
 21
85.9
 31
0.0
  0
LINE
  8
0
  6
CONTINUOUS
 62
     2
 10
108.5
 20
162.65
 30
0.0
 11
108.5
 21
90.15
 31
0.0
  0
LINE
  8
0
  6
CONTINUOUS
 62
     1
 10
97.215249375
 20
86.430952625
 30
0.0
 11
96.975
 21
86.671202
 31
0.0
  0
LINE
  8
0
  6
CONTINUOUS
 62
     1
 10
97.22485935
 20
87.454414962
 30
0.0
 11
96.975
 21
87.166115712
 31
0.0
  0
LINE
  8
0
  6
CONTINUOUS
 62
     1
 10
96.975
 20
89.65029425
 30
0.0
 11
97.26329925
 21
89.390824925
 31
0.0
  0
LINE
  8
0
  6
CONTINUOUS
 62
     1
 10
96.975
 20
89.097720687
 30
0.0
 11
97.26329925
 21
89.357190012
 31
0.0
  0
LINE
  8
0
  6
CONTINUOUS
 62
     1
 10
97.212366382
 20
87.44
 30
0.0
 11
96.972117007
 21
87.6321995
 31
0.0
  0
LINE
  8
0
  6
CONTINUOUS
 62
     1
 10
97.215249375
 20
86.430952625
 30
0.0
 11
98.59504625
 21
86.430952625
 31
0.0
  0
LINE
  8
0
  6
CONTINUOUS
 62
     1
 10
97.212366382
 20
87.44
 30
0.0
 11
98.59504625
 21
87.44
 31
0.0
  0
LINE
  8
0
  6
CONTINUOUS
 62
     1
 10
98.59504625
 20
89.361995
 30
0.0
 11
97.247282625
 21
89.361995
 31
0.0
  0
LINE
  8
0
  6
CONTINUOUS
 62
     1
 10
98.59504625
 20
86.430952625
 30
0.0
 11
98.59504625
 21
90.3229925
 31
0.0
  0
LINE
  8
0
  6
CONTINUOUS
 62
     1
 10
99.14504625
 20
90.2
 30
0.0
 11
98.59504625
 21
90.2
 31
0.0
  0
LINE
  8
0
  6
CONTINUOUS
 62
     1
 10
98.59504625
 20
90.2
 30
0.0
 11
98.59504625
 21
86.55
 31
0.0
  0
LINE
  8
0
  6
CONTINUOUS
 62
     1
 10
98.59504625
 20
86.55
 30
0.0
 11
99.14504625
 21
86.55
 31
0.0
  0
LINE
  8
0
  6
CONTINUOUS
 62
     1
 10
99.14504625
 20
86.55
 30
0.0
 11
99.14504625
 21
90.2
 31
0.0
  0
LINE
  8
0
  6
CONTINUOUS
 62
     1
 10
99.14504625
 20
88.55
 30
0.0
 11
98.59504625
 21
88.25
 31
0.0
  0
LINE
  8
0
  6
CONTINUOUS
 62
     1
 10
99.14504625
 20
88.7
 30
0.0
 11
98.59504625
 21
88.4
 31
0.0
  0
ARC
  8
0
  6
CONTINUOUS
 62
     1
 10
88.26330299
 20
87.632385781
 30
0.0
 40
0.966742525
 50
180.0
 51
270.0
  0
LINE
  8
0
  6
CONTINUOUS
 62
     1
 10
87.296560465
 20
87.632385781
 30
0.0
 11
87.296560465
 21
89.127614219
 31
0.0
  0
LINE
  8
0
  6
CONTINUOUS
 62
     1
 10
87.386789768
 20
88.096422193
 30
0.0
 11
87.386789768
 21
88.586238405
 31
0.0
  0
LINE
  8
0
  6
CONTINUOUS
 62
     1
 10
88.65
 20
86.665643256
 30
0.0
 11
88.25041309
 21
86.665643256
 31
0.0
  0
LINE
  8
0
  6
CONTINUOUS
 62
     1
 10
88.65
 20
89.4
 30
0.0
 11
96.96
 21
89.4
 31
0.0
  0
LINE
  8
0
  6
CONTINUOUS
 62
     2
 10
87.296560465
 20
88.109312093
 30
0.0
 11
87.386789768
 21
88.109312093
 31
0.0
  0
LINE
  8
0
  6
CONTINUOUS
 62
     2
 10
87.386789768
 20
88.586238405
 30
0.0
 11
87.309450366
 21
88.586238405
 31
0.0
  0
LINE
  8
0
  6
CONTINUOUS
 62
     2
 10
85.096560465
 20
88.4
 30
0.0
 11
77.1
 21
88.4
 31
0.0
  0
LINE
  8
0
  6
CONTINUOUS
 62
     2
 10
79.1
 20
88.4
 30
0.0
 11
79.747047613
 21
90.814814566
 31
0.0
  0
LINE
  8
0
  6
CONTINUOUS
 62
     2
 10
79.1
 20
88.4
 30
0.0
 11
78.452952387
 21
90.814814566
 31
0.0
  0
LINE
  8
0
  6
CONTINUOUS
 62
     1
 10
96.975
 20
87.4
 30
0.0
 11
88.65
 21
87.4
 31
0.0
  0
LINE
  8
0
  6
CONTINUOUS
 62
     1
 10
98.59504625
 20
90.3229925
 30
0.0
 11
97.239274313
 21
90.3229925
 31
0.0
  0
LINE
  8
0
  6
CONTINUOUS
 62
     1
 10
97.239274313
 20
90.3229925
 30
0.0
 11
96.975
 21
90.058718187
 31
0.0
  0
LINE
  8
0
  6
CONTINUOUS
 62
     1
 10
96.975
 20
90.058718187
 30
0.0
 11
96.975
 21
86.671202
 31
0.0
  0
LINE
  8
0
  6
CONTINUOUS
 62
     1
 10
88.65
 20
86.665643256
 30
0.0
 11
88.65
 21
90.134
 31
0.0
  0
ARC
  8
0
  6
CONTINUOUS
 62
     1
 10
88.26330299
 20
89.167614219
 30
0.0
 40
0.966742525
 50
90.0
 51
180.0
  0
LINE
  8
0
  6
CONTINUOUS
 62
     1
 10
88.65
 20
90.134356744
 30
0.0
 11
88.25041309
 21
90.134356744
 31
0.0
  0
LINE
  8
0
  6
CONTINUOUS
 62
     1
 10
109.15
 20
86.9
 30
0.0
 11
113.15
 21
86.9
 31
0.0
  0
LINE
  8
0
  6
CONTINUOUS
 62
     1
 10
113.15
 20
86.9
 30
0.0
 11
113.15
 21
89.9
 31
0.0
  0
TEXT
  8
0
  6
CONTINUOUS
 62
     1
 10
159.9
 20
60.45
 30
0.3
 40
3.5
  1
計器取付方法
 50
0.0
 41
0.9
 51
0.0
  7
KANJI6
  0
LINE
  8
0
  6
CONTINUOUS
 62
     1
 10
158.7
 20
59.2
 30
0.0
 11
181.7
 21
59.2
 31
0.0
  0
TEXT
  8
0
  6
CONTINUOUS
 62
     2
 10
159.5
 20
52.5
 30
0.2
 40
3.0
  1
１，計器本体から取り付け金具を取り外す。（上下２箇所）
 50
0.0
 41
0.75
 51
0.0
  7
KANJI7
  0
TEXT
  8
0
  6
CONTINUOUS
 62
     1
 10
200.3
 20
77.8
 30
0.3
 40
3.0
  1
パネルカット
 50
0.0
 41
0.9
 51
0.0
  7
KANJI3
  0
LINE
  8
0
  6
CONTINUOUS
 62
     1
 10
199.3
 20
76.4
 30
0.0
 11
218.3
 21
76.4
 31
0.0
  0
LINE
  8
0
  6
CONTINUOUS
 62
     1
 10
198.075
 20
89.9
 30
0.0
 11
218.925
 21
89.9
 31
0.0
  0
LINE
  8
0
  6
CONTINUOUS
 62
     1
 10
218.925
 20
89.9
 30
0.0
 11
218.925
 21
162.9
 31
0.0
  0
LINE
  8
0
  6
CONTINUOUS
 62
     1
 10
218.925
 20
162.9
 30
0.0
 11
198.075
 21
162.9
 31
0.0
  0
LINE
  8
0
  6
CONTINUOUS
 62
     1
 10
198.075
 20
162.9
 30
0.0
 11
198.075
 21
89.9
 31
0.0
  0
LINE
  8
0
  6
LTYPE4
 62
     2
 10
193.075
 20
126.4
 30
0.0
 11
223.925
 21
126.4
 31
0.0
  0
LINE
  8
0
  6
CONTINUOUS
 62
     2
 10
198.075
 20
144.5
 30
0.0
 11
200.489814566
 21
143.852952387
 31
0.0
  0
LINE
  8
0
  6
CONTINUOUS
 62
     2
 10
198.075
 20
144.5
 30
0.0
 11
200.489814566
 21
145.147047613
 31
0.0
  0
LINE
  8
0
  6
CONTINUOUS
 62
     2
 10
218.925
 20
144.5
 30
0.0
 11
216.510185434
 21
145.147047613
 31
0.0
  0
LINE
  8
0
  6
CONTINUOUS
 62
     2
 10
218.925
 20
144.5
 30
0.0
 11
216.510185434
 21
143.852952387
 31
0.0
  0
LINE
  8
0
  6
CONTINUOUS
 62
     2
 10
198.075
 20
144.5
 30
0.0
 11
218.925
 21
144.5
 31
0.0
  0
LINE
  8
0
  6
CONTINUOUS
 62
     2
 10
205.5
 20
89.9
 30
0.0
 11
206.147047613
 21
92.314814566
 31
0.0
  0
LINE
  8
0
  6
CONTINUOUS
 62
     2
 10
205.5
 20
89.9
 30
0.0
 11
204.852952387
 21
92.314814566
 31
0.0
  0
LINE
  8
0
  6
CONTINUOUS
 62
     2
 10
205.5
 20
162.9
 30
0.0
 11
204.852952387
 21
160.485185434
 31
0.0
  0
LINE
  8
0
  6
CONTINUOUS
 62
     2
 10
205.5
 20
162.9
 30
0.0
 11
206.147047613
 21
160.485185434
 31
0.0
  0
TEXT
  8
0
  6
CONTINUOUS
 62
     2
 10
199.1
 20
145.5
 30
0.1
 40
3.0
  1
（４０．２×Ｎ）＋１．５
 50
0.0
 41
0.6
 51
0.0
  7
KANJI8
  0
LINE
  8
0
  6
CONTINUOUS
 62
     2
 10
224.0
 20
163.0
 30
0.0
 11
249.0
 21
163.0
 31
0.0
  0
TEXT
  8
0
  6
CONTINUOUS
 62
     2
 10
224.7
 20
163.9
 30
0.3
 40
3.0
  1
Ｎ；連結計器個数
 50
0.0
 41
0.9
 51
0.0
  7
KANJI3
  0
LINE
  8
0
  6
CONTINUOUS
 62
     2
 10
151.0
 20
61.55
 30
0.0
 11
150.352952387
 21
59.135185434
 31
0.0
  0
LINE
  8
0
  6
CONTINUOUS
 62
     2
 10
151.0
 20
61.55
 30
0.0
 11
151.647047613
 21
59.135185434
 31
0.0
  0
LINE
  8
0
  6
CONTINUOUS
 62
     2
 10
151.0
 20
61.55
 30
0.0
 11
151.0
 21
38.5
 31
0.0
  0
LINE
  8
0
  6
CONTINUOUS
 62
     2
 10
151.0
 20
38.5
 30
0.0
 11
151.647047613
 21
40.914814566
 31
0.0
  0
LINE
  8
0
  6
CONTINUOUS
 62
     2
 10
151.0
 20
38.5
 30
0.0
 11
150.352952387
 21
40.914814566
 31
0.0
  0
TEXT
  8
0
  6
CONTINUOUS
 62
     2
 10
150.0
 20
48.075
 30
0.3
 40
3.0
  1
４６
 50
90.0
 41
0.6
 51
0.0
  7
KANJI0
  0
LINE
  8
0
  6
CONTINUOUS
 62
     2
 10
142.8
 20
60.0
 30
0.0
 11
142.152952387
 21
57.585185434
 31
0.0
  0
LINE
  8
0
  6
CONTINUOUS
 62
     2
 10
142.8
 20
60.0
 30
0.0
 11
143.447047613
 21
57.585185434
 31
0.0
  0
LINE
  8
0
  6
CONTINUOUS
 62
     2
 10
142.8
 20
60.0
 30
0.0
 11
142.8
 21
40.0
 31
0.0
  0
LINE
  8
0
  6
CONTINUOUS
 62
     2
 10
142.8
 20
40.0
 30
0.0
 11
143.447047613
 21
42.414814566
 31
0.0
  0
LINE
  8
0
  6
CONTINUOUS
 62
     2
 10
142.8
 20
40.0
 30
0.0
 11
142.152952387
 21
42.414814566
 31
0.0
  0
TEXT
  8
0
  6
CONTINUOUS
 62
     2
 10
141.8
 20
48.05
 30
0.3
 40
3.0
  1
４０
 50
90.0
 41
0.6
 51
0.0
  7
KANJI0
  0
LINE
  8
0
  6
CONTINUOUS
 62
     2
 10
118.6
 20
61.55
 30
0.0
 11
153.0
 21
61.55
 31
0.0
  0
LINE
  8
0
  6
CONTINUOUS
 62
     2
 10
118.6
 20
38.5
 30
0.0
 11
153.0
 21
38.5
 31
0.0
  0
LINE
  8
0
  6
CONTINUOUS
 62
     2
 10
129.9
 20
40.0
 30
0.0
 11
144.8
 21
40.0
 31
0.0
  0
LINE
  8
0
  6
CONTINUOUS
 62
     2
 10
129.9
 20
60.0
 30
0.0
 11
144.8
 21
60.0
 31
0.0
  0
LINE
  8
0
  6
CONTINUOUS
 62
     2
 10
139.8
 20
48.0
 30
0.0
 11
138.61352019
 21
45.799485137
 31
0.0
  0
LINE
  8
0
  6
CONTINUOUS
 62
     2
 10
139.8
 20
48.0
 30
0.0
 11
139.872735775
 21
45.501058323
 31
0.0
  0
LINE
  8
0
  6
CONTINUOUS
 62
     2
 10
139.8
 20
48.0
 30
0.0
 11
135.7
 21
30.7
 31
0.0
  0
TEXT
  8
0
  6
CONTINUOUS
 62
     2
 10
117.0
 20
31.7
 30
0.3
 40
3.0
  1
計器本体寸法
 50
0.0
 41
0.9
 51
0.0
  7
KANJI3
  0
LINE
  8
0
  6
CONTINUOUS
 62
     2
 10
135.7
 20
30.7
 30
0.0
 11
116.5
 21
30.7
 31
0.0
  0
LINE
  8
0
  6
CONTINUOUS
 62
     2
 10
69.0
 20
40.0
 30
0.0
 11
69.647047613
 21
42.414814566
 31
0.0
  0
LINE
  8
0
  6
CONTINUOUS
 62
     2
 10
69.0
 20
40.0
 30
0.0
 11
68.352952387
 21
42.414814566
 31
0.0
  0
LINE
  8
0
  6
CONTINUOUS
 62
     2
 10
69.0
 20
40.0
 30
0.0
 11
69.0
 21
60.0
 31
0.0
  0
LINE
  8
0
  6
CONTINUOUS
 62
     2
 10
69.0
 20
60.0
 30
0.0
 11
68.352952387
 21
57.585185434
 31
0.0
  0
LINE
  8
0
  6
CONTINUOUS
 62
     2
 10
69.0
 20
60.0
 30
0.0
 11
69.647047613
 21
57.585185434
 31
0.0
  0
TEXT
  8
0
  6
CONTINUOUS
 62
     2
 10
68.0
 20
48.0
 30
0.3
 40
3.0
  1
４０
 50
90.0
 41
0.6
 51
0.0
  7
KANJI0
  0
LINE
  8
0
  6
CONTINUOUS
 62
     2
 10
122.996560465
 20
163.9
 30
0.0
 11
139.3
 21
163.9
 31
0.0
  0
LINE
  8
0
  6
CONTINUOUS
 62
     2
 10
137.3
 20
163.9
 30
0.0
 11
136.652952387
 21
161.485185434
 31
0.0
  0
LINE
  8
0
  6
CONTINUOUS
 62
     2
 10
137.3
 20
163.9
 30
0.0
 11
137.947047613
 21
161.485185434
 31
0.0
  0
LINE
  8
0
  6
CONTINUOUS
 62
     2
 10
137.3
 20
88.9
 30
0.0
 11
137.947047613
 21
91.314814566
 31
0.0
  0
LINE
  8
0
  6
CONTINUOUS
 62
     2
 10
137.3
 20
88.9
 30
0.0
 11
136.652952387
 21
91.314814566
 31
0.0
  0
LINE
  8
0
  6
CONTINUOUS
 62
     2
 10
122.921358054
 20
88.9
 30
0.0
 11
139.3
 21
88.9
 31
0.0
  0
LINE
  8
0
  6
CONTINUOUS
 62
     2
 10
137.3
 20
163.9
 30
0.0
 11
137.3
 21
88.9
 31
0.0
  0
LINE
  8
0
  6
CONTINUOUS
 62
     1
 10
118.1
 20
88.9
 30
0.0
 11
118.1
 21
163.9
 31
0.0
  0
LINE
  8
0
  6
CONTINUOUS
 62
     2
 10
91.8
 20
87.0
 30
0.0
 11
89.84018846
 21
85.447859952
 31
0.0
  0
LINE
  8
0
  6
CONTINUOUS
 62
     2
 10
91.8
 20
87.0
 30
0.0
 11
90.878823444
 21
84.675901518
 31
0.0
  0
LINE
  8
0
  6
CONTINUOUS
 62
     2
 10
91.8
 20
87.0
 30
0.0
 11
86.3
 21
79.6
 31
0.0
  0
TEXT
  8
0
  6
CONTINUOUS
 62
     2
 10
56.6
 20
80.6
 30
0.3
 40
3.0
  1
取付用Ｍ４×４５ネジ
 50
0.0
 41
0.9
 51
0.0
  7
KANJI3
  0
LINE
  8
0
  6
CONTINUOUS
 62
     2
 10
86.3
 20
79.6
 30
0.0
 11
55.6
 21
79.6
 31
0.0
  0
LINE
  8
0
  6
CONTINUOUS
 62
     2
 10
86.403439535
 20
164.4
 30
0.0
 11
77.1
 21
164.4
 31
0.0
  0
LINE
  8
0
  6
CONTINUOUS
 62
     2
 10
79.1
 20
164.4
 30
0.0
 11
78.452952387
 21
161.985185434
 31
0.0
  0
LINE
  8
0
  6
CONTINUOUS
 62
     2
 10
79.1
 20
164.4
 30
0.0
 11
79.747047613
 21
161.985185434
 31
0.0
  0
LINE
  8
0
  6
CONTINUOUS
 62
     2
 10
79.1
 20
164.4
 30
0.0
 11
79.1
 21
88.4
 31
0.0
  0
LINE
  8
0
  6
LTYPE1
 62
     2
 10
30.5
 20
126.4
 30
0.0
 11
74.6
 21
126.4
 31
0.0
  0
LINE
  8
0
  6
CONTINUOUS
 62
     2
 10
27.0
 20
132.65
 30
0.0
 11
26.352952387
 21
130.235185434
 31
0.0
  0
LINE
  8
0
  6
CONTINUOUS
 62
     2
 10
27.0
 20
132.65
 30
0.0
 11
27.647047613
 21
130.235185434
 31
0.0
  0
LINE
  8
0
  6
CONTINUOUS
 62
     2
 10
27.0
 20
132.65
 30
0.0
 11
27.0
 21
120.15
 31
0.0
  0
LINE
  8
0
  6
CONTINUOUS
 62
     2
 10
27.0
 20
120.15
 30
0.0
 11
27.647047613
 21
122.564814566
 31
0.0
  0
LINE
  8
0
  6
CONTINUOUS
 62
     2
 10
27.0
 20
120.15
 30
0.0
 11
26.352952387
 21
122.564814566
 31
0.0
  0
TEXT
  8
0
  6
CONTINUOUS
 62
     2
 10
26.0
 20
124.45
 30
0.3
 40
3.0
  1
２５
 50
90.0
 41
0.6
 51
0.0
  7
KANJI0
  0
LINE
  8
0
  6
CONTINUOUS
 62
     2
 10
32.8
 20
120.15
 30
0.0
 11
25.0
 21
120.15
 31
0.0
  0
LINE
  8
0
  6
CONTINUOUS
 62
     2
 10
32.8
 20
132.65
 30
0.0
 11
25.0
 21
132.65
 31
0.0
  0
LINE
  8
0
  6
CONTINUOUS
 62
     2
 10
33.368854352
 20
132.65
 30
0.0
 11
33.2
 21
132.65
 31
0.0
  0
TEXT
  8
0
  6
CONTINUOUS
 62
     2
 10
67.0
 20
170.6
 30
0.3
 40
3.0
  1
１１８
 50
0.0
 41
0.6
 51
0.0
  7
KANJI0
  0
TEXT
  8
0
  6
CONTINUOUS
 62
     2
 10
106.5
 20
170.6
 30
0.3
 40
3.0
  1
３６
 50
0.0
 41
0.6
 51
0.0
  7
KANJI0
  0
TEXT
  8
0
  6
CONTINUOUS
 62
     2
 10
119.2
 20
170.6
 30
0.3
 40
3.0
  1
９
 50
0.0
 41
0.6
 51
0.0
  7
KANJI0
  0
LINE
  8
0
  6
CONTINUOUS
 62
     2
 10
117.85
 20
175.0
 30
0.0
 11
115.435185434
 21
175.647047613
 31
0.0
  0
LINE
  8
0
  6
CONTINUOUS
 62
     2
 10
117.85
 20
175.0
 30
0.0
 11
115.435185434
 21
174.352952387
 31
0.0
  0
LINE
  8
0
  6
CONTINUOUS
 62
     2
 10
117.85
 20
175.0
 30
0.0
 11
120.264814566
 21
174.352952387
 31
0.0
  0
LINE
  8
0
  6
CONTINUOUS
 62
     2
 10
117.85
 20
175.0
 30
0.0
 11
120.264814566
 21
175.647047613
 31
0.0
  0
LINE
  8
0
  6
CONTINUOUS
 62
     2
 10
117.85
 20
175.0
 30
0.0
 11
129.4
 21
175.0
 31
0.0
  0
LINE
  8
0
  6
CONTINUOUS
 62
     2
 10
129.4
 20
175.0
 30
0.0
 11
126.985185434
 21
175.647047613
 31
0.0
  0
LINE
  8
0
  6
CONTINUOUS
 62
     2
 10
129.4
 20
175.0
 30
0.0
 11
126.985185434
 21
174.352952387
 31
0.0
  0
LINE
  8
0
  6
CONTINUOUS
 62
     2
 10
34.893854352
 20
175.0
 30
0.0
 11
117.85
 21
175.0
 31
0.0
  0
LINE
  8
0
  6
CONTINUOUS
 62
     2
 10
34.893854352
 20
175.0
 30
0.0
 11
37.308668918
 21
174.352952387
 31
0.0
  0
LINE
  8
0
  6
CONTINUOUS
 62
     2
 10
34.893854352
 20
175.0
 30
0.0
 11
37.308668918
 21
175.647047613
 31
0.0
  0
LINE
  8
0
  6
CONTINUOUS
 62
     2
 10
129.4
 20
132.9
 30
0.0
 11
129.4
 21
177.0
 31
0.0
  0
LINE
  8
0
  6
CONTINUOUS
 62
     2
 10
34.893854352
 20
133.75
 30
0.0
 11
34.893854352
 21
177.0
 31
0.0
  0
LINE
  8
0
  6
CONTINUOUS
 62
     2
 10
117.85
 20
164.4
 30
0.0
 11
117.85
 21
177.0
 31
0.0
  0
TEXT
  8
0
  6
CONTINUOUS
 62
     2
 10
107.5
 20
123.41
 30
0.3
 40
3.0
  1
１４５
 50
90.0
 41
0.6
 51
0.0
  7
KANJI0
  0
LINE
  8
0
  6
CONTINUOUS
 62
     2
 10
108.5
 20
162.65
 30
0.0
 11
107.852952387
 21
160.235185434
 31
0.0
  0
LINE
  8
0
  6
CONTINUOUS
 62
     2
 10
108.5
 20
162.65
 30
0.0
 11
109.147047613
 21
160.235185434
 31
0.0
  0
LINE
  8
0
  6
CONTINUOUS
 62
     2
 10
40.667432297
 20
149.218145715
 30
0.0
 11
19.0
 21
149.218145715
 31
0.0
  0
LINE
  8
0
  6
CONTINUOUS
 62
     2
 10
21.0
 20
149.218145715
 30
0.0
 11
20.352952387
 21
146.803331149
 31
0.0
  0
LINE
  8
0
  6
CONTINUOUS
 62
     2
 10
21.0
 20
149.218145715
 30
0.0
 11
21.647047613
 21
146.803331149
 31
0.0
  0
LINE
  8
0
  6
CONTINUOUS
 62
     2
 10
21.0
 20
149.218145715
 30
0.0
 11
21.0
 21
104.180246512
 31
0.0
  0
LINE
  8
0
  6
CONTINUOUS
 62
     2
 10
21.0
 20
104.180246512
 30
0.0
 11
21.647047613
 21
106.595061077
 31
0.0
  0
LINE
  8
0
  6
CONTINUOUS
 62
     2
 10
21.0
 20
104.180246512
 30
0.0
 11
20.352952387
 21
106.595061077
 31
0.0
  0
LINE
  8
0
  6
CONTINUOUS
 62
     2
 10
40.665432184
 20
104.180246512
 30
0.0
 11
19.0
 21
104.180246512
 31
0.0
  0
TEXT
  8
0
  6
CONTINUOUS
 62
     2
 10
20.0
 20
124.749196113
 30
0.3
 40
3.0
  1
９０
 50
90.0
 41
0.6
 51
0.0
  7
KANJI0
  0
LINE
  8
0
  6
CONTINUOUS
 62
     2
 10
180.0
 20
85.9
 30
0.0
 11
180.647047613
 21
88.314814566
 31
0.0
  0
LINE
  8
0
  6
CONTINUOUS
 62
     2
 10
180.0
 20
85.9
 30
0.0
 11
179.352952387
 21
88.314814566
 31
0.0
  0
LINE
  8
0
  6
CONTINUOUS
 62
     2
 10
180.0
 20
166.9
 30
0.0
 11
179.352952387
 21
164.485185434
 31
0.0
  0
LINE
  8
0
  6
CONTINUOUS
 62
     2
 10
180.0
 20
166.9
 30
0.0
 11
180.647047613
 21
164.485185434
 31
0.0
  0
LINE
  8
0
  6
CONTINUOUS
 62
     2
 10
180.0
 20
85.9
 30
0.0
 11
180.0
 21
166.9
 31
0.0
  0
LINE
  8
0
  6
CONTINUOUS
 62
     2
 10
163.0
 20
166.9
 30
0.0
 11
182.0
 21
166.9
 31
0.0
  0
LINE
  8
0
  6
CONTINUOUS
 62
     2
 10
163.0
 20
85.9
 30
0.0
 11
182.0
 21
85.9
 31
0.0
  0
LINE
  8
0
  6
CONTINUOUS
 62
     2
 10
165.9
 20
163.0
 30
0.0
 11
166.808101803
 21
165.329238312
 31
0.0
  0
LINE
  8
0
  6
CONTINUOUS
 62
     2
 10
165.9
 20
163.0
 30
0.0
 11
165.521820074
 21
165.471230451
 31
0.0
  0
LINE
  8
0
  6
CONTINUOUS
 62
     2
 10
165.9
 20
163.0
 30
0.0
 11
166.75
 21
170.7
 31
0.0
  0
TEXT
  8
0
  6
CONTINUOUS
 62
     2
 10
166.75
 20
171.7
 30
0.3
 40
3.0
  1
上下限設定ツマミ（Ｈ：赤，Ｌ：黄）
 50
0.0
 41
0.9
 51
0.0
  7
KANJI3
  0
LINE
  8
0
  6
LTYPE5
 62
     2
 10
41.6505
 20
106.4
 30
0.0
 11
45.1495
 21
106.4
 31
0.0
  0
LINE
  8
0
  6
LTYPE5
 62
     2
 10
43.4
 20
104.6505
 30
0.0
 11
43.4
 21
108.1495
 31
0.0
  0
LINE
  8
0
  6
LTYPE5
 62
     2
 10
41.6505
 20
146.4
 30
0.0
 11
45.1495
 21
146.4
 31
0.0
  0
LINE
  8
0
  6
LTYPE5
 62
     2
 10
43.4
 20
144.6505
 30
0.0
 11
43.4
 21
148.1495
 31
0.0
  0
LINE
  8
0
  6
LTYPE5
 62
     2
 10
104.1505
 20
160.15
 30
0.0
 11
107.6495
 21
160.15
 31
0.0
  0
LINE
  8
0
  6
LTYPE5
 62
     2
 10
105.9
 20
158.4005
 30
0.0
 11
105.9
 21
161.8995
 31
0.0
  0
LINE
  8
0
  6
LTYPE5
 62
     2
 10
104.1505
 20
92.65
 30
0.0
 11
107.6495
 21
92.65
 31
0.0
  0
LINE
  8
0
  6
LTYPE5
 62
     2
 10
105.9
 20
90.9005
 30
0.0
 11
105.9
 21
94.3995
 31
0.0
  0
LINE
  8
0
  6
LTYPE1
 62
     2
 10
95.5
 20
93.9
 30
0.0
 11
102.9
 21
93.9
 31
0.0
  0
LINE
  8
0
  6
LTYPE1
 62
     2
 10
95.9
 20
158.91
 30
0.0
 11
103.3
 21
158.91
 31
0.0
  0
LINE
  8
0
  6
CONTINUOUS
 62
     2
 10
166.75
 20
170.7
 30
0.0
 11
217.0
 21
170.7
 31
0.0
  0
LINE
  8
0
  6
CONTINUOUS
 62
     2
 10
150.2
 20
175.2
 30
0.0
 11
186.0
 21
175.2
 31
0.0
  0
TEXT
  8
0
  6
CONTINUOUS
 62
     2
 10
159.5
 20
47.5
 30
0.2
 40
3.0
  1
２，パネルカット後，パネル前面から計器をはめ込む。
 50
0.0
 41
0.75
 51
0.0
  7
KANJI7
  0
TEXT
  8
0
  6
CONTINUOUS
 62
     2
 10
159.5
 20
42.5
 30
0.2
 40
3.0
  1
３，計器本体に取外した取付金具をＭ４ネジで止める。
 50
0.0
 41
0.75
 51
0.0
  7
KANJI7
  0
TEXT
  8
0
  6
CONTINUOUS
 62
     2
 10
159.5
 20
37.5
 30
0.2
 40
3.0
  1
４，Ｍ４×４５押ネジでパネル面を押しつけて固定する。
 50
0.0
 41
0.75
 51
0.0
  7
KANJI7
  0
TEXT
  8
0
  6
CONTINUOUS
 62
     2
 10
159.5
 20
32.5
 30
0.2
 40
3.0
  1
５，Ｍ４ナットでロックする。
 50
0.0
 41
0.75
 51
0.0
  7
KANJI7
  0
LINE
  8
0
  6
CONTINUOUS
 62
     2
 10
33.9
 20
119.15
 30
0.0
 11
33.9
 21
96.0
 31
0.0
  0
LINE
  8
0
  6
CONTINUOUS
 62
     2
 10
40.9
 20
103.644491525
 30
0.0
 11
40.9
 21
96.0
 31
0.0
  0
LINE
  8
0
  6
CONTINUOUS
 62
     2
 10
33.9
 20
98.0
 30
0.0
 11
36.314814566
 21
97.352952387
 31
0.0
  0
LINE
  8
0
  6
CONTINUOUS
 62
     2
 10
33.9
 20
98.0
 30
0.0
 11
36.314814566
 21
98.647047613
 31
0.0
  0
LINE
  8
0
  6
CONTINUOUS
 62
     2
 10
40.9
 20
98.0
 30
0.0
 11
38.485185434
 21
98.647047613
 31
0.0
  0
LINE
  8
0
  6
CONTINUOUS
 62
     2
 10
40.9
 20
98.0
 30
0.0
 11
38.485185434
 21
97.352952387
 31
0.0
  0
LINE
  8
0
  6
CONTINUOUS
 62
     2
 10
40.9
 20
98.0
 30
0.0
 11
33.9
 21
98.0
 31
0.0
  0
TEXT
  8
0
  6
CONTINUOUS
 62
     2
 10
35.2
 20
98.8
 30
0.3
 40
3.0
  1
１４
 50
0.0
 41
0.6
 51
0.0
  7
KANJI0
  0
LINE
  8
0
  6
CONTINUOUS
 62
     2
 10
175.335886548
 20
114.7
 30
0.0
 11
196.235886548
 21
114.7
 31
0.0
  0
TEXT
  8
0
  6
CONTINUOUS
 62
     2
 10
73.0
 20
176.0
 30
0.3
 40
3.0
  1
１６６
 50
0.0
 41
0.6
 51
0.0
  7
KANJI0
  0
TEXT
  8
0
  6
CONTINUOUS
 62
     2
 10
121.5
 20
176.0
 30
0.3
 40
3.0
  1
２３
 50
0.0
 41
0.6
 51
0.0
  7
KANJI0
  0
TEXT
  8
0
  6
CONTINUOUS
 62
     2
 10
136.3
 20
122.5
 30
0.3
 40
3.0
  1
１５０
 50
90.0
 41
0.6
 51
0.0
  7
KANJI0
  0
TEXT
  8
0
  6
CONTINUOUS
 62
     2
 10
136.3
 20
128.5
 30
0.18
 40
1.8
  1
±１
 50
90.0
 41
0.6
 51
0.0
  7
KANJI9
  0
LINE
  8
0
  6
LTYPE1
 62
     2
 10
89.6
 20
126.4
 30
0.0
 11
104.0
 21
126.4
 31
0.0
  0
LINE
  8
0
  6
LTYPE1
 62
     2
 10
108.0
 20
126.4
 30
0.0
 11
132.0
 21
126.4
 31
0.0
  0
TEXT
  8
0
  6
CONTINUOUS
 62
     2
 10
78.1
 20
123.4
 30
0.3
 40
3.0
  1
１５２
 50
90.0
 41
0.6
 51
0.0
  7
KANJI0
  0
TEXT
  8
0
  6
CONTINUOUS
 62
     2
 10
179.0
 20
123.4
 30
0.3
 40
3.0
  1
１６２
 50
90.0
 41
0.6
 51
0.0
  7
KANJI0
  0
TEXT
  8
0
  6
CONTINUOUS
 62
     1
 10
242.5
 20
39.3
 30
0.5
 40
4.0
  1
□Ｅｆ－１５０
 50
0.0
 41
0.9
 51
0.0
  7
KANJI10
  0
TEXT
  8
0
  6
CONTINUOUS
 62
     2
 10
235.0
 20
32.8
 30
0.1
 40
2.5
  1
上下限設定指針付，棒指針（当社Ｇｆ－１１０用）
 50
0.0
 41
0.92
 51
0.0
  7
KANJI11
  0
TEXT
  8
0
  6
CONTINUOUS
 62
     2
 10
235.0
 20
26.6
 30
0.1
 40
2.5
  1
エッジワイズ形計器　外形図
 50
0.0
 41
0.92
 51
0.0
  7
KANJI11
  0
TEXT
  8
0
  6
CONTINUOUS
 62
     2
 10
235.0
 20
29.7
 30
0.1
 40
2.5
  1
端子キャップ付
 50
0.0
 41
0.92
 51
0.0
  7
KANJI11
  0
TEXT
  8
0
  6
CONTINUOUS
 62
     2
 10
204.5
 20
116.23
 30
0.3
 40
3.0
  1
１４６
 50
90.0
 41
0.6
 51
0.0
  7
KANJI0
  0
TEXT
  8
0
  6
CONTINUOUS
 62
     2
 10
204.5
 20
122.23
 30
0.18
 40
1.8
  1
－０
 50
90.0
 41
0.6
 51
0.0
  7
KANJI9
  0
TEXT
  8
0
  6
CONTINUOUS
 62
     2
 10
202.7
 20
122.23
 30
0.18
 40
1.8
  1
＋１
 50
90.0
 41
0.6
 51
0.0
  7
KANJI9
  0
LINE
  8
0
  6
CONTINUOUS
 62
     2
 10
205.5
 20
149.17
 30
0.0
 11
205.5
 21
162.9
 31
0.0
  0
LINE
  8
0
  6
CONTINUOUS
 62
     2
 10
205.5
 20
89.9
 30
0.0
 11
205.5
 21
143.07
 31
0.0
  0
LINE
  8
0
  6
LTYPE4
 62
     2
 10
208.5
 20
143.07
 30
0.0
 11
208.5
 21
84.9
 31
0.0
  0
LINE
  8
0
  6
LTYPE4
 62
     2
 10
208.5
 20
167.9
 30
0.0
 11
208.5
 21
149.07
 31
0.0
  0
ENDSEC
  0
EOF
