  0
SECTION
  2
HEADER
  9
$ACADVER
  1
AC1009
  9
$DWGCODEPAGE
  3
dos932
  9
$EXTMIN
 10
0.0
 20
0.0
 30
0.0
  9
$EXTMAX
 10
297.0
 20
210.0
 30
0.0
  9
$LIMMIN
 10
0.0
 20
0.0
  9
$LIMMAX
 10
297.0
 20
210.0
  9
$LTSCALE
 40
1.0
  9
$PDMODE
 70
     0
  0
ENDSEC
  0
SECTION
  2
TABLES
  0
TABLE
  2
VPORT
 70
     1
  0
VPORT
  2
*ACTIVE
 70
     0
 10
0.0
 20
0.0
 11
1.0
 21
1.0
 12
148.5
 22
105.0
 13
0.0
 23
0.0
 14
10.0
 24
10.0
 15
10.0
 25
10.0
 16
0.0
 26
0.0
 36
1.0
 17
0.0
 27
0.0
 37
0.0
 40
297.0
 41
1.414285714
 42
50.0
 43
0.0
 44
0.0
 50
0.0
 51
0.0
 71
     0
 72
  1000
 73
     1
 74
     3
 75
     0
 76
     0
 77
     0
 78
     0
  0
ENDTAB
  0
TABLE
  2
LTYPE
 70
     4
  0
LTYPE
  2
CONTINUOUS
 70
    64
  3
Solid line
 72
    65
 73
     0
 40
0.0
  0
LTYPE
  2
LTYPE1
 70
    64
  3
CENTER
 72
    65
 73
     4
 40
15.0
 49
10.5
 49
-1.5
 49
1.5
 49
-1.5
  0
LTYPE
  2
LTYPE2
 70
    64
  3
CENTER
 72
    65
 73
     4
 40
8.0
 49
5.6
 49
-0.8
 49
0.8
 49
-0.8
  0
LTYPE
  2
LTYPE3
 70
    64
  3
HIDDEN
 72
    65
 73
     2
 40
2.0
 49
1.2
 49
-0.8
  0
ENDTAB
  0
TABLE
  2
LAYER
 70
   128
  0
LAYER
  2
0
 70
     0
 62
     7
  6
CONTINUOUS
  0
LAYER
  2
2
 70
     0
 62
     7
  6
CONTINUOUS
  0
LAYER
  2
3
 70
     0
 62
     7
  6
CONTINUOUS
  0
LAYER
  2
4
 70
     0
 62
     7
  6
CONTINUOUS
  0
LAYER
  2
5
 70
     0
 62
     7
  6
CONTINUOUS
  0
LAYER
  2
6
 70
     0
 62
     7
  6
CONTINUOUS
  0
LAYER
  2
7
 70
     0
 62
     7
  6
CONTINUOUS
  0
LAYER
  2
8
 70
     0
 62
     7
  6
CONTINUOUS
  0
LAYER
  2
9
 70
     0
 62
     7
  6
CONTINUOUS
  0
LAYER
  2
10
 70
     0
 62
     7
  6
CONTINUOUS
  0
LAYER
  2
11
 70
     0
 62
     7
  6
CONTINUOUS
  0
LAYER
  2
12
 70
     0
 62
     7
  6
CONTINUOUS
  0
LAYER
  2
13
 70
     0
 62
     7
  6
CONTINUOUS
  0
LAYER
  2
14
 70
     0
 62
     7
  6
CONTINUOUS
  0
LAYER
  2
15
 70
     0
 62
     7
  6
CONTINUOUS
  0
LAYER
  2
16
 70
     0
 62
     7
  6
CONTINUOUS
  0
LAYER
  2
17
 70
     0
 62
     7
  6
CONTINUOUS
  0
LAYER
  2
18
 70
     0
 62
     7
  6
CONTINUOUS
  0
LAYER
  2
19
 70
     0
 62
     7
  6
CONTINUOUS
  0
LAYER
  2
20
 70
     0
 62
     7
  6
CONTINUOUS
  0
LAYER
  2
21
 70
     0
 62
     7
  6
CONTINUOUS
  0
LAYER
  2
22
 70
     0
 62
     7
  6
CONTINUOUS
  0
LAYER
  2
23
 70
     0
 62
     7
  6
CONTINUOUS
  0
LAYER
  2
24
 70
     0
 62
     7
  6
CONTINUOUS
  0
LAYER
  2
25
 70
     0
 62
     7
  6
CONTINUOUS
  0
LAYER
  2
26
 70
     0
 62
     7
  6
CONTINUOUS
  0
LAYER
  2
27
 70
     0
 62
     7
  6
CONTINUOUS
  0
LAYER
  2
28
 70
     0
 62
     7
  6
CONTINUOUS
  0
LAYER
  2
29
 70
     0
 62
     7
  6
CONTINUOUS
  0
LAYER
  2
30
 70
     0
 62
     7
  6
CONTINUOUS
  0
LAYER
  2
31
 70
     0
 62
     7
  6
CONTINUOUS
  0
LAYER
  2
32
 70
     0
 62
     7
  6
CONTINUOUS
  0
LAYER
  2
33
 70
     0
 62
     7
  6
CONTINUOUS
  0
LAYER
  2
34
 70
     0
 62
     7
  6
CONTINUOUS
  0
LAYER
  2
35
 70
     0
 62
     7
  6
CONTINUOUS
  0
LAYER
  2
36
 70
     0
 62
     7
  6
CONTINUOUS
  0
LAYER
  2
37
 70
     0
 62
     7
  6
CONTINUOUS
  0
LAYER
  2
38
 70
     0
 62
     7
  6
CONTINUOUS
  0
LAYER
  2
39
 70
     0
 62
     7
  6
CONTINUOUS
  0
LAYER
  2
40
 70
     0
 62
     7
  6
CONTINUOUS
  0
LAYER
  2
41
 70
     0
 62
     7
  6
CONTINUOUS
  0
LAYER
  2
42
 70
     0
 62
     7
  6
CONTINUOUS
  0
LAYER
  2
43
 70
     0
 62
     7
  6
CONTINUOUS
  0
LAYER
  2
44
 70
     0
 62
     7
  6
CONTINUOUS
  0
LAYER
  2
45
 70
     0
 62
     7
  6
CONTINUOUS
  0
LAYER
  2
46
 70
     0
 62
     7
  6
CONTINUOUS
  0
LAYER
  2
47
 70
     0
 62
     7
  6
CONTINUOUS
  0
LAYER
  2
48
 70
     0
 62
     7
  6
CONTINUOUS
  0
LAYER
  2
49
 70
     0
 62
     7
  6
CONTINUOUS
  0
LAYER
  2
50
 70
     0
 62
     7
  6
CONTINUOUS
  0
LAYER
  2
51
 70
     0
 62
     7
  6
CONTINUOUS
  0
LAYER
  2
52
 70
     0
 62
     7
  6
CONTINUOUS
  0
LAYER
  2
53
 70
     0
 62
     7
  6
CONTINUOUS
  0
LAYER
  2
54
 70
     0
 62
     7
  6
CONTINUOUS
  0
LAYER
  2
55
 70
     0
 62
     7
  6
CONTINUOUS
  0
LAYER
  2
56
 70
     0
 62
     7
  6
CONTINUOUS
  0
LAYER
  2
57
 70
     0
 62
     7
  6
CONTINUOUS
  0
LAYER
  2
58
 70
     0
 62
     7
  6
CONTINUOUS
  0
LAYER
  2
59
 70
     0
 62
     7
  6
CONTINUOUS
  0
LAYER
  2
60
 70
     0
 62
     7
  6
CONTINUOUS
  0
LAYER
  2
61
 70
     0
 62
     7
  6
CONTINUOUS
  0
LAYER
  2
62
 70
     0
 62
     7
  6
CONTINUOUS
  0
LAYER
  2
63
 70
     0
 62
     7
  6
CONTINUOUS
  0
LAYER
  2
64
 70
     0
 62
     7
  6
CONTINUOUS
  0
LAYER
  2
65
 70
     0
 62
     7
  6
CONTINUOUS
  0
LAYER
  2
66
 70
     0
 62
     7
  6
CONTINUOUS
  0
LAYER
  2
67
 70
     0
 62
     7
  6
CONTINUOUS
  0
LAYER
  2
68
 70
     0
 62
     7
  6
CONTINUOUS
  0
LAYER
  2
69
 70
     0
 62
     7
  6
CONTINUOUS
  0
LAYER
  2
70
 70
     0
 62
     7
  6
CONTINUOUS
  0
LAYER
  2
71
 70
     0
 62
     7
  6
CONTINUOUS
  0
LAYER
  2
72
 70
     0
 62
     7
  6
CONTINUOUS
  0
LAYER
  2
73
 70
     0
 62
     7
  6
CONTINUOUS
  0
LAYER
  2
74
 70
     0
 62
     7
  6
CONTINUOUS
  0
LAYER
  2
75
 70
     0
 62
     7
  6
CONTINUOUS
  0
LAYER
  2
76
 70
     0
 62
     7
  6
CONTINUOUS
  0
LAYER
  2
77
 70
     0
 62
     7
  6
CONTINUOUS
  0
LAYER
  2
78
 70
     0
 62
     7
  6
CONTINUOUS
  0
LAYER
  2
79
 70
     0
 62
     7
  6
CONTINUOUS
  0
LAYER
  2
80
 70
     0
 62
     7
  6
CONTINUOUS
  0
LAYER
  2
81
 70
     0
 62
     7
  6
CONTINUOUS
  0
LAYER
  2
82
 70
     0
 62
     7
  6
CONTINUOUS
  0
LAYER
  2
83
 70
     0
 62
     7
  6
CONTINUOUS
  0
LAYER
  2
84
 70
     0
 62
     7
  6
CONTINUOUS
  0
LAYER
  2
85
 70
     0
 62
     7
  6
CONTINUOUS
  0
LAYER
  2
86
 70
     0
 62
     7
  6
CONTINUOUS
  0
LAYER
  2
87
 70
     0
 62
     7
  6
CONTINUOUS
  0
LAYER
  2
88
 70
     0
 62
     7
  6
CONTINUOUS
  0
LAYER
  2
89
 70
     0
 62
     7
  6
CONTINUOUS
  0
LAYER
  2
90
 70
     0
 62
     7
  6
CONTINUOUS
  0
LAYER
  2
91
 70
     0
 62
     7
  6
CONTINUOUS
  0
LAYER
  2
92
 70
     0
 62
     7
  6
CONTINUOUS
  0
LAYER
  2
93
 70
     0
 62
     7
  6
CONTINUOUS
  0
LAYER
  2
94
 70
     0
 62
     7
  6
CONTINUOUS
  0
LAYER
  2
95
 70
     0
 62
     7
  6
CONTINUOUS
  0
LAYER
  2
96
 70
     0
 62
     7
  6
CONTINUOUS
  0
LAYER
  2
97
 70
     0
 62
     7
  6
CONTINUOUS
  0
LAYER
  2
98
 70
     0
 62
     7
  6
CONTINUOUS
  0
LAYER
  2
99
 70
     0
 62
     7
  6
CONTINUOUS
  0
LAYER
  2
100
 70
     0
 62
     7
  6
CONTINUOUS
  0
LAYER
  2
101
 70
     0
 62
     7
  6
CONTINUOUS
  0
LAYER
  2
102
 70
     0
 62
     7
  6
CONTINUOUS
  0
LAYER
  2
103
 70
     0
 62
     7
  6
CONTINUOUS
  0
LAYER
  2
104
 70
     0
 62
     7
  6
CONTINUOUS
  0
LAYER
  2
105
 70
     0
 62
     7
  6
CONTINUOUS
  0
LAYER
  2
106
 70
     0
 62
     7
  6
CONTINUOUS
  0
LAYER
  2
107
 70
     0
 62
     7
  6
CONTINUOUS
  0
LAYER
  2
108
 70
     0
 62
     7
  6
CONTINUOUS
  0
LAYER
  2
109
 70
     0
 62
     7
  6
CONTINUOUS
  0
LAYER
  2
110
 70
     0
 62
     7
  6
CONTINUOUS
  0
LAYER
  2
111
 70
     0
 62
     7
  6
CONTINUOUS
  0
LAYER
  2
112
 70
     0
 62
     7
  6
CONTINUOUS
  0
LAYER
  2
113
 70
     0
 62
     7
  6
CONTINUOUS
  0
LAYER
  2
114
 70
     0
 62
     7
  6
CONTINUOUS
  0
LAYER
  2
115
 70
     0
 62
     7
  6
CONTINUOUS
  0
LAYER
  2
116
 70
     0
 62
     7
  6
CONTINUOUS
  0
LAYER
  2
117
 70
     0
 62
     7
  6
CONTINUOUS
  0
LAYER
  2
118
 70
     0
 62
     7
  6
CONTINUOUS
  0
LAYER
  2
119
 70
     0
 62
     7
  6
CONTINUOUS
  0
LAYER
  2
120
 70
     0
 62
     7
  6
CONTINUOUS
  0
LAYER
  2
121
 70
     0
 62
     7
  6
CONTINUOUS
  0
LAYER
  2
122
 70
     0
 62
     7
  6
CONTINUOUS
  0
LAYER
  2
123
 70
     0
 62
     7
  6
CONTINUOUS
  0
LAYER
  2
124
 70
     0
 62
     7
  6
CONTINUOUS
  0
LAYER
  2
125
 70
     0
 62
     7
  6
CONTINUOUS
  0
LAYER
  2
126
 70
     0
 62
     7
  6
CONTINUOUS
  0
LAYER
  2
127
 70
     0
 62
     7
  6
CONTINUOUS
  0
LAYER
  2
128
 70
     0
 62
     7
  6
CONTINUOUS
  0
ENDTAB
  0
TABLE
  2
STYLE
 70
    17
  0
STYLE
  2
STANDARD
 70
     0
 40
0.0
 41
1.0
 50
0.0
 71
     0
 42
0.2
  3
txt.shx
  4
extfont.shx
  0
STYLE
  2
KANJI0
 70
     0
 40
3.0
 41
0.6
 50
0.0
 71
     0
 42
3.0
  3
txt.shx
  4
extfont.shx
  0
STYLE
  2
KANJI1
 70
     0
 40
3.0
 41
0.9
 50
0.0
 71
     0
 42
3.0
  3
txt.shx
  4
extfont.shx
  0
STYLE
  2
KANJI2
 70
     0
 40
3.0
 41
0.5
 50
0.0
 71
     0
 42
3.0
  3
txt.shx
  4
extfont.shx
  0
STYLE
  2
KANJI3
 70
     0
 40
1.5
 41
0.666666667
 50
0.0
 71
     0
 42
1.5
  3
txt.shx
  4
extfont.shx
  0
STYLE
  2
KANJI4
 70
     0
 40
1.0
 41
0.75
 50
0.0
 71
     0
 42
1.0
  3
txt.shx
  4
extfont.shx
  0
STYLE
  2
KANJI5
 70
     4
 40
2.5
 41
0.9
 50
0.0
 71
     0
 42
2.5
  3
txt.shx
  4
extfont.shx
  0
STYLE
  2
KANJI6
 70
     0
 40
1.8
 41
0.6
 50
0.0
 71
     0
 42
1.8
  3
txt.shx
  4
extfont.shx
  0
STYLE
  2
KANJI7
 70
     0
 40
1.5
 41
0.4
 50
0.0
 71
     0
 42
1.5
  3
txt.shx
  4
extfont.shx
  0
STYLE
  2
KANJI8
 70
     0
 40
1.5
 41
0.466666667
 50
0.0
 71
     0
 42
1.5
  3
txt.shx
  4
extfont.shx
  0
STYLE
  2
KANJI9
 70
     0
 40
2.5
 41
0.9
 50
0.0
 71
     0
 42
2.5
  3
txt.shx
  4
extfont.shx
  0
STYLE
  2
KANJI10
 70
     0
 40
2.0
 41
0.8
 50
0.0
 71
     0
 42
2.0
  3
txt.shx
  4
extfont.shx
  0
STYLE
  2
KANJI11
 70
     0
 40
3.0
 41
0.9
 50
0.0
 71
     0
 42
3.0
  3
txt.shx
  4
extfont.shx
  0
STYLE
  2
KANJI12
 70
     0
 40
3.0
 41
0.666666667
 50
0.0
 71
     0
 42
3.0
  3
txt.shx
  4
extfont.shx
  0
STYLE
  2
KANJI13
 70
     0
 40
5.8
 41
0.827586207
 50
0.0
 71
     0
 42
5.8
  3
txt.shx
  4
extfont.shx
  0
STYLE
  2
KANJI14
 70
     0
 40
4.0
 41
0.9
 50
0.0
 71
     0
 42
4.0
  3
txt.shx
  4
extfont.shx
  0
STYLE
  2
KANJI15
 70
     0
 40
6.0
 41
0.9
 50
0.0
 71
     0
 42
6.0
  3
txt.shx
  4
extfont.shx
  0
ENDTAB
  0
TABLE
  2
VIEW
 70
     0
  0
ENDTAB
  0
ENDSEC
  0
SECTION
  2
BLOCKS
  0
ENDSEC
  0
SECTION
  2
ENTITIES
  0
LINE
  8
0
  6
CONTINUOUS
 62
     2
 10
-11.865334795
 20
-5.0
 30
0.0
 11
-11.218287182
 21
-7.414814566
 31
0.0
  0
LINE
  8
0
  6
CONTINUOUS
 62
     2
 10
-11.865334795
 20
-5.0
 30
0.0
 11
-10.097567842
 21
-6.767766953
 31
0.0
  0
LINE
  8
0
  6
CONTINUOUS
 62
     2
 10
-11.865334795
 20
-5.0
 30
0.0
 11
-12.512382407
 21
-2.585185434
 31
0.0
  0
LINE
  8
0
  6
CONTINUOUS
 62
     2
 10
-11.865334795
 20
-5.0
 30
0.0
 11
-13.633101748
 21
-3.232233047
 31
0.0
  0
LINE
  8
0
  6
CONTINUOUS
 62
     2
 10
-7.535207776
 20
-2.5
 30
0.0
 11
-13.597385602
 21
-6.0
 31
0.0
  0
LINE
  8
0
  6
CONTINUOUS
 62
     2
 10
-7.535207776
 20
-2.5
 30
0.0
 11
-13.597385602
 21
-6.0
 31
0.0
  0
TEXT
  8
0
  6
CONTINUOUS
 62
     2
 10
-11.756360199
 20
-7.188749537
 30
0.3
 40
3.0
  1
０゜
 50
120.0
 41
0.6
 51
0.0
  7
KANJI0
  0
LINE
  8
0
  6
CONTINUOUS
 62
     1
 10
160.0
 20
58.5
 30
0.0
 11
160.0
 21
123.5
 31
0.0
  0
POINT
  8
0
  6
CONTINUOUS
 62
     1
 10
78.0
 20
64.0
 30
0.0
  0
LINE
  8
0
  6
CONTINUOUS
 62
     1
 10
60.5
 20
51.0
 30
0.0
 11
65.0
 21
51.0
 31
0.0
  0
LINE
  8
0
  6
CONTINUOUS
 62
     1
 10
65.0
 20
51.0
 30
0.0
 11
65.0
 21
136.0
 31
0.0
  0
LINE
  8
0
  6
CONTINUOUS
 62
     1
 10
65.0
 20
136.0
 30
0.0
 11
60.5
 21
136.0
 31
0.0
  0
LINE
  8
0
  6
CONTINUOUS
 62
     1
 10
60.5
 20
136.0
 30
0.0
 11
60.5
 21
51.0
 31
0.0
  0
LINE
  8
0
  6
CONTINUOUS
 62
     1
 10
78.0
 20
125.5
 30
0.0
 11
78.0
 21
56.5
 31
0.0
  0
LINE
  8
0
  6
CONTINUOUS
 62
     1
 10
78.0
 20
56.5
 30
0.0
 11
74.5
 21
56.5
 31
0.0
  0
LINE
  8
0
  6
CONTINUOUS
 62
     1
 10
74.5
 20
56.5
 30
0.0
 11
74.5
 21
52.75
 31
0.0
  0
LINE
  8
0
  6
CONTINUOUS
 62
     1
 10
74.5
 20
52.75
 30
0.0
 11
65.0
 21
52.75
 31
0.0
  0
LINE
  8
0
  6
CONTINUOUS
 62
     1
 10
78.0
 20
125.5
 30
0.0
 11
74.5
 21
125.5
 31
0.0
  0
LINE
  8
0
  6
CONTINUOUS
 62
     1
 10
74.5
 20
125.5
 30
0.0
 11
74.5
 21
134.25
 31
0.0
  0
LINE
  8
0
  6
CONTINUOUS
 62
     1
 10
74.5
 20
134.25
 30
0.0
 11
65.0
 21
134.25
 31
0.0
  0
LINE
  8
0
  6
CONTINUOUS
 62
     1
 10
60.156372261
 20
58.5
 30
0.0
 11
60.5
 21
58.5
 31
0.0
  0
LINE
  8
0
  6
CONTINUOUS
 62
     1
 10
60.156372261
 20
123.5
 30
0.0
 11
60.5
 21
123.5
 31
0.0
  0
ARC
  8
0
  6
CONTINUOUS
 62
     1
 10
160.0
 20
91.0
 30
0.0
 40
105.0
 50
161.969464607
 51
198.030535393
  0
LINE
  8
0
  6
CONTINUOUS
 62
     1
 10
69.7
 20
134.25
 30
0.0
 11
69.7
 21
139.25
 31
0.0
  0
LINE
  8
0
  6
CONTINUOUS
 62
     1
 10
69.7
 20
139.25
 30
0.0
 11
70.5
 21
139.25
 31
0.0
  0
LINE
  8
0
  6
CONTINUOUS
 62
     1
 10
70.5
 20
139.25
 30
0.0
 11
70.5
 21
134.25
 31
0.0
  0
LINE
  8
0
  6
CONTINUOUS
 62
     1
 10
70.5
 20
139.25
 30
0.0
 11
71.3
 21
139.25
 31
0.0
  0
LINE
  8
0
  6
CONTINUOUS
 62
     1
 10
71.3
 20
139.25
 30
0.0
 11
71.3
 21
135.05
 31
0.0
  0
LINE
  8
0
  6
CONTINUOUS
 62
     1
 10
71.3
 20
135.05
 30
0.0
 11
148.9
 21
135.05
 31
0.0
  0
LINE
  8
0
  6
CONTINUOUS
 62
     1
 10
148.9
 20
135.05
 30
0.0
 11
148.9
 21
140.05
 31
0.0
  0
LINE
  8
0
  6
CONTINUOUS
 62
     1
 10
148.9
 20
140.05
 30
0.0
 11
149.7
 21
140.05
 31
0.0
  0
LINE
  8
0
  6
CONTINUOUS
 62
     1
 10
149.7
 20
140.05
 30
0.0
 11
149.7
 21
134.25
 31
0.0
  0
LINE
  8
0
  6
CONTINUOUS
 62
     1
 10
149.7
 20
134.25
 30
0.0
 11
70.5
 21
134.25
 31
0.0
  0
LINE
  8
0
  6
CONTINUOUS
 62
     1
 10
71.3
 20
138.4
 30
0.0
 11
148.9
 21
138.4
 31
0.0
  0
LINE
  8
0
  6
CONTINUOUS
 62
     1
 10
71.3
 20
135.9
 30
0.0
 11
148.9
 21
135.9
 31
0.0
  0
LINE
  8
0
  6
CONTINUOUS
 62
     1
 10
78.0
 20
122.875
 30
0.0
 11
159.35
 21
122.875
 31
0.0
  0
LINE
  8
0
  6
CONTINUOUS
 62
     1
 10
159.35
 20
122.875
 30
0.0
 11
159.35
 21
59.125
 31
0.0
  0
LINE
  8
0
  6
CONTINUOUS
 62
     1
 10
159.35
 20
59.125
 30
0.0
 11
78.0
 21
59.125
 31
0.0
  0
LINE
  8
0
  6
CONTINUOUS
 62
     1
 10
78.0
 20
58.5
 30
0.0
 11
160.0
 21
58.5
 31
0.0
  0
LINE
  8
0
  6
CONTINUOUS
 62
     1
 10
160.0
 20
123.5
 30
0.0
 11
78.0
 21
123.5
 31
0.0
  0
LINE
  8
0
  6
CONTINUOUS
 62
     1
 10
69.7
 20
52.75
 30
0.0
 11
69.7
 21
47.75
 31
0.0
  0
LINE
  8
0
  6
CONTINUOUS
 62
     1
 10
69.7
 20
47.75
 30
0.0
 11
70.5
 21
47.75
 31
0.0
  0
LINE
  8
0
  6
CONTINUOUS
 62
     1
 10
70.5
 20
47.75
 30
0.0
 11
70.5
 21
52.75
 31
0.0
  0
LINE
  8
0
  6
CONTINUOUS
 62
     1
 10
70.5
 20
47.75
 30
0.0
 11
71.3
 21
47.75
 31
0.0
  0
LINE
  8
0
  6
CONTINUOUS
 62
     1
 10
71.3
 20
47.75
 30
0.0
 11
71.3
 21
51.95
 31
0.0
  0
LINE
  8
0
  6
CONTINUOUS
 62
     1
 10
71.3
 20
51.95
 30
0.0
 11
148.9
 21
51.95
 31
0.0
  0
LINE
  8
0
  6
CONTINUOUS
 62
     1
 10
148.9
 20
51.95
 30
0.0
 11
148.9
 21
46.95
 31
0.0
  0
LINE
  8
0
  6
CONTINUOUS
 62
     1
 10
148.9
 20
46.95
 30
0.0
 11
149.7
 21
46.95
 31
0.0
  0
LINE
  8
0
  6
CONTINUOUS
 62
     1
 10
149.7
 20
46.95
 30
0.0
 11
149.7
 21
52.75
 31
0.0
  0
LINE
  8
0
  6
CONTINUOUS
 62
     1
 10
149.7
 20
52.75
 30
0.0
 11
70.5
 21
52.75
 31
0.0
  0
LINE
  8
0
  6
CONTINUOUS
 62
     1
 10
71.3
 20
48.6
 30
0.0
 11
148.9
 21
48.6
 31
0.0
  0
LINE
  8
0
  6
CONTINUOUS
 62
     1
 10
71.3
 20
51.1
 30
0.0
 11
148.9
 21
51.1
 31
0.0
  0
LINE
  8
0
  6
CONTINUOUS
 62
     1
 10
68.0
 20
136.7
 30
0.0
 11
68.0
 21
137.8
 31
0.0
  0
LINE
  8
0
  6
CONTINUOUS
 62
     1
 10
68.0
 20
50.3
 30
0.0
 11
68.0
 21
49.2
 31
0.0
  0
LINE
  8
0
  6
CONTINUOUS
 62
     1
 10
68.0
 20
141.0
 30
0.0
 11
68.0
 21
134.75
 31
0.0
  0
LINE
  8
0
  6
CONTINUOUS
 62
     1
 10
68.0
 20
46.0
 30
0.0
 11
68.0
 21
52.25
 31
0.0
  0
LINE
  8
0
  6
CONTINUOUS
 62
     1
 10
68.0
 20
134.75
 30
0.0
 11
65.5
 21
134.75
 31
0.0
  0
LINE
  8
0
  6
CONTINUOUS
 62
     1
 10
68.0
 20
52.25
 30
0.0
 11
65.5
 21
52.25
 31
0.0
  0
LINE
  8
0
  6
CONTINUOUS
 62
     1
 10
157.75
 20
138.5
 30
0.0
 11
158.0
 21
138.25
 31
0.0
  0
LINE
  8
0
  6
CONTINUOUS
 62
     1
 10
158.0
 20
136.25
 30
0.0
 11
157.75
 21
136.0
 31
0.0
  0
LINE
  8
0
  6
CONTINUOUS
 62
     1
 10
158.0
 20
138.25
 30
0.0
 11
158.0
 21
136.25
 31
0.0
  0
POINT
  8
0
  6
CONTINUOUS
 62
     1
 10
68.0
 20
138.05
 30
0.0
  0
LINE
  8
0
  6
CONTINUOUS
 62
     1
 10
68.25
 20
138.3
 30
0.0
 11
69.7
 21
138.3
 31
0.0
  0
LINE
  8
0
  6
CONTINUOUS
 62
     1
 10
68.25
 20
138.3
 30
0.0
 11
68.0
 21
138.05
 31
0.0
  0
POINT
  8
0
  6
CONTINUOUS
 62
     1
 10
68.0
 20
136.05
 30
0.0
  0
LINE
  8
0
  6
CONTINUOUS
 62
     1
 10
68.25
 20
135.8
 30
0.0
 11
69.7
 21
135.8
 31
0.0
  0
LINE
  8
0
  6
CONTINUOUS
 62
     1
 10
68.0
 20
136.05
 30
0.0
 11
68.0
 21
138.05
 31
0.0
  0
LINE
  8
0
  6
CONTINUOUS
 62
     1
 10
68.25
 20
135.8
 30
0.0
 11
68.0
 21
136.05
 31
0.0
  0
LINE
  8
0
  6
CONTINUOUS
 62
     1
 10
65.5
 20
52.25
 30
0.0
 11
65.5
 21
45.5
 31
0.0
  0
LINE
  8
0
  6
CONTINUOUS
 62
     1
 10
68.0
 20
49.4
 30
0.0
 11
68.0
 21
50.5
 31
0.0
  0
POINT
  8
0
  6
CONTINUOUS
 62
     1
 10
68.0
 20
50.75
 30
0.0
  0
LINE
  8
0
  6
CONTINUOUS
 62
     1
 10
68.25
 20
51.0
 30
0.0
 11
69.7
 21
51.0
 31
0.0
  0
LINE
  8
0
  6
CONTINUOUS
 62
     1
 10
68.25
 20
51.0
 30
0.0
 11
68.0
 21
50.75
 31
0.0
  0
POINT
  8
0
  6
CONTINUOUS
 62
     1
 10
68.0
 20
48.75
 30
0.0
  0
LINE
  8
0
  6
CONTINUOUS
 62
     1
 10
68.25
 20
48.5
 30
0.0
 11
69.7
 21
48.5
 31
0.0
  0
LINE
  8
0
  6
CONTINUOUS
 62
     1
 10
68.0
 20
48.75
 30
0.0
 11
68.0
 21
50.75
 31
0.0
  0
LINE
  8
0
  6
CONTINUOUS
 62
     1
 10
68.25
 20
48.5
 30
0.0
 11
68.0
 21
48.75
 31
0.0
  0
LINE
  8
0
  6
CONTINUOUS
 62
     1
 10
65.5
 20
45.5
 30
0.0
 11
65.8
 21
45.9
 31
0.0
  0
LINE
  8
0
  6
CONTINUOUS
 62
     1
 10
65.8
 20
45.9
 30
0.0
 11
66.1
 21
46.1
 31
0.0
  0
LINE
  8
0
  6
CONTINUOUS
 62
     1
 10
66.1
 20
46.1
 30
0.0
 11
66.6
 21
45.9
 31
0.0
  0
LINE
  8
0
  6
CONTINUOUS
 62
     1
 10
66.6
 20
45.9
 30
0.0
 11
66.9
 21
45.7
 31
0.0
  0
LINE
  8
0
  6
CONTINUOUS
 62
     1
 10
66.9
 20
45.7
 30
0.0
 11
67.1
 21
46.0
 31
0.0
  0
LINE
  8
0
  6
CONTINUOUS
 62
     1
 10
67.1
 20
46.0
 30
0.0
 11
67.3
 21
46.2
 31
0.0
  0
LINE
  8
0
  6
CONTINUOUS
 62
     1
 10
67.3
 20
46.2
 30
0.0
 11
67.6
 21
45.9
 31
0.0
  0
LINE
  8
0
  6
CONTINUOUS
 62
     1
 10
67.6
 20
45.9
 30
0.0
 11
68.0
 21
46.0
 31
0.0
  0
LINE
  8
0
  6
CONTINUOUS
 62
     1
 10
65.5
 20
134.75
 30
0.0
 11
65.5
 21
141.5
 31
0.0
  0
LINE
  8
0
  6
CONTINUOUS
 62
     1
 10
68.0
 20
141.0
 30
0.0
 11
67.84375
 21
140.9
 31
0.0
  0
LINE
  8
0
  6
CONTINUOUS
 62
     1
 10
67.84375
 20
140.9
 30
0.0
 11
67.7
 21
140.8
 31
0.0
  0
LINE
  8
0
  6
CONTINUOUS
 62
     1
 10
67.7
 20
140.8
 30
0.0
 11
67.59375
 21
140.69375
 31
0.0
  0
LINE
  8
0
  6
CONTINUOUS
 62
     1
 10
67.59375
 20
140.69375
 30
0.0
 11
67.5
 21
140.6
 31
0.0
  0
LINE
  8
0
  6
CONTINUOUS
 62
     1
 10
67.5
 20
140.6
 30
0.0
 11
67.40625
 21
140.525
 31
0.0
  0
LINE
  8
0
  6
CONTINUOUS
 62
     1
 10
67.40625
 20
140.525
 30
0.0
 11
67.3
 21
140.5
 31
0.0
  0
LINE
  8
0
  6
CONTINUOUS
 62
     1
 10
67.3
 20
140.5
 30
0.0
 11
67.15625
 21
140.58125
 31
0.0
  0
LINE
  8
0
  6
CONTINUOUS
 62
     1
 10
67.15625
 20
140.58125
 30
0.0
 11
67.0
 21
140.7
 31
0.0
  0
LINE
  8
0
  6
CONTINUOUS
 62
     1
 10
67.0
 20
140.7
 30
0.0
 11
66.8375
 21
140.8
 31
0.0
  0
LINE
  8
0
  6
CONTINUOUS
 62
     1
 10
66.8375
 20
140.8
 30
0.0
 11
66.7
 21
140.9
 31
0.0
  0
LINE
  8
0
  6
CONTINUOUS
 62
     1
 10
66.7
 20
140.9
 30
0.0
 11
66.65625
 21
141.025
 31
0.0
  0
LINE
  8
0
  6
CONTINUOUS
 62
     1
 10
66.65625
 20
141.025
 30
0.0
 11
66.6
 21
141.1
 31
0.0
  0
LINE
  8
0
  6
CONTINUOUS
 62
     1
 10
66.6
 20
141.1
 30
0.0
 11
66.4
 21
141.01875
 31
0.0
  0
LINE
  8
0
  6
CONTINUOUS
 62
     1
 10
66.4
 20
141.01875
 30
0.0
 11
66.2
 21
140.9
 31
0.0
  0
LINE
  8
0
  6
CONTINUOUS
 62
     1
 10
66.2
 20
140.9
 30
0.0
 11
66.1375
 21
140.8375
 31
0.0
  0
LINE
  8
0
  6
CONTINUOUS
 62
     1
 10
66.1375
 20
140.8375
 30
0.0
 11
66.1
 21
140.8
 31
0.0
  0
LINE
  8
0
  6
CONTINUOUS
 62
     1
 10
66.1
 20
140.8
 30
0.0
 11
66.00625
 21
140.7625
 31
0.0
  0
LINE
  8
0
  6
CONTINUOUS
 62
     1
 10
66.00625
 20
140.7625
 30
0.0
 11
65.9
 21
140.8
 31
0.0
  0
LINE
  8
0
  6
CONTINUOUS
 62
     1
 10
65.9
 20
140.8
 30
0.0
 11
65.8
 21
141.0375
 31
0.0
  0
LINE
  8
0
  6
CONTINUOUS
 62
     1
 10
65.8
 20
141.0375
 30
0.0
 11
65.7
 21
141.3
 31
0.0
  0
LINE
  8
0
  6
CONTINUOUS
 62
     1
 10
65.7
 20
141.3
 30
0.0
 11
65.6
 21
141.41875
 31
0.0
  0
LINE
  8
0
  6
CONTINUOUS
 62
     1
 10
65.6
 20
141.41875
 30
0.0
 11
65.5
 21
141.5
 31
0.0
  0
LINE
  8
0
  6
CONTINUOUS
 62
     1
 10
157.75
 20
51.2
 30
0.0
 11
158.0
 21
50.95
 31
0.0
  0
LINE
  8
0
  6
CONTINUOUS
 62
     1
 10
158.0
 20
48.95
 30
0.0
 11
157.75
 21
48.7
 31
0.0
  0
LINE
  8
0
  6
CONTINUOUS
 62
     1
 10
158.0
 20
50.95
 30
0.0
 11
158.0
 21
48.95
 31
0.0
  0
LINE
  8
0
  6
CONTINUOUS
 62
     2
 10
59.924995005
 20
59.219607063
 30
0.0
 11
62.422385549
 21
59.333801946
 31
0.0
  0
LINE
  8
0
  6
CONTINUOUS
 62
     2
 10
59.924995005
 20
59.219607063
 30
0.0
 11
62.030701218
 21
60.567198004
 31
0.0
  0
LINE
  8
0
  6
CONTINUOUS
 62
     2
 10
59.924995005
 20
59.219607063
 30
0.0
 11
160.0
 21
91.0
 31
0.0
  0
LINE
  8
0
  6
CONTINUOUS
 62
     2
 10
65.0
 20
137.0
 30
0.0
 11
65.0
 21
147.0
 31
0.0
  0
LINE
  8
0
  6
CONTINUOUS
 62
     2
 10
160.0
 20
124.5
 30
0.0
 11
160.0
 21
147.0
 31
0.0
  0
LINE
  8
0
  6
CONTINUOUS
 62
     2
 10
65.0
 20
50.0
 30
0.0
 11
65.0
 21
40.0
 31
0.0
  0
LINE
  8
0
  6
CONTINUOUS
 62
     2
 10
65.0
 20
42.0
 30
0.0
 11
62.585185434
 21
42.647047613
 31
0.0
  0
LINE
  8
0
  6
CONTINUOUS
 62
     2
 10
65.0
 20
42.0
 30
0.0
 11
62.585185434
 21
41.352952387
 31
0.0
  0
LINE
  8
0
  6
CONTINUOUS
 62
     2
 10
60.0
 20
42.0
 30
0.0
 11
73.0
 21
42.0
 31
0.0
  0
LINE
  8
0
  6
CONTINUOUS
 62
     2
 10
68.0
 20
42.0
 30
0.0
 11
70.414814566
 21
41.352952387
 31
0.0
  0
LINE
  8
0
  6
CONTINUOUS
 62
     2
 10
68.0
 20
42.0
 30
0.0
 11
70.414814566
 21
42.647047613
 31
0.0
  0
LINE
  8
0
  6
CONTINUOUS
 62
     2
 10
68.0
 20
45.0
 30
0.0
 11
68.0
 21
40.0
 31
0.0
  0
TEXT
  8
0
  6
CONTINUOUS
 62
     2
 10
70.6
 20
43.0
 30
0.3
 40
3.0
  1
６　ｍａｘ．
 50
0.0
 41
0.6
 51
0.0
  7
KANJI0
  0
LINE
  8
0
  6
CONTINUOUS
 62
     2
 10
95.0
 20
48.6
 30
0.0
 11
95.647047613
 21
46.185185434
 31
0.0
  0
LINE
  8
0
  6
CONTINUOUS
 62
     2
 10
95.0
 20
48.6
 30
0.0
 11
96.767766953
 21
46.832233047
 31
0.0
  0
LINE
  8
0
  6
CONTINUOUS
 62
     2
 10
95.0
 20
48.6
 30
0.0
 11
100.773502692
 21
38.6
 31
0.0
  0
LINE
  8
0
  6
CONTINUOUS
 62
     2
 10
100.773502692
 20
38.6
 30
0.0
 11
124.473502692
 21
38.6
 31
0.0
  0
TEXT
  8
0
  6
CONTINUOUS
 62
     2
 10
100.773502692
 20
39.6
 30
0.3
 40
3.0
  1
取付金具（Ｍ５）
 50
0.0
 41
0.9
 51
0.0
  7
KANJI1
  0
LINE
  8
0
  6
CONTINUOUS
 62
     2
 10
77.0
 20
138.4
 30
0.0
 11
77.0
 21
135.9
 31
0.0
  0
LINE
  8
0
  6
CONTINUOUS
 62
     2
 10
137.0
 20
138.4
 30
0.0
 11
137.0
 21
135.9
 31
0.0
  0
LINE
  8
0
  6
CONTINUOUS
 62
     2
 10
137.0
 20
48.6
 30
0.0
 11
137.0
 21
51.1
 31
0.0
  0
LINE
  8
0
  6
CONTINUOUS
 62
     2
 10
77.0
 20
48.6
 30
0.0
 11
77.0
 21
51.1
 31
0.0
  0
CIRCLE
  8
0
  6
CONTINUOUS
 62
     2
 10
75.5
 20
61.0
 30
0.0
 40
1.5
  0
LINE
  8
0
  6
CONTINUOUS
 62
     2
 10
75.022702923
 20
61.76013979
 30
0.0
 11
75.358578644
 21
61.424264069
 31
0.0
  0
ARC
  8
0
  6
CONTINUOUS
 62
     2
 10
75.5
 20
61.565685425
 30
0.0
 40
0.2
 50
225.0
 51
315.0
  0
LINE
  8
0
  6
CONTINUOUS
 62
     2
 10
75.641421356
 20
61.424264069
 30
0.0
 11
75.977297077
 21
61.76013979
 31
0.0
  0
LINE
  8
0
  6
CONTINUOUS
 62
     2
 10
75.977297077
 20
61.76013979
 30
0.0
 11
76.26013979
 21
61.477297077
 31
0.0
  0
LINE
  8
0
  6
CONTINUOUS
 62
     2
 10
76.26013979
 20
61.477297077
 30
0.0
 11
75.924264069
 21
61.141421356
 31
0.0
  0
ARC
  8
0
  6
CONTINUOUS
 62
     2
 10
76.065685425
 20
61.0
 30
0.0
 40
0.2
 50
135.0
 51
225.0
  0
LINE
  8
0
  6
CONTINUOUS
 62
     2
 10
75.924264069
 20
60.858578644
 30
0.0
 11
76.26013979
 21
60.522702923
 31
0.0
  0
LINE
  8
0
  6
CONTINUOUS
 62
     2
 10
76.26013979
 20
60.522702923
 30
0.0
 11
75.977297077
 21
60.23986021
 31
0.0
  0
LINE
  8
0
  6
CONTINUOUS
 62
     2
 10
75.977297077
 20
60.23986021
 30
0.0
 11
75.641421356
 21
60.575735931
 31
0.0
  0
ARC
  8
0
  6
CONTINUOUS
 62
     2
 10
75.5
 20
60.434314575
 30
0.0
 40
0.2
 50
45.0
 51
135.0
  0
LINE
  8
0
  6
CONTINUOUS
 62
     2
 10
75.358578644
 20
60.575735931
 30
0.0
 11
75.022702923
 21
60.23986021
 31
0.0
  0
LINE
  8
0
  6
CONTINUOUS
 62
     2
 10
75.022702923
 20
60.23986021
 30
0.0
 11
74.73986021
 21
60.522702923
 31
0.0
  0
LINE
  8
0
  6
CONTINUOUS
 62
     2
 10
74.73986021
 20
60.522702923
 30
0.0
 11
75.075735931
 21
60.858578644
 31
0.0
  0
ARC
  8
0
  6
CONTINUOUS
 62
     2
 10
74.934314575
 20
61.0
 30
0.0
 40
0.2
 50
315.0
 51
45.0
  0
LINE
  8
0
  6
CONTINUOUS
 62
     2
 10
75.075735931
 20
61.141421356
 30
0.0
 11
74.73986021
 21
61.477297077
 31
0.0
  0
LINE
  8
0
  6
CONTINUOUS
 62
     2
 10
74.73986021
 20
61.477297077
 30
0.0
 11
75.022702923
 21
61.76013979
 31
0.0
  0
CIRCLE
  8
0
  6
CONTINUOUS
 62
     2
 10
75.5
 20
121.0
 30
0.0
 40
1.5
  0
LINE
  8
0
  6
CONTINUOUS
 62
     2
 10
75.022702923
 20
121.76013979
 30
0.0
 11
75.358578644
 21
121.424264069
 31
0.0
  0
ARC
  8
0
  6
CONTINUOUS
 62
     2
 10
75.5
 20
121.565685425
 30
0.0
 40
0.2
 50
225.0
 51
315.0
  0
LINE
  8
0
  6
CONTINUOUS
 62
     2
 10
75.641421356
 20
121.424264069
 30
0.0
 11
75.977297077
 21
121.76013979
 31
0.0
  0
LINE
  8
0
  6
CONTINUOUS
 62
     2
 10
75.977297077
 20
121.76013979
 30
0.0
 11
76.26013979
 21
121.477297077
 31
0.0
  0
LINE
  8
0
  6
CONTINUOUS
 62
     2
 10
76.26013979
 20
121.477297077
 30
0.0
 11
75.924264069
 21
121.141421356
 31
0.0
  0
ARC
  8
0
  6
CONTINUOUS
 62
     2
 10
76.065685425
 20
121.0
 30
0.0
 40
0.2
 50
135.0
 51
225.0
  0
LINE
  8
0
  6
CONTINUOUS
 62
     2
 10
75.924264069
 20
120.858578644
 30
0.0
 11
76.26013979
 21
120.522702923
 31
0.0
  0
LINE
  8
0
  6
CONTINUOUS
 62
     2
 10
76.26013979
 20
120.522702923
 30
0.0
 11
75.977297077
 21
120.23986021
 31
0.0
  0
LINE
  8
0
  6
CONTINUOUS
 62
     2
 10
75.977297077
 20
120.23986021
 30
0.0
 11
75.641421356
 21
120.575735931
 31
0.0
  0
ARC
  8
0
  6
CONTINUOUS
 62
     2
 10
75.5
 20
120.434314575
 30
0.0
 40
0.2
 50
45.0
 51
135.0
  0
LINE
  8
0
  6
CONTINUOUS
 62
     2
 10
75.358578644
 20
120.575735931
 30
0.0
 11
75.022702923
 21
120.23986021
 31
0.0
  0
LINE
  8
0
  6
CONTINUOUS
 62
     2
 10
75.022702923
 20
120.23986021
 30
0.0
 11
74.73986021
 21
120.522702923
 31
0.0
  0
LINE
  8
0
  6
CONTINUOUS
 62
     2
 10
74.73986021
 20
120.522702923
 30
0.0
 11
75.075735931
 21
120.858578644
 31
0.0
  0
ARC
  8
0
  6
CONTINUOUS
 62
     2
 10
74.934314575
 20
121.0
 30
0.0
 40
0.2
 50
315.0
 51
45.0
  0
LINE
  8
0
  6
CONTINUOUS
 62
     2
 10
75.075735931
 20
121.141421356
 30
0.0
 11
74.73986021
 21
121.477297077
 31
0.0
  0
LINE
  8
0
  6
CONTINUOUS
 62
     2
 10
74.73986021
 20
121.477297077
 30
0.0
 11
75.022702923
 21
121.76013979
 31
0.0
  0
CIRCLE
  8
0
  6
CONTINUOUS
 62
     2
 10
85.0
 20
121.0
 30
0.0
 40
0.99999
  0
LINE
  8
0
  6
CONTINUOUS
 62
     2
 10
84.68180513
 20
121.506754792
 30
0.0
 11
84.905720039
 21
121.282839884
 31
0.0
  0
ARC
  8
0
  6
CONTINUOUS
 62
     2
 10
85.0
 20
121.377119845
 30
0.0
 40
0.133332
 50
225.0
 51
315.0
  0
LINE
  8
0
  6
CONTINUOUS
 62
     2
 10
85.094279961
 20
121.282839884
 30
0.0
 11
85.31819487
 21
121.506754792
 31
0.0
  0
LINE
  8
0
  6
CONTINUOUS
 62
     2
 10
85.31819487
 20
121.506754792
 30
0.0
 11
85.506754792
 21
121.31819487
 31
0.0
  0
LINE
  8
0
  6
CONTINUOUS
 62
     2
 10
85.506754792
 20
121.31819487
 30
0.0
 11
85.282839884
 21
121.094279961
 31
0.0
  0
ARC
  8
0
  6
CONTINUOUS
 62
     2
 10
85.377119845
 20
121.0
 30
0.0
 40
0.133332
 50
135.0
 51
225.0
  0
LINE
  8
0
  6
CONTINUOUS
 62
     2
 10
85.282839884
 20
120.905720039
 30
0.0
 11
85.506754792
 21
120.68180513
 31
0.0
  0
LINE
  8
0
  6
CONTINUOUS
 62
     2
 10
85.506754792
 20
120.68180513
 30
0.0
 11
85.31819487
 21
120.493245208
 31
0.0
  0
LINE
  8
0
  6
CONTINUOUS
 62
     2
 10
85.31819487
 20
120.493245208
 30
0.0
 11
85.094279961
 21
120.717160116
 31
0.0
  0
ARC
  8
0
  6
CONTINUOUS
 62
     2
 10
85.0
 20
120.622880155
 30
0.0
 40
0.133332
 50
45.0
 51
135.0
  0
LINE
  8
0
  6
CONTINUOUS
 62
     2
 10
84.905720039
 20
120.717160116
 30
0.0
 11
84.68180513
 21
120.493245208
 31
0.0
  0
LINE
  8
0
  6
CONTINUOUS
 62
     2
 10
84.68180513
 20
120.493245208
 30
0.0
 11
84.493245208
 21
120.68180513
 31
0.0
  0
LINE
  8
0
  6
CONTINUOUS
 62
     2
 10
84.493245208
 20
120.68180513
 30
0.0
 11
84.717160116
 21
120.905720039
 31
0.0
  0
ARC
  8
0
  6
CONTINUOUS
 62
     2
 10
84.622880155
 20
121.0
 30
0.0
 40
0.133332
 50
315.0
 51
45.0
  0
LINE
  8
0
  6
CONTINUOUS
 62
     2
 10
84.717160116
 20
121.094279961
 30
0.0
 11
84.493245208
 21
121.31819487
 31
0.0
  0
LINE
  8
0
  6
CONTINUOUS
 62
     2
 10
84.493245208
 20
121.31819487
 30
0.0
 11
84.68180513
 21
121.506754792
 31
0.0
  0
CIRCLE
  8
0
  6
CONTINUOUS
 62
     2
 10
85.0
 20
61.0
 30
0.0
 40
0.99999
  0
LINE
  8
0
  6
CONTINUOUS
 62
     2
 10
84.68180513
 20
61.506754792
 30
0.0
 11
84.905720039
 21
61.282839884
 31
0.0
  0
ARC
  8
0
  6
CONTINUOUS
 62
     2
 10
85.0
 20
61.377119845
 30
0.0
 40
0.133332
 50
225.0
 51
315.0
  0
LINE
  8
0
  6
CONTINUOUS
 62
     2
 10
85.094279961
 20
61.282839884
 30
0.0
 11
85.31819487
 21
61.506754792
 31
0.0
  0
LINE
  8
0
  6
CONTINUOUS
 62
     2
 10
85.31819487
 20
61.506754792
 30
0.0
 11
85.506754792
 21
61.31819487
 31
0.0
  0
LINE
  8
0
  6
CONTINUOUS
 62
     2
 10
85.506754792
 20
61.31819487
 30
0.0
 11
85.282839884
 21
61.094279961
 31
0.0
  0
ARC
  8
0
  6
CONTINUOUS
 62
     2
 10
85.377119845
 20
61.0
 30
0.0
 40
0.133332
 50
135.0
 51
225.0
  0
LINE
  8
0
  6
CONTINUOUS
 62
     2
 10
85.282839884
 20
60.905720039
 30
0.0
 11
85.506754792
 21
60.68180513
 31
0.0
  0
LINE
  8
0
  6
CONTINUOUS
 62
     2
 10
85.506754792
 20
60.68180513
 30
0.0
 11
85.31819487
 21
60.493245208
 31
0.0
  0
LINE
  8
0
  6
CONTINUOUS
 62
     2
 10
85.31819487
 20
60.493245208
 30
0.0
 11
85.094279961
 21
60.717160116
 31
0.0
  0
ARC
  8
0
  6
CONTINUOUS
 62
     2
 10
85.0
 20
60.622880155
 30
0.0
 40
0.133332
 50
45.0
 51
135.0
  0
LINE
  8
0
  6
CONTINUOUS
 62
     2
 10
84.905720039
 20
60.717160116
 30
0.0
 11
84.68180513
 21
60.493245208
 31
0.0
  0
LINE
  8
0
  6
CONTINUOUS
 62
     2
 10
84.68180513
 20
60.493245208
 30
0.0
 11
84.493245208
 21
60.68180513
 31
0.0
  0
LINE
  8
0
  6
CONTINUOUS
 62
     2
 10
84.493245208
 20
60.68180513
 30
0.0
 11
84.717160116
 21
60.905720039
 31
0.0
  0
ARC
  8
0
  6
CONTINUOUS
 62
     2
 10
84.622880155
 20
61.0
 30
0.0
 40
0.133332
 50
315.0
 51
45.0
  0
LINE
  8
0
  6
CONTINUOUS
 62
     2
 10
84.717160116
 20
61.094279961
 30
0.0
 11
84.493245208
 21
61.31819487
 31
0.0
  0
LINE
  8
0
  6
CONTINUOUS
 62
     2
 10
84.493245208
 20
61.31819487
 30
0.0
 11
84.68180513
 21
61.506754792
 31
0.0
  0
CIRCLE
  8
0
  6
CONTINUOUS
 62
     2
 10
155.0
 20
61.0
 30
0.0
 40
0.99999
  0
LINE
  8
0
  6
CONTINUOUS
 62
     2
 10
154.68180513
 20
61.506754792
 30
0.0
 11
154.905720039
 21
61.282839884
 31
0.0
  0
ARC
  8
0
  6
CONTINUOUS
 62
     2
 10
155.0
 20
61.377119845
 30
0.0
 40
0.133332
 50
225.0
 51
315.0
  0
LINE
  8
0
  6
CONTINUOUS
 62
     2
 10
155.094279961
 20
61.282839884
 30
0.0
 11
155.31819487
 21
61.506754792
 31
0.0
  0
LINE
  8
0
  6
CONTINUOUS
 62
     2
 10
155.31819487
 20
61.506754792
 30
0.0
 11
155.506754792
 21
61.31819487
 31
0.0
  0
LINE
  8
0
  6
CONTINUOUS
 62
     2
 10
155.506754792
 20
61.31819487
 30
0.0
 11
155.282839884
 21
61.094279961
 31
0.0
  0
ARC
  8
0
  6
CONTINUOUS
 62
     2
 10
155.377119845
 20
61.0
 30
0.0
 40
0.133332
 50
135.0
 51
225.0
  0
LINE
  8
0
  6
CONTINUOUS
 62
     2
 10
155.282839884
 20
60.905720039
 30
0.0
 11
155.506754792
 21
60.68180513
 31
0.0
  0
LINE
  8
0
  6
CONTINUOUS
 62
     2
 10
155.506754792
 20
60.68180513
 30
0.0
 11
155.31819487
 21
60.493245208
 31
0.0
  0
LINE
  8
0
  6
CONTINUOUS
 62
     2
 10
155.31819487
 20
60.493245208
 30
0.0
 11
155.094279961
 21
60.717160116
 31
0.0
  0
ARC
  8
0
  6
CONTINUOUS
 62
     2
 10
155.0
 20
60.622880155
 30
0.0
 40
0.133332
 50
45.0
 51
135.0
  0
LINE
  8
0
  6
CONTINUOUS
 62
     2
 10
154.905720039
 20
60.717160116
 30
0.0
 11
154.68180513
 21
60.493245208
 31
0.0
  0
LINE
  8
0
  6
CONTINUOUS
 62
     2
 10
154.68180513
 20
60.493245208
 30
0.0
 11
154.493245208
 21
60.68180513
 31
0.0
  0
LINE
  8
0
  6
CONTINUOUS
 62
     2
 10
154.493245208
 20
60.68180513
 30
0.0
 11
154.717160116
 21
60.905720039
 31
0.0
  0
ARC
  8
0
  6
CONTINUOUS
 62
     2
 10
154.622880155
 20
61.0
 30
0.0
 40
0.133332
 50
315.0
 51
45.0
  0
LINE
  8
0
  6
CONTINUOUS
 62
     2
 10
154.717160116
 20
61.094279961
 30
0.0
 11
154.493245208
 21
61.31819487
 31
0.0
  0
LINE
  8
0
  6
CONTINUOUS
 62
     2
 10
154.493245208
 20
61.31819487
 30
0.0
 11
154.68180513
 21
61.506754792
 31
0.0
  0
CIRCLE
  8
0
  6
CONTINUOUS
 62
     2
 10
155.0
 20
121.0
 30
0.0
 40
0.99999
  0
LINE
  8
0
  6
CONTINUOUS
 62
     2
 10
154.68180513
 20
121.506754792
 30
0.0
 11
154.905720039
 21
121.282839884
 31
0.0
  0
ARC
  8
0
  6
CONTINUOUS
 62
     2
 10
155.0
 20
121.377119845
 30
0.0
 40
0.133332
 50
225.0
 51
315.0
  0
LINE
  8
0
  6
CONTINUOUS
 62
     2
 10
155.094279961
 20
121.282839884
 30
0.0
 11
155.31819487
 21
121.506754792
 31
0.0
  0
LINE
  8
0
  6
CONTINUOUS
 62
     2
 10
155.31819487
 20
121.506754792
 30
0.0
 11
155.506754792
 21
121.31819487
 31
0.0
  0
LINE
  8
0
  6
CONTINUOUS
 62
     2
 10
155.506754792
 20
121.31819487
 30
0.0
 11
155.282839884
 21
121.094279961
 31
0.0
  0
ARC
  8
0
  6
CONTINUOUS
 62
     2
 10
155.377119845
 20
121.0
 30
0.0
 40
0.133332
 50
135.0
 51
225.0
  0
LINE
  8
0
  6
CONTINUOUS
 62
     2
 10
155.282839884
 20
120.905720039
 30
0.0
 11
155.506754792
 21
120.68180513
 31
0.0
  0
LINE
  8
0
  6
CONTINUOUS
 62
     2
 10
155.506754792
 20
120.68180513
 30
0.0
 11
155.31819487
 21
120.493245208
 31
0.0
  0
LINE
  8
0
  6
CONTINUOUS
 62
     2
 10
155.31819487
 20
120.493245208
 30
0.0
 11
155.094279961
 21
120.717160116
 31
0.0
  0
ARC
  8
0
  6
CONTINUOUS
 62
     2
 10
155.0
 20
120.622880155
 30
0.0
 40
0.133332
 50
45.0
 51
135.0
  0
LINE
  8
0
  6
CONTINUOUS
 62
     2
 10
154.905720039
 20
120.717160116
 30
0.0
 11
154.68180513
 21
120.493245208
 31
0.0
  0
LINE
  8
0
  6
CONTINUOUS
 62
     2
 10
154.68180513
 20
120.493245208
 30
0.0
 11
154.493245208
 21
120.68180513
 31
0.0
  0
LINE
  8
0
  6
CONTINUOUS
 62
     2
 10
154.493245208
 20
120.68180513
 30
0.0
 11
154.717160116
 21
120.905720039
 31
0.0
  0
ARC
  8
0
  6
CONTINUOUS
 62
     2
 10
154.622880155
 20
121.0
 30
0.0
 40
0.133332
 50
315.0
 51
45.0
  0
LINE
  8
0
  6
CONTINUOUS
 62
     2
 10
154.717160116
 20
121.094279961
 30
0.0
 11
154.493245208
 21
121.31819487
 31
0.0
  0
LINE
  8
0
  6
CONTINUOUS
 62
     2
 10
154.493245208
 20
121.31819487
 30
0.0
 11
154.68180513
 21
121.506754792
 31
0.0
  0
TEXT
  8
0
  6
CONTINUOUS
 62
     2
 10
102.159400688
 20
73.862072189
 30
0.3
 40
3.0
  1
Ｒ２１０（カバー面）
 50
17.61806489
 41
0.6
 51
0.0
  7
KANJI0
  0
LINE
  8
0
  6
CONTINUOUS
 62
     2
 10
157.75
 20
136.0
 30
0.0
 11
157.75
 21
138.5
 31
0.0
  0
LINE
  8
0
  6
CONTINUOUS
 62
     2
 10
137.0
 20
138.15
 30
0.0
 11
148.9
 21
138.15
 31
0.0
  0
LINE
  8
0
  6
CONTINUOUS
 62
     2
 10
148.9
 20
136.15
 30
0.0
 11
136.9875
 21
136.15
 31
0.0
  0
LINE
  8
0
  6
CONTINUOUS
 62
     2
 10
68.0
 20
138.05
 30
0.0
 11
69.675
 21
138.05
 31
0.0
  0
LINE
  8
0
  6
CONTINUOUS
 62
     2
 10
68.0
 20
136.05
 30
0.0
 11
69.675
 21
136.05
 31
0.0
  0
LINE
  8
0
  6
CONTINUOUS
 62
     2
 10
68.25
 20
138.3
 30
0.0
 11
68.25
 21
135.8
 31
0.0
  0
LINE
  8
0
  6
CONTINUOUS
 62
     2
 10
77.0
 20
138.15
 30
0.0
 11
71.3
 21
138.15
 31
0.0
  0
LINE
  8
0
  6
CONTINUOUS
 62
     2
 10
71.3
 20
136.15
 30
0.0
 11
77.0
 21
136.15
 31
0.0
  0
LINE
  8
0
  6
CONTINUOUS
 62
     2
 10
68.0
 20
50.75
 30
0.0
 11
69.675
 21
50.75
 31
0.0
  0
LINE
  8
0
  6
CONTINUOUS
 62
     2
 10
68.0
 20
48.75
 30
0.0
 11
69.675
 21
48.75
 31
0.0
  0
LINE
  8
0
  6
CONTINUOUS
 62
     2
 10
68.25
 20
51.0
 30
0.0
 11
68.25
 21
48.5
 31
0.0
  0
LINE
  8
0
  6
CONTINUOUS
 62
     2
 10
77.0
 20
50.85
 30
0.0
 11
71.3
 21
50.85
 31
0.0
  0
LINE
  8
0
  6
CONTINUOUS
 62
     2
 10
71.3
 20
48.85
 30
0.0
 11
77.0
 21
48.85
 31
0.0
  0
LINE
  8
0
  6
CONTINUOUS
 62
     2
 10
157.75
 20
48.7
 30
0.0
 11
157.75
 21
51.2
 31
0.0
  0
LINE
  8
0
  6
CONTINUOUS
 62
     2
 10
137.0
 20
50.85
 30
0.0
 11
148.9
 21
50.85
 31
0.0
  0
LINE
  8
0
  6
CONTINUOUS
 62
     2
 10
148.9
 20
48.85
 30
0.0
 11
137.0
 21
48.85
 31
0.0
  0
LINE
  8
0
  6
LTYPE1
 62
     2
 10
75.5
 20
63.0
 30
0.0
 11
75.5
 21
59.0
 31
0.0
  0
LINE
  8
0
  6
LTYPE1
 62
     2
 10
73.5
 20
61.0
 30
0.0
 11
77.5
 21
61.0
 31
0.0
  0
LINE
  8
0
  6
LTYPE1
 62
     2
 10
83.00001
 20
61.0
 30
0.0
 11
87.00001
 21
61.0
 31
0.0
  0
LINE
  8
0
  6
LTYPE1
 62
     2
 10
85.00001
 20
63.0
 30
0.0
 11
85.00001
 21
59.0
 31
0.0
  0
LINE
  8
0
  6
LTYPE1
 62
     2
 10
85.00001
 20
119.0
 30
0.0
 11
85.00001
 21
123.0
 31
0.0
  0
LINE
  8
0
  6
LTYPE1
 62
     2
 10
83.00001
 20
121.0
 30
0.0
 11
87.00001
 21
121.0
 31
0.0
  0
LINE
  8
0
  6
LTYPE1
 62
     2
 10
73.5
 20
121.0
 30
0.0
 11
77.5
 21
121.0
 31
0.0
  0
LINE
  8
0
  6
LTYPE1
 62
     2
 10
75.5
 20
123.0
 30
0.0
 11
75.5
 21
119.0
 31
0.0
  0
LINE
  8
0
  6
LTYPE1
 62
     2
 10
155.0
 20
63.0
 30
0.0
 11
155.0
 21
59.0
 31
0.0
  0
LINE
  8
0
  6
LTYPE1
 62
     2
 10
153.0
 20
61.0
 30
0.0
 11
157.0
 21
61.0
 31
0.0
  0
LINE
  8
0
  6
LTYPE1
 62
     2
 10
155.0
 20
123.0
 30
0.0
 11
155.0
 21
119.0
 31
0.0
  0
LINE
  8
0
  6
LTYPE1
 62
     2
 10
153.0
 20
121.0
 30
0.0
 11
157.0
 21
121.0
 31
0.0
  0
LINE
  8
0
  6
CONTINUOUS
 62
     2
 10
65.810588186
 20
118.0
 30
0.0
 11
67.753853548
 21
116.427193676
 31
0.0
  0
LINE
  8
0
  6
CONTINUOUS
 62
     2
 10
65.810588186
 20
118.0
 30
0.0
 11
68.279908518
 21
117.609542449
 31
0.0
  0
LINE
  8
0
  6
CONTINUOUS
 62
     2
 10
65.810588186
 20
118.0
 30
0.0
 11
122.0
 21
93.0
 31
0.0
  0
LINE
  8
0
  6
CONTINUOUS
 62
     2
 10
65.810588186
 20
68.0
 30
0.0
 11
68.279908518
 21
68.390457551
 31
0.0
  0
LINE
  8
0
  6
CONTINUOUS
 62
     2
 10
65.810588186
 20
68.0
 30
0.0
 11
67.753853548
 21
69.572806324
 31
0.0
  0
LINE
  8
0
  6
CONTINUOUS
 62
     2
 10
65.810588186
 20
68.0
 30
0.0
 11
122.0
 21
93.0
 31
0.0
  0
ARC
  8
0
  6
CONTINUOUS
 62
     2
 10
122.0
 20
93.0
 30
0.0
 40
61.5
 50
156.014586012
 51
203.985413988
  0
TEXT
  8
0
  6
CONTINUOUS
 62
     2
 10
87.017092251
 20
109.613648973
 30
0.3
 40
3.0
  1
Ｒ１２３（指針）
 50
336.014586012
 41
0.6
 51
0.0
  7
KANJI0
  0
LINE
  8
0
  6
CONTINUOUS
 62
     2
 10
87.0
 20
79.035898385
 30
0.0
 11
87.647047613
 21
76.621083819
 31
0.0
  0
LINE
  8
0
  6
CONTINUOUS
 62
     2
 10
87.0
 20
79.035898385
 30
0.0
 11
88.767766953
 21
77.268131432
 31
0.0
  0
LINE
  8
0
  6
CONTINUOUS
 62
     2
 10
107.458925471
 20
43.6
 30
0.0
 11
130.581575202
 21
43.6
 31
0.0
  0
LINE
  8
0
  6
CONTINUOUS
 62
     2
 10
87.0
 20
79.035898385
 30
0.0
 11
107.458925471
 21
43.6
 31
0.0
  0
TEXT
  8
0
  6
CONTINUOUS
 62
     2
 10
107.881575202
 20
44.6
 30
0.3
 40
3.0
  1
感度調整用抵抗器
 50
0.0
 41
0.9
 51
0.0
  7
KANJI1
  0
LINE
  8
0
  6
CONTINUOUS
 62
     1
 10
160.0
 20
76.45
 30
0.0
 11
160.0
 21
105.55
 31
0.0
  0
LINE
  8
0
  6
CONTINUOUS
 62
     2
 10
170.25
 20
100.55
 30
0.0
 11
176.25
 21
100.55
 31
0.0
  0
LINE
  8
0
  6
CONTINUOUS
 62
     2
 10
174.25
 20
100.55
 30
0.0
 11
174.897047613
 21
102.964814566
 31
0.0
  0
LINE
  8
0
  6
CONTINUOUS
 62
     2
 10
174.25
 20
100.55
 30
0.0
 11
173.602952387
 21
102.964814566
 31
0.0
  0
LINE
  8
0
  6
CONTINUOUS
 62
     2
 10
174.25
 20
104.3
 30
0.0
 11
174.25
 21
100.55
 31
0.0
  0
LINE
  8
0
  6
CONTINUOUS
 62
     2
 10
174.25
 20
100.55
 30
0.0
 11
174.25
 21
96.45
 31
0.0
  0
LINE
  8
0
  6
CONTINUOUS
 62
     2
 10
174.25
 20
96.45
 30
0.0
 11
174.25
 21
92.7
 31
0.0
  0
LINE
  8
0
  6
CONTINUOUS
 62
     2
 10
174.25
 20
96.45
 30
0.0
 11
173.602952387
 21
94.035185434
 31
0.0
  0
LINE
  8
0
  6
CONTINUOUS
 62
     2
 10
174.25
 20
96.45
 30
0.0
 11
174.897047613
 21
94.035185434
 31
0.0
  0
LINE
  8
0
  6
CONTINUOUS
 62
     2
 10
170.25
 20
96.45
 30
0.0
 11
176.25
 21
96.45
 31
0.0
  0
TEXT
  8
0
  6
CONTINUOUS
 62
     2
 10
173.25
 20
96.5
 30
0.2
 40
3.0
  1
８．２
 50
90.0
 41
0.5
 51
0.0
  7
KANJI2
  0
LINE
  8
0
  6
CONTINUOUS
 62
     2
 10
184.281803249
 20
58.5
 30
0.0
 11
184.928850862
 21
60.914814566
 31
0.0
  0
LINE
  8
0
  6
CONTINUOUS
 62
     2
 10
184.281803249
 20
58.5
 30
0.0
 11
183.634755636
 21
60.914814566
 31
0.0
  0
LINE
  8
0
  6
CONTINUOUS
 62
     2
 10
184.281803249
 20
58.5
 30
0.0
 11
184.281803249
 21
123.5
 31
0.0
  0
LINE
  8
0
  6
CONTINUOUS
 62
     2
 10
161.0
 20
58.5
 30
0.0
 11
186.281803249
 21
58.5
 31
0.0
  0
LINE
  8
0
  6
CONTINUOUS
 62
     2
 10
184.281803249
 20
123.5
 30
0.0
 11
183.634755636
 21
121.085185434
 31
0.0
  0
LINE
  8
0
  6
CONTINUOUS
 62
     2
 10
184.281803249
 20
123.5
 30
0.0
 11
184.928850862
 21
121.085185434
 31
0.0
  0
LINE
  8
0
  6
CONTINUOUS
 62
     2
 10
161.0
 20
123.5
 30
0.0
 11
186.281803249
 21
123.5
 31
0.0
  0
TEXT
  8
0
  6
CONTINUOUS
 62
     2
 10
183.281803249
 20
95.0
 30
0.3
 40
3.0
  1
１３０
 50
90.0
 41
0.6
 51
0.0
  7
KANJI0
  0
LINE
  8
0
  6
LTYPE2
 62
     2
 10
122.0
 20
128.5
 30
0.0
 11
122.0
 21
53.5
 31
0.0
  0
LINE
  8
0
  6
LTYPE2
 62
     2
 10
127.0
 20
93.0
 30
0.0
 11
117.0
 21
93.0
 31
0.0
  0
LINE
  8
0
  6
CONTINUOUS
 62
     1
 10
189.75
 20
125.5
 30
0.0
 11
210.25
 21
125.5
 31
0.0
  0
LINE
  8
0
  6
CONTINUOUS
 62
     1
 10
191.0
 20
58.5
 30
0.0
 11
209.0
 21
58.5
 31
0.0
  0
LINE
  8
0
  6
CONTINUOUS
 62
     1
 10
209.0
 20
58.5
 30
0.0
 11
209.0
 21
123.5
 31
0.0
  0
LINE
  8
0
  6
CONTINUOUS
 62
     1
 10
209.0
 20
123.5
 30
0.0
 11
191.0
 21
123.5
 31
0.0
  0
LINE
  8
0
  6
CONTINUOUS
 62
     1
 10
191.0
 20
123.5
 30
0.0
 11
191.0
 21
58.5
 31
0.0
  0
LINE
  8
0
  6
CONTINUOUS
 62
     1
 10
193.5
 20
134.25
 30
0.0
 11
206.5
 21
134.25
 31
0.0
  0
LINE
  8
0
  6
CONTINUOUS
 62
     1
 10
206.5
 20
134.25
 30
0.0
 11
206.5
 21
134.0
 31
0.0
  0
LINE
  8
0
  6
CONTINUOUS
 62
     1
 10
206.5
 20
134.0
 30
0.0
 11
209.5
 21
134.0
 31
0.0
  0
LINE
  8
0
  6
CONTINUOUS
 62
     1
 10
209.5
 20
134.0
 30
0.0
 11
209.5
 21
134.25
 31
0.0
  0
LINE
  8
0
  6
CONTINUOUS
 62
     1
 10
209.5
 20
134.25
 30
0.0
 11
210.25
 21
134.25
 31
0.0
  0
LINE
  8
0
  6
CONTINUOUS
 62
     1
 10
193.5
 20
134.25
 30
0.0
 11
193.5
 21
134.0
 31
0.0
  0
LINE
  8
0
  6
CONTINUOUS
 62
     1
 10
193.5
 20
134.0
 30
0.0
 11
190.5
 21
134.0
 31
0.0
  0
LINE
  8
0
  6
CONTINUOUS
 62
     1
 10
190.5
 20
134.0
 30
0.0
 11
190.5
 21
134.25
 31
0.0
  0
LINE
  8
0
  6
CONTINUOUS
 62
     1
 10
190.5
 20
134.25
 30
0.0
 11
189.75
 21
134.25
 31
0.0
  0
LINE
  8
0
  6
CONTINUOUS
 62
     1
 10
193.5
 20
52.75
 30
0.0
 11
206.5
 21
52.75
 31
0.0
  0
LINE
  8
0
  6
CONTINUOUS
 62
     1
 10
206.5
 20
52.75
 30
0.0
 11
206.5
 21
53.0
 31
0.0
  0
LINE
  8
0
  6
CONTINUOUS
 62
     1
 10
206.5
 20
53.0
 30
0.0
 11
209.5
 21
53.0
 31
0.0
  0
LINE
  8
0
  6
CONTINUOUS
 62
     1
 10
209.5
 20
53.0
 30
0.0
 11
209.5
 21
52.75
 31
0.0
  0
LINE
  8
0
  6
CONTINUOUS
 62
     1
 10
209.5
 20
52.75
 30
0.0
 11
210.25
 21
52.75
 31
0.0
  0
LINE
  8
0
  6
CONTINUOUS
 62
     1
 10
193.5
 20
52.75
 30
0.0
 11
193.5
 21
53.0
 31
0.0
  0
LINE
  8
0
  6
CONTINUOUS
 62
     1
 10
193.5
 20
53.0
 30
0.0
 11
190.5
 21
53.0
 31
0.0
  0
LINE
  8
0
  6
CONTINUOUS
 62
     1
 10
190.5
 20
53.0
 30
0.0
 11
190.5
 21
52.75
 31
0.0
  0
LINE
  8
0
  6
CONTINUOUS
 62
     1
 10
189.75
 20
134.25
 30
0.0
 11
189.75
 21
52.75
 31
0.0
  0
LINE
  8
0
  6
CONTINUOUS
 62
     1
 10
190.5
 20
52.75
 30
0.0
 11
189.75
 21
52.75
 31
0.0
  0
LINE
  8
0
  6
CONTINUOUS
 62
     1
 10
210.25
 20
134.25
 30
0.0
 11
210.25
 21
52.75
 31
0.0
  0
ARC
  8
0
  6
CONTINUOUS
 62
     1
 10
210.0
 20
51.5
 30
0.0
 40
0.5
 50
270.0
 51
0.0
  0
ARC
  8
0
  6
CONTINUOUS
 62
     1
 10
190.0
 20
51.5
 30
0.0
 40
0.5
 50
180.0
 51
270.0
  0
LINE
  8
0
  6
CONTINUOUS
 62
     1
 10
189.5
 20
135.5
 30
0.0
 11
189.5
 21
51.5
 31
0.0
  0
ARC
  8
0
  6
CONTINUOUS
 62
     1
 10
190.0
 20
135.5
 30
0.0
 40
0.5
 50
90.0
 51
180.0
  0
LINE
  8
0
  6
CONTINUOUS
 62
     1
 10
210.5
 20
135.5
 30
0.0
 11
210.5
 21
51.5
 31
0.0
  0
ARC
  8
0
  6
CONTINUOUS
 62
     1
 10
210.0
 20
135.5
 30
0.0
 40
0.5
 50
0.0
 51
90.0
  0
LINE
  8
0
  6
CONTINUOUS
 62
     1
 10
189.75
 20
56.5
 30
0.0
 11
210.25
 21
56.5
 31
0.0
  0
LINE
  8
0
  6
CONTINUOUS
 62
     2
 10
191.75
 20
56.0
 30
0.0
 11
191.75
 21
54.0
 31
0.0
  0
LINE
  8
0
  6
CONTINUOUS
 62
     2
 10
208.25
 20
54.0
 30
0.0
 11
208.25
 21
56.0
 31
0.0
  0
LINE
  8
0
  6
CONTINUOUS
 62
     2
 10
208.25
 20
56.0
 30
0.0
 11
191.75
 21
56.0
 31
0.0
  0
LINE
  8
0
  6
CONTINUOUS
 62
     2
 10
191.75
 20
133.0
 30
0.0
 11
191.75
 21
126.0
 31
0.0
  0
LINE
  8
0
  6
CONTINUOUS
 62
     2
 10
208.25
 20
126.0
 30
0.0
 11
208.25
 21
133.0
 31
0.0
  0
LINE
  8
0
  6
CONTINUOUS
 62
     2
 10
191.75
 20
126.0
 30
0.0
 11
208.25
 21
126.0
 31
0.0
  0
LINE
  8
0
  6
CONTINUOUS
 62
     2
 10
198.78653389
 20
133.0
 30
0.0
 11
191.75
 21
133.0
 31
0.0
  0
LINE
  8
0
  6
CONTINUOUS
 62
     2
 10
208.25
 20
133.0
 30
0.0
 11
201.21346611
 21
133.0
 31
0.0
  0
ARC
  8
0
  6
CONTINUOUS
 62
     2
 10
200.0
 20
132.7
 30
0.0
 40
1.25
 50
166.113459637
 51
13.886540363
  0
LINE
  8
0
  6
CONTINUOUS
 62
     2
 10
201.233896268
 20
54.0
 30
0.0
 11
208.25
 21
54.0
 31
0.0
  0
LINE
  8
0
  6
CONTINUOUS
 62
     2
 10
191.75
 20
54.0
 30
0.0
 11
198.766103732
 21
54.0
 31
0.0
  0
ARC
  8
0
  6
CONTINUOUS
 62
     2
 10
200.0
 20
54.2
 30
0.0
 40
1.25
 50
350.793103779
 51
189.206896221
  0
LINE
  8
0
  6
CONTINUOUS
 62
     1
 10
193.75
 20
139.25
 30
0.0
 11
193.75
 21
134.25
 31
0.0
  0
LINE
  8
0
  6
CONTINUOUS
 62
     1
 10
206.25
 20
139.25
 30
0.0
 11
206.25
 21
134.25
 31
0.0
  0
CIRCLE
  8
0
  6
CONTINUOUS
 62
     1
 10
200.0
 20
137.25
 30
0.0
 40
1.275
  0
LINE
  8
0
  6
CONTINUOUS
 62
     1
 10
195.75
 20
139.25
 30
0.0
 11
195.75
 21
134.25
 31
0.0
  0
LINE
  8
0
  6
CONTINUOUS
 62
     1
 10
204.25
 20
139.25
 30
0.0
 11
204.25
 21
134.25
 31
0.0
  0
LINE
  8
0
  6
CONTINUOUS
 62
     1
 10
200.0
 20
139.500000962
 30
0.0
 11
198.051442841
 21
138.375000962
 31
0.0
  0
LINE
  8
0
  6
CONTINUOUS
 62
     1
 10
198.051442841
 20
138.375000962
 30
0.0
 11
198.051442841
 21
136.125000962
 31
0.0
  0
LINE
  8
0
  6
CONTINUOUS
 62
     1
 10
198.051442841
 20
136.125000962
 30
0.0
 11
200.0
 21
135.000000962
 31
0.0
  0
LINE
  8
0
  6
CONTINUOUS
 62
     1
 10
200.0
 20
135.000000962
 30
0.0
 11
201.948557159
 21
136.125000962
 31
0.0
  0
LINE
  8
0
  6
CONTINUOUS
 62
     1
 10
201.948557159
 20
136.125000962
 30
0.0
 11
201.948557159
 21
138.375000962
 31
0.0
  0
LINE
  8
0
  6
CONTINUOUS
 62
     1
 10
201.948557159
 20
138.375000962
 30
0.0
 11
200.0
 21
139.500000962
 31
0.0
  0
LINE
  8
0
  6
CONTINUOUS
 62
     1
 10
200.433014368
 20
139.25
 30
0.0
 11
206.25
 21
139.25
 31
0.0
  0
LINE
  8
0
  6
CONTINUOUS
 62
     1
 10
193.75
 20
139.25
 30
0.0
 11
199.566985632
 21
139.25
 31
0.0
  0
ARC
  8
0
  6
CONTINUOUS
 62
     2
 10
200.0
 20
137.25
 30
0.0
 40
1.02
 50
23.088831181
 51
156.911168819
  0
ARC
  8
0
  6
CONTINUOUS
 62
     2
 10
200.0
 20
137.25
 30
0.0
 40
1.02
 50
203.088731761
 51
336.911268239
  0
LINE
  8
0
  6
CONTINUOUS
 62
     2
 10
198.789370317
 20
137.650000962
 30
0.0
 11
201.210629683
 21
137.650000962
 31
0.0
  0
LINE
  8
0
  6
CONTINUOUS
 62
     2
 10
198.789369681
 20
136.850000962
 30
0.0
 11
201.210630319
 21
136.850000962
 31
0.0
  0
LINE
  8
0
  6
CONTINUOUS
 62
     1
 10
206.25
 20
136.0
 30
0.0
 11
210.0
 21
136.0
 31
0.0
  0
LINE
  8
0
  6
CONTINUOUS
 62
     1
 10
190.0
 20
136.0
 30
0.0
 11
193.75
 21
136.0
 31
0.0
  0
LINE
  8
0
  6
CONTINUOUS
 62
     1
 10
193.75
 20
47.75
 30
0.0
 11
193.75
 21
52.75
 31
0.0
  0
LINE
  8
0
  6
CONTINUOUS
 62
     1
 10
206.25
 20
47.75
 30
0.0
 11
206.25
 21
52.75
 31
0.0
  0
CIRCLE
  8
0
  6
CONTINUOUS
 62
     1
 10
200.0
 20
49.75
 30
0.0
 40
1.275
  0
LINE
  8
0
  6
CONTINUOUS
 62
     1
 10
195.75
 20
47.75
 30
0.0
 11
195.75
 21
52.75
 31
0.0
  0
LINE
  8
0
  6
CONTINUOUS
 62
     1
 10
204.25
 20
47.75
 30
0.0
 11
204.25
 21
52.75
 31
0.0
  0
LINE
  8
0
  6
CONTINUOUS
 62
     1
 10
200.0
 20
47.499999038
 30
0.0
 11
198.051442841
 21
48.624999038
 31
0.0
  0
LINE
  8
0
  6
CONTINUOUS
 62
     1
 10
198.051442841
 20
48.624999038
 30
0.0
 11
198.051442841
 21
50.874999038
 31
0.0
  0
LINE
  8
0
  6
CONTINUOUS
 62
     1
 10
198.051442841
 20
50.874999038
 30
0.0
 11
200.0
 21
51.999999038
 31
0.0
  0
LINE
  8
0
  6
CONTINUOUS
 62
     1
 10
200.0
 20
51.999999038
 30
0.0
 11
201.948557159
 21
50.874999038
 31
0.0
  0
LINE
  8
0
  6
CONTINUOUS
 62
     1
 10
201.948557159
 20
50.874999038
 30
0.0
 11
201.948557159
 21
48.624999038
 31
0.0
  0
LINE
  8
0
  6
CONTINUOUS
 62
     1
 10
201.948557159
 20
48.624999038
 30
0.0
 11
200.0
 21
47.499999038
 31
0.0
  0
LINE
  8
0
  6
CONTINUOUS
 62
     1
 10
200.433014368
 20
47.75
 30
0.0
 11
206.25
 21
47.75
 31
0.0
  0
LINE
  8
0
  6
CONTINUOUS
 62
     1
 10
193.75
 20
47.75
 30
0.0
 11
199.566985632
 21
47.75
 31
0.0
  0
ARC
  8
0
  6
CONTINUOUS
 62
     2
 10
200.0
 20
49.75
 30
0.0
 40
1.02
 50
203.088831181
 51
336.911168819
  0
ARC
  8
0
  6
CONTINUOUS
 62
     2
 10
200.0
 20
49.75
 30
0.0
 40
1.02
 50
23.088731761
 51
156.911268239
  0
LINE
  8
0
  6
CONTINUOUS
 62
     2
 10
198.789370317
 20
49.349999038
 30
0.0
 11
201.210629683
 21
49.349999038
 31
0.0
  0
LINE
  8
0
  6
CONTINUOUS
 62
     2
 10
198.789369681
 20
50.149999038
 30
0.0
 11
201.210630319
 21
50.149999038
 31
0.0
  0
LINE
  8
0
  6
CONTINUOUS
 62
     1
 10
206.25
 20
51.0
 30
0.0
 11
210.0
 21
51.0
 31
0.0
  0
LINE
  8
0
  6
CONTINUOUS
 62
     1
 10
190.0
 20
51.0
 30
0.0
 11
193.75
 21
51.0
 31
0.0
  0
LINE
  8
0
  6
CONTINUOUS
 62
     2
 10
189.75
 20
141.05
 30
0.0
 11
192.164814566
 21
140.402952387
 31
0.0
  0
LINE
  8
0
  6
CONTINUOUS
 62
     2
 10
189.75
 20
141.05
 30
0.0
 11
192.164814566
 21
141.697047613
 31
0.0
  0
LINE
  8
0
  6
CONTINUOUS
 62
     2
 10
189.75
 20
141.05
 30
0.0
 11
210.25
 21
141.05
 31
0.0
  0
LINE
  8
0
  6
CONTINUOUS
 62
     2
 10
210.25
 20
141.05
 30
0.0
 11
207.835185434
 21
141.697047613
 31
0.0
  0
LINE
  8
0
  6
CONTINUOUS
 62
     2
 10
210.25
 20
141.05
 30
0.0
 11
207.835185434
 21
140.402952387
 31
0.0
  0
LINE
  8
0
  6
CONTINUOUS
 62
     2
 10
189.75
 20
136.5
 30
0.0
 11
189.75
 21
143.05
 31
0.0
  0
LINE
  8
0
  6
CONTINUOUS
 62
     2
 10
210.25
 20
136.5
 30
0.0
 11
210.25
 21
143.05
 31
0.0
  0
LINE
  8
0
  6
LTYPE2
 62
     2
 10
200.0
 20
141.0
 30
0.0
 11
200.0
 21
46.0
 31
0.0
  0
LINE
  8
0
  6
CONTINUOUS
 62
     2
 10
220.5
 20
52.75
 30
0.0
 11
221.147047613
 21
55.164814566
 31
0.0
  0
LINE
  8
0
  6
CONTINUOUS
 62
     2
 10
220.5
 20
52.75
 30
0.0
 11
219.852952387
 21
55.164814566
 31
0.0
  0
LINE
  8
0
  6
CONTINUOUS
 62
     2
 10
220.5
 20
52.75
 30
0.0
 11
220.5
 21
134.25
 31
0.0
  0
LINE
  8
0
  6
CONTINUOUS
 62
     2
 10
220.5
 20
134.25
 30
0.0
 11
219.852952387
 21
131.835185434
 31
0.0
  0
LINE
  8
0
  6
CONTINUOUS
 62
     2
 10
220.5
 20
134.25
 30
0.0
 11
221.147047613
 21
131.835185434
 31
0.0
  0
LINE
  8
0
  6
CONTINUOUS
 62
     2
 10
211.25
 20
52.75
 30
0.0
 11
222.5
 21
52.75
 31
0.0
  0
LINE
  8
0
  6
CONTINUOUS
 62
     2
 10
211.5
 20
134.25
 30
0.0
 11
222.5
 21
134.25
 31
0.0
  0
TEXT
  8
0
  6
CONTINUOUS
 62
     2
 10
198.05
 20
141.45
 30
0.3
 40
3.0
  1
４１
 50
0.0
 41
0.6
 51
0.0
  7
KANJI0
  0
LINE
  8
0
  6
LTYPE2
 62
     2
 10
213.3
 20
91.0
 30
0.0
 11
186.931451884
 21
91.0
 31
0.0
  0
LINE
  8
0
  6
CONTINUOUS
 62
     1
 10
151.7
 20
135.0
 30
0.0
 11
149.7
 21
135.0
 31
0.0
  0
LINE
  8
0
  6
CONTINUOUS
 62
     1
 10
151.7
 20
139.5
 30
0.0
 11
151.7
 21
135.0
 31
0.0
  0
LINE
  8
0
  6
CONTINUOUS
 62
     1
 10
149.7
 20
139.5
 30
0.0
 11
151.7
 21
139.5
 31
0.0
  0
LINE
  8
0
  6
CONTINUOUS
 62
     1
 10
149.7
 20
136.125
 30
0.0
 11
151.3
 21
136.125
 31
0.0
  0
LINE
  8
0
  6
CONTINUOUS
 62
     1
 10
151.3
 20
138.375
 30
0.0
 11
149.7
 21
138.375
 31
0.0
  0
ARC
  8
0
  6
CONTINUOUS
 62
     2
 10
149.91796875
 20
137.25
 30
0.0
 40
1.78203125
 50
320.853748339
 51
39.146251661
  0
ARC
  8
0
  6
CONTINUOUS
 62
     2
 10
149.91796875
 20
139.5
 30
0.0
 40
1.78203125
 50
320.853748339
 51
360.0
  0
ARC
  8
0
  6
CONTINUOUS
 62
     2
 10
149.91796875
 20
135.0
 30
0.0
 40
1.78203125
 50
0.0
 51
39.146251661
  0
LINE
  8
0
  6
CONTINUOUS
 62
     1
 10
157.75
 20
136.0
 30
0.0
 11
151.7
 21
136.0
 31
0.0
  0
LINE
  8
0
  6
CONTINUOUS
 62
     1
 10
151.7
 20
138.5
 30
0.0
 11
157.75
 21
138.5
 31
0.0
  0
LINE
  8
0
  6
CONTINUOUS
 62
     2
 10
151.7
 20
138.25
 30
0.0
 11
158.0
 21
138.25
 31
0.0
  0
LINE
  8
0
  6
CONTINUOUS
 62
     2
 10
158.0
 20
136.25
 30
0.0
 11
151.7
 21
136.25
 31
0.0
  0
LINE
  8
0
  6
CONTINUOUS
 62
     1
 10
151.7
 20
47.7
 30
0.0
 11
149.7
 21
47.7
 31
0.0
  0
LINE
  8
0
  6
CONTINUOUS
 62
     1
 10
151.7
 20
52.2
 30
0.0
 11
151.7
 21
47.7
 31
0.0
  0
LINE
  8
0
  6
CONTINUOUS
 62
     1
 10
149.7
 20
52.2
 30
0.0
 11
151.7
 21
52.2
 31
0.0
  0
LINE
  8
0
  6
CONTINUOUS
 62
     1
 10
149.7
 20
48.825
 30
0.0
 11
151.3
 21
48.825
 31
0.0
  0
LINE
  8
0
  6
CONTINUOUS
 62
     1
 10
151.3
 20
51.075
 30
0.0
 11
149.7
 21
51.075
 31
0.0
  0
ARC
  8
0
  6
CONTINUOUS
 62
     2
 10
149.91796875
 20
49.95
 30
0.0
 40
1.78203125
 50
320.853748339
 51
39.146251661
  0
ARC
  8
0
  6
CONTINUOUS
 62
     2
 10
149.91796875
 20
52.2
 30
0.0
 40
1.78203125
 50
320.853748339
 51
360.0
  0
ARC
  8
0
  6
CONTINUOUS
 62
     2
 10
149.91796875
 20
47.7
 30
0.0
 40
1.78203125
 50
0.0
 51
39.146251661
  0
LINE
  8
0
  6
CONTINUOUS
 62
     1
 10
157.75
 20
48.7
 30
0.0
 11
151.7
 21
48.7
 31
0.0
  0
LINE
  8
0
  6
CONTINUOUS
 62
     1
 10
151.7
 20
51.2
 30
0.0
 11
157.75
 21
51.2
 31
0.0
  0
LINE
  8
0
  6
CONTINUOUS
 62
     2
 10
151.7
 20
50.95
 30
0.0
 11
158.0
 21
50.95
 31
0.0
  0
LINE
  8
0
  6
CONTINUOUS
 62
     2
 10
158.0
 20
48.95
 30
0.0
 11
151.7
 21
48.95
 31
0.0
  0
LINE
  8
0
  6
LTYPE2
 62
     5
 10
80.0
 20
82.5
 30
0.0
 11
90.0
 21
82.5
 31
0.0
  0
LINE
  8
0
  6
LTYPE2
 62
     5
 10
85.0
 20
87.5
 30
0.0
 11
85.0
 21
77.5
 31
0.0
  0
CIRCLE
  8
0
  6
CONTINUOUS
 62
     5
 10
85.0
 20
82.5
 30
0.0
 40
4.0
  0
LINE
  8
0
  6
CONTINUOUS
 62
     1
 10
160.0
 20
76.45
 30
0.0
 11
160.0
 21
105.55
 31
0.0
  0
LINE
  8
0
  6
CONTINUOUS
 62
     2
 10
170.25
 20
100.55
 30
0.0
 11
176.25
 21
100.55
 31
0.0
  0
LINE
  8
0
  6
CONTINUOUS
 62
     2
 10
174.25
 20
100.55
 30
0.0
 11
174.897047613
 21
102.964814566
 31
0.0
  0
LINE
  8
0
  6
CONTINUOUS
 62
     2
 10
174.25
 20
100.55
 30
0.0
 11
173.602952387
 21
102.964814566
 31
0.0
  0
LINE
  8
0
  6
CONTINUOUS
 62
     2
 10
174.25
 20
104.3
 30
0.0
 11
174.25
 21
100.55
 31
0.0
  0
LINE
  8
0
  6
CONTINUOUS
 62
     2
 10
174.25
 20
100.55
 30
0.0
 11
174.25
 21
96.45
 31
0.0
  0
LINE
  8
0
  6
CONTINUOUS
 62
     2
 10
174.25
 20
96.45
 30
0.0
 11
174.25
 21
92.7
 31
0.0
  0
LINE
  8
0
  6
CONTINUOUS
 62
     2
 10
174.25
 20
96.45
 30
0.0
 11
173.602952387
 21
94.035185434
 31
0.0
  0
LINE
  8
0
  6
CONTINUOUS
 62
     2
 10
174.25
 20
96.45
 30
0.0
 11
174.897047613
 21
94.035185434
 31
0.0
  0
LINE
  8
0
  6
CONTINUOUS
 62
     2
 10
170.25
 20
96.45
 30
0.0
 11
176.25
 21
96.45
 31
0.0
  0
TEXT
  8
0
  6
CONTINUOUS
 62
     2
 10
173.25
 20
96.5
 30
0.2
 40
3.0
  1
８．２
 50
90.0
 41
0.5
 51
0.0
  7
KANJI2
  0
TEXT
  8
0
  6
CONTINUOUS
 62
     2
 10
183.281803249
 20
95.0
 30
0.3
 40
3.0
  1
１３０
 50
90.0
 41
0.6
 51
0.0
  7
KANJI0
  0
LINE
  8
0
  6
CONTINUOUS
 62
     1
 10
197.0
 20
76.45
 30
0.0
 11
197.0
 21
80.55
 31
0.0
  0
LINE
  8
0
  6
CONTINUOUS
 62
     1
 10
203.0
 20
80.55
 30
0.0
 11
203.0
 21
76.45
 31
0.0
  0
LINE
  8
0
  6
CONTINUOUS
 62
     1
 10
204.25
 20
80.55
 30
0.0
 11
195.75
 21
80.55
 31
0.0
  0
LINE
  8
0
  6
CONTINUOUS
 62
     1
 10
195.75
 20
81.45
 30
0.0
 11
204.25
 21
81.45
 31
0.0
  0
LINE
  8
0
  6
CONTINUOUS
 62
     1
 10
204.25
 20
81.45
 30
0.0
 11
204.25
 21
80.55
 31
0.0
  0
LINE
  8
0
  6
CONTINUOUS
 62
     1
 10
195.75
 20
81.45
 30
0.0
 11
195.75
 21
80.55
 31
0.0
  0
LINE
  8
0
  6
CONTINUOUS
 62
     1
 10
195.75
 20
80.55
 30
0.0
 11
195.75
 21
76.45
 31
0.0
  0
LINE
  8
0
  6
CONTINUOUS
 62
     1
 10
204.25
 20
76.45
 30
0.0
 11
204.25
 21
80.55
 31
0.0
  0
LINE
  8
0
  6
CONTINUOUS
 62
     1
 10
197.0
 20
81.45
 30
0.0
 11
197.0
 21
85.55
 31
0.0
  0
LINE
  8
0
  6
CONTINUOUS
 62
     1
 10
203.0
 20
85.55
 30
0.0
 11
203.0
 21
81.45
 31
0.0
  0
LINE
  8
0
  6
CONTINUOUS
 62
     1
 10
204.25
 20
85.55
 30
0.0
 11
195.75
 21
85.55
 31
0.0
  0
LINE
  8
0
  6
CONTINUOUS
 62
     1
 10
195.75
 20
86.45
 30
0.0
 11
204.25
 21
86.45
 31
0.0
  0
LINE
  8
0
  6
CONTINUOUS
 62
     1
 10
204.25
 20
86.45
 30
0.0
 11
204.25
 21
85.55
 31
0.0
  0
LINE
  8
0
  6
CONTINUOUS
 62
     1
 10
195.75
 20
86.45
 30
0.0
 11
195.75
 21
85.55
 31
0.0
  0
LINE
  8
0
  6
CONTINUOUS
 62
     1
 10
195.75
 20
85.55
 30
0.0
 11
195.75
 21
81.45
 31
0.0
  0
LINE
  8
0
  6
CONTINUOUS
 62
     1
 10
204.25
 20
81.45
 30
0.0
 11
204.25
 21
85.55
 31
0.0
  0
LINE
  8
0
  6
CONTINUOUS
 62
     1
 10
197.0
 20
86.45
 30
0.0
 11
197.0
 21
90.55
 31
0.0
  0
LINE
  8
0
  6
CONTINUOUS
 62
     1
 10
203.0
 20
90.55
 30
0.0
 11
203.0
 21
86.45
 31
0.0
  0
LINE
  8
0
  6
CONTINUOUS
 62
     1
 10
204.25
 20
90.55
 30
0.0
 11
195.75
 21
90.55
 31
0.0
  0
LINE
  8
0
  6
CONTINUOUS
 62
     1
 10
195.75
 20
91.45
 30
0.0
 11
204.25
 21
91.45
 31
0.0
  0
LINE
  8
0
  6
CONTINUOUS
 62
     1
 10
204.25
 20
91.45
 30
0.0
 11
204.25
 21
90.55
 31
0.0
  0
LINE
  8
0
  6
CONTINUOUS
 62
     1
 10
195.75
 20
91.45
 30
0.0
 11
195.75
 21
90.55
 31
0.0
  0
LINE
  8
0
  6
CONTINUOUS
 62
     1
 10
195.75
 20
90.55
 30
0.0
 11
195.75
 21
86.45
 31
0.0
  0
LINE
  8
0
  6
CONTINUOUS
 62
     1
 10
204.25
 20
86.45
 30
0.0
 11
204.25
 21
90.55
 31
0.0
  0
LINE
  8
0
  6
CONTINUOUS
 62
     1
 10
197.0
 20
91.45
 30
0.0
 11
197.0
 21
95.55
 31
0.0
  0
LINE
  8
0
  6
CONTINUOUS
 62
     1
 10
203.0
 20
95.55
 30
0.0
 11
203.0
 21
91.45
 31
0.0
  0
LINE
  8
0
  6
CONTINUOUS
 62
     1
 10
204.25
 20
95.55
 30
0.0
 11
195.75
 21
95.55
 31
0.0
  0
LINE
  8
0
  6
CONTINUOUS
 62
     1
 10
195.75
 20
96.45
 30
0.0
 11
204.25
 21
96.45
 31
0.0
  0
LINE
  8
0
  6
CONTINUOUS
 62
     1
 10
204.25
 20
96.45
 30
0.0
 11
204.25
 21
95.55
 31
0.0
  0
LINE
  8
0
  6
CONTINUOUS
 62
     1
 10
195.75
 20
96.45
 30
0.0
 11
195.75
 21
95.55
 31
0.0
  0
LINE
  8
0
  6
CONTINUOUS
 62
     1
 10
195.75
 20
95.55
 30
0.0
 11
195.75
 21
91.45
 31
0.0
  0
LINE
  8
0
  6
CONTINUOUS
 62
     1
 10
204.25
 20
91.45
 30
0.0
 11
204.25
 21
95.55
 31
0.0
  0
LINE
  8
0
  6
CONTINUOUS
 62
     1
 10
197.0
 20
96.45
 30
0.0
 11
197.0
 21
100.55
 31
0.0
  0
LINE
  8
0
  6
CONTINUOUS
 62
     1
 10
203.0
 20
100.55
 30
0.0
 11
203.0
 21
96.45
 31
0.0
  0
LINE
  8
0
  6
CONTINUOUS
 62
     1
 10
204.25
 20
100.55
 30
0.0
 11
195.75
 21
100.55
 31
0.0
  0
LINE
  8
0
  6
CONTINUOUS
 62
     1
 10
195.75
 20
101.45
 30
0.0
 11
204.25
 21
101.45
 31
0.0
  0
LINE
  8
0
  6
CONTINUOUS
 62
     1
 10
204.25
 20
101.45
 30
0.0
 11
204.25
 21
100.55
 31
0.0
  0
LINE
  8
0
  6
CONTINUOUS
 62
     1
 10
195.75
 20
101.45
 30
0.0
 11
195.75
 21
100.55
 31
0.0
  0
LINE
  8
0
  6
CONTINUOUS
 62
     1
 10
195.75
 20
100.55
 30
0.0
 11
195.75
 21
96.45
 31
0.0
  0
LINE
  8
0
  6
CONTINUOUS
 62
     1
 10
204.25
 20
96.45
 30
0.0
 11
204.25
 21
100.55
 31
0.0
  0
LINE
  8
0
  6
CONTINUOUS
 62
     1
 10
197.0
 20
101.45
 30
0.0
 11
197.0
 21
105.55
 31
0.0
  0
LINE
  8
0
  6
CONTINUOUS
 62
     1
 10
203.0
 20
105.55
 30
0.0
 11
203.0
 21
101.45
 31
0.0
  0
LINE
  8
0
  6
CONTINUOUS
 62
     1
 10
204.25
 20
105.55
 30
0.0
 11
195.75
 21
105.55
 31
0.0
  0
LINE
  8
0
  6
CONTINUOUS
 62
     1
 10
195.75
 20
105.55
 30
0.0
 11
195.75
 21
101.45
 31
0.0
  0
LINE
  8
0
  6
CONTINUOUS
 62
     1
 10
204.25
 20
101.45
 30
0.0
 11
204.25
 21
105.55
 31
0.0
  0
LINE
  8
0
  6
CONTINUOUS
 62
     1
 10
195.75
 20
76.45
 30
0.0
 11
204.25
 21
76.45
 31
0.0
  0
LINE
  8
0
  6
CONTINUOUS
 62
     2
 10
198.25
 20
76.7
 30
0.0
 11
198.25
 21
77.25
 31
0.0
  0
LINE
  8
0
  6
CONTINUOUS
 62
     2
 10
198.25
 20
76.7
 30
0.0
 11
198.5
 21
76.45
 31
0.0
  0
LINE
  8
0
  6
CONTINUOUS
 62
     2
 10
198.25
 20
79.75
 30
0.0
 11
198.25
 21
80.3
 31
0.0
  0
LINE
  8
0
  6
CONTINUOUS
 62
     2
 10
198.25
 20
80.3
 30
0.0
 11
198.5
 21
80.55
 31
0.0
  0
LINE
  8
0
  6
CONTINUOUS
 62
     2
 10
201.5
 20
80.55
 30
0.0
 11
198.5
 21
80.55
 31
0.0
  0
LINE
  8
0
  6
CONTINUOUS
 62
     2
 10
201.75
 20
79.75
 30
0.0
 11
201.75
 21
80.3
 31
0.0
  0
LINE
  8
0
  6
CONTINUOUS
 62
     2
 10
201.5
 20
80.55
 30
0.0
 11
201.75
 21
80.3
 31
0.0
  0
LINE
  8
0
  6
CONTINUOUS
 62
     2
 10
201.75
 20
76.7
 30
0.0
 11
201.75
 21
77.25
 31
0.0
  0
LINE
  8
0
  6
CONTINUOUS
 62
     2
 10
198.5
 20
76.45
 30
0.0
 11
201.5
 21
76.45
 31
0.0
  0
LINE
  8
0
  6
CONTINUOUS
 62
     2
 10
201.75
 20
76.7
 30
0.0
 11
201.5
 21
76.45
 31
0.0
  0
LINE
  8
0
  6
CONTINUOUS
 62
     2
 10
197.85
 20
77.25
 30
0.0
 11
198.25
 21
77.25
 31
0.0
  0
LINE
  8
0
  6
CONTINUOUS
 62
     2
 10
197.85
 20
77.25
 30
0.0
 11
197.85
 21
79.75
 31
0.0
  0
LINE
  8
0
  6
CONTINUOUS
 62
     2
 10
197.85
 20
79.75
 30
0.0
 11
198.25
 21
79.75
 31
0.0
  0
LINE
  8
0
  6
CONTINUOUS
 62
     2
 10
202.15
 20
77.25
 30
0.0
 11
201.75
 21
77.25
 31
0.0
  0
LINE
  8
0
  6
CONTINUOUS
 62
     2
 10
202.15
 20
77.25
 30
0.0
 11
202.15
 21
79.75
 31
0.0
  0
LINE
  8
0
  6
CONTINUOUS
 62
     2
 10
202.15
 20
79.75
 30
0.0
 11
201.75
 21
79.75
 31
0.0
  0
LINE
  8
0
  6
CONTINUOUS
 62
     2
 10
202.15
 20
79.85
 30
0.0
 11
201.75
 21
79.85
 31
0.0
  0
ARC
  8
0
  6
CONTINUOUS
 62
     2
 10
202.15
 20
79.75
 30
0.0
 40
0.1
 50
0.0
 51
90.0
  0
LINE
  8
0
  6
CONTINUOUS
 62
     2
 10
201.75
 20
77.15
 30
0.0
 11
202.15
 21
77.15
 31
0.0
  0
LINE
  8
0
  6
CONTINUOUS
 62
     2
 10
202.25
 20
77.25
 30
0.0
 11
202.25
 21
79.75
 31
0.0
  0
ARC
  8
0
  6
CONTINUOUS
 62
     2
 10
202.15
 20
77.25
 30
0.0
 40
0.1
 50
270.0
 51
0.0
  0
LINE
  8
0
  6
CONTINUOUS
 62
     2
 10
197.85
 20
79.85
 30
0.0
 11
198.25
 21
79.85
 31
0.0
  0
ARC
  8
0
  6
CONTINUOUS
 62
     2
 10
197.85
 20
79.75
 30
0.0
 40
0.1
 50
90.0
 51
180.0
  0
LINE
  8
0
  6
CONTINUOUS
 62
     2
 10
198.25
 20
77.15
 30
0.0
 11
197.85
 21
77.15
 31
0.0
  0
ARC
  8
0
  6
CONTINUOUS
 62
     2
 10
197.85
 20
77.25
 30
0.0
 40
0.1
 50
180.0
 51
270.0
  0
LINE
  8
0
  6
CONTINUOUS
 62
     2
 10
197.75
 20
77.25
 30
0.0
 11
197.75
 21
79.75
 31
0.0
  0
LINE
  8
0
  6
CONTINUOUS
 62
     2
 10
198.25
 20
81.7
 30
0.0
 11
198.25
 21
82.25
 31
0.0
  0
LINE
  8
0
  6
CONTINUOUS
 62
     2
 10
198.25
 20
81.7
 30
0.0
 11
198.5
 21
81.45
 31
0.0
  0
LINE
  8
0
  6
CONTINUOUS
 62
     2
 10
198.25
 20
84.75
 30
0.0
 11
198.25
 21
85.3
 31
0.0
  0
LINE
  8
0
  6
CONTINUOUS
 62
     2
 10
198.25
 20
85.3
 30
0.0
 11
198.5
 21
85.55
 31
0.0
  0
LINE
  8
0
  6
CONTINUOUS
 62
     2
 10
201.5
 20
85.55
 30
0.0
 11
198.5
 21
85.55
 31
0.0
  0
LINE
  8
0
  6
CONTINUOUS
 62
     2
 10
201.75
 20
84.75
 30
0.0
 11
201.75
 21
85.3
 31
0.0
  0
LINE
  8
0
  6
CONTINUOUS
 62
     2
 10
201.5
 20
85.55
 30
0.0
 11
201.75
 21
85.3
 31
0.0
  0
LINE
  8
0
  6
CONTINUOUS
 62
     2
 10
201.75
 20
81.7
 30
0.0
 11
201.75
 21
82.25
 31
0.0
  0
LINE
  8
0
  6
CONTINUOUS
 62
     2
 10
198.5
 20
81.45
 30
0.0
 11
201.5
 21
81.45
 31
0.0
  0
LINE
  8
0
  6
CONTINUOUS
 62
     2
 10
201.75
 20
81.7
 30
0.0
 11
201.5
 21
81.45
 31
0.0
  0
LINE
  8
0
  6
CONTINUOUS
 62
     2
 10
197.85
 20
82.25
 30
0.0
 11
198.25
 21
82.25
 31
0.0
  0
LINE
  8
0
  6
CONTINUOUS
 62
     2
 10
197.85
 20
82.25
 30
0.0
 11
197.85
 21
84.75
 31
0.0
  0
LINE
  8
0
  6
CONTINUOUS
 62
     2
 10
197.85
 20
84.75
 30
0.0
 11
198.25
 21
84.75
 31
0.0
  0
LINE
  8
0
  6
CONTINUOUS
 62
     2
 10
202.15
 20
82.25
 30
0.0
 11
201.75
 21
82.25
 31
0.0
  0
LINE
  8
0
  6
CONTINUOUS
 62
     2
 10
202.15
 20
82.25
 30
0.0
 11
202.15
 21
84.75
 31
0.0
  0
LINE
  8
0
  6
CONTINUOUS
 62
     2
 10
202.15
 20
84.75
 30
0.0
 11
201.75
 21
84.75
 31
0.0
  0
LINE
  8
0
  6
CONTINUOUS
 62
     2
 10
202.15
 20
84.85
 30
0.0
 11
201.75
 21
84.85
 31
0.0
  0
ARC
  8
0
  6
CONTINUOUS
 62
     2
 10
202.15
 20
84.75
 30
0.0
 40
0.1
 50
0.0
 51
90.0
  0
LINE
  8
0
  6
CONTINUOUS
 62
     2
 10
201.75
 20
82.15
 30
0.0
 11
202.15
 21
82.15
 31
0.0
  0
LINE
  8
0
  6
CONTINUOUS
 62
     2
 10
202.25
 20
82.25
 30
0.0
 11
202.25
 21
84.75
 31
0.0
  0
ARC
  8
0
  6
CONTINUOUS
 62
     2
 10
202.15
 20
82.25
 30
0.0
 40
0.1
 50
270.0
 51
0.0
  0
LINE
  8
0
  6
CONTINUOUS
 62
     2
 10
197.85
 20
84.85
 30
0.0
 11
198.25
 21
84.85
 31
0.0
  0
ARC
  8
0
  6
CONTINUOUS
 62
     2
 10
197.85
 20
84.75
 30
0.0
 40
0.1
 50
90.0
 51
180.0
  0
LINE
  8
0
  6
CONTINUOUS
 62
     2
 10
198.25
 20
82.15
 30
0.0
 11
197.85
 21
82.15
 31
0.0
  0
ARC
  8
0
  6
CONTINUOUS
 62
     2
 10
197.85
 20
82.25
 30
0.0
 40
0.1
 50
180.0
 51
270.0
  0
LINE
  8
0
  6
CONTINUOUS
 62
     2
 10
197.75
 20
82.25
 30
0.0
 11
197.75
 21
84.75
 31
0.0
  0
LINE
  8
0
  6
CONTINUOUS
 62
     2
 10
198.25
 20
86.7
 30
0.0
 11
198.25
 21
87.25
 31
0.0
  0
LINE
  8
0
  6
CONTINUOUS
 62
     2
 10
198.25
 20
86.7
 30
0.0
 11
198.5
 21
86.45
 31
0.0
  0
LINE
  8
0
  6
CONTINUOUS
 62
     2
 10
198.25
 20
89.75
 30
0.0
 11
198.25
 21
90.3
 31
0.0
  0
LINE
  8
0
  6
CONTINUOUS
 62
     2
 10
198.25
 20
90.3
 30
0.0
 11
198.5
 21
90.55
 31
0.0
  0
LINE
  8
0
  6
CONTINUOUS
 62
     2
 10
201.5
 20
90.55
 30
0.0
 11
198.5
 21
90.55
 31
0.0
  0
LINE
  8
0
  6
CONTINUOUS
 62
     2
 10
201.75
 20
89.75
 30
0.0
 11
201.75
 21
90.3
 31
0.0
  0
LINE
  8
0
  6
CONTINUOUS
 62
     2
 10
201.5
 20
90.55
 30
0.0
 11
201.75
 21
90.3
 31
0.0
  0
LINE
  8
0
  6
CONTINUOUS
 62
     2
 10
201.75
 20
86.7
 30
0.0
 11
201.75
 21
87.25
 31
0.0
  0
LINE
  8
0
  6
CONTINUOUS
 62
     2
 10
198.5
 20
86.45
 30
0.0
 11
201.5
 21
86.45
 31
0.0
  0
LINE
  8
0
  6
CONTINUOUS
 62
     2
 10
201.75
 20
86.7
 30
0.0
 11
201.5
 21
86.45
 31
0.0
  0
LINE
  8
0
  6
CONTINUOUS
 62
     2
 10
197.85
 20
87.25
 30
0.0
 11
198.25
 21
87.25
 31
0.0
  0
LINE
  8
0
  6
CONTINUOUS
 62
     2
 10
197.85
 20
87.25
 30
0.0
 11
197.85
 21
89.75
 31
0.0
  0
LINE
  8
0
  6
CONTINUOUS
 62
     2
 10
197.85
 20
89.75
 30
0.0
 11
198.25
 21
89.75
 31
0.0
  0
LINE
  8
0
  6
CONTINUOUS
 62
     2
 10
202.15
 20
87.25
 30
0.0
 11
201.75
 21
87.25
 31
0.0
  0
LINE
  8
0
  6
CONTINUOUS
 62
     2
 10
202.15
 20
87.25
 30
0.0
 11
202.15
 21
89.75
 31
0.0
  0
LINE
  8
0
  6
CONTINUOUS
 62
     2
 10
202.15
 20
89.75
 30
0.0
 11
201.75
 21
89.75
 31
0.0
  0
LINE
  8
0
  6
CONTINUOUS
 62
     2
 10
202.15
 20
89.85
 30
0.0
 11
201.75
 21
89.85
 31
0.0
  0
ARC
  8
0
  6
CONTINUOUS
 62
     2
 10
202.15
 20
89.75
 30
0.0
 40
0.1
 50
0.0
 51
90.0
  0
LINE
  8
0
  6
CONTINUOUS
 62
     2
 10
201.75
 20
87.15
 30
0.0
 11
202.15
 21
87.15
 31
0.0
  0
LINE
  8
0
  6
CONTINUOUS
 62
     2
 10
202.25
 20
87.25
 30
0.0
 11
202.25
 21
89.75
 31
0.0
  0
ARC
  8
0
  6
CONTINUOUS
 62
     2
 10
202.15
 20
87.25
 30
0.0
 40
0.1
 50
270.0
 51
0.0
  0
LINE
  8
0
  6
CONTINUOUS
 62
     2
 10
197.85
 20
89.85
 30
0.0
 11
198.25
 21
89.85
 31
0.0
  0
ARC
  8
0
  6
CONTINUOUS
 62
     2
 10
197.85
 20
89.75
 30
0.0
 40
0.1
 50
90.0
 51
180.0
  0
LINE
  8
0
  6
CONTINUOUS
 62
     2
 10
198.25
 20
87.15
 30
0.0
 11
197.85
 21
87.15
 31
0.0
  0
ARC
  8
0
  6
CONTINUOUS
 62
     2
 10
197.85
 20
87.25
 30
0.0
 40
0.1
 50
180.0
 51
270.0
  0
LINE
  8
0
  6
CONTINUOUS
 62
     2
 10
197.75
 20
87.25
 30
0.0
 11
197.75
 21
89.75
 31
0.0
  0
LINE
  8
0
  6
CONTINUOUS
 62
     2
 10
198.25
 20
91.7
 30
0.0
 11
198.25
 21
92.25
 31
0.0
  0
LINE
  8
0
  6
CONTINUOUS
 62
     2
 10
198.25
 20
91.7
 30
0.0
 11
198.5
 21
91.45
 31
0.0
  0
LINE
  8
0
  6
CONTINUOUS
 62
     2
 10
198.25
 20
95.3
 30
0.0
 11
198.5
 21
95.55
 31
0.0
  0
LINE
  8
0
  6
CONTINUOUS
 62
     2
 10
201.5
 20
95.55
 30
0.0
 11
198.5
 21
95.55
 31
0.0
  0
LINE
  8
0
  6
CONTINUOUS
 62
     2
 10
201.75
 20
94.75
 30
0.0
 11
201.75
 21
95.3
 31
0.0
  0
LINE
  8
0
  6
CONTINUOUS
 62
     2
 10
201.5
 20
95.55
 30
0.0
 11
201.75
 21
95.3
 31
0.0
  0
LINE
  8
0
  6
CONTINUOUS
 62
     2
 10
201.75
 20
91.7
 30
0.0
 11
201.75
 21
92.25
 31
0.0
  0
LINE
  8
0
  6
CONTINUOUS
 62
     2
 10
198.5
 20
91.45
 30
0.0
 11
201.5
 21
91.45
 31
0.0
  0
LINE
  8
0
  6
CONTINUOUS
 62
     2
 10
201.75
 20
91.7
 30
0.0
 11
201.5
 21
91.45
 31
0.0
  0
LINE
  8
0
  6
CONTINUOUS
 62
     2
 10
197.85
 20
92.25
 30
0.0
 11
198.25
 21
92.25
 31
0.0
  0
LINE
  8
0
  6
CONTINUOUS
 62
     2
 10
197.85
 20
92.25
 30
0.0
 11
197.85
 21
94.75
 31
0.0
  0
LINE
  8
0
  6
CONTINUOUS
 62
     2
 10
197.85
 20
94.75
 30
0.0
 11
198.25
 21
94.75
 31
0.0
  0
LINE
  8
0
  6
CONTINUOUS
 62
     2
 10
202.15
 20
92.25
 30
0.0
 11
201.75
 21
92.25
 31
0.0
  0
LINE
  8
0
  6
CONTINUOUS
 62
     2
 10
202.15
 20
92.25
 30
0.0
 11
202.15
 21
94.75
 31
0.0
  0
LINE
  8
0
  6
CONTINUOUS
 62
     2
 10
202.15
 20
94.75
 30
0.0
 11
201.75
 21
94.75
 31
0.0
  0
LINE
  8
0
  6
CONTINUOUS
 62
     2
 10
202.15
 20
94.85
 30
0.0
 11
201.75
 21
94.85
 31
0.0
  0
ARC
  8
0
  6
CONTINUOUS
 62
     2
 10
202.15
 20
94.75
 30
0.0
 40
0.1
 50
0.0
 51
90.0
  0
LINE
  8
0
  6
CONTINUOUS
 62
     2
 10
201.75
 20
92.15
 30
0.0
 11
202.15
 21
92.15
 31
0.0
  0
LINE
  8
0
  6
CONTINUOUS
 62
     2
 10
202.25
 20
92.25
 30
0.0
 11
202.25
 21
94.75
 31
0.0
  0
ARC
  8
0
  6
CONTINUOUS
 62
     2
 10
202.15
 20
92.25
 30
0.0
 40
0.1
 50
270.0
 51
0.0
  0
LINE
  8
0
  6
CONTINUOUS
 62
     2
 10
197.85
 20
94.85
 30
0.0
 11
198.25
 21
94.85
 31
0.0
  0
ARC
  8
0
  6
CONTINUOUS
 62
     2
 10
197.85
 20
94.75
 30
0.0
 40
0.1
 50
90.0
 51
180.0
  0
LINE
  8
0
  6
CONTINUOUS
 62
     2
 10
198.25
 20
92.15
 30
0.0
 11
197.85
 21
92.15
 31
0.0
  0
ARC
  8
0
  6
CONTINUOUS
 62
     2
 10
197.85
 20
92.25
 30
0.0
 40
0.1
 50
180.0
 51
270.0
  0
LINE
  8
0
  6
CONTINUOUS
 62
     2
 10
197.75
 20
92.25
 30
0.0
 11
197.75
 21
94.75
 31
0.0
  0
LINE
  8
0
  6
CONTINUOUS
 62
     2
 10
198.25
 20
96.7
 30
0.0
 11
198.25
 21
97.25
 31
0.0
  0
LINE
  8
0
  6
CONTINUOUS
 62
     2
 10
198.25
 20
96.7
 30
0.0
 11
198.5
 21
96.45
 31
0.0
  0
LINE
  8
0
  6
CONTINUOUS
 62
     2
 10
198.25
 20
99.75
 30
0.0
 11
198.25
 21
100.3
 31
0.0
  0
LINE
  8
0
  6
CONTINUOUS
 62
     2
 10
198.25
 20
100.3
 30
0.0
 11
198.5
 21
100.55
 31
0.0
  0
LINE
  8
0
  6
CONTINUOUS
 62
     2
 10
201.5
 20
100.55
 30
0.0
 11
198.5
 21
100.55
 31
0.0
  0
LINE
  8
0
  6
CONTINUOUS
 62
     2
 10
201.75
 20
99.75
 30
0.0
 11
201.75
 21
100.3
 31
0.0
  0
LINE
  8
0
  6
CONTINUOUS
 62
     2
 10
201.5
 20
100.55
 30
0.0
 11
201.75
 21
100.3
 31
0.0
  0
LINE
  8
0
  6
CONTINUOUS
 62
     2
 10
201.75
 20
96.7
 30
0.0
 11
201.75
 21
97.25
 31
0.0
  0
LINE
  8
0
  6
CONTINUOUS
 62
     2
 10
198.5
 20
96.45
 30
0.0
 11
201.5
 21
96.45
 31
0.0
  0
LINE
  8
0
  6
CONTINUOUS
 62
     2
 10
201.75
 20
96.7
 30
0.0
 11
201.5
 21
96.45
 31
0.0
  0
LINE
  8
0
  6
CONTINUOUS
 62
     2
 10
197.85
 20
97.25
 30
0.0
 11
198.25
 21
97.25
 31
0.0
  0
LINE
  8
0
  6
CONTINUOUS
 62
     2
 10
197.85
 20
97.25
 30
0.0
 11
197.85
 21
99.75
 31
0.0
  0
LINE
  8
0
  6
CONTINUOUS
 62
     2
 10
197.85
 20
99.75
 30
0.0
 11
198.25
 21
99.75
 31
0.0
  0
LINE
  8
0
  6
CONTINUOUS
 62
     2
 10
202.15
 20
97.25
 30
0.0
 11
201.75
 21
97.25
 31
0.0
  0
LINE
  8
0
  6
CONTINUOUS
 62
     2
 10
202.15
 20
97.25
 30
0.0
 11
202.15
 21
99.75
 31
0.0
  0
LINE
  8
0
  6
CONTINUOUS
 62
     2
 10
202.15
 20
99.75
 30
0.0
 11
201.75
 21
99.75
 31
0.0
  0
LINE
  8
0
  6
CONTINUOUS
 62
     2
 10
202.15
 20
99.85
 30
0.0
 11
201.75
 21
99.85
 31
0.0
  0
ARC
  8
0
  6
CONTINUOUS
 62
     2
 10
202.15
 20
99.75
 30
0.0
 40
0.1
 50
0.0
 51
90.0
  0
LINE
  8
0
  6
CONTINUOUS
 62
     2
 10
201.75
 20
97.15
 30
0.0
 11
202.15
 21
97.15
 31
0.0
  0
LINE
  8
0
  6
CONTINUOUS
 62
     2
 10
202.25
 20
97.25
 30
0.0
 11
202.25
 21
99.75
 31
0.0
  0
ARC
  8
0
  6
CONTINUOUS
 62
     2
 10
202.15
 20
97.25
 30
0.0
 40
0.1
 50
270.0
 51
0.0
  0
LINE
  8
0
  6
CONTINUOUS
 62
     2
 10
197.85
 20
99.85
 30
0.0
 11
198.25
 21
99.85
 31
0.0
  0
ARC
  8
0
  6
CONTINUOUS
 62
     2
 10
197.85
 20
99.75
 30
0.0
 40
0.1
 50
90.0
 51
180.0
  0
LINE
  8
0
  6
CONTINUOUS
 62
     2
 10
198.25
 20
97.15
 30
0.0
 11
197.85
 21
97.15
 31
0.0
  0
ARC
  8
0
  6
CONTINUOUS
 62
     2
 10
197.85
 20
97.25
 30
0.0
 40
0.1
 50
180.0
 51
270.0
  0
LINE
  8
0
  6
CONTINUOUS
 62
     2
 10
197.75
 20
97.25
 30
0.0
 11
197.75
 21
99.75
 31
0.0
  0
LINE
  8
0
  6
CONTINUOUS
 62
     2
 10
198.25
 20
101.7
 30
0.0
 11
198.25
 21
102.25
 31
0.0
  0
LINE
  8
0
  6
CONTINUOUS
 62
     2
 10
198.25
 20
101.7
 30
0.0
 11
198.5
 21
101.45
 31
0.0
  0
LINE
  8
0
  6
CONTINUOUS
 62
     2
 10
198.25
 20
104.75
 30
0.0
 11
198.25
 21
105.3
 31
0.0
  0
LINE
  8
0
  6
CONTINUOUS
 62
     2
 10
198.25
 20
105.3
 30
0.0
 11
198.5
 21
105.55
 31
0.0
  0
LINE
  8
0
  6
CONTINUOUS
 62
     2
 10
201.5
 20
105.55
 30
0.0
 11
198.5
 21
105.55
 31
0.0
  0
LINE
  8
0
  6
CONTINUOUS
 62
     2
 10
201.75
 20
104.75
 30
0.0
 11
201.75
 21
105.3
 31
0.0
  0
LINE
  8
0
  6
CONTINUOUS
 62
     2
 10
201.5
 20
105.55
 30
0.0
 11
201.75
 21
105.3
 31
0.0
  0
LINE
  8
0
  6
CONTINUOUS
 62
     2
 10
201.75
 20
101.7
 30
0.0
 11
201.75
 21
102.25
 31
0.0
  0
LINE
  8
0
  6
CONTINUOUS
 62
     2
 10
198.5
 20
101.45
 30
0.0
 11
201.5
 21
101.45
 31
0.0
  0
LINE
  8
0
  6
CONTINUOUS
 62
     2
 10
201.75
 20
101.7
 30
0.0
 11
201.5
 21
101.45
 31
0.0
  0
LINE
  8
0
  6
CONTINUOUS
 62
     2
 10
197.85
 20
102.25
 30
0.0
 11
198.25
 21
102.25
 31
0.0
  0
LINE
  8
0
  6
CONTINUOUS
 62
     2
 10
197.85
 20
102.25
 30
0.0
 11
197.85
 21
104.75
 31
0.0
  0
LINE
  8
0
  6
CONTINUOUS
 62
     2
 10
197.85
 20
104.75
 30
0.0
 11
198.25
 21
104.75
 31
0.0
  0
LINE
  8
0
  6
CONTINUOUS
 62
     2
 10
202.15
 20
102.25
 30
0.0
 11
201.75
 21
102.25
 31
0.0
  0
LINE
  8
0
  6
CONTINUOUS
 62
     2
 10
202.15
 20
102.25
 30
0.0
 11
202.15
 21
104.75
 31
0.0
  0
LINE
  8
0
  6
CONTINUOUS
 62
     2
 10
202.15
 20
104.75
 30
0.0
 11
201.75
 21
104.75
 31
0.0
  0
LINE
  8
0
  6
CONTINUOUS
 62
     2
 10
202.15
 20
104.85
 30
0.0
 11
201.75
 21
104.85
 31
0.0
  0
ARC
  8
0
  6
CONTINUOUS
 62
     2
 10
202.15
 20
104.75
 30
0.0
 40
0.1
 50
0.0
 51
90.0
  0
LINE
  8
0
  6
CONTINUOUS
 62
     2
 10
201.75
 20
102.15
 30
0.0
 11
202.15
 21
102.15
 31
0.0
  0
LINE
  8
0
  6
CONTINUOUS
 62
     2
 10
202.25
 20
102.25
 30
0.0
 11
202.25
 21
104.75
 31
0.0
  0
ARC
  8
0
  6
CONTINUOUS
 62
     2
 10
202.15
 20
102.25
 30
0.0
 40
0.1
 50
270.0
 51
0.0
  0
LINE
  8
0
  6
CONTINUOUS
 62
     2
 10
197.85
 20
104.85
 30
0.0
 11
198.25
 21
104.85
 31
0.0
  0
ARC
  8
0
  6
CONTINUOUS
 62
     2
 10
197.85
 20
104.75
 30
0.0
 40
0.1
 50
90.0
 51
180.0
  0
LINE
  8
0
  6
CONTINUOUS
 62
     2
 10
198.25
 20
102.15
 30
0.0
 11
197.85
 21
102.15
 31
0.0
  0
ARC
  8
0
  6
CONTINUOUS
 62
     2
 10
197.85
 20
102.25
 30
0.0
 40
0.1
 50
180.0
 51
270.0
  0
LINE
  8
0
  6
CONTINUOUS
 62
     2
 10
197.75
 20
102.25
 30
0.0
 11
197.75
 21
104.75
 31
0.0
  0
CIRCLE
  8
0
  6
CONTINUOUS
 62
     2
 10
200.0
 20
78.5
 30
0.0
 40
1.5
  0
LINE
  8
0
  6
CONTINUOUS
 62
     2
 10
200.875
 20
78.3
 30
0.0
 11
200.4
 21
78.3
 31
0.0
  0
ARC
  8
0
  6
CONTINUOUS
 62
     2
 10
200.4
 20
78.1
 30
0.0
 40
0.2
 50
90.0
 51
180.0
  0
LINE
  8
0
  6
CONTINUOUS
 62
     2
 10
200.2
 20
78.1
 30
0.0
 11
200.2
 21
77.625
 31
0.0
  0
LINE
  8
0
  6
CONTINUOUS
 62
     2
 10
200.2
 20
77.625
 30
0.0
 11
199.8
 21
77.625
 31
0.0
  0
LINE
  8
0
  6
CONTINUOUS
 62
     2
 10
199.8
 20
77.625
 30
0.0
 11
199.8
 21
78.1
 31
0.0
  0
ARC
  8
0
  6
CONTINUOUS
 62
     2
 10
199.6
 20
78.1
 30
0.0
 40
0.2
 50
0.0
 51
90.0
  0
LINE
  8
0
  6
CONTINUOUS
 62
     2
 10
199.6
 20
78.3
 30
0.0
 11
199.125
 21
78.3
 31
0.0
  0
LINE
  8
0
  6
CONTINUOUS
 62
     2
 10
199.125
 20
78.3
 30
0.0
 11
199.125
 21
78.7
 31
0.0
  0
LINE
  8
0
  6
CONTINUOUS
 62
     2
 10
199.125
 20
78.7
 30
0.0
 11
199.6
 21
78.7
 31
0.0
  0
ARC
  8
0
  6
CONTINUOUS
 62
     2
 10
199.6
 20
78.9
 30
0.0
 40
0.2
 50
270.0
 51
0.0
  0
LINE
  8
0
  6
CONTINUOUS
 62
     2
 10
199.8
 20
78.9
 30
0.0
 11
199.8
 21
79.375
 31
0.0
  0
LINE
  8
0
  6
CONTINUOUS
 62
     2
 10
199.8
 20
79.375
 30
0.0
 11
200.2
 21
79.375
 31
0.0
  0
LINE
  8
0
  6
CONTINUOUS
 62
     2
 10
200.2
 20
79.375
 30
0.0
 11
200.2
 21
78.9
 31
0.0
  0
ARC
  8
0
  6
CONTINUOUS
 62
     2
 10
200.4
 20
78.9
 30
0.0
 40
0.2
 50
180.0
 51
270.0
  0
LINE
  8
0
  6
CONTINUOUS
 62
     2
 10
200.4
 20
78.7
 30
0.0
 11
200.875
 21
78.7
 31
0.0
  0
LINE
  8
0
  6
CONTINUOUS
 62
     2
 10
200.875
 20
78.7
 30
0.0
 11
200.875
 21
78.3
 31
0.0
  0
LINE
  8
0
  6
LTYPE1
 62
     2
 10
202.0
 20
78.5
 30
0.0
 11
198.0
 21
78.5
 31
0.0
  0
LINE
  8
0
  6
LTYPE1
 62
     2
 10
200.0
 20
76.5
 30
0.0
 11
200.0
 21
80.5
 31
0.0
  0
CIRCLE
  8
0
  6
CONTINUOUS
 62
     2
 10
200.0
 20
83.5
 30
0.0
 40
1.5
  0
LINE
  8
0
  6
CONTINUOUS
 62
     2
 10
200.875
 20
83.3
 30
0.0
 11
200.4
 21
83.3
 31
0.0
  0
ARC
  8
0
  6
CONTINUOUS
 62
     2
 10
200.4
 20
83.1
 30
0.0
 40
0.2
 50
90.0
 51
180.0
  0
LINE
  8
0
  6
CONTINUOUS
 62
     2
 10
200.2
 20
83.1
 30
0.0
 11
200.2
 21
82.625
 31
0.0
  0
LINE
  8
0
  6
CONTINUOUS
 62
     2
 10
200.2
 20
82.625
 30
0.0
 11
199.8
 21
82.625
 31
0.0
  0
LINE
  8
0
  6
CONTINUOUS
 62
     2
 10
199.8
 20
82.625
 30
0.0
 11
199.8
 21
83.1
 31
0.0
  0
ARC
  8
0
  6
CONTINUOUS
 62
     2
 10
199.6
 20
83.1
 30
0.0
 40
0.2
 50
0.0
 51
90.0
  0
LINE
  8
0
  6
CONTINUOUS
 62
     2
 10
199.6
 20
83.3
 30
0.0
 11
199.125
 21
83.3
 31
0.0
  0
LINE
  8
0
  6
CONTINUOUS
 62
     2
 10
199.125
 20
83.3
 30
0.0
 11
199.125
 21
83.7
 31
0.0
  0
LINE
  8
0
  6
CONTINUOUS
 62
     2
 10
199.125
 20
83.7
 30
0.0
 11
199.6
 21
83.7
 31
0.0
  0
ARC
  8
0
  6
CONTINUOUS
 62
     2
 10
199.6
 20
83.9
 30
0.0
 40
0.2
 50
270.0
 51
0.0
  0
LINE
  8
0
  6
CONTINUOUS
 62
     2
 10
199.8
 20
83.9
 30
0.0
 11
199.8
 21
84.375
 31
0.0
  0
LINE
  8
0
  6
CONTINUOUS
 62
     2
 10
199.8
 20
84.375
 30
0.0
 11
200.2
 21
84.375
 31
0.0
  0
LINE
  8
0
  6
CONTINUOUS
 62
     2
 10
200.2
 20
84.375
 30
0.0
 11
200.2
 21
83.9
 31
0.0
  0
ARC
  8
0
  6
CONTINUOUS
 62
     2
 10
200.4
 20
83.9
 30
0.0
 40
0.2
 50
180.0
 51
270.0
  0
LINE
  8
0
  6
CONTINUOUS
 62
     2
 10
200.4
 20
83.7
 30
0.0
 11
200.875
 21
83.7
 31
0.0
  0
LINE
  8
0
  6
CONTINUOUS
 62
     2
 10
200.875
 20
83.7
 30
0.0
 11
200.875
 21
83.3
 31
0.0
  0
LINE
  8
0
  6
LTYPE1
 62
     2
 10
202.0
 20
83.5
 30
0.0
 11
198.0
 21
83.5
 31
0.0
  0
LINE
  8
0
  6
LTYPE1
 62
     2
 10
200.0
 20
81.5
 30
0.0
 11
200.0
 21
85.5
 31
0.0
  0
LINE
  8
0
  6
LTYPE1
 62
     2
 10
202.0
 20
88.5
 30
0.0
 11
198.0
 21
88.5
 31
0.0
  0
LINE
  8
0
  6
LTYPE1
 62
     2
 10
200.0
 20
86.5
 30
0.0
 11
200.0
 21
90.5
 31
0.0
  0
LINE
  8
0
  6
LTYPE1
 62
     2
 10
202.0
 20
93.5
 30
0.0
 11
198.0
 21
93.5
 31
0.0
  0
LINE
  8
0
  6
LTYPE1
 62
     2
 10
200.0
 20
91.5
 30
0.0
 11
200.0
 21
95.5
 31
0.0
  0
CIRCLE
  8
0
  6
CONTINUOUS
 62
     2
 10
200.0
 20
98.5
 30
0.0
 40
1.5
  0
LINE
  8
0
  6
CONTINUOUS
 62
     2
 10
200.875
 20
98.3
 30
0.0
 11
200.4
 21
98.3
 31
0.0
  0
ARC
  8
0
  6
CONTINUOUS
 62
     2
 10
200.4
 20
98.1
 30
0.0
 40
0.2
 50
90.0
 51
180.0
  0
LINE
  8
0
  6
CONTINUOUS
 62
     2
 10
200.2
 20
98.1
 30
0.0
 11
200.2
 21
97.625
 31
0.0
  0
LINE
  8
0
  6
CONTINUOUS
 62
     2
 10
200.2
 20
97.625
 30
0.0
 11
199.8
 21
97.625
 31
0.0
  0
LINE
  8
0
  6
CONTINUOUS
 62
     2
 10
199.8
 20
97.625
 30
0.0
 11
199.8
 21
98.1
 31
0.0
  0
ARC
  8
0
  6
CONTINUOUS
 62
     2
 10
199.6
 20
98.1
 30
0.0
 40
0.2
 50
0.0
 51
90.0
  0
LINE
  8
0
  6
CONTINUOUS
 62
     2
 10
199.6
 20
98.3
 30
0.0
 11
199.125
 21
98.3
 31
0.0
  0
LINE
  8
0
  6
CONTINUOUS
 62
     2
 10
199.125
 20
98.3
 30
0.0
 11
199.125
 21
98.7
 31
0.0
  0
LINE
  8
0
  6
CONTINUOUS
 62
     2
 10
199.125
 20
98.7
 30
0.0
 11
199.6
 21
98.7
 31
0.0
  0
ARC
  8
0
  6
CONTINUOUS
 62
     2
 10
199.6
 20
98.9
 30
0.0
 40
0.2
 50
270.0
 51
0.0
  0
LINE
  8
0
  6
CONTINUOUS
 62
     2
 10
199.8
 20
98.9
 30
0.0
 11
199.8
 21
99.375
 31
0.0
  0
LINE
  8
0
  6
CONTINUOUS
 62
     2
 10
199.8
 20
99.375
 30
0.0
 11
200.2
 21
99.375
 31
0.0
  0
LINE
  8
0
  6
CONTINUOUS
 62
     2
 10
200.2
 20
99.375
 30
0.0
 11
200.2
 21
98.9
 31
0.0
  0
ARC
  8
0
  6
CONTINUOUS
 62
     2
 10
200.4
 20
98.9
 30
0.0
 40
0.2
 50
180.0
 51
270.0
  0
LINE
  8
0
  6
CONTINUOUS
 62
     2
 10
200.4
 20
98.7
 30
0.0
 11
200.875
 21
98.7
 31
0.0
  0
LINE
  8
0
  6
CONTINUOUS
 62
     2
 10
200.875
 20
98.7
 30
0.0
 11
200.875
 21
98.3
 31
0.0
  0
LINE
  8
0
  6
LTYPE1
 62
     2
 10
202.0
 20
98.5
 30
0.0
 11
198.0
 21
98.5
 31
0.0
  0
LINE
  8
0
  6
LTYPE1
 62
     2
 10
200.0
 20
96.5
 30
0.0
 11
200.0
 21
100.5
 31
0.0
  0
CIRCLE
  8
0
  6
CONTINUOUS
 62
     2
 10
200.0
 20
103.5
 30
0.0
 40
1.5
  0
LINE
  8
0
  6
CONTINUOUS
 62
     2
 10
200.875
 20
103.3
 30
0.0
 11
200.4
 21
103.3
 31
0.0
  0
ARC
  8
0
  6
CONTINUOUS
 62
     2
 10
200.4
 20
103.1
 30
0.0
 40
0.2
 50
90.0
 51
180.0
  0
LINE
  8
0
  6
CONTINUOUS
 62
     2
 10
200.2
 20
103.1
 30
0.0
 11
200.2
 21
102.625
 31
0.0
  0
LINE
  8
0
  6
CONTINUOUS
 62
     2
 10
200.2
 20
102.625
 30
0.0
 11
199.8
 21
102.625
 31
0.0
  0
LINE
  8
0
  6
CONTINUOUS
 62
     2
 10
199.8
 20
102.625
 30
0.0
 11
199.8
 21
103.1
 31
0.0
  0
ARC
  8
0
  6
CONTINUOUS
 62
     2
 10
199.6
 20
103.1
 30
0.0
 40
0.2
 50
0.0
 51
90.0
  0
LINE
  8
0
  6
CONTINUOUS
 62
     2
 10
199.6
 20
103.3
 30
0.0
 11
199.125
 21
103.3
 31
0.0
  0
LINE
  8
0
  6
CONTINUOUS
 62
     2
 10
199.125
 20
103.3
 30
0.0
 11
199.125
 21
103.7
 31
0.0
  0
LINE
  8
0
  6
CONTINUOUS
 62
     2
 10
199.125
 20
103.7
 30
0.0
 11
199.6
 21
103.7
 31
0.0
  0
ARC
  8
0
  6
CONTINUOUS
 62
     2
 10
199.6
 20
103.9
 30
0.0
 40
0.2
 50
270.0
 51
0.0
  0
LINE
  8
0
  6
CONTINUOUS
 62
     2
 10
199.8
 20
103.9
 30
0.0
 11
199.8
 21
104.375
 31
0.0
  0
LINE
  8
0
  6
CONTINUOUS
 62
     2
 10
199.8
 20
104.375
 30
0.0
 11
200.2
 21
104.375
 31
0.0
  0
LINE
  8
0
  6
CONTINUOUS
 62
     2
 10
200.2
 20
104.375
 30
0.0
 11
200.2
 21
103.9
 31
0.0
  0
ARC
  8
0
  6
CONTINUOUS
 62
     2
 10
200.4
 20
103.9
 30
0.0
 40
0.2
 50
180.0
 51
270.0
  0
LINE
  8
0
  6
CONTINUOUS
 62
     2
 10
200.4
 20
103.7
 30
0.0
 11
200.875
 21
103.7
 31
0.0
  0
LINE
  8
0
  6
CONTINUOUS
 62
     2
 10
200.875
 20
103.7
 30
0.0
 11
200.875
 21
103.3
 31
0.0
  0
LINE
  8
0
  6
LTYPE1
 62
     2
 10
202.0
 20
103.5
 30
0.0
 11
198.0
 21
103.5
 31
0.0
  0
LINE
  8
0
  6
LTYPE1
 62
     2
 10
200.0
 20
101.5
 30
0.0
 11
200.0
 21
105.5
 31
0.0
  0
LINE
  8
0
  6
CONTINUOUS
 62
     1
 10
197.0
 20
71.45
 30
0.0
 11
197.0
 21
75.55
 31
0.0
  0
LINE
  8
0
  6
CONTINUOUS
 62
     1
 10
203.0
 20
75.55
 30
0.0
 11
203.0
 21
71.45
 31
0.0
  0
LINE
  8
0
  6
CONTINUOUS
 62
     1
 10
204.25
 20
75.55
 30
0.0
 11
195.75
 21
75.55
 31
0.0
  0
LINE
  8
0
  6
CONTINUOUS
 62
     1
 10
195.75
 20
75.55
 30
0.0
 11
195.75
 21
71.45
 31
0.0
  0
LINE
  8
0
  6
CONTINUOUS
 62
     1
 10
204.25
 20
71.45
 30
0.0
 11
204.25
 21
75.55
 31
0.0
  0
LINE
  8
0
  6
CONTINUOUS
 62
     1
 10
195.75
 20
71.45
 30
0.0
 11
204.25
 21
71.45
 31
0.0
  0
LINE
  8
0
  6
CONTINUOUS
 62
     2
 10
198.25
 20
71.7
 30
0.0
 11
198.25
 21
72.25
 31
0.0
  0
LINE
  8
0
  6
CONTINUOUS
 62
     2
 10
198.25
 20
71.7
 30
0.0
 11
198.5
 21
71.45
 31
0.0
  0
LINE
  8
0
  6
CONTINUOUS
 62
     2
 10
198.25
 20
74.75
 30
0.0
 11
198.25
 21
75.3
 31
0.0
  0
LINE
  8
0
  6
CONTINUOUS
 62
     2
 10
198.25
 20
75.3
 30
0.0
 11
198.5
 21
75.55
 31
0.0
  0
LINE
  8
0
  6
CONTINUOUS
 62
     2
 10
201.5
 20
75.55
 30
0.0
 11
198.5
 21
75.55
 31
0.0
  0
LINE
  8
0
  6
CONTINUOUS
 62
     2
 10
201.75
 20
74.75
 30
0.0
 11
201.75
 21
75.3
 31
0.0
  0
LINE
  8
0
  6
CONTINUOUS
 62
     2
 10
201.5
 20
75.55
 30
0.0
 11
201.75
 21
75.3
 31
0.0
  0
LINE
  8
0
  6
CONTINUOUS
 62
     2
 10
201.75
 20
71.7
 30
0.0
 11
201.75
 21
72.25
 31
0.0
  0
LINE
  8
0
  6
CONTINUOUS
 62
     2
 10
198.5
 20
71.45
 30
0.0
 11
201.5
 21
71.45
 31
0.0
  0
LINE
  8
0
  6
CONTINUOUS
 62
     2
 10
201.75
 20
71.7
 30
0.0
 11
201.5
 21
71.45
 31
0.0
  0
LINE
  8
0
  6
CONTINUOUS
 62
     2
 10
197.85
 20
72.25
 30
0.0
 11
198.25
 21
72.25
 31
0.0
  0
LINE
  8
0
  6
CONTINUOUS
 62
     2
 10
197.85
 20
72.25
 30
0.0
 11
197.85
 21
74.75
 31
0.0
  0
LINE
  8
0
  6
CONTINUOUS
 62
     2
 10
197.85
 20
74.75
 30
0.0
 11
198.25
 21
74.75
 31
0.0
  0
LINE
  8
0
  6
CONTINUOUS
 62
     2
 10
202.15
 20
72.25
 30
0.0
 11
201.75
 21
72.25
 31
0.0
  0
LINE
  8
0
  6
CONTINUOUS
 62
     2
 10
202.15
 20
72.25
 30
0.0
 11
202.15
 21
74.75
 31
0.0
  0
LINE
  8
0
  6
CONTINUOUS
 62
     2
 10
202.15
 20
74.75
 30
0.0
 11
201.75
 21
74.75
 31
0.0
  0
LINE
  8
0
  6
CONTINUOUS
 62
     2
 10
202.15
 20
74.85
 30
0.0
 11
201.75
 21
74.85
 31
0.0
  0
ARC
  8
0
  6
CONTINUOUS
 62
     2
 10
202.15
 20
74.75
 30
0.0
 40
0.1
 50
0.0
 51
90.0
  0
LINE
  8
0
  6
CONTINUOUS
 62
     2
 10
201.75
 20
72.15
 30
0.0
 11
202.15
 21
72.15
 31
0.0
  0
LINE
  8
0
  6
CONTINUOUS
 62
     2
 10
202.25
 20
72.25
 30
0.0
 11
202.25
 21
74.75
 31
0.0
  0
ARC
  8
0
  6
CONTINUOUS
 62
     2
 10
202.15
 20
72.25
 30
0.0
 40
0.1
 50
270.0
 51
0.0
  0
LINE
  8
0
  6
CONTINUOUS
 62
     2
 10
197.85
 20
74.85
 30
0.0
 11
198.25
 21
74.85
 31
0.0
  0
ARC
  8
0
  6
CONTINUOUS
 62
     2
 10
197.85
 20
74.75
 30
0.0
 40
0.1
 50
90.0
 51
180.0
  0
LINE
  8
0
  6
CONTINUOUS
 62
     2
 10
198.25
 20
72.15
 30
0.0
 11
197.85
 21
72.15
 31
0.0
  0
ARC
  8
0
  6
CONTINUOUS
 62
     2
 10
197.85
 20
72.25
 30
0.0
 40
0.1
 50
180.0
 51
270.0
  0
LINE
  8
0
  6
CONTINUOUS
 62
     2
 10
197.75
 20
72.25
 30
0.0
 11
197.75
 21
74.75
 31
0.0
  0
CIRCLE
  8
0
  6
CONTINUOUS
 62
     2
 10
200.0
 20
73.5
 30
0.0
 40
1.5
  0
LINE
  8
0
  6
CONTINUOUS
 62
     2
 10
200.875
 20
73.3
 30
0.0
 11
200.4
 21
73.3
 31
0.0
  0
ARC
  8
0
  6
CONTINUOUS
 62
     2
 10
200.4
 20
73.1
 30
0.0
 40
0.2
 50
90.0
 51
180.0
  0
LINE
  8
0
  6
CONTINUOUS
 62
     2
 10
200.2
 20
73.1
 30
0.0
 11
200.2
 21
72.625
 31
0.0
  0
LINE
  8
0
  6
CONTINUOUS
 62
     2
 10
200.2
 20
72.625
 30
0.0
 11
199.8
 21
72.625
 31
0.0
  0
LINE
  8
0
  6
CONTINUOUS
 62
     2
 10
199.8
 20
72.625
 30
0.0
 11
199.8
 21
73.1
 31
0.0
  0
ARC
  8
0
  6
CONTINUOUS
 62
     2
 10
199.6
 20
73.1
 30
0.0
 40
0.2
 50
0.0
 51
90.0
  0
LINE
  8
0
  6
CONTINUOUS
 62
     2
 10
199.6
 20
73.3
 30
0.0
 11
199.125
 21
73.3
 31
0.0
  0
LINE
  8
0
  6
CONTINUOUS
 62
     2
 10
199.125
 20
73.3
 30
0.0
 11
199.125
 21
73.7
 31
0.0
  0
LINE
  8
0
  6
CONTINUOUS
 62
     2
 10
199.125
 20
73.7
 30
0.0
 11
199.6
 21
73.7
 31
0.0
  0
ARC
  8
0
  6
CONTINUOUS
 62
     2
 10
199.6
 20
73.9
 30
0.0
 40
0.2
 50
270.0
 51
0.0
  0
LINE
  8
0
  6
CONTINUOUS
 62
     2
 10
199.8
 20
73.9
 30
0.0
 11
199.8
 21
74.375
 31
0.0
  0
LINE
  8
0
  6
CONTINUOUS
 62
     2
 10
199.8
 20
74.375
 30
0.0
 11
200.2
 21
74.375
 31
0.0
  0
LINE
  8
0
  6
CONTINUOUS
 62
     2
 10
200.2
 20
74.375
 30
0.0
 11
200.2
 21
73.9
 31
0.0
  0
ARC
  8
0
  6
CONTINUOUS
 62
     2
 10
200.4
 20
73.9
 30
0.0
 40
0.2
 50
180.0
 51
270.0
  0
LINE
  8
0
  6
CONTINUOUS
 62
     2
 10
200.4
 20
73.7
 30
0.0
 11
200.875
 21
73.7
 31
0.0
  0
LINE
  8
0
  6
CONTINUOUS
 62
     2
 10
200.875
 20
73.7
 30
0.0
 11
200.875
 21
73.3
 31
0.0
  0
LINE
  8
0
  6
LTYPE1
 62
     2
 10
202.0
 20
73.5
 30
0.0
 11
198.0
 21
73.5
 31
0.0
  0
LINE
  8
0
  6
LTYPE1
 62
     2
 10
200.0
 20
71.5
 30
0.0
 11
200.0
 21
75.5
 31
0.0
  0
LINE
  8
0
  6
CONTINUOUS
 62
     1
 10
195.75
 20
106.45
 30
0.0
 11
204.25
 21
106.45
 31
0.0
  0
LINE
  8
0
  6
CONTINUOUS
 62
     1
 10
197.0
 20
106.45
 30
0.0
 11
197.0
 21
110.55
 31
0.0
  0
LINE
  8
0
  6
CONTINUOUS
 62
     1
 10
203.0
 20
110.55
 30
0.0
 11
203.0
 21
106.45
 31
0.0
  0
LINE
  8
0
  6
CONTINUOUS
 62
     1
 10
204.25
 20
110.55
 30
0.0
 11
195.75
 21
110.55
 31
0.0
  0
LINE
  8
0
  6
CONTINUOUS
 62
     1
 10
195.75
 20
110.55
 30
0.0
 11
195.75
 21
106.45
 31
0.0
  0
LINE
  8
0
  6
CONTINUOUS
 62
     1
 10
204.25
 20
106.45
 30
0.0
 11
204.25
 21
110.55
 31
0.0
  0
LINE
  8
0
  6
CONTINUOUS
 62
     2
 10
198.25
 20
106.7
 30
0.0
 11
198.25
 21
107.25
 31
0.0
  0
LINE
  8
0
  6
CONTINUOUS
 62
     2
 10
198.25
 20
106.7
 30
0.0
 11
198.5
 21
106.45
 31
0.0
  0
LINE
  8
0
  6
CONTINUOUS
 62
     2
 10
198.25
 20
109.75
 30
0.0
 11
198.25
 21
110.3
 31
0.0
  0
LINE
  8
0
  6
CONTINUOUS
 62
     2
 10
198.25
 20
110.3
 30
0.0
 11
198.5
 21
110.55
 31
0.0
  0
LINE
  8
0
  6
CONTINUOUS
 62
     2
 10
201.5
 20
110.55
 30
0.0
 11
198.5
 21
110.55
 31
0.0
  0
LINE
  8
0
  6
CONTINUOUS
 62
     2
 10
201.75
 20
109.75
 30
0.0
 11
201.75
 21
110.3
 31
0.0
  0
LINE
  8
0
  6
CONTINUOUS
 62
     2
 10
201.5
 20
110.55
 30
0.0
 11
201.75
 21
110.3
 31
0.0
  0
LINE
  8
0
  6
CONTINUOUS
 62
     2
 10
201.75
 20
106.7
 30
0.0
 11
201.75
 21
107.25
 31
0.0
  0
LINE
  8
0
  6
CONTINUOUS
 62
     2
 10
198.5
 20
106.45
 30
0.0
 11
201.5
 21
106.45
 31
0.0
  0
LINE
  8
0
  6
CONTINUOUS
 62
     2
 10
201.75
 20
106.7
 30
0.0
 11
201.5
 21
106.45
 31
0.0
  0
LINE
  8
0
  6
CONTINUOUS
 62
     2
 10
197.85
 20
107.25
 30
0.0
 11
198.25
 21
107.25
 31
0.0
  0
LINE
  8
0
  6
CONTINUOUS
 62
     2
 10
197.85
 20
107.25
 30
0.0
 11
197.85
 21
109.75
 31
0.0
  0
LINE
  8
0
  6
CONTINUOUS
 62
     2
 10
197.85
 20
109.75
 30
0.0
 11
198.25
 21
109.75
 31
0.0
  0
LINE
  8
0
  6
CONTINUOUS
 62
     2
 10
202.15
 20
107.25
 30
0.0
 11
201.75
 21
107.25
 31
0.0
  0
LINE
  8
0
  6
CONTINUOUS
 62
     2
 10
202.15
 20
107.25
 30
0.0
 11
202.15
 21
109.75
 31
0.0
  0
LINE
  8
0
  6
CONTINUOUS
 62
     2
 10
202.15
 20
109.75
 30
0.0
 11
201.75
 21
109.75
 31
0.0
  0
LINE
  8
0
  6
CONTINUOUS
 62
     2
 10
202.15
 20
109.85
 30
0.0
 11
201.75
 21
109.85
 31
0.0
  0
ARC
  8
0
  6
CONTINUOUS
 62
     2
 10
202.15
 20
109.75
 30
0.0
 40
0.1
 50
0.0
 51
90.0
  0
LINE
  8
0
  6
CONTINUOUS
 62
     2
 10
201.75
 20
107.15
 30
0.0
 11
202.15
 21
107.15
 31
0.0
  0
LINE
  8
0
  6
CONTINUOUS
 62
     2
 10
202.25
 20
107.25
 30
0.0
 11
202.25
 21
109.75
 31
0.0
  0
ARC
  8
0
  6
CONTINUOUS
 62
     2
 10
202.15
 20
107.25
 30
0.0
 40
0.1
 50
270.0
 51
0.0
  0
LINE
  8
0
  6
CONTINUOUS
 62
     2
 10
197.85
 20
109.85
 30
0.0
 11
198.25
 21
109.85
 31
0.0
  0
ARC
  8
0
  6
CONTINUOUS
 62
     2
 10
197.85
 20
109.75
 30
0.0
 40
0.1
 50
90.0
 51
180.0
  0
LINE
  8
0
  6
CONTINUOUS
 62
     2
 10
198.25
 20
107.15
 30
0.0
 11
197.85
 21
107.15
 31
0.0
  0
ARC
  8
0
  6
CONTINUOUS
 62
     2
 10
197.85
 20
107.25
 30
0.0
 40
0.1
 50
180.0
 51
270.0
  0
LINE
  8
0
  6
CONTINUOUS
 62
     2
 10
197.75
 20
107.25
 30
0.0
 11
197.75
 21
109.75
 31
0.0
  0
CIRCLE
  8
0
  6
CONTINUOUS
 62
     2
 10
200.0
 20
108.5
 30
0.0
 40
1.5
  0
LINE
  8
0
  6
CONTINUOUS
 62
     2
 10
200.875
 20
108.3
 30
0.0
 11
200.4
 21
108.3
 31
0.0
  0
ARC
  8
0
  6
CONTINUOUS
 62
     2
 10
200.4
 20
108.1
 30
0.0
 40
0.2
 50
90.0
 51
180.0
  0
LINE
  8
0
  6
CONTINUOUS
 62
     2
 10
200.2
 20
108.1
 30
0.0
 11
200.2
 21
107.625
 31
0.0
  0
LINE
  8
0
  6
CONTINUOUS
 62
     2
 10
200.2
 20
107.625
 30
0.0
 11
199.8
 21
107.625
 31
0.0
  0
LINE
  8
0
  6
CONTINUOUS
 62
     2
 10
199.8
 20
107.625
 30
0.0
 11
199.8
 21
108.1
 31
0.0
  0
ARC
  8
0
  6
CONTINUOUS
 62
     2
 10
199.6
 20
108.1
 30
0.0
 40
0.2
 50
0.0
 51
90.0
  0
LINE
  8
0
  6
CONTINUOUS
 62
     2
 10
199.6
 20
108.3
 30
0.0
 11
199.125
 21
108.3
 31
0.0
  0
LINE
  8
0
  6
CONTINUOUS
 62
     2
 10
199.125
 20
108.3
 30
0.0
 11
199.125
 21
108.7
 31
0.0
  0
LINE
  8
0
  6
CONTINUOUS
 62
     2
 10
199.125
 20
108.7
 30
0.0
 11
199.6
 21
108.7
 31
0.0
  0
ARC
  8
0
  6
CONTINUOUS
 62
     2
 10
199.6
 20
108.9
 30
0.0
 40
0.2
 50
270.0
 51
0.0
  0
LINE
  8
0
  6
CONTINUOUS
 62
     2
 10
199.8
 20
108.9
 30
0.0
 11
199.8
 21
109.375
 31
0.0
  0
LINE
  8
0
  6
CONTINUOUS
 62
     2
 10
199.8
 20
109.375
 30
0.0
 11
200.2
 21
109.375
 31
0.0
  0
LINE
  8
0
  6
CONTINUOUS
 62
     2
 10
200.2
 20
109.375
 30
0.0
 11
200.2
 21
108.9
 31
0.0
  0
ARC
  8
0
  6
CONTINUOUS
 62
     2
 10
200.4
 20
108.9
 30
0.0
 40
0.2
 50
180.0
 51
270.0
  0
LINE
  8
0
  6
CONTINUOUS
 62
     2
 10
200.4
 20
108.7
 30
0.0
 11
200.875
 21
108.7
 31
0.0
  0
LINE
  8
0
  6
CONTINUOUS
 62
     2
 10
200.875
 20
108.7
 30
0.0
 11
200.875
 21
108.3
 31
0.0
  0
LINE
  8
0
  6
LTYPE1
 62
     2
 10
202.0
 20
108.5
 30
0.0
 11
198.0
 21
108.5
 31
0.0
  0
LINE
  8
0
  6
LTYPE1
 62
     2
 10
200.0
 20
106.5
 30
0.0
 11
200.0
 21
110.5
 31
0.0
  0
LINE
  8
0
  6
CONTINUOUS
 62
     1
 10
204.25
 20
75.55
 30
0.0
 11
204.25
 21
76.45
 31
0.0
  0
LINE
  8
0
  6
CONTINUOUS
 62
     1
 10
195.75
 20
75.55
 30
0.0
 11
195.75
 21
76.45
 31
0.0
  0
LINE
  8
0
  6
CONTINUOUS
 62
     1
 10
204.25
 20
105.55
 30
0.0
 11
204.25
 21
106.45
 31
0.0
  0
LINE
  8
0
  6
CONTINUOUS
 62
     1
 10
195.75
 20
106.45
 30
0.0
 11
195.75
 21
105.55
 31
0.0
  0
LINE
  8
0
  6
CONTINUOUS
 62
     2
 10
195.3
 20
75.4
 30
0.0
 11
204.7
 21
75.4
 31
0.0
  0
LINE
  8
0
  6
CONTINUOUS
 62
     2
 10
195.3
 20
106.6
 30
0.0
 11
204.7
 21
106.6
 31
0.0
  0
LINE
  8
0
  6
CONTINUOUS
 62
     2
 10
204.7
 20
106.6
 30
0.0
 11
204.7
 21
75.4
 31
0.0
  0
LINE
  8
0
  6
CONTINUOUS
 62
     2
 10
195.3
 20
75.4
 30
0.0
 11
195.3
 21
106.6
 31
0.0
  0
LINE
  8
0
  6
CONTINUOUS
 62
     2
 10
192.0
 20
110.8
 30
0.0
 11
208.0
 21
110.8
 31
0.0
  0
LINE
  8
0
  6
CONTINUOUS
 62
     2
 10
192.0
 20
123.3
 30
0.0
 11
192.0
 21
110.8
 31
0.0
  0
LINE
  8
0
  6
CONTINUOUS
 62
     2
 10
192.0
 20
123.3
 30
0.0
 11
208.0
 21
123.3
 31
0.0
  0
LINE
  8
0
  6
CONTINUOUS
 62
     2
 10
208.0
 20
110.8
 30
0.0
 11
208.0
 21
123.3
 31
0.0
  0
TEXT
  8
0
  6
CONTINUOUS
 62
     2
 10
194.0
 20
117.6
 30
0.3
 40
3.0
  1
貼　銘　板
 50
0.0
 41
0.9
 51
0.0
  7
KANJI1
  0
TEXT
  8
0
  6
CONTINUOUS
 62
     2
 10
191.4
 20
113.6
 30
0.3
 40
3.0
  1
（表示事項）
 50
0.0
 41
0.9
 51
0.0
  7
KANJI1
  0
LINE
  8
0
  6
CONTINUOUS
 62
     1
 10
162.75
 20
100.55
 30
0.0
 11
162.75
 21
96.45
 31
0.0
  0
LINE
  8
0
  6
CONTINUOUS
 62
     1
 10
162.75
 20
96.45
 30
0.0
 11
169.25
 21
96.45
 31
0.0
  0
LINE
  8
0
  6
CONTINUOUS
 62
     1
 10
169.25
 20
96.45
 30
0.0
 11
169.25
 21
95.55
 31
0.0
  0
LINE
  8
0
  6
CONTINUOUS
 62
     1
 10
169.25
 20
95.55
 30
0.0
 11
162.75
 21
95.55
 31
0.0
  0
LINE
  8
0
  6
CONTINUOUS
 62
     1
 10
162.75
 20
95.55
 30
0.0
 11
162.75
 21
91.45
 31
0.0
  0
LINE
  8
0
  6
CONTINUOUS
 62
     1
 10
162.75
 20
91.45
 30
0.0
 11
169.25
 21
91.45
 31
0.0
  0
LINE
  8
0
  6
CONTINUOUS
 62
     1
 10
169.25
 20
91.45
 30
0.0
 11
169.25
 21
90.55
 31
0.0
  0
LINE
  8
0
  6
CONTINUOUS
 62
     1
 10
169.25
 20
90.55
 30
0.0
 11
162.75
 21
90.55
 31
0.0
  0
LINE
  8
0
  6
CONTINUOUS
 62
     1
 10
162.75
 20
90.55
 30
0.0
 11
162.75
 21
86.45
 31
0.0
  0
LINE
  8
0
  6
CONTINUOUS
 62
     1
 10
162.75
 20
86.45
 30
0.0
 11
169.25
 21
86.45
 31
0.0
  0
LINE
  8
0
  6
CONTINUOUS
 62
     1
 10
169.25
 20
86.45
 30
0.0
 11
169.25
 21
85.55
 31
0.0
  0
LINE
  8
0
  6
CONTINUOUS
 62
     1
 10
169.25
 20
85.55
 30
0.0
 11
162.75
 21
85.55
 31
0.0
  0
LINE
  8
0
  6
CONTINUOUS
 62
     1
 10
162.75
 20
85.55
 30
0.0
 11
162.75
 21
81.45
 31
0.0
  0
LINE
  8
0
  6
CONTINUOUS
 62
     2
 10
164.75
 20
100.55
 30
0.0
 11
164.75
 21
96.45
 31
0.0
  0
LINE
  8
0
  6
CONTINUOUS
 62
     2
 10
165.15
 20
96.45
 30
0.0
 11
165.15
 21
100.55
 31
0.0
  0
LINE
  8
0
  6
CONTINUOUS
 62
     2
 10
164.75
 20
99.75
 30
0.0
 11
165.15
 21
99.75
 31
0.0
  0
LINE
  8
0
  6
CONTINUOUS
 62
     2
 10
164.75
 20
97.25
 30
0.0
 11
165.15
 21
97.25
 31
0.0
  0
LINE
  8
0
  6
CONTINUOUS
 62
     2
 10
164.75
 20
95.55
 30
0.0
 11
164.75
 21
91.45
 31
0.0
  0
LINE
  8
0
  6
CONTINUOUS
 62
     2
 10
165.15
 20
91.45
 30
0.0
 11
165.15
 21
95.55
 31
0.0
  0
LINE
  8
0
  6
CONTINUOUS
 62
     2
 10
164.75
 20
94.75
 30
0.0
 11
165.15
 21
94.75
 31
0.0
  0
LINE
  8
0
  6
CONTINUOUS
 62
     2
 10
164.75
 20
92.25
 30
0.0
 11
165.15
 21
92.25
 31
0.0
  0
LINE
  8
0
  6
CONTINUOUS
 62
     2
 10
164.75
 20
90.55
 30
0.0
 11
164.75
 21
86.45
 31
0.0
  0
LINE
  8
0
  6
CONTINUOUS
 62
     2
 10
164.75
 20
89.75
 30
0.0
 11
165.15
 21
89.75
 31
0.0
  0
LINE
  8
0
  6
CONTINUOUS
 62
     2
 10
164.75
 20
87.25
 30
0.0
 11
165.15
 21
87.25
 31
0.0
  0
LINE
  8
0
  6
CONTINUOUS
 62
     2
 10
164.75
 20
85.55
 30
0.0
 11
164.75
 21
81.45
 31
0.0
  0
LINE
  8
0
  6
CONTINUOUS
 62
     2
 10
164.75
 20
84.75
 30
0.0
 11
165.15
 21
84.75
 31
0.0
  0
LINE
  8
0
  6
CONTINUOUS
 62
     2
 10
164.75
 20
82.25
 30
0.0
 11
165.15
 21
82.25
 31
0.0
  0
LINE
  8
0
  6
CONTINUOUS
 62
     2
 10
167.85
 20
96.45
 30
0.0
 11
167.85
 21
95.55
 31
0.0
  0
LINE
  8
0
  6
CONTINUOUS
 62
     2
 10
168.35
 20
95.55
 30
0.0
 11
168.35
 21
96.45
 31
0.0
  0
LINE
  8
0
  6
CONTINUOUS
 62
     2
 10
167.25
 20
96.45
 30
0.0
 11
167.25
 21
95.55
 31
0.0
  0
LINE
  8
0
  6
CONTINUOUS
 62
     2
 10
167.85
 20
91.45
 30
0.0
 11
167.85
 21
90.55
 31
0.0
  0
LINE
  8
0
  6
CONTINUOUS
 62
     2
 10
168.35
 20
90.55
 30
0.0
 11
168.35
 21
91.45
 31
0.0
  0
LINE
  8
0
  6
CONTINUOUS
 62
     2
 10
167.25
 20
91.45
 30
0.0
 11
167.25
 21
90.55
 31
0.0
  0
LINE
  8
0
  6
CONTINUOUS
 62
     2
 10
167.85
 20
86.45
 30
0.0
 11
167.85
 21
85.55
 31
0.0
  0
LINE
  8
0
  6
CONTINUOUS
 62
     2
 10
168.35
 20
85.55
 30
0.0
 11
168.35
 21
86.45
 31
0.0
  0
LINE
  8
0
  6
CONTINUOUS
 62
     2
 10
167.25
 20
86.45
 30
0.0
 11
167.25
 21
85.55
 31
0.0
  0
LINE
  8
0
  6
CONTINUOUS
 62
     2
 10
165.54
 20
99.83
 30
0.0
 11
165.54
 21
97.17
 31
0.0
  0
LINE
  8
0
  6
CONTINUOUS
 62
     2
 10
165.85
 20
97.19
 30
0.0
 11
165.54
 21
97.17
 31
0.0
  0
LINE
  8
0
  6
CONTINUOUS
 62
     2
 10
165.54
 20
99.83
 30
0.0
 11
165.85
 21
99.83
 31
0.0
  0
LINE
  8
0
  6
CONTINUOUS
 62
     2
 10
166.59
 20
99.08
 30
0.0
 11
166.59
 21
97.92
 31
0.0
  0
ARC
  8
0
  6
CONTINUOUS
 62
     2
 10
165.84
 20
99.08
 30
0.0
 40
0.75
 50
0.0
 51
90.0
  0
ARC
  8
0
  6
CONTINUOUS
 62
     2
 10
165.84
 20
97.92
 30
0.0
 40
0.75
 50
268.472474559
 51
0.0
  0
LINE
  8
0
  6
CONTINUOUS
 62
     2
 10
165.53
 20
99.85
 30
0.0
 11
165.15
 21
99.85
 31
0.0
  0
LINE
  8
0
  6
CONTINUOUS
 62
     2
 10
165.15
 20
99.85
 30
0.0
 11
165.15
 21
97.17
 31
0.0
  0
LINE
  8
0
  6
CONTINUOUS
 62
     2
 10
165.15
 20
97.17
 30
0.0
 11
165.53
 21
97.17
 31
0.0
  0
LINE
  8
0
  6
CONTINUOUS
 62
     2
 10
165.15
 20
98.38
 30
0.0
 11
165.53
 21
98.69
 31
0.0
  0
LINE
  8
0
  6
CONTINUOUS
 62
     2
 10
165.15
 20
98.14
 30
0.0
 11
165.54
 21
98.43
 31
0.0
  0
LINE
  8
0
  6
CONTINUOUS
 62
     2
 10
166.59
 20
98.71
 30
0.0
 11
166.52
 21
98.71
 31
0.0
  0
LINE
  8
0
  6
CONTINUOUS
 62
     2
 10
166.52
 20
98.72
 30
0.0
 11
166.52
 21
98.34
 31
0.0
  0
LINE
  8
0
  6
CONTINUOUS
 62
     2
 10
166.52
 20
98.34
 30
0.0
 11
166.58
 21
98.34
 31
0.0
  0
LINE
  8
0
  6
CONTINUOUS
 62
     2
 10
165.54
 20
84.83
 30
0.0
 11
165.54
 21
82.17
 31
0.0
  0
LINE
  8
0
  6
CONTINUOUS
 62
     2
 10
165.85
 20
82.19
 30
0.0
 11
165.54
 21
82.17
 31
0.0
  0
LINE
  8
0
  6
CONTINUOUS
 62
     2
 10
165.54
 20
84.83
 30
0.0
 11
165.85
 21
84.83
 31
0.0
  0
LINE
  8
0
  6
CONTINUOUS
 62
     2
 10
166.59
 20
84.08
 30
0.0
 11
166.59
 21
82.92
 31
0.0
  0
ARC
  8
0
  6
CONTINUOUS
 62
     2
 10
165.84
 20
84.08
 30
0.0
 40
0.75
 50
0.0
 51
90.0
  0
ARC
  8
0
  6
CONTINUOUS
 62
     2
 10
165.84
 20
82.92
 30
0.0
 40
0.75
 50
268.472474559
 51
0.0
  0
LINE
  8
0
  6
CONTINUOUS
 62
     2
 10
165.53
 20
84.85
 30
0.0
 11
165.15
 21
84.85
 31
0.0
  0
LINE
  8
0
  6
CONTINUOUS
 62
     2
 10
165.15
 20
84.85
 30
0.0
 11
165.15
 21
82.17
 31
0.0
  0
LINE
  8
0
  6
CONTINUOUS
 62
     2
 10
165.15
 20
82.17
 30
0.0
 11
165.53
 21
82.17
 31
0.0
  0
LINE
  8
0
  6
CONTINUOUS
 62
     2
 10
165.15
 20
83.38
 30
0.0
 11
165.53
 21
83.69
 31
0.0
  0
LINE
  8
0
  6
CONTINUOUS
 62
     2
 10
165.15
 20
83.14
 30
0.0
 11
165.54
 21
83.43
 31
0.0
  0
LINE
  8
0
  6
CONTINUOUS
 62
     2
 10
166.59
 20
83.71
 30
0.0
 11
166.52
 21
83.71
 31
0.0
  0
LINE
  8
0
  6
CONTINUOUS
 62
     2
 10
166.52
 20
83.72
 30
0.0
 11
166.52
 21
83.34
 31
0.0
  0
LINE
  8
0
  6
CONTINUOUS
 62
     2
 10
166.52
 20
83.34
 30
0.0
 11
166.58
 21
83.34
 31
0.0
  0
LINE
  8
0
  6
CONTINUOUS
 62
     1
 10
162.75
 20
110.55
 30
0.0
 11
162.75
 21
106.45
 31
0.0
  0
LINE
  8
0
  6
CONTINUOUS
 62
     1
 10
162.75
 20
106.45
 30
0.0
 11
169.25
 21
106.45
 31
0.0
  0
LINE
  8
0
  6
CONTINUOUS
 62
     1
 10
169.25
 20
106.45
 30
0.0
 11
169.25
 21
105.55
 31
0.0
  0
LINE
  8
0
  6
CONTINUOUS
 62
     1
 10
169.25
 20
105.55
 30
0.0
 11
162.75
 21
105.55
 31
0.0
  0
LINE
  8
0
  6
CONTINUOUS
 62
     2
 10
164.75
 20
110.55
 30
0.0
 11
164.75
 21
106.45
 31
0.0
  0
LINE
  8
0
  6
CONTINUOUS
 62
     2
 10
165.15
 20
106.45
 30
0.0
 11
165.15
 21
110.55
 31
0.0
  0
LINE
  8
0
  6
CONTINUOUS
 62
     2
 10
165.15
 20
110.55
 30
0.0
 11
164.75
 21
110.55
 31
0.0
  0
LINE
  8
0
  6
CONTINUOUS
 62
     2
 10
164.75
 20
109.75
 30
0.0
 11
165.15
 21
109.75
 31
0.0
  0
LINE
  8
0
  6
CONTINUOUS
 62
     2
 10
164.75
 20
107.25
 30
0.0
 11
165.15
 21
107.25
 31
0.0
  0
LINE
  8
0
  6
CONTINUOUS
 62
     2
 10
167.85
 20
106.45
 30
0.0
 11
167.85
 21
105.55
 31
0.0
  0
LINE
  8
0
  6
CONTINUOUS
 62
     2
 10
168.35
 20
105.55
 30
0.0
 11
168.35
 21
106.45
 31
0.0
  0
LINE
  8
0
  6
CONTINUOUS
 62
     2
 10
167.25
 20
106.45
 30
0.0
 11
167.25
 21
105.55
 31
0.0
  0
LINE
  8
0
  6
CONTINUOUS
 62
     2
 10
165.54
 20
109.83
 30
0.0
 11
165.54
 21
107.17
 31
0.0
  0
LINE
  8
0
  6
CONTINUOUS
 62
     2
 10
165.85
 20
107.19
 30
0.0
 11
165.54
 21
107.17
 31
0.0
  0
LINE
  8
0
  6
CONTINUOUS
 62
     2
 10
165.54
 20
109.83
 30
0.0
 11
165.85
 21
109.83
 31
0.0
  0
LINE
  8
0
  6
CONTINUOUS
 62
     2
 10
166.59
 20
109.08
 30
0.0
 11
166.59
 21
107.92
 31
0.0
  0
ARC
  8
0
  6
CONTINUOUS
 62
     2
 10
165.84
 20
109.08
 30
0.0
 40
0.75
 50
0.0
 51
90.0
  0
ARC
  8
0
  6
CONTINUOUS
 62
     2
 10
165.84
 20
107.92
 30
0.0
 40
0.75
 50
268.472474559
 51
0.0
  0
LINE
  8
0
  6
CONTINUOUS
 62
     2
 10
165.53
 20
109.85
 30
0.0
 11
165.15
 21
109.85
 31
0.0
  0
LINE
  8
0
  6
CONTINUOUS
 62
     2
 10
165.15
 20
109.85
 30
0.0
 11
165.15
 21
107.17
 31
0.0
  0
LINE
  8
0
  6
CONTINUOUS
 62
     2
 10
165.15
 20
107.17
 30
0.0
 11
165.53
 21
107.17
 31
0.0
  0
LINE
  8
0
  6
CONTINUOUS
 62
     2
 10
165.15
 20
108.38
 30
0.0
 11
165.53
 21
108.69
 31
0.0
  0
LINE
  8
0
  6
CONTINUOUS
 62
     2
 10
165.15
 20
108.14
 30
0.0
 11
165.54
 21
108.43
 31
0.0
  0
LINE
  8
0
  6
CONTINUOUS
 62
     2
 10
166.59
 20
108.71
 30
0.0
 11
166.52
 21
108.71
 31
0.0
  0
LINE
  8
0
  6
CONTINUOUS
 62
     2
 10
166.52
 20
108.72
 30
0.0
 11
166.52
 21
108.34
 31
0.0
  0
LINE
  8
0
  6
CONTINUOUS
 62
     2
 10
166.52
 20
108.34
 30
0.0
 11
166.58
 21
108.34
 31
0.0
  0
LINE
  8
0
  6
CONTINUOUS
 62
     2
 10
162.75
 20
110.55
 30
0.0
 11
164.75
 21
110.55
 31
0.0
  0
LINE
  8
0
  6
CONTINUOUS
 62
     1
 10
162.75
 20
76.45
 30
0.0
 11
169.25
 21
76.45
 31
0.0
  0
LINE
  8
0
  6
CONTINUOUS
 62
     1
 10
169.25
 20
76.45
 30
0.0
 11
169.25
 21
75.55
 31
0.0
  0
LINE
  8
0
  6
CONTINUOUS
 62
     1
 10
169.25
 20
75.55
 30
0.0
 11
162.75
 21
75.55
 31
0.0
  0
LINE
  8
0
  6
CONTINUOUS
 62
     1
 10
162.75
 20
75.55
 30
0.0
 11
162.75
 21
71.45
 31
0.0
  0
LINE
  8
0
  6
CONTINUOUS
 62
     2
 10
164.75
 20
75.55
 30
0.0
 11
164.75
 21
71.45
 31
0.0
  0
LINE
  8
0
  6
CONTINUOUS
 62
     2
 10
165.15
 20
71.45
 30
0.0
 11
165.15
 21
75.55
 31
0.0
  0
LINE
  8
0
  6
CONTINUOUS
 62
     2
 10
164.75
 20
74.75
 30
0.0
 11
165.15
 21
74.75
 31
0.0
  0
LINE
  8
0
  6
CONTINUOUS
 62
     2
 10
164.75
 20
72.25
 30
0.0
 11
165.15
 21
72.25
 31
0.0
  0
LINE
  8
0
  6
CONTINUOUS
 62
     2
 10
167.85
 20
76.45
 30
0.0
 11
167.85
 21
75.55
 31
0.0
  0
LINE
  8
0
  6
CONTINUOUS
 62
     2
 10
168.35
 20
75.55
 30
0.0
 11
168.35
 21
76.45
 31
0.0
  0
LINE
  8
0
  6
CONTINUOUS
 62
     2
 10
167.25
 20
76.45
 30
0.0
 11
167.25
 21
75.55
 31
0.0
  0
LINE
  8
0
  6
CONTINUOUS
 62
     2
 10
165.54
 20
74.83
 30
0.0
 11
165.54
 21
72.17
 31
0.0
  0
LINE
  8
0
  6
CONTINUOUS
 62
     2
 10
165.85
 20
72.19
 30
0.0
 11
165.54
 21
72.17
 31
0.0
  0
LINE
  8
0
  6
CONTINUOUS
 62
     2
 10
165.54
 20
74.83
 30
0.0
 11
165.85
 21
74.83
 31
0.0
  0
LINE
  8
0
  6
CONTINUOUS
 62
     2
 10
166.59
 20
74.08
 30
0.0
 11
166.59
 21
72.92
 31
0.0
  0
ARC
  8
0
  6
CONTINUOUS
 62
     2
 10
165.84
 20
74.08
 30
0.0
 40
0.75
 50
0.0
 51
90.0
  0
ARC
  8
0
  6
CONTINUOUS
 62
     2
 10
165.84
 20
72.92
 30
0.0
 40
0.75
 50
268.472474559
 51
0.0
  0
LINE
  8
0
  6
CONTINUOUS
 62
     2
 10
165.53
 20
74.85
 30
0.0
 11
165.15
 21
74.85
 31
0.0
  0
LINE
  8
0
  6
CONTINUOUS
 62
     2
 10
165.15
 20
74.85
 30
0.0
 11
165.15
 21
72.17
 31
0.0
  0
LINE
  8
0
  6
CONTINUOUS
 62
     2
 10
165.15
 20
72.17
 30
0.0
 11
165.53
 21
72.17
 31
0.0
  0
LINE
  8
0
  6
CONTINUOUS
 62
     2
 10
165.15
 20
73.38
 30
0.0
 11
165.53
 21
73.69
 31
0.0
  0
LINE
  8
0
  6
CONTINUOUS
 62
     2
 10
165.15
 20
73.14
 30
0.0
 11
165.54
 21
73.43
 31
0.0
  0
LINE
  8
0
  6
CONTINUOUS
 62
     2
 10
166.59
 20
73.71
 30
0.0
 11
166.52
 21
73.71
 31
0.0
  0
LINE
  8
0
  6
CONTINUOUS
 62
     2
 10
166.52
 20
73.72
 30
0.0
 11
166.52
 21
73.34
 31
0.0
  0
LINE
  8
0
  6
CONTINUOUS
 62
     2
 10
166.52
 20
73.34
 30
0.0
 11
166.58
 21
73.34
 31
0.0
  0
LINE
  8
0
  6
CONTINUOUS
 62
     2
 10
164.75
 20
71.45
 30
0.0
 11
165.15
 21
71.45
 31
0.0
  0
LINE
  8
0
  6
CONTINUOUS
 62
     2
 10
162.75
 20
71.45
 30
0.0
 11
164.75
 21
71.45
 31
0.0
  0
LINE
  8
0
  6
CONTINUOUS
 62
     1
 10
162.75
 20
105.55
 30
0.0
 11
162.75
 21
101.45
 31
0.0
  0
LINE
  8
0
  6
CONTINUOUS
 62
     2
 10
164.75
 20
105.55
 30
0.0
 11
164.75
 21
101.45
 31
0.0
  0
LINE
  8
0
  6
CONTINUOUS
 62
     2
 10
165.15
 20
101.45
 30
0.0
 11
165.15
 21
105.55
 31
0.0
  0
LINE
  8
0
  6
CONTINUOUS
 62
     2
 10
164.75
 20
104.75
 30
0.0
 11
165.15
 21
104.75
 31
0.0
  0
LINE
  8
0
  6
CONTINUOUS
 62
     2
 10
164.75
 20
102.25
 30
0.0
 11
165.15
 21
102.25
 31
0.0
  0
LINE
  8
0
  6
CONTINUOUS
 62
     2
 10
165.54
 20
104.83
 30
0.0
 11
165.54
 21
102.17
 31
0.0
  0
LINE
  8
0
  6
CONTINUOUS
 62
     2
 10
165.85
 20
102.19
 30
0.0
 11
165.54
 21
102.17
 31
0.0
  0
LINE
  8
0
  6
CONTINUOUS
 62
     2
 10
165.54
 20
104.83
 30
0.0
 11
165.85
 21
104.83
 31
0.0
  0
LINE
  8
0
  6
CONTINUOUS
 62
     2
 10
166.59
 20
104.08
 30
0.0
 11
166.59
 21
102.92
 31
0.0
  0
ARC
  8
0
  6
CONTINUOUS
 62
     2
 10
165.84
 20
104.08
 30
0.0
 40
0.75
 50
0.0
 51
90.0
  0
ARC
  8
0
  6
CONTINUOUS
 62
     2
 10
165.84
 20
102.92
 30
0.0
 40
0.75
 50
268.472474559
 51
0.0
  0
LINE
  8
0
  6
CONTINUOUS
 62
     2
 10
165.53
 20
104.85
 30
0.0
 11
165.15
 21
104.85
 31
0.0
  0
LINE
  8
0
  6
CONTINUOUS
 62
     2
 10
165.15
 20
104.85
 30
0.0
 11
165.15
 21
102.17
 31
0.0
  0
LINE
  8
0
  6
CONTINUOUS
 62
     2
 10
165.15
 20
102.17
 30
0.0
 11
165.53
 21
102.17
 31
0.0
  0
LINE
  8
0
  6
CONTINUOUS
 62
     2
 10
165.15
 20
103.38
 30
0.0
 11
165.53
 21
103.69
 31
0.0
  0
LINE
  8
0
  6
CONTINUOUS
 62
     2
 10
165.15
 20
103.14
 30
0.0
 11
165.54
 21
103.43
 31
0.0
  0
LINE
  8
0
  6
CONTINUOUS
 62
     2
 10
166.59
 20
103.71
 30
0.0
 11
166.52
 21
103.71
 31
0.0
  0
LINE
  8
0
  6
CONTINUOUS
 62
     2
 10
166.52
 20
103.72
 30
0.0
 11
166.52
 21
103.34
 31
0.0
  0
LINE
  8
0
  6
CONTINUOUS
 62
     2
 10
166.52
 20
103.34
 30
0.0
 11
166.58
 21
103.34
 31
0.0
  0
LINE
  8
0
  6
CONTINUOUS
 62
     2
 10
164.75
 20
101.45
 30
0.0
 11
165.15
 21
101.45
 31
0.0
  0
LINE
  8
0
  6
CONTINUOUS
 62
     2
 10
162.75
 20
101.45
 30
0.0
 11
164.75
 21
101.45
 31
0.0
  0
LINE
  8
0
  6
CONTINUOUS
 62
     1
 10
162.75
 20
101.45
 30
0.0
 11
169.25
 21
101.45
 31
0.0
  0
LINE
  8
0
  6
CONTINUOUS
 62
     1
 10
169.25
 20
101.45
 30
0.0
 11
169.25
 21
100.55
 31
0.0
  0
LINE
  8
0
  6
CONTINUOUS
 62
     1
 10
169.25
 20
100.55
 30
0.0
 11
162.75
 21
100.55
 31
0.0
  0
LINE
  8
0
  6
CONTINUOUS
 62
     2
 10
167.85
 20
101.45
 30
0.0
 11
167.85
 21
100.55
 31
0.0
  0
LINE
  8
0
  6
CONTINUOUS
 62
     2
 10
168.35
 20
100.55
 30
0.0
 11
168.35
 21
101.45
 31
0.0
  0
LINE
  8
0
  6
CONTINUOUS
 62
     2
 10
167.25
 20
101.45
 30
0.0
 11
167.25
 21
100.55
 31
0.0
  0
LINE
  8
0
  6
CONTINUOUS
 62
     1
 10
162.75
 20
80.55
 30
0.0
 11
162.75
 21
76.45
 31
0.0
  0
LINE
  8
0
  6
CONTINUOUS
 62
     2
 10
164.75
 20
80.55
 30
0.0
 11
164.75
 21
76.45
 31
0.0
  0
LINE
  8
0
  6
CONTINUOUS
 62
     2
 10
164.75
 20
79.75
 30
0.0
 11
165.15
 21
79.75
 31
0.0
  0
LINE
  8
0
  6
CONTINUOUS
 62
     2
 10
164.75
 20
77.25
 30
0.0
 11
165.15
 21
77.25
 31
0.0
  0
LINE
  8
0
  6
CONTINUOUS
 62
     2
 10
165.54
 20
79.83
 30
0.0
 11
165.54
 21
77.17
 31
0.0
  0
LINE
  8
0
  6
CONTINUOUS
 62
     2
 10
165.85
 20
77.19
 30
0.0
 11
165.54
 21
77.17
 31
0.0
  0
LINE
  8
0
  6
CONTINUOUS
 62
     2
 10
165.54
 20
79.83
 30
0.0
 11
165.85
 21
79.83
 31
0.0
  0
LINE
  8
0
  6
CONTINUOUS
 62
     2
 10
166.59
 20
79.08
 30
0.0
 11
166.59
 21
77.92
 31
0.0
  0
ARC
  8
0
  6
CONTINUOUS
 62
     2
 10
165.84
 20
79.08
 30
0.0
 40
0.75
 50
0.0
 51
90.0
  0
ARC
  8
0
  6
CONTINUOUS
 62
     2
 10
165.84
 20
77.92
 30
0.0
 40
0.75
 50
268.472474559
 51
0.0
  0
LINE
  8
0
  6
CONTINUOUS
 62
     2
 10
165.53
 20
79.85
 30
0.0
 11
165.15
 21
79.85
 31
0.0
  0
LINE
  8
0
  6
CONTINUOUS
 62
     2
 10
165.15
 20
79.85
 30
0.0
 11
165.15
 21
77.17
 31
0.0
  0
LINE
  8
0
  6
CONTINUOUS
 62
     2
 10
165.15
 20
77.17
 30
0.0
 11
165.53
 21
77.17
 31
0.0
  0
LINE
  8
0
  6
CONTINUOUS
 62
     2
 10
165.15
 20
78.38
 30
0.0
 11
165.53
 21
78.69
 31
0.0
  0
LINE
  8
0
  6
CONTINUOUS
 62
     2
 10
165.15
 20
78.14
 30
0.0
 11
165.54
 21
78.43
 31
0.0
  0
LINE
  8
0
  6
CONTINUOUS
 62
     2
 10
166.59
 20
78.71
 30
0.0
 11
166.52
 21
78.71
 31
0.0
  0
LINE
  8
0
  6
CONTINUOUS
 62
     2
 10
166.52
 20
78.72
 30
0.0
 11
166.52
 21
78.34
 31
0.0
  0
LINE
  8
0
  6
CONTINUOUS
 62
     2
 10
166.52
 20
78.34
 30
0.0
 11
166.58
 21
78.34
 31
0.0
  0
LINE
  8
0
  6
CONTINUOUS
 62
     1
 10
162.75
 20
81.45
 30
0.0
 11
169.25
 21
81.45
 31
0.0
  0
LINE
  8
0
  6
CONTINUOUS
 62
     1
 10
169.25
 20
81.45
 30
0.0
 11
169.25
 21
80.55
 31
0.0
  0
LINE
  8
0
  6
CONTINUOUS
 62
     1
 10
169.25
 20
80.55
 30
0.0
 11
162.75
 21
80.55
 31
0.0
  0
LINE
  8
0
  6
CONTINUOUS
 62
     2
 10
167.85
 20
81.45
 30
0.0
 11
167.85
 21
80.55
 31
0.0
  0
LINE
  8
0
  6
CONTINUOUS
 62
     2
 10
168.35
 20
80.55
 30
0.0
 11
168.35
 21
81.45
 31
0.0
  0
LINE
  8
0
  6
CONTINUOUS
 62
     2
 10
167.25
 20
81.45
 30
0.0
 11
167.25
 21
80.55
 31
0.0
  0
LINE
  8
0
  6
CONTINUOUS
 62
     1
 10
160.0
 20
110.55
 30
0.0
 11
162.75
 21
110.55
 31
0.0
  0
LINE
  8
0
  6
CONTINUOUS
 62
     1
 10
160.0
 20
71.45
 30
0.0
 11
160.0
 21
110.55
 31
0.0
  0
LINE
  8
0
  6
CONTINUOUS
 62
     1
 10
162.75
 20
71.45
 30
0.0
 11
160.0
 21
71.45
 31
0.0
  0
LINE
  8
0
  6
CONTINUOUS
 62
     2
 10
169.7
 20
75.4
 30
0.0
 11
168.0
 21
75.4
 31
0.0
  0
LINE
  8
0
  6
CONTINUOUS
 62
     2
 10
169.7
 20
106.6
 30
0.0
 11
169.7
 21
75.4
 31
0.0
  0
LINE
  8
0
  6
CONTINUOUS
 62
     2
 10
168.0
 20
106.6
 30
0.0
 11
169.7
 21
106.6
 31
0.0
  0
LINE
  8
0
  6
CONTINUOUS
 62
     2
 10
168.0
 20
75.4
 30
0.0
 11
168.0
 21
106.6
 31
0.0
  0
LINE
  8
0
  6
LTYPE2
 62
     2
 10
163.25
 20
73.5
 30
0.0
 11
167.75
 21
73.5
 31
0.0
  0
LINE
  8
0
  6
LTYPE2
 62
     2
 10
163.25
 20
78.5
 30
0.0
 11
167.75
 21
78.5
 31
0.0
  0
LINE
  8
0
  6
LTYPE2
 62
     2
 10
163.25
 20
83.5
 30
0.0
 11
167.75
 21
83.5
 31
0.0
  0
LINE
  8
0
  6
LTYPE2
 62
     2
 10
163.25
 20
88.5
 30
0.0
 11
167.75
 21
88.5
 31
0.0
  0
LINE
  8
0
  6
LTYPE2
 62
     2
 10
163.25
 20
93.5
 30
0.0
 11
167.75
 21
93.5
 31
0.0
  0
LINE
  8
0
  6
LTYPE2
 62
     2
 10
163.25
 20
98.5
 30
0.0
 11
167.75
 21
98.5
 31
0.0
  0
LINE
  8
0
  6
LTYPE2
 62
     2
 10
163.25
 20
103.5
 30
0.0
 11
167.75
 21
103.5
 31
0.0
  0
LINE
  8
0
  6
LTYPE2
 62
     2
 10
163.25
 20
108.5
 30
0.0
 11
167.75
 21
108.5
 31
0.0
  0
LINE
  8
0
  6
CONTINUOUS
 62
     5
 10
195.2
 20
106.1
 30
0.0
 11
191.2
 21
106.1
 31
0.0
  0
TEXT
  8
0
  6
CONTINUOUS
 62
     5
 10
192.45
 20
102.85
 30
0.1
 40
1.5
  1
１＋
 50
0.0
 41
0.666666667
 51
0.0
  7
KANJI3
  0
TEXT
  8
0
  6
CONTINUOUS
 62
     5
 10
192.45
 20
97.6
 30
0.1
 40
1.5
  1
２－
 50
0.0
 41
0.666666667
 51
0.0
  7
KANJI3
  0
LINE
  8
0
  6
CONTINUOUS
 62
     5
 10
191.2
 20
96.1
 30
0.0
 11
191.2
 21
106.1
 31
0.0
  0
LINE
  8
0
  6
CONTINUOUS
 62
     5
 10
195.2
 20
106.1
 30
0.0
 11
195.2
 21
96.1
 31
0.0
  0
TEXT
  8
0
  6
CONTINUOUS
 62
     5
 10
191.3
 20
100.4
 30
0.05
 40
1.0
  1
ＩＮＰＵＴ
 50
0.0
 41
0.75
 51
0.0
  7
KANJI4
  0
LINE
  8
0
  6
CONTINUOUS
 62
     5
 10
191.2
 20
76.1
 30
0.0
 11
195.2
 21
76.1
 31
0.0
  0
TEXT
  8
0
  6
CONTINUOUS
 62
     5
 10
192.45
 20
82.85
 30
0.1
 40
1.5
  1
５＋
 50
0.0
 41
0.666666667
 51
0.0
  7
KANJI3
  0
TEXT
  8
0
  6
CONTINUOUS
 62
     5
 10
192.45
 20
77.6
 30
0.1
 40
1.5
  1
６－
 50
0.0
 41
0.666666667
 51
0.0
  7
KANJI3
  0
TEXT
  8
0
  6
CONTINUOUS
 62
     5
 10
191.3
 20
80.4
 30
0.05
 40
1.0
  1
ＤＣ２４Ｖ
 50
0.0
 41
0.75
 51
0.0
  7
KANJI4
  0
LINE
  8
0
  6
CONTINUOUS
 62
     2
 10
65.0
 20
143.0
 30
0.0
 11
62.585185434
 21
143.647047613
 31
0.0
  0
LINE
  8
0
  6
CONTINUOUS
 62
     2
 10
65.0
 20
143.0
 30
0.0
 11
62.585185434
 21
142.352952387
 31
0.0
  0
LINE
  8
0
  6
CONTINUOUS
 62
     2
 10
65.0
 20
143.0
 30
0.0
 11
55.0
 21
143.0
 31
0.0
  0
LINE
  8
0
  6
CONTINUOUS
 62
     2
 10
55.0
 20
143.0
 30
0.0
 11
57.414814566
 21
142.352952387
 31
0.0
  0
LINE
  8
0
  6
CONTINUOUS
 62
     2
 10
55.0
 20
143.0
 30
0.0
 11
57.414814566
 21
143.647047613
 31
0.0
  0
TEXT
  8
0
  6
CONTINUOUS
 62
     2
 10
58.05
 20
144.0
 30
0.3
 40
3.0
  1
２０
 50
0.0
 41
0.6
 51
0.0
  7
KANJI0
  0
LINE
  8
0
  6
CONTINUOUS
 62
     2
 10
65.0
 20
143.0
 30
0.0
 11
67.414814566
 21
142.352952387
 31
0.0
  0
LINE
  8
0
  6
CONTINUOUS
 62
     2
 10
65.0
 20
143.0
 30
0.0
 11
67.414814566
 21
143.647047613
 31
0.0
  0
LINE
  8
0
  6
CONTINUOUS
 62
     2
 10
65.0
 20
143.0
 30
0.0
 11
160.0
 21
143.0
 31
0.0
  0
LINE
  8
0
  6
CONTINUOUS
 62
     2
 10
160.0
 20
143.0
 30
0.0
 11
157.585185434
 21
143.647047613
 31
0.0
  0
LINE
  8
0
  6
CONTINUOUS
 62
     2
 10
160.0
 20
143.0
 30
0.0
 11
157.585185434
 21
142.352952387
 31
0.0
  0
TEXT
  8
0
  6
CONTINUOUS
 62
     2
 10
109.5
 20
144.0
 30
0.3
 40
3.0
  1
１９０
 50
0.0
 41
0.6
 51
0.0
  7
KANJI0
  0
LINE
  8
0
  6
CONTINUOUS
 62
     2
 10
160.0
 20
143.0
 30
0.0
 11
157.585185434
 21
143.647047613
 31
0.0
  0
LINE
  8
0
  6
CONTINUOUS
 62
     2
 10
160.0
 20
143.0
 30
0.0
 11
157.585185434
 21
142.352952387
 31
0.0
  0
LINE
  8
0
  6
CONTINUOUS
 62
     2
 10
169.7
 20
143.0
 30
0.0
 11
172.114814566
 21
142.352952387
 31
0.0
  0
LINE
  8
0
  6
CONTINUOUS
 62
     2
 10
169.7
 20
143.0
 30
0.0
 11
172.114814566
 21
143.647047613
 31
0.0
  0
TEXT
  8
0
  6
CONTINUOUS
 62
     2
 10
161.75
 20
144.0
 30
0.3
 40
3.0
  1
１９．５
 50
0.0
 41
0.6
 51
0.0
  7
KANJI0
  0
LINE
  8
0
  6
CONTINUOUS
 62
     2
 10
158.7
 20
143.0
 30
0.0
 11
174.7
 21
143.0
 31
0.0
  0
LINE
  8
0
  6
CONTINUOUS
 62
     2
 10
55.0
 20
148.0
 30
0.0
 11
57.414814566
 21
147.352952387
 31
0.0
  0
LINE
  8
0
  6
CONTINUOUS
 62
     2
 10
55.0
 20
148.0
 30
0.0
 11
57.414814566
 21
148.647047613
 31
0.0
  0
LINE
  8
0
  6
CONTINUOUS
 62
     2
 10
169.7
 20
148.0
 30
0.0
 11
167.285185434
 21
148.647047613
 31
0.0
  0
LINE
  8
0
  6
CONTINUOUS
 62
     2
 10
169.7
 20
148.0
 30
0.0
 11
167.285185434
 21
147.352952387
 31
0.0
  0
LINE
  8
0
  6
CONTINUOUS
 62
     2
 10
55.0
 20
148.0
 30
0.0
 11
169.7
 21
148.0
 31
0.0
  0
LINE
  8
0
  6
CONTINUOUS
 62
     2
 10
55.0
 20
100.0
 30
0.0
 11
55.0
 21
150.0
 31
0.0
  0
LINE
  8
0
  6
CONTINUOUS
 62
     1
 10
160.0
 20
154.5
 30
0.0
 11
160.0
 21
172.5
 31
0.0
  0
LINE
  8
0
  6
CONTINUOUS
 62
     1
 10
60.5
 20
173.875
 30
0.0
 11
60.5
 21
153.125
 31
0.0
  0
LINE
  8
0
  6
CONTINUOUS
 62
     1
 10
60.5
 20
153.125
 30
0.0
 11
64.75
 21
153.125
 31
0.0
  0
LINE
  8
0
  6
CONTINUOUS
 62
     1
 10
64.75
 20
157.0
 30
0.0
 11
64.75
 21
153.125
 31
0.0
  0
LINE
  8
0
  6
CONTINUOUS
 62
     1
 10
64.75
 20
170.0
 30
0.0
 11
64.75
 21
173.875
 31
0.0
  0
LINE
  8
0
  6
CONTINUOUS
 62
     1
 10
64.75
 20
173.875
 30
0.0
 11
60.5
 21
173.875
 31
0.0
  0
LINE
  8
0
  6
CONTINUOUS
 62
     1
 10
65.0
 20
157.0
 30
0.0
 11
65.0
 21
170.0
 31
0.0
  0
LINE
  8
0
  6
CONTINUOUS
 62
     1
 10
68.0
 20
157.0
 30
0.0
 11
68.0
 21
160.5
 31
0.0
  0
LINE
  8
0
  6
CONTINUOUS
 62
     1
 10
68.0
 20
160.5
 30
0.0
 11
70.5
 21
160.5
 31
0.0
  0
LINE
  8
0
  6
CONTINUOUS
 62
     1
 10
70.5
 20
160.5
 30
0.0
 11
70.5
 21
157.0
 31
0.0
  0
LINE
  8
0
  6
CONTINUOUS
 62
     1
 10
68.0
 20
170.0
 30
0.0
 11
68.0
 21
166.5
 31
0.0
  0
LINE
  8
0
  6
CONTINUOUS
 62
     1
 10
68.0
 20
166.5
 30
0.0
 11
70.5
 21
166.5
 31
0.0
  0
LINE
  8
0
  6
CONTINUOUS
 62
     1
 10
70.5
 20
166.5
 30
0.0
 11
70.5
 21
170.0
 31
0.0
  0
LINE
  8
0
  6
CONTINUOUS
 62
     1
 10
160.0
 20
172.5
 30
0.0
 11
78.0
 21
172.5
 31
0.0
  0
LINE
  8
0
  6
CONTINUOUS
 62
     1
 10
78.0
 20
154.5
 30
0.0
 11
160.0
 21
154.5
 31
0.0
  0
LINE
  8
0
  6
CONTINUOUS
 62
     1
 10
74.5
 20
170.0
 30
0.0
 11
64.75
 21
170.0
 31
0.0
  0
LINE
  8
0
  6
CONTINUOUS
 62
     1
 10
74.5
 20
157.0
 30
0.0
 11
64.75
 21
157.0
 31
0.0
  0
LINE
  8
0
  6
CONTINUOUS
 62
     1
 10
70.5
 20
157.25
 30
0.0
 11
69.7
 21
157.25
 31
0.0
  0
LINE
  8
0
  6
CONTINUOUS
 62
     1
 10
69.7
 20
157.25
 30
0.0
 11
69.7
 21
169.75
 31
0.0
  0
LINE
  8
0
  6
CONTINUOUS
 62
     1
 10
69.7
 20
169.75
 30
0.0
 11
70.5
 21
169.75
 31
0.0
  0
LINE
  8
0
  6
CONTINUOUS
 62
     1
 10
70.5
 20
169.75
 30
0.0
 11
70.5
 21
157.25
 31
0.0
  0
LINE
  8
0
  6
CONTINUOUS
 62
     1
 10
71.3
 20
159.25
 30
0.0
 11
71.3
 21
167.75
 31
0.0
  0
LINE
  8
0
  6
CONTINUOUS
 62
     1
 10
149.7
 20
159.25
 30
0.0
 11
149.7
 21
159.25
 31
0.0
  0
LINE
  8
0
  6
CONTINUOUS
 62
     1
 10
70.5
 20
159.25
 30
0.0
 11
149.7
 21
159.25
 31
0.0
  0
LINE
  8
0
  6
CONTINUOUS
 62
     1
 10
149.7
 20
159.25
 30
0.0
 11
149.7
 21
167.75
 31
0.0
  0
LINE
  8
0
  6
CONTINUOUS
 62
     1
 10
149.7
 20
167.75
 30
0.0
 11
70.5
 21
167.75
 31
0.0
  0
LINE
  8
0
  6
CONTINUOUS
 62
     1
 10
148.9
 20
167.75
 30
0.0
 11
148.9
 21
159.25
 31
0.0
  0
LINE
  8
0
  6
CONTINUOUS
 62
     1
 10
74.5
 20
167.75
 30
0.0
 11
74.5
 21
173.625
 31
0.0
  0
LINE
  8
0
  6
CONTINUOUS
 62
     1
 10
78.0
 20
167.75
 30
0.0
 11
78.0
 21
173.625
 31
0.0
  0
LINE
  8
0
  6
CONTINUOUS
 62
     1
 10
74.5
 20
153.375
 30
0.0
 11
74.5
 21
159.25
 31
0.0
  0
LINE
  8
0
  6
CONTINUOUS
 62
     1
 10
78.0
 20
153.375
 30
0.0
 11
78.0
 21
159.25
 31
0.0
  0
LINE
  8
0
  6
CONTINUOUS
 62
     1
 10
55.1
 20
172.5
 30
0.0
 11
60.5
 21
172.5
 31
0.0
  0
ARC
  8
0
  6
CONTINUOUS
 62
     1
 10
55.1
 20
172.4
 30
0.0
 40
0.1
 50
90.0
 51
180.0
  0
LINE
  8
0
  6
CONTINUOUS
 62
     1
 10
60.5
 20
154.5
 30
0.0
 11
55.1
 21
154.5
 31
0.0
  0
LINE
  8
0
  6
CONTINUOUS
 62
     1
 10
55.0
 20
154.6
 30
0.0
 11
55.0
 21
172.4
 31
0.0
  0
ARC
  8
0
  6
CONTINUOUS
 62
     1
 10
55.1
 20
154.6
 30
0.0
 40
0.1
 50
180.0
 51
270.0
  0
LINE
  8
0
  6
CONTINUOUS
 62
     1
 10
65.0
 20
173.625
 30
0.0
 11
78.0
 21
173.625
 31
0.0
  0
POINT
  8
0
  6
CONTINUOUS
 62
     1
 10
68.0
 20
164.5
 30
0.0
  0
LINE
  8
0
  6
CONTINUOUS
 62
     1
 10
68.25
 20
164.75
 30
0.0
 11
69.7
 21
164.75
 31
0.0
  0
LINE
  8
0
  6
CONTINUOUS
 62
     1
 10
68.25
 20
164.75
 30
0.0
 11
68.0
 21
164.5
 31
0.0
  0
POINT
  8
0
  6
CONTINUOUS
 62
     1
 10
68.0
 20
162.5
 30
0.0
  0
LINE
  8
0
  6
CONTINUOUS
 62
     1
 10
68.25
 20
162.25
 30
0.0
 11
69.7
 21
162.25
 31
0.0
  0
LINE
  8
0
  6
CONTINUOUS
 62
     1
 10
68.0
 20
162.5
 30
0.0
 11
68.0
 21
164.5
 31
0.0
  0
LINE
  8
0
  6
CONTINUOUS
 62
     1
 10
68.25
 20
162.25
 30
0.0
 11
68.0
 21
162.5
 31
0.0
  0
LINE
  8
0
  6
CONTINUOUS
 62
     1
 10
71.3
 20
164.75
 30
0.0
 11
148.9
 21
164.75
 31
0.0
  0
LINE
  8
0
  6
CONTINUOUS
 62
     1
 10
71.3
 20
162.25
 30
0.0
 11
148.9
 21
162.25
 31
0.0
  0
LINE
  8
0
  6
CONTINUOUS
 62
     1
 10
157.75
 20
164.75
 30
0.0
 11
158.0
 21
164.5
 31
0.0
  0
LINE
  8
0
  6
CONTINUOUS
 62
     1
 10
158.0
 20
162.5
 30
0.0
 11
157.75
 21
162.25
 31
0.0
  0
LINE
  8
0
  6
CONTINUOUS
 62
     1
 10
158.0
 20
164.5
 30
0.0
 11
158.0
 21
162.5
 31
0.0
  0
LINE
  8
0
  6
CONTINUOUS
 62
     2
 10
66.607050808
 20
178.375
 30
0.0
 11
87.307050808
 21
178.375
 31
0.0
  0
TEXT
  8
0
  6
CONTINUOUS
 62
     2
 10
66.607050808
 20
179.375
 30
0.3
 40
3.0
  1
エスカッション
 50
0.0
 41
0.9
 51
0.0
  7
KANJI1
  0
LINE
  8
0
  6
CONTINUOUS
 62
     2
 10
71.3
 20
164.5
 30
0.0
 11
77.0
 21
164.5
 31
0.0
  0
LINE
  8
0
  6
CONTINUOUS
 62
     2
 10
68.0
 20
164.5
 30
0.0
 11
69.675
 21
164.5
 31
0.0
  0
LINE
  8
0
  6
CONTINUOUS
 62
     2
 10
68.0
 20
162.5
 30
0.0
 11
69.675
 21
162.5
 31
0.0
  0
LINE
  8
0
  6
CONTINUOUS
 62
     2
 10
77.0
 20
162.25
 30
0.0
 11
77.0
 21
164.75
 31
0.0
  0
LINE
  8
0
  6
CONTINUOUS
 62
     2
 10
71.3
 20
162.5
 30
0.0
 11
77.0
 21
162.5
 31
0.0
  0
LINE
  8
0
  6
CONTINUOUS
 62
     2
 10
68.25
 20
164.75
 30
0.0
 11
68.25
 21
162.25
 31
0.0
  0
LINE
  8
0
  6
CONTINUOUS
 62
     2
 10
157.75
 20
162.25
 30
0.0
 11
157.75
 21
164.75
 31
0.0
  0
LINE
  8
0
  6
CONTINUOUS
 62
     2
 10
137.0
 20
162.25
 30
0.0
 11
137.0
 21
164.75
 31
0.0
  0
LINE
  8
0
  6
CONTINUOUS
 62
     2
 10
148.9
 20
162.5
 30
0.0
 11
137.0
 21
162.5
 31
0.0
  0
LINE
  8
0
  6
CONTINUOUS
 62
     2
 10
137.0
 20
164.5
 30
0.0
 11
148.9
 21
164.5
 31
0.0
  0
LINE
  8
0
  6
CONTINUOUS
 62
     1
 10
160.0
 20
167.75
 30
0.0
 11
160.0
 21
159.25
 31
0.0
  0
LINE
  8
0
  6
CONTINUOUS
 62
     1
 10
160.0
 20
167.75
 30
0.0
 11
162.75
 21
167.75
 31
0.0
  0
LINE
  8
0
  6
CONTINUOUS
 62
     1
 10
164.654993762
 20
166.504750312
 30
0.0
 11
162.75
 21
166.6
 31
0.0
  0
ARC
  8
0
  6
CONTINUOUS
 62
     1
 10
164.65
 20
166.404875078
 30
0.0
 40
0.1
 50
360.0
 51
87.137594774
  0
LINE
  8
0
  6
CONTINUOUS
 62
     1
 10
164.654993762
 20
160.495249688
 30
0.0
 11
162.75
 21
160.4
 31
0.0
  0
LINE
  8
0
  6
CONTINUOUS
 62
     1
 10
164.75
 20
166.404875078
 30
0.0
 11
164.75
 21
160.595124922
 31
0.0
  0
ARC
  8
0
  6
CONTINUOUS
 62
     1
 10
164.65
 20
160.595124922
 30
0.0
 40
0.1
 50
272.862405226
 51
0.0
  0
LINE
  8
0
  6
CONTINUOUS
 62
     1
 10
162.75
 20
167.75
 30
0.0
 11
162.75
 21
166.6
 31
0.0
  0
LINE
  8
0
  6
CONTINUOUS
 62
     1
 10
162.75
 20
160.4
 30
0.0
 11
162.75
 21
159.25
 31
0.0
  0
LINE
  8
0
  6
CONTINUOUS
 62
     1
 10
162.75
 20
159.25
 30
0.0
 11
160.0
 21
159.25
 31
0.0
  0
LINE
  8
0
  6
CONTINUOUS
 62
     1
 10
162.75
 20
167.75
 30
0.0
 11
167.201937515
 21
167.75
 31
0.0
  0
ARC
  8
0
  6
CONTINUOUS
 62
     1
 10
167.201937515
 20
167.65
 30
0.0
 40
0.1
 50
38.659808254
 51
90.0
  0
LINE
  8
0
  6
CONTINUOUS
 62
     1
 10
167.819975604
 20
167.037530495
 30
0.0
 11
167.280024396
 21
167.712469505
 31
0.0
  0
ARC
  8
0
  6
CONTINUOUS
 62
     1
 10
167.898062485
 20
167.1
 30
0.0
 40
0.1
 50
218.659808254
 51
270.0
  0
LINE
  8
0
  6
CONTINUOUS
 62
     1
 10
168.25
 20
167.0
 30
0.0
 11
167.898062485
 21
167.0
 31
0.0
  0
ARC
  8
0
  6
CONTINUOUS
 62
     1
 10
168.25
 20
167.1
 30
0.0
 40
0.1
 50
270.0
 51
0.0
  0
LINE
  8
0
  6
CONTINUOUS
 62
     1
 10
168.35
 20
167.65
 30
0.0
 11
168.35
 21
167.1
 31
0.0
  0
ARC
  8
0
  6
CONTINUOUS
 62
     1
 10
168.45
 20
167.65
 30
0.0
 40
0.1
 50
90.0
 51
180.0
  0
LINE
  8
0
  6
CONTINUOUS
 62
     1
 10
168.45
 20
167.75
 30
0.0
 11
169.15
 21
167.75
 31
0.0
  0
ARC
  8
0
  6
CONTINUOUS
 62
     1
 10
169.15
 20
167.65
 30
0.0
 40
0.1
 50
0.0
 51
90.0
  0
LINE
  8
0
  6
CONTINUOUS
 62
     1
 10
162.75
 20
159.25
 30
0.0
 11
167.201937515
 21
159.25
 31
0.0
  0
ARC
  8
0
  6
CONTINUOUS
 62
     1
 10
167.201937515
 20
159.35
 30
0.0
 40
0.1
 50
270.0
 51
321.340191746
  0
LINE
  8
0
  6
CONTINUOUS
 62
     1
 10
167.819975604
 20
159.962469505
 30
0.0
 11
167.280024396
 21
159.287530495
 31
0.0
  0
ARC
  8
0
  6
CONTINUOUS
 62
     1
 10
167.898062485
 20
159.9
 30
0.0
 40
0.1
 50
90.0
 51
141.340191746
  0
LINE
  8
0
  6
CONTINUOUS
 62
     1
 10
168.25
 20
160.0
 30
0.0
 11
167.898062485
 21
160.0
 31
0.0
  0
ARC
  8
0
  6
CONTINUOUS
 62
     1
 10
168.25
 20
159.9
 30
0.0
 40
0.1
 50
0.0
 51
90.0
  0
LINE
  8
0
  6
CONTINUOUS
 62
     1
 10
168.35
 20
159.35
 30
0.0
 11
168.35
 21
159.9
 31
0.0
  0
ARC
  8
0
  6
CONTINUOUS
 62
     1
 10
168.45
 20
159.35
 30
0.0
 40
0.1
 50
180.0
 51
270.0
  0
LINE
  8
0
  6
CONTINUOUS
 62
     1
 10
169.25
 20
167.65
 30
0.0
 11
169.25
 21
159.35
 31
0.0
  0
LINE
  8
0
  6
CONTINUOUS
 62
     1
 10
168.45
 20
159.25
 30
0.0
 11
169.15
 21
159.25
 31
0.0
  0
ARC
  8
0
  6
CONTINUOUS
 62
     1
 10
169.15
 20
159.35
 30
0.0
 40
0.1
 50
270.0
 51
0.0
  0
LINE
  8
0
  6
CONTINUOUS
 62
     2
 10
164.75
 20
165.65
 30
0.0
 11
164.8
 21
165.65
 31
0.0
  0
ARC
  8
0
  6
CONTINUOUS
 62
     2
 10
164.8
 20
165.3
 30
0.0
 40
0.35
 50
0.0
 51
90.0
  0
LINE
  8
0
  6
CONTINUOUS
 62
     2
 10
164.8
 20
161.35
 30
0.0
 11
164.75
 21
161.35
 31
0.0
  0
LINE
  8
0
  6
CONTINUOUS
 62
     2
 10
165.15
 20
165.3
 30
0.0
 11
165.15
 21
161.7
 31
0.0
  0
ARC
  8
0
  6
CONTINUOUS
 62
     2
 10
164.8
 20
161.7
 30
0.0
 40
0.35
 50
270.0
 51
0.0
  0
LINE
  8
0
  6
CONTINUOUS
 62
     2
 10
168.150003081
 20
159.4
 30
0.0
 11
168.250003081
 21
159.45
 31
0.0
  0
LINE
  8
0
  6
CONTINUOUS
 62
     2
 10
168.250003081
 20
159.45
 30
0.0
 11
168.35
 21
159.35
 31
0.0
  0
LINE
  8
0
  6
CONTINUOUS
 62
     2
 10
168.450003081
 20
158.8
 30
0.0
 11
169.15
 21
158.8
 31
0.0
  0
ARC
  8
0
  6
CONTINUOUS
 62
     2
 10
169.15
 20
159.35
 30
0.0
 40
0.55
 50
270.0
 51
0.0
  0
ARC
  8
0
  6
CONTINUOUS
 62
     2
 10
168.600003081
 20
159.25
 30
0.0
 40
0.474341649
 50
161.565051177
 51
251.565051177
  0
LINE
  8
0
  6
CONTINUOUS
 62
     2
 10
169.7
 20
159.35
 30
0.0
 11
169.7
 21
167.65
 31
0.0
  0
LINE
  8
0
  6
CONTINUOUS
 62
     2
 10
168.450003081
 20
168.2
 30
0.0
 11
169.15
 21
168.2
 31
0.0
  0
ARC
  8
0
  6
CONTINUOUS
 62
     2
 10
169.15
 20
167.65
 30
0.0
 40
0.55
 50
360.0
 51
90.0
  0
LINE
  8
0
  6
CONTINUOUS
 62
     2
 10
168.150003081
 20
167.6
 30
0.0
 11
168.250003081
 21
167.55
 31
0.0
  0
LINE
  8
0
  6
CONTINUOUS
 62
     2
 10
168.250003081
 20
167.55
 30
0.0
 11
168.35
 21
167.65
 31
0.0
  0
ARC
  8
0
  6
CONTINUOUS
 62
     2
 10
168.600003081
 20
167.75
 30
0.0
 40
0.474341649
 50
108.434948823
 51
198.434948823
  0
LINE
  8
0
  6
CONTINUOUS
 62
     2
 10
165.54
 20
164.83
 30
0.0
 11
165.54
 21
162.17
 31
0.0
  0
LINE
  8
0
  6
CONTINUOUS
 62
     2
 10
165.85
 20
162.19
 30
0.0
 11
165.54
 21
162.17
 31
0.0
  0
LINE
  8
0
  6
CONTINUOUS
 62
     2
 10
165.54
 20
164.83
 30
0.0
 11
165.85
 21
164.83
 31
0.0
  0
LINE
  8
0
  6
CONTINUOUS
 62
     2
 10
166.59
 20
164.08
 30
0.0
 11
166.59
 21
162.92
 31
0.0
  0
ARC
  8
0
  6
CONTINUOUS
 62
     2
 10
165.84
 20
164.08
 30
0.0
 40
0.75
 50
0.0
 51
90.0
  0
ARC
  8
0
  6
CONTINUOUS
 62
     2
 10
165.84
 20
162.92
 30
0.0
 40
0.75
 50
268.472474559
 51
0.0
  0
LINE
  8
0
  6
CONTINUOUS
 62
     2
 10
165.53
 20
164.85
 30
0.0
 11
165.15
 21
164.85
 31
0.0
  0
LINE
  8
0
  6
CONTINUOUS
 62
     2
 10
165.15
 20
164.85
 30
0.0
 11
165.15
 21
162.17
 31
0.0
  0
LINE
  8
0
  6
CONTINUOUS
 62
     2
 10
165.15
 20
162.17
 30
0.0
 11
165.53
 21
162.17
 31
0.0
  0
LINE
  8
0
  6
CONTINUOUS
 62
     2
 10
165.15
 20
163.38
 30
0.0
 11
165.53
 21
163.69
 31
0.0
  0
LINE
  8
0
  6
CONTINUOUS
 62
     2
 10
165.15
 20
163.14
 30
0.0
 11
165.54
 21
163.43
 31
0.0
  0
LINE
  8
0
  6
CONTINUOUS
 62
     2
 10
166.59
 20
163.71
 30
0.0
 11
166.52
 21
163.71
 31
0.0
  0
LINE
  8
0
  6
CONTINUOUS
 62
     2
 10
166.52
 20
163.72
 30
0.0
 11
166.52
 21
163.34
 31
0.0
  0
LINE
  8
0
  6
CONTINUOUS
 62
     2
 10
166.52
 20
163.34
 30
0.0
 11
166.58
 21
163.34
 31
0.0
  0
LINE
  8
0
  6
CONTINUOUS
 62
     2
 10
174.0
 20
154.5
 30
0.0
 11
174.647047613
 21
156.914814566
 31
0.0
  0
LINE
  8
0
  6
CONTINUOUS
 62
     2
 10
174.0
 20
154.5
 30
0.0
 11
173.352952387
 21
156.914814566
 31
0.0
  0
LINE
  8
0
  6
CONTINUOUS
 62
     2
 10
174.0
 20
172.5
 30
0.0
 11
173.352952387
 21
170.085185434
 31
0.0
  0
LINE
  8
0
  6
CONTINUOUS
 62
     2
 10
174.0
 20
172.5
 30
0.0
 11
174.647047613
 21
170.085185434
 31
0.0
  0
LINE
  8
0
  6
CONTINUOUS
 62
     2
 10
174.0
 20
172.5
 30
0.0
 11
174.0
 21
154.5
 31
0.0
  0
LINE
  8
0
  6
CONTINUOUS
 62
     2
 10
161.0
 20
172.5
 30
0.0
 11
176.0
 21
172.5
 31
0.0
  0
LINE
  8
0
  6
CONTINUOUS
 62
     2
 10
161.0
 20
154.5
 30
0.0
 11
176.0
 21
154.5
 31
0.0
  0
TEXT
  8
0
  6
CONTINUOUS
 62
     2
 10
173.5
 20
161.55
 30
0.3
 40
3.0
  1
３６
 50
90.0
 41
0.6
 51
0.0
  7
KANJI0
  0
LINE
  8
0
  6
LTYPE2
 62
     2
 10
50.0
 20
163.5
 30
0.0
 11
170.4
 21
163.5
 31
0.0
  0
LINE
  8
0
  6
CONTINUOUS
 62
     1
 10
149.7
 20
165.448557159
 30
0.0
 11
151.7
 21
165.448557159
 31
0.0
  0
LINE
  8
0
  6
CONTINUOUS
 62
     1
 10
151.7
 20
165.448557159
 30
0.0
 11
151.7
 21
161.551442841
 31
0.0
  0
LINE
  8
0
  6
CONTINUOUS
 62
     1
 10
151.7
 20
161.551442841
 30
0.0
 11
149.7
 21
161.551442841
 31
0.0
  0
LINE
  8
0
  6
CONTINUOUS
 62
     1
 10
149.7
 20
163.5
 30
0.0
 11
151.3
 21
163.5
 31
0.0
  0
ARC
  8
0
  6
CONTINUOUS
 62
     2
 10
149.91796875
 20
162.375
 30
0.0
 40
1.78203125
 50
332.474380886
 51
39.146251661
  0
ARC
  8
0
  6
CONTINUOUS
 62
     2
 10
149.91796875
 20
164.625
 30
0.0
 40
1.78203125
 50
320.853748339
 51
27.525619114
  0
LINE
  8
0
  6
CONTINUOUS
 62
     1
 10
151.7
 20
164.75
 30
0.0
 11
157.75
 21
164.75
 31
0.0
  0
LINE
  8
0
  6
CONTINUOUS
 62
     2
 10
151.7
 20
164.5
 30
0.0
 11
158.0
 21
164.5
 31
0.0
  0
LINE
  8
0
  6
CONTINUOUS
 62
     1
 10
157.75
 20
162.25
 30
0.0
 11
151.7
 21
162.25
 31
0.0
  0
LINE
  8
0
  6
CONTINUOUS
 62
     2
 10
158.0
 20
162.5
 30
0.0
 11
151.7
 21
162.5
 31
0.0
  0
LINE
  8
0
  6
LTYPE2
 62
     2
 10
122.0
 20
176.6
 30
0.0
 11
122.0
 21
150.5
 31
0.0
  0
TEXT
  8
0
  6
CONTINUOUS
 62
     2
 10
216.8
 20
171.179491924
 30
0.3
 40
3.0
  1
ｎは連結台数
 50
0.0
 41
0.9
 51
0.0
  7
KANJI1
  0
TEXT
  8
0
  6
CONTINUOUS
 62
     2
 10
205.82
 20
175.72
 30
0.3
 40
3.0
  1
連結時：　＝４２．２×ｎ＋１．５
 50
0.0
 41
0.9
 51
0.0
  7
KANJI1
  0
LINE
  8
0
  6
CONTINUOUS
 62
     2
 10
218.232
 20
175.624
 30
0.0
 11
218.532
 21
175.924
 31
0.0
  0
LINE
  8
0
  6
CONTINUOUS
 62
     2
 10
218.532
 20
175.924
 30
0.0
 11
218.796
 21
176.272
 31
0.0
  0
LINE
  8
0
  6
CONTINUOUS
 62
     2
 10
218.796
 20
176.272
 30
0.0
 11
219.0
 21
176.728
 31
0.0
  0
LINE
  8
0
  6
CONTINUOUS
 62
     2
 10
219.0
 20
176.728
 30
0.0
 11
219.132
 21
177.052
 31
0.0
  0
LINE
  8
0
  6
CONTINUOUS
 62
     2
 10
219.132
 20
177.052
 30
0.0
 11
219.192
 21
177.4
 31
0.0
  0
LINE
  8
0
  6
CONTINUOUS
 62
     2
 10
219.192
 20
177.4
 30
0.0
 11
219.192
 21
177.856
 31
0.0
  0
LINE
  8
0
  6
CONTINUOUS
 62
     2
 10
219.192
 20
177.856
 30
0.0
 11
219.192
 21
178.084
 31
0.0
  0
LINE
  8
0
  6
CONTINUOUS
 62
     2
 10
219.192
 20
178.084
 30
0.0
 11
219.096
 21
178.288
 31
0.0
  0
LINE
  8
0
  6
CONTINUOUS
 62
     2
 10
219.096
 20
178.288
 30
0.0
 11
218.904
 21
178.312
 31
0.0
  0
LINE
  8
0
  6
CONTINUOUS
 62
     2
 10
218.904
 20
178.312
 30
0.0
 11
218.724
 21
178.156
 31
0.0
  0
LINE
  8
0
  6
CONTINUOUS
 62
     2
 10
218.724
 20
178.156
 30
0.0
 11
218.688
 21
177.676
 31
0.0
  0
LINE
  8
0
  6
CONTINUOUS
 62
     2
 10
218.688
 20
177.676
 30
0.0
 11
218.64
 21
177.232
 31
0.0
  0
LINE
  8
0
  6
CONTINUOUS
 62
     2
 10
218.64
 20
177.232
 30
0.0
 11
218.616
 21
176.812
 31
0.0
  0
LINE
  8
0
  6
CONTINUOUS
 62
     2
 10
218.616
 20
176.812
 30
0.0
 11
218.604
 21
176.5
 31
0.0
  0
LINE
  8
0
  6
CONTINUOUS
 62
     2
 10
218.604
 20
176.5
 30
0.0
 11
218.604
 21
176.2
 31
0.0
  0
LINE
  8
0
  6
CONTINUOUS
 62
     2
 10
218.604
 20
176.2
 30
0.0
 11
218.712
 21
175.888
 31
0.0
  0
LINE
  8
0
  6
CONTINUOUS
 62
     2
 10
218.712
 20
175.888
 30
0.0
 11
218.868
 21
175.648
 31
0.0
  0
LINE
  8
0
  6
CONTINUOUS
 62
     2
 10
218.868
 20
175.648
 30
0.0
 11
219.12
 21
175.588
 31
0.0
  0
LINE
  8
0
  6
CONTINUOUS
 62
     1
 10
194.0
 20
172.5
 30
0.0
 11
187.0
 21
172.5
 31
0.0
  0
LINE
  8
0
  6
CONTINUOUS
 62
     2
 10
182.0
 20
172.5
 30
0.0
 11
181.352952387
 21
170.085185434
 31
0.0
  0
LINE
  8
0
  6
CONTINUOUS
 62
     2
 10
182.0
 20
172.5
 30
0.0
 11
182.647047613
 21
170.085185434
 31
0.0
  0
LINE
  8
0
  6
CONTINUOUS
 62
     2
 10
186.0
 20
172.5
 30
0.0
 11
180.0
 21
172.5
 31
0.0
  0
LINE
  8
0
  6
LTYPE3
 62
     2
 10
194.0
 20
175.5
 30
0.0
 11
187.0
 21
175.5
 31
0.0
  0
LINE
  8
0
  6
LTYPE3
 62
     2
 10
194.0
 20
175.5
 30
0.0
 11
194.0
 21
172.5
 31
0.0
  0
LINE
  8
0
  6
LTYPE3
 62
     2
 10
187.0
 20
172.5
 30
0.0
 11
187.0
 21
175.5
 31
0.0
  0
LINE
  8
0
  6
CONTINUOUS
 62
     2
 10
200.0
 20
175.5
 30
0.0
 11
199.352952387
 21
173.085185434
 31
0.0
  0
LINE
  8
0
  6
CONTINUOUS
 62
     2
 10
200.0
 20
175.5
 30
0.0
 11
200.647047613
 21
173.085185434
 31
0.0
  0
LINE
  8
0
  6
CONTINUOUS
 62
     2
 10
195.0
 20
175.5
 30
0.0
 11
202.0
 21
175.5
 31
0.0
  0
TEXT
  8
0
  6
CONTINUOUS
 62
     2
 10
190.125
 20
171.5
 30
0.25
 40
2.5
  1
パネルカット寸法
 50
0.0
 41
0.9
 51
0.0
  7
KANJI5
  0
LINE
  8
0
  6
CONTINUOUS
 62
     1
 10
187.0
 20
149.0
 30
0.0
 11
194.0
 21
149.0
 31
0.0
  0
LINE
  8
0
  6
CONTINUOUS
 62
     2
 10
186.0
 20
149.0
 30
0.0
 11
180.0
 21
149.0
 31
0.0
  0
LINE
  8
0
  6
CONTINUOUS
 62
     2
 10
182.0
 20
149.0
 30
0.0
 11
182.647047613
 21
151.414814566
 31
0.0
  0
LINE
  8
0
  6
CONTINUOUS
 62
     2
 10
182.0
 20
149.0
 30
0.0
 11
181.352952387
 21
151.414814566
 31
0.0
  0
LINE
  8
0
  6
LTYPE3
 62
     2
 10
187.0
 20
149.0
 30
0.0
 11
187.0
 21
146.0
 31
0.0
  0
LINE
  8
0
  6
LTYPE3
 62
     2
 10
187.0
 20
146.0
 30
0.0
 11
194.0
 21
146.0
 31
0.0
  0
LINE
  8
0
  6
LTYPE3
 62
     2
 10
194.0
 20
146.0
 30
0.0
 11
194.0
 21
149.0
 31
0.0
  0
LINE
  8
0
  6
CONTINUOUS
 62
     2
 10
195.0
 20
146.0
 30
0.0
 11
202.0
 21
146.0
 31
0.0
  0
LINE
  8
0
  6
CONTINUOUS
 62
     2
 10
200.0
 20
146.0
 30
0.0
 11
200.647047613
 21
148.414814566
 31
0.0
  0
LINE
  8
0
  6
CONTINUOUS
 62
     2
 10
200.0
 20
146.0
 30
0.0
 11
199.352952387
 21
148.414814566
 31
0.0
  0
LINE
  8
0
  6
CONTINUOUS
 62
     2
 10
182.0
 20
149.0
 30
0.0
 11
182.0
 21
172.5
 31
0.0
  0
LINE
  8
0
  6
CONTINUOUS
 62
     1
 10
187.0
 20
172.5
 30
0.0
 11
187.0
 21
149.0
 31
0.0
  0
LINE
  8
0
  6
CONTINUOUS
 62
     1
 10
194.0
 20
149.0
 30
0.0
 11
194.0
 21
172.5
 31
0.0
  0
LINE
  8
0
  6
CONTINUOUS
 62
     2
 10
187.0
 20
172.5
 30
0.0
 11
187.0
 21
175.5
 31
0.0
  0
LINE
  8
0
  6
CONTINUOUS
 62
     2
 10
200.0
 20
146.0
 30
0.0
 11
200.0
 21
175.5
 31
0.0
  0
TEXT
  8
0
  6
CONTINUOUS
 62
     2
 10
205.0
 20
146.65
 30
0.3
 40
3.0
  1
（裏面取付スペース）
 50
90.0
 41
0.9
 51
0.0
  7
KANJI1
  0
LINE
  8
0
  6
CONTINUOUS
 62
     2
 10
187.0
 20
178.5
 30
0.0
 11
189.414814566
 21
177.852952387
 31
0.0
  0
LINE
  8
0
  6
CONTINUOUS
 62
     2
 10
187.0
 20
178.5
 30
0.0
 11
189.414814566
 21
179.147047613
 31
0.0
  0
LINE
  8
0
  6
CONTINUOUS
 62
     2
 10
187.0
 20
178.5
 30
0.0
 11
194.0
 21
178.5
 31
0.0
  0
LINE
  8
0
  6
CONTINUOUS
 62
     2
 10
194.0
 20
178.5
 30
0.0
 11
191.585185434
 21
179.147047613
 31
0.0
  0
LINE
  8
0
  6
CONTINUOUS
 62
     2
 10
194.0
 20
178.5
 30
0.0
 11
191.585185434
 21
177.852952387
 31
0.0
  0
LINE
  8
0
  6
CONTINUOUS
 62
     2
 10
190.032
 20
179.924
 30
0.0
 11
190.332
 21
180.224
 31
0.0
  0
LINE
  8
0
  6
CONTINUOUS
 62
     2
 10
190.332
 20
180.224
 30
0.0
 11
190.596
 21
180.572
 31
0.0
  0
LINE
  8
0
  6
CONTINUOUS
 62
     2
 10
190.596
 20
180.572
 30
0.0
 11
190.8
 21
181.028
 31
0.0
  0
LINE
  8
0
  6
CONTINUOUS
 62
     2
 10
190.8
 20
181.028
 30
0.0
 11
190.932
 21
181.352
 31
0.0
  0
LINE
  8
0
  6
CONTINUOUS
 62
     2
 10
190.932
 20
181.352
 30
0.0
 11
190.992
 21
181.7
 31
0.0
  0
LINE
  8
0
  6
CONTINUOUS
 62
     2
 10
190.992
 20
181.7
 30
0.0
 11
190.992
 21
182.156
 31
0.0
  0
LINE
  8
0
  6
CONTINUOUS
 62
     2
 10
190.992
 20
182.156
 30
0.0
 11
190.992
 21
182.384
 31
0.0
  0
LINE
  8
0
  6
CONTINUOUS
 62
     2
 10
190.992
 20
182.384
 30
0.0
 11
190.896
 21
182.588
 31
0.0
  0
LINE
  8
0
  6
CONTINUOUS
 62
     2
 10
190.896
 20
182.588
 30
0.0
 11
190.704
 21
182.612
 31
0.0
  0
LINE
  8
0
  6
CONTINUOUS
 62
     2
 10
190.704
 20
182.612
 30
0.0
 11
190.524
 21
182.456
 31
0.0
  0
LINE
  8
0
  6
CONTINUOUS
 62
     2
 10
190.524
 20
182.456
 30
0.0
 11
190.488
 21
181.976
 31
0.0
  0
LINE
  8
0
  6
CONTINUOUS
 62
     2
 10
190.488
 20
181.976
 30
0.0
 11
190.44
 21
181.532
 31
0.0
  0
LINE
  8
0
  6
CONTINUOUS
 62
     2
 10
190.44
 20
181.532
 30
0.0
 11
190.416
 21
181.112
 31
0.0
  0
LINE
  8
0
  6
CONTINUOUS
 62
     2
 10
190.416
 20
181.112
 30
0.0
 11
190.404
 21
180.8
 31
0.0
  0
LINE
  8
0
  6
CONTINUOUS
 62
     2
 10
190.404
 20
180.8
 30
0.0
 11
190.404
 21
180.5
 31
0.0
  0
LINE
  8
0
  6
CONTINUOUS
 62
     2
 10
190.404
 20
180.5
 30
0.0
 11
190.512
 21
180.188
 31
0.0
  0
LINE
  8
0
  6
CONTINUOUS
 62
     2
 10
190.512
 20
180.188
 30
0.0
 11
190.668
 21
179.948
 31
0.0
  0
LINE
  8
0
  6
CONTINUOUS
 62
     2
 10
190.668
 20
179.948
 30
0.0
 11
190.92
 21
179.888
 31
0.0
  0
LINE
  8
0
  6
CONTINUOUS
 62
     2
 10
187.0
 20
176.5
 30
0.0
 11
187.0
 21
179.5
 31
0.0
  0
LINE
  8
0
  6
CONTINUOUS
 62
     2
 10
194.0
 20
176.5
 30
0.0
 11
194.0
 21
179.5
 31
0.0
  0
TEXT
  8
0
  6
CONTINUOUS
 62
     2
 10
195.29
 20
179.61
 30
0.3
 40
3.0
  1
４１．５
 50
0.0
 41
0.6
 51
0.0
  7
KANJI0
  0
TEXT
  8
0
  6
CONTINUOUS
 62
     2
 10
202.79
 20
179.61
 30
0.18
 40
1.8
  1
－０
 50
0.0
 41
0.6
 51
0.0
  7
KANJI6
  0
TEXT
  8
0
  6
CONTINUOUS
 62
     2
 10
202.79
 20
181.41
 30
0.18
 40
1.8
  1
＋１．５
 50
0.0
 41
0.6
 51
0.0
  7
KANJI6
  0
LINE
  8
0
  6
CONTINUOUS
 62
     1
 10
64.75
 20
157.0
 30
0.0
 11
64.75
 21
153.125
 31
0.0
  0
LINE
  8
0
  6
CONTINUOUS
 62
     1
 10
65.0
 20
153.375
 30
0.0
 11
78.0
 21
153.375
 31
0.0
  0
LINE
  8
0
  6
CONTINUOUS
 62
     2
 10
64.75
 20
173.875
 30
0.0
 11
64.75
 21
175.375
 31
0.0
  0
LINE
  8
0
  6
CONTINUOUS
 62
     2
 10
64.875
 20
175.375
 30
0.0
 11
66.642766953
 21
177.142766953
 31
0.0
  0
LINE
  8
0
  6
CONTINUOUS
 62
     2
 10
64.875
 20
175.375
 30
0.0
 11
65.522047613
 21
177.789814566
 31
0.0
  0
LINE
  8
0
  6
CONTINUOUS
 62
     2
 10
64.875
 20
175.375
 30
0.0
 11
66.607050808
 21
178.375
 31
0.0
  0
LINE
  8
0
  6
CONTINUOUS
 62
     2
 10
64.75
 20
175.375
 30
0.0
 11
65.0
 21
175.375
 31
0.0
  0
LINE
  8
0
  6
CONTINUOUS
 62
     2
 10
64.75
 20
153.125
 30
0.0
 11
64.75
 21
151.625
 31
0.0
  0
LINE
  8
0
  6
CONTINUOUS
 62
     2
 10
64.75
 20
151.625
 30
0.0
 11
65.0
 21
151.625
 31
0.0
  0
TEXT
  8
0
  6
CONTINUOUS
 62
     5
 10
81.8
 20
83.2
 30
0.05
 40
1.5
  1
ＦＵＬＬ　ＳＣＡＬＥ
 50
0.0
 41
0.4
 51
0.0
  7
KANJI7
  0
TEXT
  8
0
  6
CONTINUOUS
 62
     5
 10
82.0
 20
80.2
 30
0.1
 40
1.5
  1
ＡＤＪＵＳＴＥＲ
 50
0.0
 41
0.466666667
 51
0.0
  7
KANJI8
  0
LINE
  8
0
  6
CONTINUOUS
 62
     2
 10
68.75
 20
170.125
 30
0.0
 11
64.75
 21
170.125
 31
0.0
  0
LINE
  8
0
  6
CONTINUOUS
 62
     2
 10
68.75
 20
170.125
 30
0.0
 11
68.75
 21
172.875
 31
0.0
  0
LINE
  8
0
  6
CONTINUOUS
 62
     2
 10
68.75
 20
172.875
 30
0.0
 11
65.0
 21
172.875
 31
0.0
  0
LINE
  8
0
  6
CONTINUOUS
 62
     2
 10
65.0
 20
175.375
 30
0.0
 11
65.0
 21
170.125
 31
0.0
  0
LINE
  8
0
  6
CONTINUOUS
 62
     2
 10
68.75
 20
156.875
 30
0.0
 11
64.75
 21
156.875
 31
0.0
  0
LINE
  8
0
  6
CONTINUOUS
 62
     2
 10
68.75
 20
156.875
 30
0.0
 11
68.75
 21
154.125
 31
0.0
  0
LINE
  8
0
  6
CONTINUOUS
 62
     2
 10
68.75
 20
154.125
 30
0.0
 11
65.0
 21
154.125
 31
0.0
  0
LINE
  8
0
  6
CONTINUOUS
 62
     2
 10
65.0
 20
151.625
 30
0.0
 11
65.0
 21
156.875
 31
0.0
  0
LINE
  8
0
  6
CONTINUOUS
 62
     1
 10
190.0
 20
135.975
 30
0.0
 11
188.5
 21
135.975
 31
0.0
  0
ARC
  8
0
  6
CONTINUOUS
 62
     1
 10
188.5
 20
135.475
 30
0.0
 40
0.5
 50
90.0
 51
180.0
  0
LINE
  8
0
  6
CONTINUOUS
 62
     1
 10
188.0
 20
135.475
 30
0.0
 11
188.0
 21
51.475
 31
0.0
  0
LINE
  8
0
  6
CONTINUOUS
 62
     1
 10
190.0
 20
51.025
 30
0.0
 11
188.5
 21
51.025
 31
0.0
  0
ARC
  8
0
  6
CONTINUOUS
 62
     1
 10
188.5
 20
51.525
 30
0.0
 40
0.5
 50
180.0
 51
270.0
  0
LINE
  8
0
  6
CONTINUOUS
 62
     1
 10
212.0
 20
135.475
 30
0.0
 11
212.0
 21
51.475
 31
0.0
  0
LINE
  8
0
  6
CONTINUOUS
 62
     1
 10
210.0
 20
51.025
 30
0.0
 11
211.5
 21
51.025
 31
0.0
  0
ARC
  8
0
  6
CONTINUOUS
 62
     1
 10
211.5
 20
51.525
 30
0.0
 40
0.5
 50
270.0
 51
360.0
  0
LINE
  8
0
  6
CONTINUOUS
 62
     1
 10
210.0
 20
135.975
 30
0.0
 11
211.5
 21
135.975
 31
0.0
  0
ARC
  8
0
  6
CONTINUOUS
 62
     1
 10
211.5
 20
135.475
 30
0.0
 40
0.5
 50
0.0
 51
90.0
  0
LINE
  8
0
  6
CONTINUOUS
 62
     2
 10
216.5
 20
88.5
 30
0.0
 11
217.147047613
 21
90.914814566
 31
0.0
  0
LINE
  8
0
  6
CONTINUOUS
 62
     2
 10
216.5
 20
88.5
 30
0.0
 11
215.852952387
 21
90.914814566
 31
0.0
  0
LINE
  8
0
  6
CONTINUOUS
 62
     2
 10
216.5
 20
92.25
 30
0.0
 11
216.5
 21
88.5
 31
0.0
  0
LINE
  8
0
  6
CONTINUOUS
 62
     2
 10
216.5
 20
88.5
 30
0.0
 11
216.5
 21
83.5
 31
0.0
  0
LINE
  8
0
  6
CONTINUOUS
 62
     2
 10
216.5
 20
83.5
 30
0.0
 11
216.5
 21
79.75
 31
0.0
  0
LINE
  8
0
  6
CONTINUOUS
 62
     2
 10
216.5
 20
83.5
 30
0.0
 11
215.852952387
 21
81.085185434
 31
0.0
  0
LINE
  8
0
  6
CONTINUOUS
 62
     2
 10
216.5
 20
83.5
 30
0.0
 11
217.147047613
 21
81.085185434
 31
0.0
  0
TEXT
  8
0
  6
CONTINUOUS
 62
     2
 10
215.5
 20
84.05
 30
0.3
 40
3.0
  1
１０
 50
90.0
 41
0.6
 51
0.0
  7
KANJI0
  0
LINE
  8
0
  6
CONTINUOUS
 62
     2
 10
202.9
 20
88.5
 30
0.0
 11
218.5
 21
88.5
 31
0.0
  0
LINE
  8
0
  6
CONTINUOUS
 62
     2
 10
202.9
 20
83.5
 30
0.0
 11
218.5
 21
83.5
 31
0.0
  0
TEXT
  8
0
  6
CONTINUOUS
 62
     2
 10
219.5
 20
92.5
 30
0.3
 40
3.0
  1
１６３
 50
90.0
 41
0.6
 51
0.0
  7
KANJI0
  0
TEXT
  8
0
  6
CONTINUOUS
 62
     2
 10
181.0
 20
154.7
 30
0.3
 40
3.0
  1
１６４
 50
90.0
 41
0.6
 51
0.0
  7
KANJI0
  0
TEXT
  8
0
  6
CONTINUOUS
 62
     2
 10
179.49
 20
161.09
 30
0.18
 40
1.8
  1
＋１
 50
90.0
 41
0.6
 51
0.0
  7
KANJI6
  0
TEXT
  8
0
  6
CONTINUOUS
 62
     2
 10
181.29
 20
161.09
 30
0.18
 40
1.8
  1
－０
 50
90.0
 41
0.6
 51
0.0
  7
KANJI6
  0
LINE
  8
0
  6
CONTINUOUS
 62
     2
 10
169.7
 20
107.5
 30
0.0
 11
169.7
 21
150.0
 31
0.0
  0
LINE
  8
0
  6
CONTINUOUS
 62
     2
 10
198.25
 20
94.75
 30
0.0
 11
198.25
 21
95.3
 31
0.0
  0
ARC
  8
0
  6
CONTINUOUS
 62
     2
 10
176.8
 20
28.25
 30
0.0
 40
1.0
 50
0.0
 51
90.0
  0
ARC
  8
0
  6
CONTINUOUS
 62
     2
 10
178.8
 20
25.25
 30
0.0
 40
1.0
 50
180.0
 51
270.0
  0
ARC
  8
0
  6
CONTINUOUS
 62
     2
 10
178.8
 20
23.25
 30
0.0
 40
1.0
 50
90.0
 51
180.0
  0
LINE
  8
0
  6
CONTINUOUS
 62
     2
 10
177.8
 20
28.25
 30
0.0
 11
177.8
 21
25.25
 31
0.0
  0
TEXT
  8
0
  6
CONTINUOUS
 62
     2
 10
162.8
 20
26.55
 30
0.25
 40
2.5
  1
５　　＋
 50
0.0
 41
0.9
 51
0.0
  7
KANJI9
  0
TEXT
  8
0
  6
CONTINUOUS
 62
     2
 10
167.4
 20
23.35
 30
0.16
 40
2.0
  1
ＤＣ２４Ｖ
 50
0.0
 41
0.8
 51
0.0
  7
KANJI10
  0
ARC
  8
0
  6
CONTINUOUS
 62
     2
 10
176.8
 20
20.25
 30
0.0
 40
1.0
 50
270.0
 51
0.0
  0
LINE
  8
0
  6
CONTINUOUS
 62
     2
 10
177.8
 20
23.25
 30
0.0
 11
177.8
 21
20.25
 31
0.0
  0
TEXT
  8
0
  6
CONTINUOUS
 62
     2
 10
162.8
 20
19.55
 30
0.25
 40
2.5
  1
６　　－
 50
0.0
 41
0.9
 51
0.0
  7
KANJI9
  0
TEXT
  8
0
  6
CONTINUOUS
 62
     2
 10
162.8
 20
39.55
 30
0.25
 40
2.5
  1
１　　＋
 50
0.0
 41
0.9
 51
0.0
  7
KANJI9
  0
TEXT
  8
0
  6
CONTINUOUS
 62
     2
 10
162.8
 20
32.55
 30
0.25
 40
2.5
  1
２　　－
 50
0.0
 41
0.9
 51
0.0
  7
KANJI9
  0
ARC
  8
0
  6
CONTINUOUS
 62
     2
 10
176.8
 20
41.25
 30
0.0
 40
1.0
 50
0.0
 51
90.0
  0
ARC
  8
0
  6
CONTINUOUS
 62
     2
 10
176.8
 20
33.25
 30
0.0
 40
1.0
 50
270.0
 51
0.0
  0
ARC
  8
0
  6
CONTINUOUS
 62
     2
 10
178.8
 20
38.25
 30
0.0
 40
1.0
 50
180.0
 51
270.0
  0
ARC
  8
0
  6
CONTINUOUS
 62
     2
 10
178.8
 20
36.25
 30
0.0
 40
1.0
 50
90.0
 51
180.0
  0
LINE
  8
0
  6
CONTINUOUS
 62
     2
 10
177.8
 20
41.25
 30
0.0
 11
177.8
 21
38.25
 31
0.0
  0
LINE
  8
0
  6
CONTINUOUS
 62
     2
 10
177.8
 20
36.25
 30
0.0
 11
177.8
 21
33.25
 31
0.0
  0
TEXT
  8
0
  6
CONTINUOUS
 62
     2
 10
167.4
 20
36.05
 30
0.16
 40
2.0
  1
ＩＮＰＵＴ
 50
0.0
 41
0.8
 51
0.0
  7
KANJI10
  0
TEXT
  8
0
  6
CONTINUOUS
 62
     2
 10
159.8
 20
43.55
 30
0.3
 40
3.0
  1
端子記号
 50
0.0
 41
0.9
 51
0.0
  7
KANJI11
  0
TEXT
  8
0
  6
CONTINUOUS
 62
     2
 10
179.8
 20
35.75
 30
0.3
 40
3.0
  1
計器前面から見て左側指針
 50
0.0
 41
0.9
 51
0.0
  7
KANJI1
  0
LINE
  8
0
  6
CONTINUOUS
 62
     5
 10
191.2
 20
86.1
 30
0.0
 11
195.2
 21
86.1
 31
0.0
  0
LINE
  8
0
  6
CONTINUOUS
 62
     5
 10
195.2
 20
96.1
 30
0.0
 11
191.2
 21
96.1
 31
0.0
  0
LINE
  8
0
  6
CONTINUOUS
 62
     5
 10
191.2
 20
76.1
 30
0.0
 11
191.2
 21
86.1
 31
0.0
  0
LINE
  8
0
  6
CONTINUOUS
 62
     5
 10
195.2
 20
86.1
 30
0.0
 11
195.2
 21
76.1
 31
0.0
  0
LINE
  8
0
  6
CONTINUOUS
 62
     2
 10
165.15
 20
86.45
 30
0.0
 11
165.15
 21
90.55
 31
0.0
  0
LINE
  8
0
  6
CONTINUOUS
 62
     2
 10
166.59
 20
83.568282402
 30
0.0
 11
167.237047613
 21
81.153467837
 31
0.0
  0
LINE
  8
0
  6
CONTINUOUS
 62
     2
 10
166.59
 20
83.568282402
 30
0.0
 11
168.357766953
 21
81.800515449
 31
0.0
  0
LINE
  8
0
  6
CONTINUOUS
 62
     2
 10
166.59
 20
83.568282402
 30
0.0
 11
167.237047613
 21
81.153467837
 31
0.0
  0
LINE
  8
0
  6
CONTINUOUS
 62
     2
 10
166.59
 20
83.568282402
 30
0.0
 11
168.357766953
 21
81.800515449
 31
0.0
  0
LINE
  8
0
  6
CONTINUOUS
 62
     2
 10
166.59
 20
83.568282402
 30
0.0
 11
170.631451884
 21
76.568282402
 31
0.0
  0
LINE
  8
0
  6
CONTINUOUS
 62
     2
 10
169.7
 20
76.650961894
 30
0.0
 11
170.347047613
 21
74.236147329
 31
0.0
  0
LINE
  8
0
  6
CONTINUOUS
 62
     2
 10
169.7
 20
76.650961894
 30
0.0
 11
171.467766953
 21
74.883194941
 31
0.0
  0
TEXT
  8
0
  6
CONTINUOUS
 62
     2
 10
172.586751346
 20
72.650961894
 30
0.3
 40
3.0
  1
端子カバー
 50
0.0
 41
0.666666667
 51
0.0
  7
KANJI12
  0
LINE
  8
0
  6
CONTINUOUS
 62
     2
 10
172.586751346
 20
71.650961894
 30
0.0
 11
183.786751346
 21
71.650961894
 31
0.0
  0
LINE
  8
0
  6
CONTINUOUS
 62
     2
 10
169.7
 20
76.650961894
 30
0.0
 11
172.586751346
 21
71.650961894
 31
0.0
  0
LINE
  8
0
  6
CONTINUOUS
 62
     2
 10
169.7
 20
76.650961894
 30
0.0
 11
170.347047613
 21
74.236147329
 31
0.0
  0
LINE
  8
0
  6
CONTINUOUS
 62
     2
 10
169.7
 20
76.650961894
 30
0.0
 11
171.467766953
 21
74.883194941
 31
0.0
  0
TEXT
  8
0
  6
CONTINUOUS
 62
     2
 10
172.586751346
 20
72.650961894
 30
0.3
 40
3.0
  1
端子カバー
 50
0.0
 41
0.666666667
 51
0.0
  7
KANJI12
  0
LINE
  8
0
  6
CONTINUOUS
 62
     2
 10
172.586751346
 20
71.650961894
 30
0.0
 11
183.786751346
 21
71.650961894
 31
0.0
  0
LINE
  8
0
  6
CONTINUOUS
 62
     2
 10
169.7
 20
76.650961894
 30
0.0
 11
172.586751346
 21
71.650961894
 31
0.0
  0
LINE
  8
0
  6
CONTINUOUS
 62
     2
 10
166.59
 20
83.568282402
 30
0.0
 11
169.476751346
 21
78.568282402
 31
0.0
  0
LINE
  8
0
  6
CONTINUOUS
 62
     2
 10
165.15
 20
81.45
 30
0.0
 11
165.15
 21
85.55
 31
0.0
  0
LINE
  8
0
  6
CONTINUOUS
 62
     2
 10
165.15
 20
76.45
 30
0.0
 11
165.15
 21
80.55
 31
0.0
  0
LINE
  8
0
  6
CONTINUOUS
 62
     1
 10
21.0
 20
136.0
 30
0.0
 11
19.5
 21
136.0
 31
0.0
  0
ARC
  8
0
  6
CONTINUOUS
 62
     1
 10
19.5
 20
135.5
 30
0.0
 40
0.5
 50
90.0
 51
180.0
  0
LINE
  8
0
  6
CONTINUOUS
 62
     1
 10
19.5
 20
51.0
 30
0.0
 11
21.0
 21
51.0
 31
0.0
  0
LINE
  8
0
  6
CONTINUOUS
 62
     1
 10
19.0
 20
135.5
 30
0.0
 11
19.0
 21
51.5
 31
0.0
  0
ARC
  8
0
  6
CONTINUOUS
 62
     1
 10
19.5
 20
51.5
 30
0.0
 40
0.5
 50
180.0
 51
270.0
  0
LINE
  8
0
  6
CONTINUOUS
 62
     1
 10
21.5
 20
52.0
 30
0.0
 11
40.5
 21
52.0
 31
0.0
  0
LINE
  8
0
  6
CONTINUOUS
 62
     1
 10
40.5
 20
52.0
 30
0.0
 11
40.5
 21
135.0
 31
0.0
  0
LINE
  8
0
  6
CONTINUOUS
 62
     1
 10
40.5
 20
135.0
 30
0.0
 11
21.5
 21
135.0
 31
0.0
  0
LINE
  8
0
  6
CONTINUOUS
 62
     1
 10
21.5
 20
135.0
 30
0.0
 11
21.5
 21
52.0
 31
0.0
  0
LINE
  8
0
  6
CONTINUOUS
 62
     1
 10
22.0
 20
58.5
 30
0.0
 11
40.0
 21
58.5
 31
0.0
  0
LINE
  8
0
  6
CONTINUOUS
 62
     1
 10
40.0
 20
58.5
 30
0.0
 11
40.0
 21
123.5
 31
0.0
  0
LINE
  8
0
  6
CONTINUOUS
 62
     1
 10
40.0
 20
123.5
 30
0.0
 11
22.0
 21
123.5
 31
0.0
  0
LINE
  8
0
  6
CONTINUOUS
 62
     1
 10
22.0
 20
123.5
 30
0.0
 11
22.0
 21
58.5
 31
0.0
  0
LINE
  8
0
  6
CONTINUOUS
 62
     1
 10
22.0
 20
52.5
 30
0.0
 11
40.0
 21
52.5
 31
0.0
  0
LINE
  8
0
  6
CONTINUOUS
 62
     1
 10
40.0
 20
52.5
 30
0.0
 11
40.0
 21
57.0
 31
0.0
  0
LINE
  8
0
  6
CONTINUOUS
 62
     1
 10
40.0
 20
57.0
 30
0.0
 11
22.0
 21
57.0
 31
0.0
  0
LINE
  8
0
  6
CONTINUOUS
 62
     1
 10
22.0
 20
57.0
 30
0.0
 11
22.0
 21
52.5
 31
0.0
  0
LINE
  8
0
  6
CONTINUOUS
 62
     1
 10
22.0
 20
125.0
 30
0.0
 11
40.0
 21
125.0
 31
0.0
  0
LINE
  8
0
  6
CONTINUOUS
 62
     1
 10
40.0
 20
125.0
 30
0.0
 11
40.0
 21
134.5
 31
0.0
  0
LINE
  8
0
  6
CONTINUOUS
 62
     1
 10
40.0
 20
134.5
 30
0.0
 11
22.0
 21
134.5
 31
0.0
  0
LINE
  8
0
  6
CONTINUOUS
 62
     1
 10
22.0
 20
134.5
 30
0.0
 11
22.0
 21
125.0
 31
0.0
  0
LINE
  8
0
  6
CONTINUOUS
 62
     1
 10
22.0
 20
62.5
 30
0.0
 11
40.0
 21
62.5
 31
0.0
  0
LINE
  8
0
  6
CONTINUOUS
 62
     1
 10
23.25
 20
63.75
 30
0.0
 11
38.75
 21
63.75
 31
0.0
  0
LINE
  8
0
  6
CONTINUOUS
 62
     1
 10
38.75
 20
63.75
 30
0.0
 11
38.75
 21
122.25
 31
0.0
  0
LINE
  8
0
  6
CONTINUOUS
 62
     1
 10
38.75
 20
122.25
 30
0.0
 11
23.25
 21
122.25
 31
0.0
  0
LINE
  8
0
  6
CONTINUOUS
 62
     1
 10
23.25
 20
122.25
 30
0.0
 11
23.25
 21
63.75
 31
0.0
  0
LINE
  8
0
  6
CONTINUOUS
 62
     1
 10
23.25
 20
121.25
 30
0.0
 11
38.75
 21
121.25
 31
0.0
  0
LINE
  8
0
  6
CONTINUOUS
 62
     1
 10
23.25
 20
64.75
 30
0.0
 11
38.75
 21
64.75
 31
0.0
  0
LINE
  8
0
  6
CONTINUOUS
 62
     1
 10
29.0
 20
64.75
 30
0.0
 11
29.0
 21
121.25
 31
0.0
  0
POLYLINE
  8
0
  6
CONTINUOUS
 62
     1
 66
     1
 70
     1
  0
VERTEX
  8
0
  6
CONTINUOUS
 62
     1
 10
28.475
 20
60.5
 30
0.0
 42
0.022306592
  0
VERTEX
  8
0
  6
CONTINUOUS
 62
     1
 10
28.471289831
 20
60.583119901
 30
0.0
 42
0.022293235
  0
VERTEX
  8
0
  6
CONTINUOUS
 62
     1
 10
28.460187559
 20
60.66560721
 30
0.0
 42
0.022265065
  0
VERTEX
  8
0
  6
CONTINUOUS
 62
     1
 10
28.441777681
 20
60.746834147
 30
0.0
 42
0.022223045
  0
VERTEX
  8
0
  6
CONTINUOUS
 62
     1
 10
28.416200305
 20
60.826182528
 30
0.0
 42
0.022168599
  0
VERTEX
  8
0
  6
CONTINUOUS
 62
     1
 10
28.383650092
 20
60.903048463
 30
0.0
 42
0.022103553
  0
VERTEX
  8
0
  6
CONTINUOUS
 62
     1
 10
28.344374769
 20
60.976846955
 30
0.0
 42
0.022030052
  0
VERTEX
  8
0
  6
CONTINUOUS
 62
     1
 10
28.298673243
 20
61.047016355
 30
0.0
 42
0.021950477
  0
VERTEX
  8
0
  6
CONTINUOUS
 62
     1
 10
28.246893332
 20
61.113022629
 30
0.0
 42
0.021867356
  0
VERTEX
  8
0
  6
CONTINUOUS
 62
     1
 10
28.189429112
 20
61.174363431
 30
0.0
 42
0.021783272
  0
VERTEX
  8
0
  6
CONTINUOUS
 62
     1
 10
28.126717919
 20
61.230571921
 30
0.0
 42
0.02170078
  0
VERTEX
  8
0
  6
CONTINUOUS
 62
     1
 10
28.059237025
 20
61.281220317
 30
0.0
 42
0.02162233
  0
VERTEX
  8
0
  6
CONTINUOUS
 62
     1
 10
27.9875
 20
61.325923154
 30
0.0
 42
0.021550201
  0
VERTEX
  8
0
  6
CONTINUOUS
 62
     1
 10
27.912052805
 20
61.364340218
 30
0.0
 42
0.021486442
  0
VERTEX
  8
0
  6
CONTINUOUS
 62
     1
 10
27.83346964
 20
61.39617913
 30
0.0
 42
0.021432831
  0
VERTEX
  8
0
  6
CONTINUOUS
 62
     1
 10
27.752348569
 20
61.421197579
 30
0.0
 42
0.021390837
  0
VERTEX
  8
0
  6
CONTINUOUS
 62
     1
 10
27.669306973
 20
61.439205157
 30
0.0
 42
0.021361596
  0
VERTEX
  8
0
  6
CONTINUOUS
 62
     1
 10
27.584976849
 20
61.450064817
 30
0.0
 42
0.02134589
  0
VERTEX
  8
0
  6
CONTINUOUS
 62
     1
 10
27.5
 20
61.453693911
 30
0.0
 42
0.021344135
  0
VERTEX
  8
0
  6
CONTINUOUS
 62
     1
 10
27.415023151
 20
61.450064817
 30
0.0
 42
0.021356378
  0
VERTEX
  8
0
  6
CONTINUOUS
 62
     1
 10
27.330693027
 20
61.439205157
 30
0.0
 42
0.021382295
  0
VERTEX
  8
0
  6
CONTINUOUS
 62
     1
 10
27.247651431
 20
61.421197579
 30
0.0
 42
0.021421193
  0
VERTEX
  8
0
  6
CONTINUOUS
 62
     1
 10
27.16653036
 20
61.39617913
 30
0.0
 42
0.021472024
  0
VERTEX
  8
0
  6
CONTINUOUS
 62
     1
 10
27.087947195
 20
61.364340218
 30
0.0
 42
0.021533402
  0
VERTEX
  8
0
  6
CONTINUOUS
 62
     1
 10
27.0125
 20
61.325923154
 30
0.0
 42
0.021603621
  0
VERTEX
  8
0
  6
CONTINUOUS
 62
     1
 10
26.940762975
 20
61.281220317
 30
0.0
 42
0.021680697
  0
VERTEX
  8
0
  6
CONTINUOUS
 62
     1
 10
26.873282081
 20
61.230571921
 30
0.0
 42
0.021762402
  0
VERTEX
  8
0
  6
CONTINUOUS
 62
     1
 10
26.810570888
 20
61.174363431
 30
0.0
 42
0.021846324
  0
VERTEX
  8
0
  6
CONTINUOUS
 62
     1
 10
26.753106668
 20
61.113022629
 30
0.0
 42
0.021929929
  0
VERTEX
  8
0
  6
CONTINUOUS
 62
     1
 10
26.701326757
 20
61.047016355
 30
0.0
 42
0.022010631
  0
VERTEX
  8
0
  6
CONTINUOUS
 62
     1
 10
26.655625231
 20
60.976846955
 30
0.0
 42
0.022085881
  0
VERTEX
  8
0
  6
CONTINUOUS
 62
     1
 10
26.616349908
 20
60.903048463
 30
0.0
 42
0.022153253
  0
VERTEX
  8
0
  6
CONTINUOUS
 62
     1
 10
26.583799695
 20
60.826182528
 30
0.0
 42
0.022210533
  0
VERTEX
  8
0
  6
CONTINUOUS
 62
     1
 10
26.558222319
 20
60.746834147
 30
0.0
 42
0.02225581
  0
VERTEX
  8
0
  6
CONTINUOUS
 62
     1
 10
26.539812441
 20
60.66560721
 30
0.0
 42
0.022287552
  0
VERTEX
  8
0
  6
CONTINUOUS
 62
     1
 10
26.528710169
 20
60.583119901
 30
0.0
 42
0.022304676
  0
VERTEX
  8
0
  6
CONTINUOUS
 62
     1
 10
26.525
 20
60.5
 30
0.0
 42
0.022306592
  0
VERTEX
  8
0
  6
CONTINUOUS
 62
     1
 10
26.528710169
 20
60.416880099
 30
0.0
 42
0.022293235
  0
VERTEX
  8
0
  6
CONTINUOUS
 62
     1
 10
26.539812441
 20
60.33439279
 30
0.0
 42
0.022265065
  0
VERTEX
  8
0
  6
CONTINUOUS
 62
     1
 10
26.558222319
 20
60.253165853
 30
0.0
 42
0.022223045
  0
VERTEX
  8
0
  6
CONTINUOUS
 62
     1
 10
26.583799695
 20
60.173817472
 30
0.0
 42
0.022168599
  0
VERTEX
  8
0
  6
CONTINUOUS
 62
     1
 10
26.616349908
 20
60.096951537
 30
0.0
 42
0.022103553
  0
VERTEX
  8
0
  6
CONTINUOUS
 62
     1
 10
26.655625231
 20
60.023153045
 30
0.0
 42
0.022030052
  0
VERTEX
  8
0
  6
CONTINUOUS
 62
     1
 10
26.701326757
 20
59.952983645
 30
0.0
 42
0.021950477
  0
VERTEX
  8
0
  6
CONTINUOUS
 62
     1
 10
26.753106668
 20
59.886977371
 30
0.0
 42
0.021867356
  0
VERTEX
  8
0
  6
CONTINUOUS
 62
     1
 10
26.810570888
 20
59.825636569
 30
0.0
 42
0.021783272
  0
VERTEX
  8
0
  6
CONTINUOUS
 62
     1
 10
26.873282081
 20
59.769428079
 30
0.0
 42
0.02170078
  0
VERTEX
  8
0
  6
CONTINUOUS
 62
     1
 10
26.940762975
 20
59.718779683
 30
0.0
 42
0.02162233
  0
VERTEX
  8
0
  6
CONTINUOUS
 62
     1
 10
27.0125
 20
59.674076846
 30
0.0
 42
0.021550201
  0
VERTEX
  8
0
  6
CONTINUOUS
 62
     1
 10
27.087947195
 20
59.635659782
 30
0.0
 42
0.021486442
  0
VERTEX
  8
0
  6
CONTINUOUS
 62
     1
 10
27.16653036
 20
59.60382087
 30
0.0
 42
0.021432831
  0
VERTEX
  8
0
  6
CONTINUOUS
 62
     1
 10
27.247651431
 20
59.578802421
 30
0.0
 42
0.021390837
  0
VERTEX
  8
0
  6
CONTINUOUS
 62
     1
 10
27.330693027
 20
59.560794843
 30
0.0
 42
0.021361596
  0
VERTEX
  8
0
  6
CONTINUOUS
 62
     1
 10
27.415023151
 20
59.549935183
 30
0.0
 42
0.02134589
  0
VERTEX
  8
0
  6
CONTINUOUS
 62
     1
 10
27.5
 20
59.546306089
 30
0.0
 42
0.021344135
  0
VERTEX
  8
0
  6
CONTINUOUS
 62
     1
 10
27.584976849
 20
59.549935183
 30
0.0
 42
0.021356378
  0
VERTEX
  8
0
  6
CONTINUOUS
 62
     1
 10
27.669306973
 20
59.560794843
 30
0.0
 42
0.021382295
  0
VERTEX
  8
0
  6
CONTINUOUS
 62
     1
 10
27.752348569
 20
59.578802421
 30
0.0
 42
0.021421193
  0
VERTEX
  8
0
  6
CONTINUOUS
 62
     1
 10
27.83346964
 20
59.60382087
 30
0.0
 42
0.021472024
  0
VERTEX
  8
0
  6
CONTINUOUS
 62
     1
 10
27.912052805
 20
59.635659782
 30
0.0
 42
0.021533402
  0
VERTEX
  8
0
  6
CONTINUOUS
 62
     1
 10
27.9875
 20
59.674076846
 30
0.0
 42
0.021603621
  0
VERTEX
  8
0
  6
CONTINUOUS
 62
     1
 10
28.059237025
 20
59.718779683
 30
0.0
 42
0.021680697
  0
VERTEX
  8
0
  6
CONTINUOUS
 62
     1
 10
28.126717919
 20
59.769428079
 30
0.0
 42
0.021762402
  0
VERTEX
  8
0
  6
CONTINUOUS
 62
     1
 10
28.189429112
 20
59.825636569
 30
0.0
 42
0.021846324
  0
VERTEX
  8
0
  6
CONTINUOUS
 62
     1
 10
28.246893332
 20
59.886977371
 30
0.0
 42
0.021929929
  0
VERTEX
  8
0
  6
CONTINUOUS
 62
     1
 10
28.298673243
 20
59.952983645
 30
0.0
 42
0.022010631
  0
VERTEX
  8
0
  6
CONTINUOUS
 62
     1
 10
28.344374769
 20
60.023153045
 30
0.0
 42
0.022085881
  0
VERTEX
  8
0
  6
CONTINUOUS
 62
     1
 10
28.383650092
 20
60.096951537
 30
0.0
 42
0.022153253
  0
VERTEX
  8
0
  6
CONTINUOUS
 62
     1
 10
28.416200305
 20
60.173817472
 30
0.0
 42
0.022210533
  0
VERTEX
  8
0
  6
CONTINUOUS
 62
     1
 10
28.441777681
 20
60.253165853
 30
0.0
 42
0.02225581
  0
VERTEX
  8
0
  6
CONTINUOUS
 62
     1
 10
28.460187559
 20
60.33439279
 30
0.0
 42
0.022287552
  0
VERTEX
  8
0
  6
CONTINUOUS
 62
     1
 10
28.471289831
 20
60.416880099
 30
0.0
 42
0.022304676
  0
SEQEND
  8
0
  6
CONTINUOUS
 62
     1
  0
LINE
  8
0
  6
CONTINUOUS
 62
     1
 10
27.3
 20
61.433413717
 30
0.0
 11
27.3
 21
59.566586283
 31
0.0
  0
LINE
  8
0
  6
CONTINUOUS
 62
     1
 10
27.7
 20
59.566586283
 30
0.0
 11
27.7
 21
61.433413717
 31
0.0
  0
ARC
  8
0
  6
CONTINUOUS
 62
     1
 10
41.0
 20
135.5
 30
0.0
 40
0.5
 50
0.0
 51
90.0
  0
LINE
  8
0
  6
CONTINUOUS
 62
     1
 10
41.0
 20
136.0
 30
0.0
 11
21.0
 21
136.0
 31
0.0
  0
ARC
  8
0
  6
CONTINUOUS
 62
     1
 10
21.0
 20
135.5
 30
0.0
 40
0.5
 50
90.0
 51
180.0
  0
LINE
  8
0
  6
CONTINUOUS
 62
     1
 10
20.5
 20
135.5
 30
0.0
 11
20.5
 21
51.5
 31
0.0
  0
ARC
  8
0
  6
CONTINUOUS
 62
     1
 10
21.0
 20
51.5
 30
0.0
 40
0.5
 50
180.0
 51
270.0
  0
LINE
  8
0
  6
CONTINUOUS
 62
     1
 10
21.0
 20
51.0
 30
0.0
 11
41.0
 21
51.0
 31
0.0
  0
LINE
  8
0
  6
CONTINUOUS
 62
     1
 10
41.5
 20
51.5
 30
0.0
 11
41.5
 21
135.5
 31
0.0
  0
ARC
  8
0
  6
CONTINUOUS
 62
     1
 10
41.0
 20
51.5
 30
0.0
 40
0.5
 50
270.0
 51
0.0
  0
LINE
  8
0
  6
CONTINUOUS
 62
     1
 10
25.5
 20
68.5
 30
0.0
 11
25.5
 21
121.25
 31
0.0
  0
LINE
  8
0
  6
CONTINUOUS
 62
     1
 10
25.5
 20
64.75
 30
0.0
 11
25.5
 21
66.5
 31
0.0
  0
LINE
  8
0
  6
CONTINUOUS
 62
     2
 10
15.5
 20
52.5
 30
0.0
 11
14.852952387
 21
50.085185434
 31
0.0
  0
LINE
  8
0
  6
CONTINUOUS
 62
     2
 10
15.5
 20
52.5
 30
0.0
 11
16.147047613
 21
50.085185434
 31
0.0
  0
LINE
  8
0
  6
CONTINUOUS
 62
     2
 10
15.5
 20
47.5
 30
0.0
 11
15.5
 21
62.0
 31
0.0
  0
LINE
  8
0
  6
CONTINUOUS
 62
     2
 10
15.5
 20
57.0
 30
0.0
 11
16.147047613
 21
59.414814566
 31
0.0
  0
LINE
  8
0
  6
CONTINUOUS
 62
     2
 10
15.5
 20
57.0
 30
0.0
 11
14.852952387
 21
59.414814566
 31
0.0
  0
TEXT
  8
0
  6
CONTINUOUS
 62
     2
 10
14.5
 20
53.85
 30
0.3
 40
3.0
  1
９
 50
90.0
 41
0.6
 51
0.0
  7
KANJI0
  0
LINE
  8
0
  6
CONTINUOUS
 62
     2
 10
15.5
 20
125.0
 30
0.0
 11
16.147047613
 21
127.414814566
 31
0.0
  0
LINE
  8
0
  6
CONTINUOUS
 62
     2
 10
15.5
 20
125.0
 30
0.0
 11
14.852952387
 21
127.414814566
 31
0.0
  0
LINE
  8
0
  6
CONTINUOUS
 62
     2
 10
15.5
 20
125.0
 30
0.0
 11
15.5
 21
134.5
 31
0.0
  0
LINE
  8
0
  6
CONTINUOUS
 62
     2
 10
15.5
 20
134.5
 30
0.0
 11
14.852952387
 21
132.085185434
 31
0.0
  0
LINE
  8
0
  6
CONTINUOUS
 62
     2
 10
15.5
 20
134.5
 30
0.0
 11
16.147047613
 21
132.085185434
 31
0.0
  0
TEXT
  8
0
  6
CONTINUOUS
 62
     2
 10
14.5
 20
127.8
 30
0.3
 40
3.0
  1
１９
 50
90.0
 41
0.6
 51
0.0
  7
KANJI0
  0
LINE
  8
0
  6
CONTINUOUS
 62
     2
 10
21.0
 20
134.5
 30
0.0
 11
13.5
 21
134.5
 31
0.0
  0
LINE
  8
0
  6
CONTINUOUS
 62
     2
 10
21.0
 20
125.0
 30
0.0
 11
13.5
 21
125.0
 31
0.0
  0
LINE
  8
0
  6
CONTINUOUS
 62
     2
 10
21.0
 20
52.5
 30
0.0
 11
13.5
 21
52.5
 31
0.0
  0
LINE
  8
0
  6
CONTINUOUS
 62
     2
 10
21.0
 20
57.0
 30
0.0
 11
13.5
 21
57.0
 31
0.0
  0
LINE
  8
0
  6
CONTINUOUS
 62
     2
 10
19.0
 20
136.5
 30
0.0
 11
19.0
 21
142.0
 31
0.0
  0
LINE
  8
0
  6
CONTINUOUS
 62
     2
 10
19.0
 20
140.0
 30
0.0
 11
16.585185434
 21
140.647047613
 31
0.0
  0
LINE
  8
0
  6
CONTINUOUS
 62
     2
 10
19.0
 20
140.0
 30
0.0
 11
16.585185434
 21
139.352952387
 31
0.0
  0
LINE
  8
0
  6
CONTINUOUS
 62
     2
 10
20.5
 20
137.0
 30
0.0
 11
20.5
 21
142.0
 31
0.0
  0
TEXT
  8
0
  6
CONTINUOUS
 62
     2
 10
18.85
 20
141.0
 30
0.3
 40
3.0
  1
３
 50
0.0
 41
0.6
 51
0.0
  7
KANJI0
  0
LINE
  8
0
  6
CONTINUOUS
 62
     2
 10
20.5
 20
140.0
 30
0.0
 11
22.914814566
 21
139.352952387
 31
0.0
  0
LINE
  8
0
  6
CONTINUOUS
 62
     2
 10
20.5
 20
140.0
 30
0.0
 11
22.914814566
 21
140.647047613
 31
0.0
  0
LINE
  8
0
  6
CONTINUOUS
 62
     2
 10
41.5
 20
140.0
 30
0.0
 11
39.085185434
 21
140.647047613
 31
0.0
  0
LINE
  8
0
  6
CONTINUOUS
 62
     2
 10
41.5
 20
140.0
 30
0.0
 11
39.085185434
 21
139.352952387
 31
0.0
  0
LINE
  8
0
  6
CONTINUOUS
 62
     2
 10
41.5
 20
137.0
 30
0.0
 11
41.5
 21
142.0
 31
0.0
  0
TEXT
  8
0
  6
CONTINUOUS
 62
     2
 10
29.05
 20
141.0
 30
0.3
 40
3.0
  1
４２
 50
0.0
 41
0.6
 51
0.0
  7
KANJI0
  0
LINE
  8
0
  6
CONTINUOUS
 62
     2
 10
14.585185434
 20
140.0
 30
0.0
 11
41.5
 21
140.0
 31
0.0
  0
LINE
  8
0
  6
CONTINUOUS
 62
     2
 10
22.0
 20
46.0
 30
0.0
 11
24.414814566
 21
45.352952387
 31
0.0
  0
LINE
  8
0
  6
CONTINUOUS
 62
     2
 10
22.0
 20
46.0
 30
0.0
 11
24.414814566
 21
46.647047613
 31
0.0
  0
LINE
  8
0
  6
CONTINUOUS
 62
     2
 10
22.0
 20
46.0
 30
0.0
 11
40.0
 21
46.0
 31
0.0
  0
LINE
  8
0
  6
CONTINUOUS
 62
     2
 10
40.0
 20
46.0
 30
0.0
 11
37.585185434
 21
46.647047613
 31
0.0
  0
LINE
  8
0
  6
CONTINUOUS
 62
     2
 10
40.0
 20
46.0
 30
0.0
 11
37.585185434
 21
45.352952387
 31
0.0
  0
TEXT
  8
0
  6
CONTINUOUS
 62
     2
 10
29.05
 20
47.0
 30
0.3
 40
3.0
  1
３６
 50
0.0
 41
0.6
 51
0.0
  7
KANJI0
  0
LINE
  8
0
  6
CONTINUOUS
 62
     2
 10
40.0
 20
51.5
 30
0.0
 11
40.0
 21
44.0
 31
0.0
  0
LINE
  8
0
  6
CONTINUOUS
 62
     2
 10
22.0
 20
51.5
 30
0.0
 11
22.0
 21
44.0
 31
0.0
  0
LINE
  8
0
  6
LTYPE1
 62
     2
 10
31.0
 20
139.0
 30
0.0
 11
31.0
 21
131.6
 31
0.0
  0
TEXT
  8
0
  6
CONTINUOUS
 62
     2
 10
24.45
 20
53.5
 30
0.3
 40
3.0
  1
（ＴＡＧ板）
 50
0.0
 41
0.9
 51
0.0
  7
KANJI1
  0
LINE
  8
0
  6
CONTINUOUS
 62
     2
 10
24.55
 20
66.5
 30
0.0
 11
24.55
 21
68.5
 31
0.0
  0
LINE
  8
0
  6
CONTINUOUS
 62
     2
 10
25.5
 20
66.5
 30
0.0
 11
24.55
 21
66.5
 31
0.0
  0
LINE
  8
0
  6
CONTINUOUS
 62
     2
 10
24.55
 20
68.5
 30
0.0
 11
25.5
 21
68.5
 31
0.0
  0
LINE
  8
0
  6
CONTINUOUS
 62
     2
 10
28.3
 20
67.4
 30
0.0
 11
26.4
 21
67.4
 31
0.0
  0
LINE
  8
0
  6
CONTINUOUS
 62
     2
 10
26.4
 20
67.4
 30
0.0
 11
25.5
 21
66.5
 31
0.0
  0
LINE
  8
0
  6
CONTINUOUS
 62
     2
 10
26.4
 20
67.6
 30
0.0
 11
25.5
 21
68.5
 31
0.0
  0
LINE
  8
0
  6
CONTINUOUS
 62
     2
 10
28.3
 20
67.6
 30
0.0
 11
26.4
 21
67.6
 31
0.0
  0
LINE
  8
0
  6
CONTINUOUS
 62
     2
 10
28.3
 20
67.6
 30
0.0
 11
28.3
 21
67.4
 31
0.0
  0
LINE
  8
0
  6
CONTINUOUS
 62
     2
 10
24.55
 20
67.609549882
 30
0.0
 11
23.902952387
 21
70.024364448
 31
0.0
  0
LINE
  8
0
  6
CONTINUOUS
 62
     2
 10
24.55
 20
67.609549882
 30
0.0
 11
22.782233047
 21
69.377316835
 31
0.0
  0
LINE
  8
0
  6
CONTINUOUS
 62
     2
 10
24.55
 20
67.609549882
 30
0.0
 11
17.5
 21
79.820508076
 31
0.0
  0
LINE
  8
0
  6
CONTINUOUS
 62
     2
 10
17.5
 20
79.820508076
 30
0.0
 11
11.8
 21
79.820508076
 31
0.0
  0
TEXT
  8
0
  6
CONTINUOUS
 62
     2
 10
11.8
 20
80.820508076
 30
0.3
 40
3.0
  1
指針
 50
0.0
 41
0.9
 51
0.0
  7
KANJI1
  0
TEXT
  8
0
  6
CONTINUOUS
 62
     2
 10
23.6
 20
128.4
 30
0.3
 40
3.0
  1
（名称板）
 50
0.0
 41
0.9
 51
0.0
  7
KANJI1
  0
LINE
  8
0
  6
CONTINUOUS
 62
     2
 10
28.125
 20
90.9625
 30
0.0
 11
28.125
 21
91.0375
 31
0.0
  0
ARC
  8
0
  6
CONTINUOUS
 62
     2
 10
25.89
 20
91.4
 30
0.0
 40
1.056
 50
337.467174552
 51
22.511176732
  0
ARC
  8
0
  6
CONTINUOUS
 62
     2
 10
25.89
 20
91.4
 30
0.0
 40
0.96
 50
337.452380695
 51
22.564315364
  0
ARC
  8
0
  6
CONTINUOUS
 62
     2
 10
27.33
 20
91.4
 30
0.0
 40
1.056
 50
157.488823268
 51
202.532825448
  0
ARC
  8
0
  6
CONTINUOUS
 62
     2
 10
27.33
 20
91.4
 30
0.0
 40
0.96
 50
157.435684636
 51
202.547619305
  0
ARC
  8
0
  6
CONTINUOUS
 62
     2
 10
26.61
 20
91.7
 30
0.0
 40
0.18
 50
22.323602445
 51
157.676397555
  0
ARC
  8
0
  6
CONTINUOUS
 62
     2
 10
26.61
 20
91.7
 30
0.0
 40
0.276
 50
22.204019072
 51
157.795980928
  0
ARC
  8
0
  6
CONTINUOUS
 62
     2
 10
26.61
 20
91.1
 30
0.0
 40
0.18
 50
202.234559129
 51
337.765440871
  0
ARC
  8
0
  6
CONTINUOUS
 62
     2
 10
26.61
 20
91.1
 30
0.0
 40
0.276
 50
202.286846658
 51
337.713153342
  0
ARC
  8
0
  6
CONTINUOUS
 62
     2
 10
27.17
 20
90.6
 30
0.0
 40
1.056
 50
337.467174552
 51
22.511176732
  0
ARC
  8
0
  6
CONTINUOUS
 62
     2
 10
27.17
 20
90.6
 30
0.0
 40
0.96
 50
337.452380695
 51
22.564315364
  0
ARC
  8
0
  6
CONTINUOUS
 62
     2
 10
28.61
 20
90.6
 30
0.0
 40
1.056
 50
157.488823268
 51
202.532825448
  0
ARC
  8
0
  6
CONTINUOUS
 62
     2
 10
28.61
 20
90.6
 30
0.0
 40
0.96
 50
157.435684636
 51
202.547619305
  0
ARC
  8
0
  6
CONTINUOUS
 62
     2
 10
27.89
 20
90.9
 30
0.0
 40
0.18
 50
22.323602445
 51
157.676397555
  0
ARC
  8
0
  6
CONTINUOUS
 62
     2
 10
27.89
 20
90.9
 30
0.0
 40
0.276
 50
22.204019072
 51
157.795980928
  0
ARC
  8
0
  6
CONTINUOUS
 62
     2
 10
27.89
 20
90.3
 30
0.0
 40
0.18
 50
202.234559129
 51
337.765440871
  0
ARC
  8
0
  6
CONTINUOUS
 62
     2
 10
27.89
 20
90.3
 30
0.0
 40
0.276
 50
202.286846658
 51
337.713153342
  0
LINE
  8
0
  6
CONTINUOUS
 62
     2
 10
28.065454591
 20
91.897146195
 30
0.0
 11
26.508085676
 21
90.041146195
 31
0.0
  0
LINE
  8
0
  6
CONTINUOUS
 62
     2
 10
27.991914324
 20
91.958853805
 30
0.0
 11
26.434545409
 21
90.102853805
 31
0.0
  0
ARC
  8
0
  6
CONTINUOUS
 62
     2
 10
26.471315542
 20
90.072
 30
0.0
 40
0.048
 50
140.0
 51
320.0
  0
ARC
  8
0
  6
CONTINUOUS
 62
     2
 10
28.028684458
 20
91.928
 30
0.0
 40
0.048
 50
320.0
 51
140.0
  0
POLYLINE
  8
0
  6
CONTINUOUS
 62
     1
 66
     1
 70
     1
  0
VERTEX
  8
0
  6
CONTINUOUS
 62
     1
 10
33.525
 20
60.5
 30
0.0
 42
-0.022306592
  0
VERTEX
  8
0
  6
CONTINUOUS
 62
     1
 10
33.528710169
 20
60.583119901
 30
0.0
 42
-0.022293235
  0
VERTEX
  8
0
  6
CONTINUOUS
 62
     1
 10
33.539812441
 20
60.66560721
 30
0.0
 42
-0.022265065
  0
VERTEX
  8
0
  6
CONTINUOUS
 62
     1
 10
33.558222319
 20
60.746834147
 30
0.0
 42
-0.022223045
  0
VERTEX
  8
0
  6
CONTINUOUS
 62
     1
 10
33.583799695
 20
60.826182528
 30
0.0
 42
-0.022168599
  0
VERTEX
  8
0
  6
CONTINUOUS
 62
     1
 10
33.616349908
 20
60.903048463
 30
0.0
 42
-0.022103553
  0
VERTEX
  8
0
  6
CONTINUOUS
 62
     1
 10
33.655625231
 20
60.976846955
 30
0.0
 42
-0.022030052
  0
VERTEX
  8
0
  6
CONTINUOUS
 62
     1
 10
33.701326757
 20
61.047016355
 30
0.0
 42
-0.021950477
  0
VERTEX
  8
0
  6
CONTINUOUS
 62
     1
 10
33.753106668
 20
61.113022629
 30
0.0
 42
-0.021867356
  0
VERTEX
  8
0
  6
CONTINUOUS
 62
     1
 10
33.810570888
 20
61.174363431
 30
0.0
 42
-0.021783272
  0
VERTEX
  8
0
  6
CONTINUOUS
 62
     1
 10
33.873282081
 20
61.230571921
 30
0.0
 42
-0.02170078
  0
VERTEX
  8
0
  6
CONTINUOUS
 62
     1
 10
33.940762975
 20
61.281220317
 30
0.0
 42
-0.02162233
  0
VERTEX
  8
0
  6
CONTINUOUS
 62
     1
 10
34.0125
 20
61.325923154
 30
0.0
 42
-0.021550201
  0
VERTEX
  8
0
  6
CONTINUOUS
 62
     1
 10
34.087947195
 20
61.364340218
 30
0.0
 42
-0.021486442
  0
VERTEX
  8
0
  6
CONTINUOUS
 62
     1
 10
34.16653036
 20
61.39617913
 30
0.0
 42
-0.021432831
  0
VERTEX
  8
0
  6
CONTINUOUS
 62
     1
 10
34.247651431
 20
61.421197579
 30
0.0
 42
-0.021390837
  0
VERTEX
  8
0
  6
CONTINUOUS
 62
     1
 10
34.330693027
 20
61.439205157
 30
0.0
 42
-0.021361596
  0
VERTEX
  8
0
  6
CONTINUOUS
 62
     1
 10
34.415023151
 20
61.450064817
 30
0.0
 42
-0.02134589
  0
VERTEX
  8
0
  6
CONTINUOUS
 62
     1
 10
34.5
 20
61.453693911
 30
0.0
 42
-0.021344135
  0
VERTEX
  8
0
  6
CONTINUOUS
 62
     1
 10
34.584976849
 20
61.450064817
 30
0.0
 42
-0.021356378
  0
VERTEX
  8
0
  6
CONTINUOUS
 62
     1
 10
34.669306973
 20
61.439205157
 30
0.0
 42
-0.021382295
  0
VERTEX
  8
0
  6
CONTINUOUS
 62
     1
 10
34.752348569
 20
61.421197579
 30
0.0
 42
-0.021421193
  0
VERTEX
  8
0
  6
CONTINUOUS
 62
     1
 10
34.83346964
 20
61.39617913
 30
0.0
 42
-0.021472024
  0
VERTEX
  8
0
  6
CONTINUOUS
 62
     1
 10
34.912052805
 20
61.364340218
 30
0.0
 42
-0.021533402
  0
VERTEX
  8
0
  6
CONTINUOUS
 62
     1
 10
34.9875
 20
61.325923154
 30
0.0
 42
-0.021603621
  0
VERTEX
  8
0
  6
CONTINUOUS
 62
     1
 10
35.059237025
 20
61.281220317
 30
0.0
 42
-0.021680697
  0
VERTEX
  8
0
  6
CONTINUOUS
 62
     1
 10
35.126717919
 20
61.230571921
 30
0.0
 42
-0.021762402
  0
VERTEX
  8
0
  6
CONTINUOUS
 62
     1
 10
35.189429112
 20
61.174363431
 30
0.0
 42
-0.021846324
  0
VERTEX
  8
0
  6
CONTINUOUS
 62
     1
 10
35.246893332
 20
61.113022629
 30
0.0
 42
-0.021929929
  0
VERTEX
  8
0
  6
CONTINUOUS
 62
     1
 10
35.298673243
 20
61.047016355
 30
0.0
 42
-0.022010631
  0
VERTEX
  8
0
  6
CONTINUOUS
 62
     1
 10
35.344374769
 20
60.976846955
 30
0.0
 42
-0.022085881
  0
VERTEX
  8
0
  6
CONTINUOUS
 62
     1
 10
35.383650092
 20
60.903048463
 30
0.0
 42
-0.022153253
  0
VERTEX
  8
0
  6
CONTINUOUS
 62
     1
 10
35.416200305
 20
60.826182528
 30
0.0
 42
-0.022210533
  0
VERTEX
  8
0
  6
CONTINUOUS
 62
     1
 10
35.441777681
 20
60.746834147
 30
0.0
 42
-0.02225581
  0
VERTEX
  8
0
  6
CONTINUOUS
 62
     1
 10
35.460187559
 20
60.66560721
 30
0.0
 42
-0.022287552
  0
VERTEX
  8
0
  6
CONTINUOUS
 62
     1
 10
35.471289831
 20
60.583119901
 30
0.0
 42
-0.022304676
  0
VERTEX
  8
0
  6
CONTINUOUS
 62
     1
 10
35.475
 20
60.5
 30
0.0
 42
-0.022306592
  0
VERTEX
  8
0
  6
CONTINUOUS
 62
     1
 10
35.471289831
 20
60.416880099
 30
0.0
 42
-0.022293235
  0
VERTEX
  8
0
  6
CONTINUOUS
 62
     1
 10
35.460187559
 20
60.33439279
 30
0.0
 42
-0.022265065
  0
VERTEX
  8
0
  6
CONTINUOUS
 62
     1
 10
35.441777681
 20
60.253165853
 30
0.0
 42
-0.022223045
  0
VERTEX
  8
0
  6
CONTINUOUS
 62
     1
 10
35.416200305
 20
60.173817472
 30
0.0
 42
-0.022168599
  0
VERTEX
  8
0
  6
CONTINUOUS
 62
     1
 10
35.383650092
 20
60.096951537
 30
0.0
 42
-0.022103553
  0
VERTEX
  8
0
  6
CONTINUOUS
 62
     1
 10
35.344374769
 20
60.023153045
 30
0.0
 42
-0.022030052
  0
VERTEX
  8
0
  6
CONTINUOUS
 62
     1
 10
35.298673243
 20
59.952983645
 30
0.0
 42
-0.021950477
  0
VERTEX
  8
0
  6
CONTINUOUS
 62
     1
 10
35.246893332
 20
59.886977371
 30
0.0
 42
-0.021867356
  0
VERTEX
  8
0
  6
CONTINUOUS
 62
     1
 10
35.189429112
 20
59.825636569
 30
0.0
 42
-0.021783272
  0
VERTEX
  8
0
  6
CONTINUOUS
 62
     1
 10
35.126717919
 20
59.769428079
 30
0.0
 42
-0.02170078
  0
VERTEX
  8
0
  6
CONTINUOUS
 62
     1
 10
35.059237025
 20
59.718779683
 30
0.0
 42
-0.02162233
  0
VERTEX
  8
0
  6
CONTINUOUS
 62
     1
 10
34.9875
 20
59.674076846
 30
0.0
 42
-0.021550201
  0
VERTEX
  8
0
  6
CONTINUOUS
 62
     1
 10
34.912052805
 20
59.635659782
 30
0.0
 42
-0.021486442
  0
VERTEX
  8
0
  6
CONTINUOUS
 62
     1
 10
34.83346964
 20
59.60382087
 30
0.0
 42
-0.021432831
  0
VERTEX
  8
0
  6
CONTINUOUS
 62
     1
 10
34.752348569
 20
59.578802421
 30
0.0
 42
-0.021390837
  0
VERTEX
  8
0
  6
CONTINUOUS
 62
     1
 10
34.669306973
 20
59.560794843
 30
0.0
 42
-0.021361596
  0
VERTEX
  8
0
  6
CONTINUOUS
 62
     1
 10
34.584976849
 20
59.549935183
 30
0.0
 42
-0.02134589
  0
VERTEX
  8
0
  6
CONTINUOUS
 62
     1
 10
34.5
 20
59.546306089
 30
0.0
 42
-0.021344135
  0
VERTEX
  8
0
  6
CONTINUOUS
 62
     1
 10
34.415023151
 20
59.549935183
 30
0.0
 42
-0.021356378
  0
VERTEX
  8
0
  6
CONTINUOUS
 62
     1
 10
34.330693027
 20
59.560794843
 30
0.0
 42
-0.021382295
  0
VERTEX
  8
0
  6
CONTINUOUS
 62
     1
 10
34.247651431
 20
59.578802421
 30
0.0
 42
-0.021421193
  0
VERTEX
  8
0
  6
CONTINUOUS
 62
     1
 10
34.16653036
 20
59.60382087
 30
0.0
 42
-0.021472024
  0
VERTEX
  8
0
  6
CONTINUOUS
 62
     1
 10
34.087947195
 20
59.635659782
 30
0.0
 42
-0.021533402
  0
VERTEX
  8
0
  6
CONTINUOUS
 62
     1
 10
34.0125
 20
59.674076846
 30
0.0
 42
-0.021603621
  0
VERTEX
  8
0
  6
CONTINUOUS
 62
     1
 10
33.940762975
 20
59.718779683
 30
0.0
 42
-0.021680697
  0
VERTEX
  8
0
  6
CONTINUOUS
 62
     1
 10
33.873282081
 20
59.769428079
 30
0.0
 42
-0.021762402
  0
VERTEX
  8
0
  6
CONTINUOUS
 62
     1
 10
33.810570888
 20
59.825636569
 30
0.0
 42
-0.021846324
  0
VERTEX
  8
0
  6
CONTINUOUS
 62
     1
 10
33.753106668
 20
59.886977371
 30
0.0
 42
-0.021929929
  0
VERTEX
  8
0
  6
CONTINUOUS
 62
     1
 10
33.701326757
 20
59.952983645
 30
0.0
 42
-0.022010631
  0
VERTEX
  8
0
  6
CONTINUOUS
 62
     1
 10
33.655625231
 20
60.023153045
 30
0.0
 42
-0.022085881
  0
VERTEX
  8
0
  6
CONTINUOUS
 62
     1
 10
33.616349908
 20
60.096951537
 30
0.0
 42
-0.022153253
  0
VERTEX
  8
0
  6
CONTINUOUS
 62
     1
 10
33.583799695
 20
60.173817472
 30
0.0
 42
-0.022210533
  0
VERTEX
  8
0
  6
CONTINUOUS
 62
     1
 10
33.558222319
 20
60.253165853
 30
0.0
 42
-0.02225581
  0
VERTEX
  8
0
  6
CONTINUOUS
 62
     1
 10
33.539812441
 20
60.33439279
 30
0.0
 42
-0.022287552
  0
VERTEX
  8
0
  6
CONTINUOUS
 62
     1
 10
33.528710169
 20
60.416880099
 30
0.0
 42
-0.022304676
  0
SEQEND
  8
0
  6
CONTINUOUS
 62
     1
  0
LINE
  8
0
  6
CONTINUOUS
 62
     1
 10
34.7
 20
61.433413717
 30
0.0
 11
34.7
 21
59.566586283
 31
0.0
  0
LINE
  8
0
  6
CONTINUOUS
 62
     1
 10
34.3
 20
59.566586283
 30
0.0
 11
34.3
 21
61.433413717
 31
0.0
  0
TEXT
  8
0
  6
CONTINUOUS
 62
     2
 10
15.0
 20
30.0
 30
0.3
 40
3.0
  1
目盛長　１００ｍｍ
 50
0.0
 41
0.9
 51
0.0
  7
KANJI1
  0
LINE
  8
0
  6
CONTINUOUS
 62
     2
 10
27.020555372
 20
59.669577545
 30
0.0
 11
26.373507759
 21
57.254762979
 31
0.0
  0
LINE
  8
0
  6
CONTINUOUS
 62
     2
 10
27.020555372
 20
59.669577545
 30
0.0
 11
25.252788419
 21
57.901810592
 31
0.0
  0
TEXT
  8
0
  6
CONTINUOUS
 62
     2
 10
17.4
 20
37.879491924
 30
0.3
 40
3.0
  1
零位調整器
 50
0.0
 41
0.9
 51
0.0
  7
KANJI1
  0
LINE
  8
0
  6
CONTINUOUS
 62
     2
 10
13.862693304
 20
36.879491924
 30
0.0
 11
32.1
 21
36.879491924
 31
0.0
  0
LINE
  8
0
  6
CONTINUOUS
 62
     2
 10
27.020555372
 20
59.669577545
 30
0.0
 11
13.862693304
 21
36.879491924
 31
0.0
  0
LINE
  8
0
  6
CONTINUOUS
 62
     1
 10
41.0
 20
136.0
 30
0.0
 11
42.5
 21
136.0
 31
0.0
  0
ARC
  8
0
  6
CONTINUOUS
 62
     1
 10
42.5
 20
135.5
 30
0.0
 40
0.5
 50
0.0
 51
90.0
  0
LINE
  8
0
  6
CONTINUOUS
 62
     1
 10
43.0
 20
135.5
 30
0.0
 11
43.0
 21
51.5
 31
0.0
  0
LINE
  8
0
  6
CONTINUOUS
 62
     1
 10
42.5
 20
51.0
 30
0.0
 11
41.0
 21
51.0
 31
0.0
  0
ARC
  8
0
  6
CONTINUOUS
 62
     1
 10
42.5
 20
51.5
 30
0.0
 40
0.5
 50
270.0
 51
360.0
  0
LINE
  8
0
  6
CONTINUOUS
 62
     2
 10
44.0
 20
136.0
 30
0.0
 11
50.5
 21
136.0
 31
0.0
  0
LINE
  8
0
  6
CONTINUOUS
 62
     2
 10
48.5
 20
136.0
 30
0.0
 11
47.852952387
 21
133.585185434
 31
0.0
  0
LINE
  8
0
  6
CONTINUOUS
 62
     2
 10
48.5
 20
136.0
 30
0.0
 11
49.147047613
 21
133.585185434
 31
0.0
  0
LINE
  8
0
  6
CONTINUOUS
 62
     2
 10
48.5
 20
136.0
 30
0.0
 11
48.5
 21
51.0
 31
0.0
  0
LINE
  8
0
  6
CONTINUOUS
 62
     2
 10
48.5
 20
51.0
 30
0.0
 11
49.147047613
 21
53.414814566
 31
0.0
  0
LINE
  8
0
  6
CONTINUOUS
 62
     2
 10
48.5
 20
51.0
 30
0.0
 11
47.852952387
 21
53.414814566
 31
0.0
  0
LINE
  8
0
  6
CONTINUOUS
 62
     2
 10
44.0
 20
51.0
 30
0.0
 11
50.5
 21
51.0
 31
0.0
  0
TEXT
  8
0
  6
CONTINUOUS
 62
     2
 10
47.5
 20
91.5
 30
0.3
 40
3.0
  1
１７０
 50
90.0
 41
0.6
 51
0.0
  7
KANJI0
  0
LINE
  8
0
  6
CONTINUOUS
 62
     2
 10
43.0
 20
136.5
 30
0.0
 11
43.0
 21
142.0
 31
0.0
  0
LINE
  8
0
  6
CONTINUOUS
 62
     2
 10
43.0
 20
140.0
 30
0.0
 11
45.414814566
 21
140.647047613
 31
0.0
  0
LINE
  8
0
  6
CONTINUOUS
 62
     2
 10
43.0
 20
140.0
 30
0.0
 11
45.414814566
 21
139.352952387
 31
0.0
  0
TEXT
  8
0
  6
CONTINUOUS
 62
     2
 10
41.35
 20
141.0
 30
0.3
 40
3.0
  1
３
 50
0.0
 41
0.6
 51
0.0
  7
KANJI0
  0
LINE
  8
0
  6
CONTINUOUS
 62
     2
 10
47.414814566
 20
140.0
 30
0.0
 11
20.5
 21
140.0
 31
0.0
  0
LINE
  8
0
  6
CONTINUOUS
 62
     2
 10
30.1375
 20
93.0
 30
0.0
 11
29.025
 21
93.0
 31
0.0
  0
LINE
  8
0
  6
CONTINUOUS
 62
     2
 10
29.0
 20
67.925
 30
0.0
 11
29.0
 21
68.075
 31
0.0
  0
LINE
  8
0
  6
CONTINUOUS
 62
     2
 10
32.1625
 20
68.075
 30
0.0
 11
32.1625
 21
67.925
 31
0.0
  0
LINE
  8
0
  6
CONTINUOUS
 62
     2
 10
29.0
 20
68.075
 30
0.0
 11
32.1625
 21
68.075
 31
0.0
  0
LINE
  8
0
  6
CONTINUOUS
 62
     2
 10
32.1625
 20
67.925
 30
0.0
 11
29.0
 21
67.925
 31
0.0
  0
LINE
  8
0
  6
CONTINUOUS
 62
     2
 10
30.9125
 20
69.0
 30
0.0
 11
29.0
 21
69.0
 31
0.0
  0
LINE
  8
0
  6
CONTINUOUS
 62
     2
 10
29.0
 20
69.0
 30
0.0
 11
31.4125
 21
69.0
 31
0.0
  0
LINE
  8
0
  6
CONTINUOUS
 62
     2
 10
30.9125
 20
70.0
 30
0.0
 11
29.0
 21
70.0
 31
0.0
  0
LINE
  8
0
  6
CONTINUOUS
 62
     2
 10
29.0
 20
70.0
 30
0.0
 11
31.4125
 21
70.0
 31
0.0
  0
LINE
  8
0
  6
CONTINUOUS
 62
     2
 10
30.9125
 20
71.0
 30
0.0
 11
29.0
 21
71.0
 31
0.0
  0
LINE
  8
0
  6
CONTINUOUS
 62
     2
 10
29.0
 20
71.0
 30
0.0
 11
31.4125
 21
71.0
 31
0.0
  0
LINE
  8
0
  6
CONTINUOUS
 62
     2
 10
30.9125
 20
72.0
 30
0.0
 11
29.0
 21
72.0
 31
0.0
  0
LINE
  8
0
  6
CONTINUOUS
 62
     2
 10
29.0
 20
72.0
 30
0.0
 11
31.4125
 21
72.0
 31
0.0
  0
LINE
  8
0
  6
CONTINUOUS
 62
     2
 10
29.0
 20
72.925
 30
0.0
 11
29.0
 21
73.075
 31
0.0
  0
LINE
  8
0
  6
CONTINUOUS
 62
     2
 10
32.1625
 20
73.075
 30
0.0
 11
32.1625
 21
72.925
 31
0.0
  0
LINE
  8
0
  6
CONTINUOUS
 62
     2
 10
29.0
 20
73.075
 30
0.0
 11
32.1625
 21
73.075
 31
0.0
  0
LINE
  8
0
  6
CONTINUOUS
 62
     2
 10
32.1625
 20
72.925
 30
0.0
 11
29.0
 21
72.925
 31
0.0
  0
LINE
  8
0
  6
CONTINUOUS
 62
     2
 10
30.9125
 20
74.0
 30
0.0
 11
29.0
 21
74.0
 31
0.0
  0
LINE
  8
0
  6
CONTINUOUS
 62
     2
 10
29.0
 20
74.0
 30
0.0
 11
31.4125
 21
74.0
 31
0.0
  0
LINE
  8
0
  6
CONTINUOUS
 62
     2
 10
30.9125
 20
75.0
 30
0.0
 11
29.0
 21
75.0
 31
0.0
  0
LINE
  8
0
  6
CONTINUOUS
 62
     2
 10
29.0
 20
75.0
 30
0.0
 11
31.4125
 21
75.0
 31
0.0
  0
LINE
  8
0
  6
CONTINUOUS
 62
     2
 10
30.9125
 20
76.0
 30
0.0
 11
29.0
 21
76.0
 31
0.0
  0
LINE
  8
0
  6
CONTINUOUS
 62
     2
 10
29.0
 20
76.0
 30
0.0
 11
31.4125
 21
76.0
 31
0.0
  0
LINE
  8
0
  6
CONTINUOUS
 62
     2
 10
30.9125
 20
77.0
 30
0.0
 11
29.0
 21
77.0
 31
0.0
  0
LINE
  8
0
  6
CONTINUOUS
 62
     2
 10
29.0
 20
77.0
 30
0.0
 11
31.4125
 21
77.0
 31
0.0
  0
LINE
  8
0
  6
CONTINUOUS
 62
     2
 10
29.0
 20
77.925
 30
0.0
 11
29.0
 21
78.075
 31
0.0
  0
LINE
  8
0
  6
CONTINUOUS
 62
     2
 10
32.1625
 20
78.075
 30
0.0
 11
32.1625
 21
77.925
 31
0.0
  0
LINE
  8
0
  6
CONTINUOUS
 62
     2
 10
29.0
 20
78.075
 30
0.0
 11
32.1625
 21
78.075
 31
0.0
  0
LINE
  8
0
  6
CONTINUOUS
 62
     2
 10
32.1625
 20
77.925
 30
0.0
 11
29.0
 21
77.925
 31
0.0
  0
LINE
  8
0
  6
CONTINUOUS
 62
     2
 10
30.9125
 20
79.0
 30
0.0
 11
29.0
 21
79.0
 31
0.0
  0
LINE
  8
0
  6
CONTINUOUS
 62
     2
 10
29.0
 20
79.0
 30
0.0
 11
31.4125
 21
79.0
 31
0.0
  0
LINE
  8
0
  6
CONTINUOUS
 62
     2
 10
30.9125
 20
80.0
 30
0.0
 11
29.0
 21
80.0
 31
0.0
  0
LINE
  8
0
  6
CONTINUOUS
 62
     2
 10
29.0
 20
80.0
 30
0.0
 11
31.4125
 21
80.0
 31
0.0
  0
LINE
  8
0
  6
CONTINUOUS
 62
     2
 10
30.9125
 20
81.0
 30
0.0
 11
29.0
 21
81.0
 31
0.0
  0
LINE
  8
0
  6
CONTINUOUS
 62
     2
 10
29.0
 20
81.0
 30
0.0
 11
31.4125
 21
81.0
 31
0.0
  0
LINE
  8
0
  6
CONTINUOUS
 62
     2
 10
30.9125
 20
82.0
 30
0.0
 11
29.0
 21
82.0
 31
0.0
  0
LINE
  8
0
  6
CONTINUOUS
 62
     2
 10
29.0
 20
82.0
 30
0.0
 11
31.4125
 21
82.0
 31
0.0
  0
LINE
  8
0
  6
CONTINUOUS
 62
     2
 10
29.0
 20
82.925
 30
0.0
 11
29.0
 21
83.075
 31
0.0
  0
LINE
  8
0
  6
CONTINUOUS
 62
     2
 10
32.1625
 20
83.075
 30
0.0
 11
32.1625
 21
82.925
 31
0.0
  0
LINE
  8
0
  6
CONTINUOUS
 62
     2
 10
29.0
 20
83.075
 30
0.0
 11
32.1625
 21
83.075
 31
0.0
  0
LINE
  8
0
  6
CONTINUOUS
 62
     2
 10
32.1625
 20
82.925
 30
0.0
 11
29.0
 21
82.925
 31
0.0
  0
LINE
  8
0
  6
CONTINUOUS
 62
     2
 10
30.9125
 20
84.0
 30
0.0
 11
29.0
 21
84.0
 31
0.0
  0
LINE
  8
0
  6
CONTINUOUS
 62
     2
 10
29.0
 20
84.0
 30
0.0
 11
31.4125
 21
84.0
 31
0.0
  0
LINE
  8
0
  6
CONTINUOUS
 62
     2
 10
30.9125
 20
85.0
 30
0.0
 11
29.0
 21
85.0
 31
0.0
  0
LINE
  8
0
  6
CONTINUOUS
 62
     2
 10
29.0
 20
85.0
 30
0.0
 11
31.4125
 21
85.0
 31
0.0
  0
LINE
  8
0
  6
CONTINUOUS
 62
     2
 10
30.9125
 20
86.0
 30
0.0
 11
29.0
 21
86.0
 31
0.0
  0
LINE
  8
0
  6
CONTINUOUS
 62
     2
 10
29.0
 20
86.0
 30
0.0
 11
31.4125
 21
86.0
 31
0.0
  0
LINE
  8
0
  6
CONTINUOUS
 62
     2
 10
30.9125
 20
87.0
 30
0.0
 11
29.0
 21
87.0
 31
0.0
  0
LINE
  8
0
  6
CONTINUOUS
 62
     2
 10
29.0
 20
87.0
 30
0.0
 11
31.4125
 21
87.0
 31
0.0
  0
LINE
  8
0
  6
CONTINUOUS
 62
     2
 10
29.0
 20
87.925
 30
0.0
 11
29.0
 21
88.075
 31
0.0
  0
LINE
  8
0
  6
CONTINUOUS
 62
     2
 10
32.1625
 20
88.075
 30
0.0
 11
32.1625
 21
87.925
 31
0.0
  0
LINE
  8
0
  6
CONTINUOUS
 62
     2
 10
29.0
 20
88.075
 30
0.0
 11
32.1625
 21
88.075
 31
0.0
  0
LINE
  8
0
  6
CONTINUOUS
 62
     2
 10
32.1625
 20
87.925
 30
0.0
 11
29.0
 21
87.925
 31
0.0
  0
LINE
  8
0
  6
CONTINUOUS
 62
     2
 10
30.9125
 20
89.0
 30
0.0
 11
29.0
 21
89.0
 31
0.0
  0
LINE
  8
0
  6
CONTINUOUS
 62
     2
 10
29.0
 20
89.0
 30
0.0
 11
31.4125
 21
89.0
 31
0.0
  0
LINE
  8
0
  6
CONTINUOUS
 62
     2
 10
30.9125
 20
90.0
 30
0.0
 11
29.0
 21
90.0
 31
0.0
  0
LINE
  8
0
  6
CONTINUOUS
 62
     2
 10
29.0
 20
90.0
 30
0.0
 11
31.4125
 21
90.0
 31
0.0
  0
LINE
  8
0
  6
CONTINUOUS
 62
     2
 10
30.9125
 20
91.0
 30
0.0
 11
29.0
 21
91.0
 31
0.0
  0
LINE
  8
0
  6
CONTINUOUS
 62
     2
 10
29.0
 20
91.0
 30
0.0
 11
31.4125
 21
91.0
 31
0.0
  0
LINE
  8
0
  6
CONTINUOUS
 62
     2
 10
30.9125
 20
92.0
 30
0.0
 11
29.0
 21
92.0
 31
0.0
  0
LINE
  8
0
  6
CONTINUOUS
 62
     2
 10
29.0
 20
92.0
 30
0.0
 11
31.4125
 21
92.0
 31
0.0
  0
LINE
  8
0
  6
CONTINUOUS
 62
     2
 10
32.1625
 20
93.075
 30
0.0
 11
32.1625
 21
92.925
 31
0.0
  0
LINE
  8
0
  6
CONTINUOUS
 62
     2
 10
29.0
 20
93.075
 30
0.0
 11
32.1625
 21
93.075
 31
0.0
  0
LINE
  8
0
  6
CONTINUOUS
 62
     2
 10
32.1625
 20
92.925
 30
0.0
 11
29.0
 21
92.925
 31
0.0
  0
LINE
  8
0
  6
CONTINUOUS
 62
     2
 10
30.9125
 20
94.0
 30
0.0
 11
29.0
 21
94.0
 31
0.0
  0
LINE
  8
0
  6
CONTINUOUS
 62
     2
 10
29.0
 20
94.0
 30
0.0
 11
31.4125
 21
94.0
 31
0.0
  0
LINE
  8
0
  6
CONTINUOUS
 62
     2
 10
30.9125
 20
95.0
 30
0.0
 11
29.0
 21
95.0
 31
0.0
  0
LINE
  8
0
  6
CONTINUOUS
 62
     2
 10
29.0
 20
95.0
 30
0.0
 11
31.4125
 21
95.0
 31
0.0
  0
LINE
  8
0
  6
CONTINUOUS
 62
     2
 10
30.9125
 20
96.0
 30
0.0
 11
29.0
 21
96.0
 31
0.0
  0
LINE
  8
0
  6
CONTINUOUS
 62
     2
 10
29.0
 20
96.0
 30
0.0
 11
31.4125
 21
96.0
 31
0.0
  0
LINE
  8
0
  6
CONTINUOUS
 62
     2
 10
30.9125
 20
97.0
 30
0.0
 11
29.0
 21
97.0
 31
0.0
  0
LINE
  8
0
  6
CONTINUOUS
 62
     2
 10
29.0
 20
97.0
 30
0.0
 11
31.4125
 21
97.0
 31
0.0
  0
LINE
  8
0
  6
CONTINUOUS
 62
     2
 10
29.0
 20
97.925
 30
0.0
 11
29.0
 21
98.075
 31
0.0
  0
LINE
  8
0
  6
CONTINUOUS
 62
     2
 10
32.1625
 20
98.075
 30
0.0
 11
32.1625
 21
97.925
 31
0.0
  0
LINE
  8
0
  6
CONTINUOUS
 62
     2
 10
29.0
 20
98.075
 30
0.0
 11
32.1625
 21
98.075
 31
0.0
  0
LINE
  8
0
  6
CONTINUOUS
 62
     2
 10
32.1625
 20
97.925
 30
0.0
 11
29.0
 21
97.925
 31
0.0
  0
LINE
  8
0
  6
CONTINUOUS
 62
     2
 10
30.9125
 20
99.0
 30
0.0
 11
29.0
 21
99.0
 31
0.0
  0
LINE
  8
0
  6
CONTINUOUS
 62
     2
 10
29.0
 20
99.0
 30
0.0
 11
31.4125
 21
99.0
 31
0.0
  0
LINE
  8
0
  6
CONTINUOUS
 62
     2
 10
30.9125
 20
100.0
 30
0.0
 11
29.0
 21
100.0
 31
0.0
  0
LINE
  8
0
  6
CONTINUOUS
 62
     2
 10
29.0
 20
100.0
 30
0.0
 11
31.4125
 21
100.0
 31
0.0
  0
LINE
  8
0
  6
CONTINUOUS
 62
     2
 10
30.9125
 20
101.0
 30
0.0
 11
29.0
 21
101.0
 31
0.0
  0
LINE
  8
0
  6
CONTINUOUS
 62
     2
 10
29.0
 20
101.0
 30
0.0
 11
31.4125
 21
101.0
 31
0.0
  0
LINE
  8
0
  6
CONTINUOUS
 62
     2
 10
30.9125
 20
102.0
 30
0.0
 11
29.0
 21
102.0
 31
0.0
  0
LINE
  8
0
  6
CONTINUOUS
 62
     2
 10
29.0
 20
102.0
 30
0.0
 11
31.4125
 21
102.0
 31
0.0
  0
LINE
  8
0
  6
CONTINUOUS
 62
     2
 10
29.0
 20
102.925
 30
0.0
 11
29.0
 21
103.075
 31
0.0
  0
LINE
  8
0
  6
CONTINUOUS
 62
     2
 10
32.1625
 20
103.075
 30
0.0
 11
32.1625
 21
102.925
 31
0.0
  0
LINE
  8
0
  6
CONTINUOUS
 62
     2
 10
29.0
 20
103.075
 30
0.0
 11
32.1625
 21
103.075
 31
0.0
  0
LINE
  8
0
  6
CONTINUOUS
 62
     2
 10
32.1625
 20
102.925
 30
0.0
 11
29.0
 21
102.925
 31
0.0
  0
LINE
  8
0
  6
CONTINUOUS
 62
     2
 10
30.9125
 20
104.0
 30
0.0
 11
29.0
 21
104.0
 31
0.0
  0
LINE
  8
0
  6
CONTINUOUS
 62
     2
 10
29.0
 20
104.0
 30
0.0
 11
31.4125
 21
104.0
 31
0.0
  0
LINE
  8
0
  6
CONTINUOUS
 62
     2
 10
30.9125
 20
105.0
 30
0.0
 11
29.0
 21
105.0
 31
0.0
  0
LINE
  8
0
  6
CONTINUOUS
 62
     2
 10
29.0
 20
105.0
 30
0.0
 11
31.4125
 21
105.0
 31
0.0
  0
LINE
  8
0
  6
CONTINUOUS
 62
     2
 10
30.9125
 20
106.0
 30
0.0
 11
29.0
 21
106.0
 31
0.0
  0
LINE
  8
0
  6
CONTINUOUS
 62
     2
 10
29.0
 20
106.0
 30
0.0
 11
31.4125
 21
106.0
 31
0.0
  0
LINE
  8
0
  6
CONTINUOUS
 62
     2
 10
30.9125
 20
107.0
 30
0.0
 11
29.0
 21
107.0
 31
0.0
  0
LINE
  8
0
  6
CONTINUOUS
 62
     2
 10
29.0
 20
107.0
 30
0.0
 11
31.4125
 21
107.0
 31
0.0
  0
LINE
  8
0
  6
CONTINUOUS
 62
     2
 10
29.0
 20
107.925
 30
0.0
 11
29.0
 21
108.075
 31
0.0
  0
LINE
  8
0
  6
CONTINUOUS
 62
     2
 10
32.1625
 20
108.075
 30
0.0
 11
32.1625
 21
107.925
 31
0.0
  0
LINE
  8
0
  6
CONTINUOUS
 62
     2
 10
29.0
 20
108.075
 30
0.0
 11
32.1625
 21
108.075
 31
0.0
  0
LINE
  8
0
  6
CONTINUOUS
 62
     2
 10
32.1625
 20
107.925
 30
0.0
 11
29.0
 21
107.925
 31
0.0
  0
LINE
  8
0
  6
CONTINUOUS
 62
     2
 10
30.9125
 20
109.0
 30
0.0
 11
29.0
 21
109.0
 31
0.0
  0
LINE
  8
0
  6
CONTINUOUS
 62
     2
 10
29.0
 20
109.0
 30
0.0
 11
31.4125
 21
109.0
 31
0.0
  0
LINE
  8
0
  6
CONTINUOUS
 62
     2
 10
30.9125
 20
110.0
 30
0.0
 11
29.0
 21
110.0
 31
0.0
  0
LINE
  8
0
  6
CONTINUOUS
 62
     2
 10
29.0
 20
110.0
 30
0.0
 11
31.4125
 21
110.0
 31
0.0
  0
LINE
  8
0
  6
CONTINUOUS
 62
     2
 10
30.9125
 20
111.0
 30
0.0
 11
29.0
 21
111.0
 31
0.0
  0
LINE
  8
0
  6
CONTINUOUS
 62
     2
 10
29.0
 20
111.0
 30
0.0
 11
31.4125
 21
111.0
 31
0.0
  0
LINE
  8
0
  6
CONTINUOUS
 62
     2
 10
30.9125
 20
112.0
 30
0.0
 11
29.0
 21
112.0
 31
0.0
  0
LINE
  8
0
  6
CONTINUOUS
 62
     2
 10
29.0
 20
112.0
 30
0.0
 11
31.4125
 21
112.0
 31
0.0
  0
LINE
  8
0
  6
CONTINUOUS
 62
     2
 10
29.0
 20
112.925
 30
0.0
 11
29.0
 21
113.075
 31
0.0
  0
LINE
  8
0
  6
CONTINUOUS
 62
     2
 10
32.1625
 20
113.075
 30
0.0
 11
32.1625
 21
112.925
 31
0.0
  0
LINE
  8
0
  6
CONTINUOUS
 62
     2
 10
29.0
 20
113.075
 30
0.0
 11
32.1625
 21
113.075
 31
0.0
  0
LINE
  8
0
  6
CONTINUOUS
 62
     2
 10
32.1625
 20
112.925
 30
0.0
 11
29.0
 21
112.925
 31
0.0
  0
LINE
  8
0
  6
CONTINUOUS
 62
     2
 10
30.9125
 20
114.0
 30
0.0
 11
29.0
 21
114.0
 31
0.0
  0
LINE
  8
0
  6
CONTINUOUS
 62
     2
 10
29.0
 20
114.0
 30
0.0
 11
31.4125
 21
114.0
 31
0.0
  0
LINE
  8
0
  6
CONTINUOUS
 62
     2
 10
30.9125
 20
115.0
 30
0.0
 11
29.0
 21
115.0
 31
0.0
  0
LINE
  8
0
  6
CONTINUOUS
 62
     2
 10
29.0
 20
115.0
 30
0.0
 11
31.4125
 21
115.0
 31
0.0
  0
LINE
  8
0
  6
CONTINUOUS
 62
     2
 10
30.9125
 20
116.0
 30
0.0
 11
29.0
 21
116.0
 31
0.0
  0
LINE
  8
0
  6
CONTINUOUS
 62
     2
 10
29.0
 20
116.0
 30
0.0
 11
31.4125
 21
116.0
 31
0.0
  0
LINE
  8
0
  6
CONTINUOUS
 62
     2
 10
30.9125
 20
117.0
 30
0.0
 11
29.0
 21
117.0
 31
0.0
  0
LINE
  8
0
  6
CONTINUOUS
 62
     2
 10
29.0
 20
117.0
 30
0.0
 11
31.4125
 21
117.0
 31
0.0
  0
LINE
  8
0
  6
CONTINUOUS
 62
     2
 10
29.0
 20
117.925
 30
0.0
 11
29.0
 21
118.075
 31
0.0
  0
LINE
  8
0
  6
CONTINUOUS
 62
     2
 10
32.1625
 20
118.075
 30
0.0
 11
32.1625
 21
117.925
 31
0.0
  0
LINE
  8
0
  6
CONTINUOUS
 62
     2
 10
29.0
 20
118.075
 30
0.0
 11
32.1625
 21
118.075
 31
0.0
  0
LINE
  8
0
  6
CONTINUOUS
 62
     2
 10
32.1625
 20
117.925
 30
0.0
 11
29.0
 21
117.925
 31
0.0
  0
LINE
  8
0
  6
CONTINUOUS
 62
     2
 10
29.125
 20
68.0
 30
0.0
 11
32.0375
 21
68.0
 31
0.0
  0
LINE
  8
0
  6
CONTINUOUS
 62
     2
 10
29.125
 20
73.0
 30
0.0
 11
32.0375
 21
73.0
 31
0.0
  0
LINE
  8
0
  6
CONTINUOUS
 62
     2
 10
29.125
 20
78.0
 30
0.0
 11
32.0375
 21
78.0
 31
0.0
  0
LINE
  8
0
  6
CONTINUOUS
 62
     2
 10
29.125
 20
83.0
 30
0.0
 11
32.0375
 21
83.0
 31
0.0
  0
LINE
  8
0
  6
CONTINUOUS
 62
     2
 10
29.125
 20
88.0
 30
0.0
 11
32.0375
 21
88.0
 31
0.0
  0
LINE
  8
0
  6
CONTINUOUS
 62
     2
 10
29.125
 20
93.0
 30
0.0
 11
32.0375
 21
93.0
 31
0.0
  0
LINE
  8
0
  6
CONTINUOUS
 62
     2
 10
29.125
 20
98.0
 30
0.0
 11
32.0375
 21
98.0
 31
0.0
  0
LINE
  8
0
  6
CONTINUOUS
 62
     2
 10
29.125
 20
103.0
 30
0.0
 11
32.0375
 21
103.0
 31
0.0
  0
LINE
  8
0
  6
CONTINUOUS
 62
     2
 10
29.125
 20
108.0
 30
0.0
 11
32.0375
 21
108.0
 31
0.0
  0
LINE
  8
0
  6
CONTINUOUS
 62
     2
 10
29.125
 20
113.0
 30
0.0
 11
32.0375
 21
113.0
 31
0.0
  0
LINE
  8
0
  6
CONTINUOUS
 62
     2
 10
29.125
 20
118.0
 30
0.0
 11
32.0375
 21
118.0
 31
0.0
  0
LINE
  8
0
  6
CONTINUOUS
 62
     2
 10
33.0
 20
118.88
 30
0.0
 11
33.0
 21
118.73
 31
0.0
  0
LINE
  8
0
  6
CONTINUOUS
 62
     2
 10
33.0
 20
118.73
 30
0.0
 11
33.0
 21
118.58
 31
0.0
  0
LINE
  8
0
  6
CONTINUOUS
 62
     2
 10
33.0
 20
118.58
 30
0.0
 11
33.0
 21
118.43
 31
0.0
  0
LINE
  8
0
  6
CONTINUOUS
 62
     2
 10
33.0
 20
118.43
 30
0.0
 11
33.0
 21
118.28
 31
0.0
  0
LINE
  8
0
  6
CONTINUOUS
 62
     2
 10
33.0
 20
118.28
 30
0.0
 11
33.0
 21
118.13
 31
0.0
  0
LINE
  8
0
  6
CONTINUOUS
 62
     2
 10
33.0
 20
118.13
 30
0.0
 11
33.0
 21
117.98
 31
0.0
  0
LINE
  8
0
  6
CONTINUOUS
 62
     2
 10
33.0
 20
117.98
 30
0.0
 11
33.0
 21
117.83
 31
0.0
  0
LINE
  8
0
  6
CONTINUOUS
 62
     2
 10
33.0
 20
117.83
 30
0.0
 11
33.0
 21
117.68
 31
0.0
  0
LINE
  8
0
  6
CONTINUOUS
 62
     2
 10
33.0
 20
117.68
 30
0.0
 11
33.0
 21
117.53
 31
0.0
  0
LINE
  8
0
  6
CONTINUOUS
 62
     2
 10
33.0
 20
117.53
 30
0.0
 11
33.0
 21
117.38
 31
0.0
  0
LINE
  8
0
  6
CONTINUOUS
 62
     2
 10
33.0
 20
117.38
 30
0.0
 11
33.0
 21
117.23
 31
0.0
  0
LINE
  8
0
  6
CONTINUOUS
 62
     2
 10
33.0
 20
117.23
 30
0.0
 11
33.0
 21
117.12
 31
0.0
  0
LINE
  8
0
  6
CONTINUOUS
 62
     2
 10
33.984928807
 20
118.727631895
 30
0.0
 11
33.95055047
 21
118.584954116
 31
0.0
  0
LINE
  8
0
  6
CONTINUOUS
 62
     2
 10
33.95055047
 20
118.584954116
 30
0.0
 11
33.923576161
 21
118.439200479
 31
0.0
  0
LINE
  8
0
  6
CONTINUOUS
 62
     2
 10
33.923576161
 20
118.439200479
 30
0.0
 11
33.904359033
 21
118.291168417
 31
0.0
  0
LINE
  8
0
  6
CONTINUOUS
 62
     2
 10
33.904359033
 20
118.291168417
 30
0.0
 11
33.893144181
 21
118.141704187
 31
0.0
  0
LINE
  8
0
  6
CONTINUOUS
 62
     2
 10
33.893144181
 20
118.141704187
 30
0.0
 11
33.890060777
 21
117.991683724
 31
0.0
  0
LINE
  8
0
  6
CONTINUOUS
 62
     2
 10
33.890060777
 20
117.991683724
 30
0.0
 11
33.895118267
 21
117.841992158
 31
0.0
  0
LINE
  8
0
  6
CONTINUOUS
 62
     2
 10
33.895118267
 20
117.841992158
 30
0.0
 11
33.908206852
 21
117.69350303
 31
0.0
  0
LINE
  8
0
  6
CONTINUOUS
 62
     2
 10
33.908206852
 20
117.69350303
 30
0.0
 11
33.929102186
 21
117.547058225
 31
0.0
  0
LINE
  8
0
  6
CONTINUOUS
 62
     2
 10
33.929102186
 20
117.547058225
 30
0.0
 11
33.957473939
 21
117.403449583
 31
0.0
  0
LINE
  8
0
  6
CONTINUOUS
 62
     2
 10
33.957473939
 20
117.403449583
 30
0.0
 11
33.992897647
 21
117.263402995
 31
0.0
  0
LINE
  8
0
  6
CONTINUOUS
 62
     2
 10
33.992897647
 20
117.263402995
 30
0.0
 11
34.051985451
 21
117.198126835
 31
0.0
  0
LINE
  8
0
  6
CONTINUOUS
 62
     2
 10
34.051985451
 20
117.198126835
 30
0.0
 11
34.126699324
 21
117.147517728
 31
0.0
  0
LINE
  8
0
  6
CONTINUOUS
 62
     2
 10
34.126699324
 20
117.147517728
 30
0.0
 11
34.251714176
 21
117.120005066
 31
0.0
  0
LINE
  8
0
  6
CONTINUOUS
 62
     2
 10
34.251714176
 20
117.120005066
 30
0.0
 11
34.353919717
 21
117.139258994
 31
0.0
  0
LINE
  8
0
  6
CONTINUOUS
 62
     2
 10
34.353919717
 20
117.139258994
 30
0.0
 11
34.44678395
 21
117.196983388
 31
0.0
  0
LINE
  8
0
  6
CONTINUOUS
 62
     2
 10
34.44678395
 20
117.196983388
 30
0.0
 11
34.496467056
 21
117.257179876
 31
0.0
  0
LINE
  8
0
  6
CONTINUOUS
 62
     2
 10
34.496467056
 20
117.257179876
 30
0.0
 11
34.54244428
 21
117.403086664
 31
0.0
  0
LINE
  8
0
  6
CONTINUOUS
 62
     2
 10
34.54244428
 20
117.403086664
 30
0.0
 11
34.570139566
 21
117.542623558
 31
0.0
  0
LINE
  8
0
  6
CONTINUOUS
 62
     2
 10
34.570139566
 20
117.542623558
 30
0.0
 11
34.591736993
 21
117.693016943
 31
0.0
  0
LINE
  8
0
  6
CONTINUOUS
 62
     2
 10
34.591736993
 20
117.693016943
 30
0.0
 11
34.604895348
 21
117.842215545
 31
0.0
  0
LINE
  8
0
  6
CONTINUOUS
 62
     2
 10
34.604895348
 20
117.842215545
 30
0.0
 11
34.609942699
 21
117.99221524
 31
0.0
  0
LINE
  8
0
  6
CONTINUOUS
 62
     2
 10
34.609942699
 20
117.99221524
 30
0.0
 11
34.606595295
 21
118.147048818
 31
0.0
  0
LINE
  8
0
  6
CONTINUOUS
 62
     2
 10
34.606595295
 20
118.147048818
 30
0.0
 11
34.595665322
 21
118.290930487
 31
0.0
  0
LINE
  8
0
  6
CONTINUOUS
 62
     2
 10
34.595665322
 20
118.290930487
 30
0.0
 11
34.576260719
 21
118.44023539
 31
0.0
  0
LINE
  8
0
  6
CONTINUOUS
 62
     2
 10
34.576260719
 20
118.44023539
 30
0.0
 11
34.549686989
 21
118.583838096
 31
0.0
  0
LINE
  8
0
  6
CONTINUOUS
 62
     2
 10
34.549686989
 20
118.583838096
 30
0.0
 11
34.513699949
 21
118.730674508
 31
0.0
  0
LINE
  8
0
  6
CONTINUOUS
 62
     2
 10
34.513699949
 20
118.730674508
 30
0.0
 11
34.46155653
 21
118.808352803
 31
0.0
  0
LINE
  8
0
  6
CONTINUOUS
 62
     2
 10
34.46155653
 20
118.808352803
 30
0.0
 11
34.375447708
 21
118.871462947
 31
0.0
  0
LINE
  8
0
  6
CONTINUOUS
 62
     2
 10
34.375447708
 20
118.871462947
 30
0.0
 11
34.260569682
 21
118.899807318
 31
0.0
  0
LINE
  8
0
  6
CONTINUOUS
 62
     2
 10
34.260569682
 20
118.899807318
 30
0.0
 11
34.126668912
 21
118.872467984
 31
0.0
  0
LINE
  8
0
  6
CONTINUOUS
 62
     2
 10
34.126668912
 20
118.872467984
 30
0.0
 11
34.037179169
 21
118.806995669
 31
0.0
  0
LINE
  8
0
  6
CONTINUOUS
 62
     2
 10
34.037179169
 20
118.806995669
 30
0.0
 11
33.984928807
 21
118.727631895
 31
0.0
  0
LINE
  8
0
  6
CONTINUOUS
 62
     2
 10
35.234928807
 20
118.727631895
 30
0.0
 11
35.20055047
 21
118.584954116
 31
0.0
  0
LINE
  8
0
  6
CONTINUOUS
 62
     2
 10
35.20055047
 20
118.584954116
 30
0.0
 11
35.173576161
 21
118.439200479
 31
0.0
  0
LINE
  8
0
  6
CONTINUOUS
 62
     2
 10
35.173576161
 20
118.439200479
 30
0.0
 11
35.154359033
 21
118.291168417
 31
0.0
  0
LINE
  8
0
  6
CONTINUOUS
 62
     2
 10
35.154359033
 20
118.291168417
 30
0.0
 11
35.143144181
 21
118.141704187
 31
0.0
  0
LINE
  8
0
  6
CONTINUOUS
 62
     2
 10
35.143144181
 20
118.141704187
 30
0.0
 11
35.140060777
 21
117.991683724
 31
0.0
  0
LINE
  8
0
  6
CONTINUOUS
 62
     2
 10
35.140060777
 20
117.991683724
 30
0.0
 11
35.145118267
 21
117.841992158
 31
0.0
  0
LINE
  8
0
  6
CONTINUOUS
 62
     2
 10
35.145118267
 20
117.841992158
 30
0.0
 11
35.158206852
 21
117.69350303
 31
0.0
  0
LINE
  8
0
  6
CONTINUOUS
 62
     2
 10
35.158206852
 20
117.69350303
 30
0.0
 11
35.179102186
 21
117.547058225
 31
0.0
  0
LINE
  8
0
  6
CONTINUOUS
 62
     2
 10
35.179102186
 20
117.547058225
 30
0.0
 11
35.207473939
 21
117.403449583
 31
0.0
  0
LINE
  8
0
  6
CONTINUOUS
 62
     2
 10
35.207473939
 20
117.403449583
 30
0.0
 11
35.242897647
 21
117.263402995
 31
0.0
  0
LINE
  8
0
  6
CONTINUOUS
 62
     2
 10
35.242897647
 20
117.263402995
 30
0.0
 11
35.301985451
 21
117.198126835
 31
0.0
  0
LINE
  8
0
  6
CONTINUOUS
 62
     2
 10
35.301985451
 20
117.198126835
 30
0.0
 11
35.376699324
 21
117.147517728
 31
0.0
  0
LINE
  8
0
  6
CONTINUOUS
 62
     2
 10
35.376699324
 20
117.147517728
 30
0.0
 11
35.501714176
 21
117.120005066
 31
0.0
  0
LINE
  8
0
  6
CONTINUOUS
 62
     2
 10
35.501714176
 20
117.120005066
 30
0.0
 11
35.603919717
 21
117.139258994
 31
0.0
  0
LINE
  8
0
  6
CONTINUOUS
 62
     2
 10
35.603919717
 20
117.139258994
 30
0.0
 11
35.69678395
 21
117.196983388
 31
0.0
  0
LINE
  8
0
  6
CONTINUOUS
 62
     2
 10
35.69678395
 20
117.196983388
 30
0.0
 11
35.746467056
 21
117.257179876
 31
0.0
  0
LINE
  8
0
  6
CONTINUOUS
 62
     2
 10
35.746467056
 20
117.257179876
 30
0.0
 11
35.79244428
 21
117.403086664
 31
0.0
  0
LINE
  8
0
  6
CONTINUOUS
 62
     2
 10
35.79244428
 20
117.403086664
 30
0.0
 11
35.820139566
 21
117.542623558
 31
0.0
  0
LINE
  8
0
  6
CONTINUOUS
 62
     2
 10
35.820139566
 20
117.542623558
 30
0.0
 11
35.841736993
 21
117.693016943
 31
0.0
  0
LINE
  8
0
  6
CONTINUOUS
 62
     2
 10
35.841736993
 20
117.693016943
 30
0.0
 11
35.854895348
 21
117.842215545
 31
0.0
  0
LINE
  8
0
  6
CONTINUOUS
 62
     2
 10
35.854895348
 20
117.842215545
 30
0.0
 11
35.859942699
 21
117.99221524
 31
0.0
  0
LINE
  8
0
  6
CONTINUOUS
 62
     2
 10
35.859942699
 20
117.99221524
 30
0.0
 11
35.856595295
 21
118.147048818
 31
0.0
  0
LINE
  8
0
  6
CONTINUOUS
 62
     2
 10
35.856595295
 20
118.147048818
 30
0.0
 11
35.845665322
 21
118.290930487
 31
0.0
  0
LINE
  8
0
  6
CONTINUOUS
 62
     2
 10
35.845665322
 20
118.290930487
 30
0.0
 11
35.826260719
 21
118.44023539
 31
0.0
  0
LINE
  8
0
  6
CONTINUOUS
 62
     2
 10
35.826260719
 20
118.44023539
 30
0.0
 11
35.799686989
 21
118.583838096
 31
0.0
  0
LINE
  8
0
  6
CONTINUOUS
 62
     2
 10
35.799686989
 20
118.583838096
 30
0.0
 11
35.763699949
 21
118.730674508
 31
0.0
  0
LINE
  8
0
  6
CONTINUOUS
 62
     2
 10
35.763699949
 20
118.730674508
 30
0.0
 11
35.71155653
 21
118.808352803
 31
0.0
  0
LINE
  8
0
  6
CONTINUOUS
 62
     2
 10
35.71155653
 20
118.808352803
 30
0.0
 11
35.625447708
 21
118.871462947
 31
0.0
  0
LINE
  8
0
  6
CONTINUOUS
 62
     2
 10
35.625447708
 20
118.871462947
 30
0.0
 11
35.510569682
 21
118.899807318
 31
0.0
  0
LINE
  8
0
  6
CONTINUOUS
 62
     2
 10
35.510569682
 20
118.899807318
 30
0.0
 11
35.376668912
 21
118.872467984
 31
0.0
  0
LINE
  8
0
  6
CONTINUOUS
 62
     2
 10
35.376668912
 20
118.872467984
 30
0.0
 11
35.287179169
 21
118.806995669
 31
0.0
  0
LINE
  8
0
  6
CONTINUOUS
 62
     2
 10
35.287179169
 20
118.806995669
 30
0.0
 11
35.234928807
 21
118.727631895
 31
0.0
  0
LINE
  8
0
  6
CONTINUOUS
 62
     2
 10
33.359764222
 20
108.08
 30
0.0
 11
33.456471671
 21
108.064195763
 31
0.0
  0
LINE
  8
0
  6
CONTINUOUS
 62
     2
 10
33.456471671
 20
108.064195763
 30
0.0
 11
33.536044734
 21
108.025226985
 31
0.0
  0
LINE
  8
0
  6
CONTINUOUS
 62
     2
 10
33.536044734
 20
108.025226985
 30
0.0
 11
33.614947654
 21
107.955666753
 31
0.0
  0
LINE
  8
0
  6
CONTINUOUS
 62
     2
 10
33.614947654
 20
107.955666753
 30
0.0
 11
33.683738516
 21
107.85085891
 31
0.0
  0
LINE
  8
0
  6
CONTINUOUS
 62
     2
 10
33.683738516
 20
107.85085891
 30
0.0
 11
33.726954997
 21
107.723575956
 31
0.0
  0
LINE
  8
0
  6
CONTINUOUS
 62
     2
 10
33.726954997
 20
107.723575956
 30
0.0
 11
33.739762381
 21
107.598526286
 31
0.0
  0
LINE
  8
0
  6
CONTINUOUS
 62
     2
 10
33.739762381
 20
107.598526286
 30
0.0
 11
33.725566025
 21
107.470017403
 31
0.0
  0
LINE
  8
0
  6
CONTINUOUS
 62
     2
 10
33.725566025
 20
107.470017403
 30
0.0
 11
33.688028592
 21
107.358203499
 31
0.0
  0
LINE
  8
0
  6
CONTINUOUS
 62
     2
 10
33.688028592
 20
107.358203499
 30
0.0
 11
33.617420627
 21
107.24718946
 31
0.0
  0
LINE
  8
0
  6
CONTINUOUS
 62
     2
 10
33.617420627
 20
107.24718946
 30
0.0
 11
33.539569967
 21
107.177134663
 31
0.0
  0
LINE
  8
0
  6
CONTINUOUS
 62
     2
 10
33.539569967
 20
107.177134663
 30
0.0
 11
33.454945504
 21
107.135301199
 31
0.0
  0
LINE
  8
0
  6
CONTINUOUS
 62
     2
 10
33.454945504
 20
107.135301199
 30
0.0
 11
33.359945618
 21
107.120000055
 31
0.0
  0
LINE
  8
0
  6
CONTINUOUS
 62
     2
 10
33.359945618
 20
107.120000055
 30
0.0
 11
33.25113379
 21
107.140031081
 31
0.0
  0
LINE
  8
0
  6
CONTINUOUS
 62
     2
 10
33.25113379
 20
107.140031081
 30
0.0
 11
33.176044711
 21
107.179827354
 31
0.0
  0
LINE
  8
0
  6
CONTINUOUS
 62
     2
 10
33.176044711
 20
107.179827354
 30
0.0
 11
33.105996749
 21
107.242720317
 31
0.0
  0
LINE
  8
0
  6
CONTINUOUS
 62
     2
 10
33.105996749
 20
107.242720317
 30
0.0
 11
33.034162395
 21
107.352525856
 31
0.0
  0
LINE
  8
0
  6
CONTINUOUS
 62
     2
 10
33.034162395
 20
107.352525856
 30
0.0
 11
32.994495514
 21
107.46764656
 31
0.0
  0
LINE
  8
0
  6
CONTINUOUS
 62
     2
 10
32.994495514
 20
107.46764656
 30
0.0
 11
32.979768855
 21
107.597616918
 31
0.0
  0
LINE
  8
0
  6
CONTINUOUS
 62
     2
 10
32.979768855
 20
107.597616918
 30
0.0
 11
32.992529759
 21
107.723369122
 31
0.0
  0
LINE
  8
0
  6
CONTINUOUS
 62
     2
 10
32.992529759
 20
107.723369122
 30
0.0
 11
33.036773894
 21
107.852875504
 31
0.0
  0
LINE
  8
0
  6
CONTINUOUS
 62
     2
 10
33.036773894
 20
107.852875504
 30
0.0
 11
33.101953145
 21
107.952630326
 31
0.0
  0
LINE
  8
0
  6
CONTINUOUS
 62
     2
 10
33.101953145
 20
107.952630326
 30
0.0
 11
33.189400926
 21
108.029058061
 31
0.0
  0
LINE
  8
0
  6
CONTINUOUS
 62
     2
 10
33.189400926
 20
108.029058061
 30
0.0
 11
33.288282972
 21
108.071431169
 31
0.0
  0
LINE
  8
0
  6
CONTINUOUS
 62
     2
 10
33.288282972
 20
108.071431169
 30
0.0
 11
33.459756405
 21
108.100029703
 31
0.0
  0
LINE
  8
0
  6
CONTINUOUS
 62
     2
 10
33.459756405
 20
108.100029703
 30
0.0
 11
33.543826851
 21
108.152793714
 31
0.0
  0
LINE
  8
0
  6
CONTINUOUS
 62
     2
 10
33.543826851
 20
108.152793714
 30
0.0
 11
33.610292069
 21
108.231140812
 31
0.0
  0
LINE
  8
0
  6
CONTINUOUS
 62
     2
 10
33.610292069
 20
108.231140812
 30
0.0
 11
33.659915041
 21
108.341315018
 31
0.0
  0
LINE
  8
0
  6
CONTINUOUS
 62
     2
 10
33.659915041
 20
108.341315018
 30
0.0
 11
33.679762444
 21
108.481314391
 31
0.0
  0
LINE
  8
0
  6
CONTINUOUS
 62
     2
 10
33.679762444
 20
108.481314391
 30
0.0
 11
33.660510547
 21
108.616654317
 31
0.0
  0
LINE
  8
0
  6
CONTINUOUS
 62
     2
 10
33.660510547
 20
108.616654317
 30
0.0
 11
33.609289209
 21
108.730428557
 31
0.0
  0
LINE
  8
0
  6
CONTINUOUS
 62
     2
 10
33.609289209
 20
108.730428557
 30
0.0
 11
33.539547149
 21
108.810903312
 31
0.0
  0
LINE
  8
0
  6
CONTINUOUS
 62
     2
 10
33.539547149
 20
108.810903312
 30
0.0
 11
33.460540742
 21
108.859646387
 31
0.0
  0
LINE
  8
0
  6
CONTINUOUS
 62
     2
 10
33.460540742
 20
108.859646387
 30
0.0
 11
33.360571737
 21
108.879998726
 31
0.0
  0
LINE
  8
0
  6
CONTINUOUS
 62
     2
 10
33.360571737
 20
108.879998726
 30
0.0
 11
33.260501201
 21
108.860268948
 31
0.0
  0
LINE
  8
0
  6
CONTINUOUS
 62
     2
 10
33.260501201
 20
108.860268948
 30
0.0
 11
33.180101483
 21
108.811005377
 31
0.0
  0
LINE
  8
0
  6
CONTINUOUS
 62
     2
 10
33.180101483
 20
108.811005377
 30
0.0
 11
33.110410337
 21
108.730694862
 31
0.0
  0
LINE
  8
0
  6
CONTINUOUS
 62
     2
 10
33.110410337
 20
108.730694862
 30
0.0
 11
33.0595307
 21
108.618405329
 31
0.0
  0
LINE
  8
0
  6
CONTINUOUS
 62
     2
 10
33.0595307
 20
108.618405329
 30
0.0
 11
33.039766711
 21
108.478406504
 31
0.0
  0
LINE
  8
0
  6
CONTINUOUS
 62
     2
 10
33.039766711
 20
108.478406504
 30
0.0
 11
33.059690028
 21
108.341055834
 31
0.0
  0
LINE
  8
0
  6
CONTINUOUS
 62
     2
 10
33.059690028
 20
108.341055834
 30
0.0
 11
33.109445364
 21
108.230812275
 31
0.0
  0
LINE
  8
0
  6
CONTINUOUS
 62
     2
 10
33.109445364
 20
108.230812275
 30
0.0
 11
33.18598436
 21
108.144122937
 31
0.0
  0
LINE
  8
0
  6
CONTINUOUS
 62
     2
 10
33.18598436
 20
108.144122937
 30
0.0
 11
33.274926469
 21
108.09431359
 31
0.0
  0
LINE
  8
0
  6
CONTINUOUS
 62
     2
 10
33.274926469
 20
108.09431359
 30
0.0
 11
33.359764222
 21
108.08
 31
0.0
  0
LINE
  8
0
  6
CONTINUOUS
 62
     2
 10
34.344692979
 20
108.727631895
 30
0.0
 11
34.310314642
 21
108.584954116
 31
0.0
  0
LINE
  8
0
  6
CONTINUOUS
 62
     2
 10
34.310314642
 20
108.584954116
 30
0.0
 11
34.283340333
 21
108.439200479
 31
0.0
  0
LINE
  8
0
  6
CONTINUOUS
 62
     2
 10
34.283340333
 20
108.439200479
 30
0.0
 11
34.264123205
 21
108.291168417
 31
0.0
  0
LINE
  8
0
  6
CONTINUOUS
 62
     2
 10
34.264123205
 20
108.291168417
 30
0.0
 11
34.252908353
 21
108.141704187
 31
0.0
  0
LINE
  8
0
  6
CONTINUOUS
 62
     2
 10
34.252908353
 20
108.141704187
 30
0.0
 11
34.249824949
 21
107.991683724
 31
0.0
  0
LINE
  8
0
  6
CONTINUOUS
 62
     2
 10
34.249824949
 20
107.991683724
 30
0.0
 11
34.254882439
 21
107.841992158
 31
0.0
  0
LINE
  8
0
  6
CONTINUOUS
 62
     2
 10
34.254882439
 20
107.841992158
 30
0.0
 11
34.267971024
 21
107.69350303
 31
0.0
  0
LINE
  8
0
  6
CONTINUOUS
 62
     2
 10
34.267971024
 20
107.69350303
 30
0.0
 11
34.288866358
 21
107.547058225
 31
0.0
  0
LINE
  8
0
  6
CONTINUOUS
 62
     2
 10
34.288866358
 20
107.547058225
 30
0.0
 11
34.31723811
 21
107.403449583
 31
0.0
  0
LINE
  8
0
  6
CONTINUOUS
 62
     2
 10
34.31723811
 20
107.403449583
 30
0.0
 11
34.352661819
 21
107.263402995
 31
0.0
  0
LINE
  8
0
  6
CONTINUOUS
 62
     2
 10
34.352661819
 20
107.263402995
 30
0.0
 11
34.411749623
 21
107.198126835
 31
0.0
  0
LINE
  8
0
  6
CONTINUOUS
 62
     2
 10
34.411749623
 20
107.198126835
 30
0.0
 11
34.486463496
 21
107.147517728
 31
0.0
  0
LINE
  8
0
  6
CONTINUOUS
 62
     2
 10
34.486463496
 20
107.147517728
 30
0.0
 11
34.611478348
 21
107.120005066
 31
0.0
  0
LINE
  8
0
  6
CONTINUOUS
 62
     2
 10
34.611478348
 20
107.120005066
 30
0.0
 11
34.713683888
 21
107.139258994
 31
0.0
  0
LINE
  8
0
  6
CONTINUOUS
 62
     2
 10
34.713683888
 20
107.139258994
 30
0.0
 11
34.806548122
 21
107.196983388
 31
0.0
  0
LINE
  8
0
  6
CONTINUOUS
 62
     2
 10
34.806548122
 20
107.196983388
 30
0.0
 11
34.856231228
 21
107.257179876
 31
0.0
  0
LINE
  8
0
  6
CONTINUOUS
 62
     2
 10
34.856231228
 20
107.257179876
 30
0.0
 11
34.902208452
 21
107.403086664
 31
0.0
  0
LINE
  8
0
  6
CONTINUOUS
 62
     2
 10
34.902208452
 20
107.403086664
 30
0.0
 11
34.929903738
 21
107.542623558
 31
0.0
  0
LINE
  8
0
  6
CONTINUOUS
 62
     2
 10
34.929903738
 20
107.542623558
 30
0.0
 11
34.951501165
 21
107.693016943
 31
0.0
  0
LINE
  8
0
  6
CONTINUOUS
 62
     2
 10
34.951501165
 20
107.693016943
 30
0.0
 11
34.96465952
 21
107.842215545
 31
0.0
  0
LINE
  8
0
  6
CONTINUOUS
 62
     2
 10
34.96465952
 20
107.842215545
 30
0.0
 11
34.969706871
 21
107.99221524
 31
0.0
  0
LINE
  8
0
  6
CONTINUOUS
 62
     2
 10
34.969706871
 20
107.99221524
 30
0.0
 11
34.966359467
 21
108.147048818
 31
0.0
  0
LINE
  8
0
  6
CONTINUOUS
 62
     2
 10
34.966359467
 20
108.147048818
 30
0.0
 11
34.955429494
 21
108.290930487
 31
0.0
  0
LINE
  8
0
  6
CONTINUOUS
 62
     2
 10
34.955429494
 20
108.290930487
 30
0.0
 11
34.936024891
 21
108.44023539
 31
0.0
  0
LINE
  8
0
  6
CONTINUOUS
 62
     2
 10
34.936024891
 20
108.44023539
 30
0.0
 11
34.909451161
 21
108.583838096
 31
0.0
  0
LINE
  8
0
  6
CONTINUOUS
 62
     2
 10
34.909451161
 20
108.583838096
 30
0.0
 11
34.873464121
 21
108.730674508
 31
0.0
  0
LINE
  8
0
  6
CONTINUOUS
 62
     2
 10
34.873464121
 20
108.730674508
 30
0.0
 11
34.821320702
 21
108.808352803
 31
0.0
  0
LINE
  8
0
  6
CONTINUOUS
 62
     2
 10
34.821320702
 20
108.808352803
 30
0.0
 11
34.73521188
 21
108.871462947
 31
0.0
  0
LINE
  8
0
  6
CONTINUOUS
 62
     2
 10
34.73521188
 20
108.871462947
 30
0.0
 11
34.620333854
 21
108.899807318
 31
0.0
  0
LINE
  8
0
  6
CONTINUOUS
 62
     2
 10
34.620333854
 20
108.899807318
 30
0.0
 11
34.486433084
 21
108.872467984
 31
0.0
  0
LINE
  8
0
  6
CONTINUOUS
 62
     2
 10
34.486433084
 20
108.872467984
 30
0.0
 11
34.396943341
 21
108.806995669
 31
0.0
  0
LINE
  8
0
  6
CONTINUOUS
 62
     2
 10
34.396943341
 20
108.806995669
 30
0.0
 11
34.344692979
 21
108.727631895
 31
0.0
  0
LINE
  8
0
  6
CONTINUOUS
 62
     2
 10
32.979764172
 20
97.6
 30
0.0
 11
32.997974547
 21
97.746810616
 31
0.0
  0
LINE
  8
0
  6
CONTINUOUS
 62
     2
 10
32.997974547
 20
97.746810616
 30
0.0
 11
33.0470165
 21
97.872645817
 31
0.0
  0
LINE
  8
0
  6
CONTINUOUS
 62
     2
 10
33.0470165
 20
97.872645817
 30
0.0
 11
33.121318309
 21
97.973740162
 31
0.0
  0
LINE
  8
0
  6
CONTINUOUS
 62
     2
 10
33.121318309
 20
97.973740162
 30
0.0
 11
33.221781782
 21
98.047237923
 31
0.0
  0
LINE
  8
0
  6
CONTINUOUS
 62
     2
 10
33.221781782
 20
98.047237923
 30
0.0
 11
33.346576342
 21
98.079710851
 31
0.0
  0
LINE
  8
0
  6
CONTINUOUS
 62
     2
 10
33.346576342
 20
98.079710851
 30
0.0
 11
33.50881598
 21
98.041533872
 31
0.0
  0
LINE
  8
0
  6
CONTINUOUS
 62
     2
 10
33.50881598
 20
98.041533872
 30
0.0
 11
33.594436399
 21
97.97753198
 31
0.0
  0
LINE
  8
0
  6
CONTINUOUS
 62
     2
 10
33.594436399
 20
97.97753198
 30
0.0
 11
33.673170778
 21
97.871435848
 31
0.0
  0
LINE
  8
0
  6
CONTINUOUS
 62
     2
 10
33.673170778
 20
97.871435848
 30
0.0
 11
33.720834044
 21
97.749611162
 31
0.0
  0
LINE
  8
0
  6
CONTINUOUS
 62
     2
 10
33.720834044
 20
97.749611162
 30
0.0
 11
33.739764045
 21
97.599607098
 31
0.0
  0
LINE
  8
0
  6
CONTINUOUS
 62
     2
 10
33.739764045
 20
97.599607098
 30
0.0
 11
33.728393893
 21
97.483459539
 31
0.0
  0
LINE
  8
0
  6
CONTINUOUS
 62
     2
 10
33.728393893
 20
97.483459539
 30
0.0
 11
33.68559267
 21
97.353002434
 31
0.0
  0
LINE
  8
0
  6
CONTINUOUS
 62
     2
 10
33.68559267
 20
97.353002434
 30
0.0
 11
33.597289541
 21
97.225325779
 31
0.0
  0
LINE
  8
0
  6
CONTINUOUS
 62
     2
 10
33.597289541
 20
97.225325779
 30
0.0
 11
33.515239712
 21
97.162014947
 31
0.0
  0
LINE
  8
0
  6
CONTINUOUS
 62
     2
 10
33.515239712
 20
97.162014947
 30
0.0
 11
33.350301513
 21
97.120148846
 31
0.0
  0
LINE
  8
0
  6
CONTINUOUS
 62
     2
 10
33.350301513
 20
97.120148846
 30
0.0
 11
33.228804603
 21
97.149405549
 31
0.0
  0
LINE
  8
0
  6
CONTINUOUS
 62
     2
 10
33.228804603
 20
97.149405549
 30
0.0
 11
33.119649823
 21
97.227968156
 31
0.0
  0
LINE
  8
0
  6
CONTINUOUS
 62
     2
 10
33.119649823
 20
97.227968156
 30
0.0
 11
33.042365727
 21
97.336068827
 31
0.0
  0
LINE
  8
0
  6
CONTINUOUS
 62
     2
 10
33.042365727
 20
97.336068827
 30
0.0
 11
32.994373373
 21
97.468185592
 31
0.0
  0
LINE
  8
0
  6
CONTINUOUS
 62
     2
 10
32.994373373
 20
97.468185592
 30
0.0
 11
32.985547143
 21
97.746557868
 31
0.0
  0
LINE
  8
0
  6
CONTINUOUS
 62
     2
 10
32.985547143
 20
97.746557868
 30
0.0
 11
32.999712706
 21
97.871681071
 31
0.0
  0
LINE
  8
0
  6
CONTINUOUS
 62
     2
 10
32.999712706
 20
97.871681071
 30
0.0
 11
33.027704912
 21
98.019572686
 31
0.0
  0
LINE
  8
0
  6
CONTINUOUS
 62
     2
 10
33.027704912
 20
98.019572686
 30
0.0
 11
33.069928782
 21
98.172086263
 31
0.0
  0
LINE
  8
0
  6
CONTINUOUS
 62
     2
 10
33.069928782
 20
98.172086263
 30
0.0
 11
33.117586958
 21
98.302641904
 31
0.0
  0
LINE
  8
0
  6
CONTINUOUS
 62
     2
 10
33.117586958
 20
98.302641904
 30
0.0
 11
33.172872234
 21
98.425270422
 31
0.0
  0
LINE
  8
0
  6
CONTINUOUS
 62
     2
 10
33.172872234
 20
98.425270422
 30
0.0
 11
33.23435944
 21
98.539295292
 31
0.0
  0
LINE
  8
0
  6
CONTINUOUS
 62
     2
 10
33.23435944
 20
98.539295292
 30
0.0
 11
33.300620705
 21
98.644335861
 31
0.0
  0
LINE
  8
0
  6
CONTINUOUS
 62
     2
 10
33.300620705
 20
98.644335861
 30
0.0
 11
33.370285702
 21
98.74027761
 31
0.0
  0
LINE
  8
0
  6
CONTINUOUS
 62
     2
 10
33.370285702
 20
98.74027761
 30
0.0
 11
33.492739895
 21
98.882624496
 31
0.0
  0
LINE
  8
0
  6
CONTINUOUS
 62
     2
 10
34.344692979
 20
98.727631895
 30
0.0
 11
34.310314642
 21
98.584954116
 31
0.0
  0
LINE
  8
0
  6
CONTINUOUS
 62
     2
 10
34.310314642
 20
98.584954116
 30
0.0
 11
34.283340333
 21
98.439200479
 31
0.0
  0
LINE
  8
0
  6
CONTINUOUS
 62
     2
 10
34.283340333
 20
98.439200479
 30
0.0
 11
34.264123205
 21
98.291168417
 31
0.0
  0
LINE
  8
0
  6
CONTINUOUS
 62
     2
 10
34.264123205
 20
98.291168417
 30
0.0
 11
34.252908353
 21
98.141704187
 31
0.0
  0
LINE
  8
0
  6
CONTINUOUS
 62
     2
 10
34.252908353
 20
98.141704187
 30
0.0
 11
34.249824949
 21
97.991683724
 31
0.0
  0
LINE
  8
0
  6
CONTINUOUS
 62
     2
 10
34.249824949
 20
97.991683724
 30
0.0
 11
34.254882439
 21
97.841992158
 31
0.0
  0
LINE
  8
0
  6
CONTINUOUS
 62
     2
 10
34.254882439
 20
97.841992158
 30
0.0
 11
34.267971024
 21
97.69350303
 31
0.0
  0
LINE
  8
0
  6
CONTINUOUS
 62
     2
 10
34.267971024
 20
97.69350303
 30
0.0
 11
34.288866358
 21
97.547058225
 31
0.0
  0
LINE
  8
0
  6
CONTINUOUS
 62
     2
 10
34.288866358
 20
97.547058225
 30
0.0
 11
34.31723811
 21
97.403449583
 31
0.0
  0
LINE
  8
0
  6
CONTINUOUS
 62
     2
 10
34.31723811
 20
97.403449583
 30
0.0
 11
34.352661819
 21
97.263402995
 31
0.0
  0
LINE
  8
0
  6
CONTINUOUS
 62
     2
 10
34.352661819
 20
97.263402995
 30
0.0
 11
34.411749623
 21
97.198126835
 31
0.0
  0
LINE
  8
0
  6
CONTINUOUS
 62
     2
 10
34.411749623
 20
97.198126835
 30
0.0
 11
34.486463496
 21
97.147517728
 31
0.0
  0
LINE
  8
0
  6
CONTINUOUS
 62
     2
 10
34.486463496
 20
97.147517728
 30
0.0
 11
34.611478348
 21
97.120005066
 31
0.0
  0
LINE
  8
0
  6
CONTINUOUS
 62
     2
 10
34.611478348
 20
97.120005066
 30
0.0
 11
34.713683888
 21
97.139258994
 31
0.0
  0
LINE
  8
0
  6
CONTINUOUS
 62
     2
 10
34.713683888
 20
97.139258994
 30
0.0
 11
34.806548122
 21
97.196983388
 31
0.0
  0
LINE
  8
0
  6
CONTINUOUS
 62
     2
 10
34.806548122
 20
97.196983388
 30
0.0
 11
34.856231228
 21
97.257179876
 31
0.0
  0
LINE
  8
0
  6
CONTINUOUS
 62
     2
 10
34.856231228
 20
97.257179876
 30
0.0
 11
34.902208452
 21
97.403086664
 31
0.0
  0
LINE
  8
0
  6
CONTINUOUS
 62
     2
 10
34.902208452
 20
97.403086664
 30
0.0
 11
34.929903738
 21
97.542623558
 31
0.0
  0
LINE
  8
0
  6
CONTINUOUS
 62
     2
 10
34.929903738
 20
97.542623558
 30
0.0
 11
34.951501165
 21
97.693016943
 31
0.0
  0
LINE
  8
0
  6
CONTINUOUS
 62
     2
 10
34.951501165
 20
97.693016943
 30
0.0
 11
34.96465952
 21
97.842215545
 31
0.0
  0
LINE
  8
0
  6
CONTINUOUS
 62
     2
 10
34.96465952
 20
97.842215545
 30
0.0
 11
34.969706871
 21
97.99221524
 31
0.0
  0
LINE
  8
0
  6
CONTINUOUS
 62
     2
 10
34.969706871
 20
97.99221524
 30
0.0
 11
34.966359467
 21
98.147048818
 31
0.0
  0
LINE
  8
0
  6
CONTINUOUS
 62
     2
 10
34.966359467
 20
98.147048818
 30
0.0
 11
34.955429494
 21
98.290930487
 31
0.0
  0
LINE
  8
0
  6
CONTINUOUS
 62
     2
 10
34.955429494
 20
98.290930487
 30
0.0
 11
34.936024891
 21
98.44023539
 31
0.0
  0
LINE
  8
0
  6
CONTINUOUS
 62
     2
 10
34.936024891
 20
98.44023539
 30
0.0
 11
34.909451161
 21
98.583838096
 31
0.0
  0
LINE
  8
0
  6
CONTINUOUS
 62
     2
 10
34.909451161
 20
98.583838096
 30
0.0
 11
34.873464121
 21
98.730674508
 31
0.0
  0
LINE
  8
0
  6
CONTINUOUS
 62
     2
 10
34.873464121
 20
98.730674508
 30
0.0
 11
34.821320702
 21
98.808352803
 31
0.0
  0
LINE
  8
0
  6
CONTINUOUS
 62
     2
 10
34.821320702
 20
98.808352803
 30
0.0
 11
34.73521188
 21
98.871462947
 31
0.0
  0
LINE
  8
0
  6
CONTINUOUS
 62
     2
 10
34.73521188
 20
98.871462947
 30
0.0
 11
34.620333854
 21
98.899807318
 31
0.0
  0
LINE
  8
0
  6
CONTINUOUS
 62
     2
 10
34.620333854
 20
98.899807318
 30
0.0
 11
34.486433084
 21
98.872467984
 31
0.0
  0
LINE
  8
0
  6
CONTINUOUS
 62
     2
 10
34.486433084
 20
98.872467984
 30
0.0
 11
34.396943341
 21
98.806995669
 31
0.0
  0
LINE
  8
0
  6
CONTINUOUS
 62
     2
 10
34.396943341
 20
98.806995669
 30
0.0
 11
34.344692979
 21
98.727631895
 31
0.0
  0
LINE
  8
0
  6
CONTINUOUS
 62
     2
 10
33.519764172
 20
87.12
 30
0.0
 11
33.519764172
 21
87.27
 31
0.0
  0
LINE
  8
0
  6
CONTINUOUS
 62
     2
 10
33.519764172
 20
87.27
 30
0.0
 11
33.519764172
 21
87.42
 31
0.0
  0
LINE
  8
0
  6
CONTINUOUS
 62
     2
 10
33.519764172
 20
87.42
 30
0.0
 11
33.519764172
 21
87.57
 31
0.0
  0
LINE
  8
0
  6
CONTINUOUS
 62
     2
 10
33.519764172
 20
87.57
 30
0.0
 11
33.519764172
 21
87.72
 31
0.0
  0
LINE
  8
0
  6
CONTINUOUS
 62
     2
 10
33.519764172
 20
87.72
 30
0.0
 11
33.519764172
 21
87.87
 31
0.0
  0
LINE
  8
0
  6
CONTINUOUS
 62
     2
 10
33.519764172
 20
87.87
 30
0.0
 11
33.519764172
 21
88.02
 31
0.0
  0
LINE
  8
0
  6
CONTINUOUS
 62
     2
 10
33.519764172
 20
88.02
 30
0.0
 11
33.519764172
 21
88.22
 31
0.0
  0
LINE
  8
0
  6
CONTINUOUS
 62
     2
 10
33.519764172
 20
88.22
 30
0.0
 11
33.519764172
 21
88.07
 31
0.0
  0
LINE
  8
0
  6
CONTINUOUS
 62
     2
 10
33.519764172
 20
88.07
 30
0.0
 11
33.519764172
 21
87.92
 31
0.0
  0
LINE
  8
0
  6
CONTINUOUS
 62
     2
 10
33.519764172
 20
87.92
 30
0.0
 11
33.519764172
 21
87.77
 31
0.0
  0
LINE
  8
0
  6
CONTINUOUS
 62
     2
 10
33.519764172
 20
87.77
 30
0.0
 11
33.519764172
 21
87.62
 31
0.0
  0
LINE
  8
0
  6
CONTINUOUS
 62
     2
 10
33.519764172
 20
87.62
 30
0.0
 11
33.519764172
 21
87.52
 31
0.0
  0
LINE
  8
0
  6
CONTINUOUS
 62
     2
 10
33.519764172
 20
87.52
 30
0.0
 11
33.719764172
 21
87.52
 31
0.0
  0
LINE
  8
0
  6
CONTINUOUS
 62
     2
 10
33.719764172
 20
87.52
 30
0.0
 11
33.569764172
 21
87.52
 31
0.0
  0
LINE
  8
0
  6
CONTINUOUS
 62
     2
 10
33.569764172
 20
87.52
 30
0.0
 11
33.419764172
 21
87.52
 31
0.0
  0
LINE
  8
0
  6
CONTINUOUS
 62
     2
 10
33.419764172
 20
87.52
 30
0.0
 11
33.269764172
 21
87.52
 31
0.0
  0
LINE
  8
0
  6
CONTINUOUS
 62
     2
 10
33.269764172
 20
87.52
 30
0.0
 11
33.119764172
 21
87.52
 31
0.0
  0
LINE
  8
0
  6
CONTINUOUS
 62
     2
 10
33.119764172
 20
87.52
 30
0.0
 11
32.999764172
 21
87.52
 31
0.0
  0
LINE
  8
0
  6
CONTINUOUS
 62
     2
 10
32.999764172
 20
87.52
 30
0.0
 11
33.034212448
 21
87.66162069
 31
0.0
  0
LINE
  8
0
  6
CONTINUOUS
 62
     2
 10
33.034212448
 20
87.66162069
 30
0.0
 11
33.068660724
 21
87.803241379
 31
0.0
  0
LINE
  8
0
  6
CONTINUOUS
 62
     2
 10
33.068660724
 20
87.803241379
 30
0.0
 11
33.103108999
 21
87.944862069
 31
0.0
  0
LINE
  8
0
  6
CONTINUOUS
 62
     2
 10
33.103108999
 20
87.944862069
 30
0.0
 11
33.137557275
 21
88.086482759
 31
0.0
  0
LINE
  8
0
  6
CONTINUOUS
 62
     2
 10
33.137557275
 20
88.086482759
 30
0.0
 11
33.172005551
 21
88.228103448
 31
0.0
  0
LINE
  8
0
  6
CONTINUOUS
 62
     2
 10
33.172005551
 20
88.228103448
 30
0.0
 11
33.206453827
 21
88.369724138
 31
0.0
  0
LINE
  8
0
  6
CONTINUOUS
 62
     2
 10
33.206453827
 20
88.369724138
 30
0.0
 11
33.240902103
 21
88.511344828
 31
0.0
  0
LINE
  8
0
  6
CONTINUOUS
 62
     2
 10
33.240902103
 20
88.511344828
 30
0.0
 11
33.275350379
 21
88.652965517
 31
0.0
  0
LINE
  8
0
  6
CONTINUOUS
 62
     2
 10
33.275350379
 20
88.652965517
 30
0.0
 11
33.309798655
 21
88.794586207
 31
0.0
  0
LINE
  8
0
  6
CONTINUOUS
 62
     2
 10
33.309798655
 20
88.794586207
 30
0.0
 11
33.331401982
 21
88.883399888
 31
0.0
  0
LINE
  8
0
  6
CONTINUOUS
 62
     2
 10
34.344692979
 20
88.727631895
 30
0.0
 11
34.310314642
 21
88.584954116
 31
0.0
  0
LINE
  8
0
  6
CONTINUOUS
 62
     2
 10
34.310314642
 20
88.584954116
 30
0.0
 11
34.283340333
 21
88.439200479
 31
0.0
  0
LINE
  8
0
  6
CONTINUOUS
 62
     2
 10
34.283340333
 20
88.439200479
 30
0.0
 11
34.264123205
 21
88.291168417
 31
0.0
  0
LINE
  8
0
  6
CONTINUOUS
 62
     2
 10
34.264123205
 20
88.291168417
 30
0.0
 11
34.252908353
 21
88.141704187
 31
0.0
  0
LINE
  8
0
  6
CONTINUOUS
 62
     2
 10
34.252908353
 20
88.141704187
 30
0.0
 11
34.249824949
 21
87.991683724
 31
0.0
  0
LINE
  8
0
  6
CONTINUOUS
 62
     2
 10
34.249824949
 20
87.991683724
 30
0.0
 11
34.254882439
 21
87.841992158
 31
0.0
  0
LINE
  8
0
  6
CONTINUOUS
 62
     2
 10
34.254882439
 20
87.841992158
 30
0.0
 11
34.267971024
 21
87.69350303
 31
0.0
  0
LINE
  8
0
  6
CONTINUOUS
 62
     2
 10
34.267971024
 20
87.69350303
 30
0.0
 11
34.288866358
 21
87.547058225
 31
0.0
  0
LINE
  8
0
  6
CONTINUOUS
 62
     2
 10
34.288866358
 20
87.547058225
 30
0.0
 11
34.31723811
 21
87.403449583
 31
0.0
  0
LINE
  8
0
  6
CONTINUOUS
 62
     2
 10
34.31723811
 20
87.403449583
 30
0.0
 11
34.352661819
 21
87.263402995
 31
0.0
  0
LINE
  8
0
  6
CONTINUOUS
 62
     2
 10
34.352661819
 20
87.263402995
 30
0.0
 11
34.411749623
 21
87.198126835
 31
0.0
  0
LINE
  8
0
  6
CONTINUOUS
 62
     2
 10
34.411749623
 20
87.198126835
 30
0.0
 11
34.486463496
 21
87.147517728
 31
0.0
  0
LINE
  8
0
  6
CONTINUOUS
 62
     2
 10
34.486463496
 20
87.147517728
 30
0.0
 11
34.611478348
 21
87.120005066
 31
0.0
  0
LINE
  8
0
  6
CONTINUOUS
 62
     2
 10
34.611478348
 20
87.120005066
 30
0.0
 11
34.713683888
 21
87.139258994
 31
0.0
  0
LINE
  8
0
  6
CONTINUOUS
 62
     2
 10
34.713683888
 20
87.139258994
 30
0.0
 11
34.806548122
 21
87.196983388
 31
0.0
  0
LINE
  8
0
  6
CONTINUOUS
 62
     2
 10
34.806548122
 20
87.196983388
 30
0.0
 11
34.856231228
 21
87.257179876
 31
0.0
  0
LINE
  8
0
  6
CONTINUOUS
 62
     2
 10
34.856231228
 20
87.257179876
 30
0.0
 11
34.902208452
 21
87.403086664
 31
0.0
  0
LINE
  8
0
  6
CONTINUOUS
 62
     2
 10
34.902208452
 20
87.403086664
 30
0.0
 11
34.929903738
 21
87.542623558
 31
0.0
  0
LINE
  8
0
  6
CONTINUOUS
 62
     2
 10
34.929903738
 20
87.542623558
 30
0.0
 11
34.951501165
 21
87.693016943
 31
0.0
  0
LINE
  8
0
  6
CONTINUOUS
 62
     2
 10
34.951501165
 20
87.693016943
 30
0.0
 11
34.96465952
 21
87.842215545
 31
0.0
  0
LINE
  8
0
  6
CONTINUOUS
 62
     2
 10
34.96465952
 20
87.842215545
 30
0.0
 11
34.969706871
 21
87.99221524
 31
0.0
  0
LINE
  8
0
  6
CONTINUOUS
 62
     2
 10
34.969706871
 20
87.99221524
 30
0.0
 11
34.966359467
 21
88.147048818
 31
0.0
  0
LINE
  8
0
  6
CONTINUOUS
 62
     2
 10
34.966359467
 20
88.147048818
 30
0.0
 11
34.955429494
 21
88.290930487
 31
0.0
  0
LINE
  8
0
  6
CONTINUOUS
 62
     2
 10
34.955429494
 20
88.290930487
 30
0.0
 11
34.936024891
 21
88.44023539
 31
0.0
  0
LINE
  8
0
  6
CONTINUOUS
 62
     2
 10
34.936024891
 20
88.44023539
 30
0.0
 11
34.909451161
 21
88.583838096
 31
0.0
  0
LINE
  8
0
  6
CONTINUOUS
 62
     2
 10
34.909451161
 20
88.583838096
 30
0.0
 11
34.873464121
 21
88.730674508
 31
0.0
  0
LINE
  8
0
  6
CONTINUOUS
 62
     2
 10
34.873464121
 20
88.730674508
 30
0.0
 11
34.821320702
 21
88.808352803
 31
0.0
  0
LINE
  8
0
  6
CONTINUOUS
 62
     2
 10
34.821320702
 20
88.808352803
 30
0.0
 11
34.73521188
 21
88.871462947
 31
0.0
  0
LINE
  8
0
  6
CONTINUOUS
 62
     2
 10
34.73521188
 20
88.871462947
 30
0.0
 11
34.620333854
 21
88.899807318
 31
0.0
  0
LINE
  8
0
  6
CONTINUOUS
 62
     2
 10
34.620333854
 20
88.899807318
 30
0.0
 11
34.486433084
 21
88.872467984
 31
0.0
  0
LINE
  8
0
  6
CONTINUOUS
 62
     2
 10
34.486433084
 20
88.872467984
 30
0.0
 11
34.396943341
 21
88.806995669
 31
0.0
  0
LINE
  8
0
  6
CONTINUOUS
 62
     2
 10
34.396943341
 20
88.806995669
 30
0.0
 11
34.344692979
 21
88.727631895
 31
0.0
  0
LINE
  8
0
  6
CONTINUOUS
 62
     2
 10
32.999764172
 20
78.52
 30
0.0
 11
33.008767416
 21
78.600007985
 31
0.0
  0
LINE
  8
0
  6
CONTINUOUS
 62
     2
 10
33.008767416
 20
78.600007985
 30
0.0
 11
33.034645955
 21
78.674590249
 31
0.0
  0
LINE
  8
0
  6
CONTINUOUS
 62
     2
 10
33.034645955
 20
78.674590249
 30
0.0
 11
33.070885354
 21
78.734823249
 31
0.0
  0
LINE
  8
0
  6
CONTINUOUS
 62
     2
 10
33.070885354
 20
78.734823249
 30
0.0
 11
33.118637044
 21
78.787315746
 31
0.0
  0
LINE
  8
0
  6
CONTINUOUS
 62
     2
 10
33.118637044
 20
78.787315746
 30
0.0
 11
33.174018831
 21
78.82838072
 31
0.0
  0
LINE
  8
0
  6
CONTINUOUS
 62
     2
 10
33.174018831
 20
78.82838072
 30
0.0
 11
33.246274157
 21
78.861643113
 31
0.0
  0
LINE
  8
0
  6
CONTINUOUS
 62
     2
 10
33.246274157
 20
78.861643113
 30
0.0
 11
33.346527536
 21
78.879756573
 31
0.0
  0
LINE
  8
0
  6
CONTINUOUS
 62
     2
 10
33.346527536
 20
78.879756573
 30
0.0
 11
33.450085795
 21
78.8684853
 31
0.0
  0
LINE
  8
0
  6
CONTINUOUS
 62
     2
 10
33.450085795
 20
78.8684853
 30
0.0
 11
33.523592125
 21
78.840562633
 31
0.0
  0
LINE
  8
0
  6
CONTINUOUS
 62
     2
 10
33.523592125
 20
78.840562633
 30
0.0
 11
33.582981344
 21
78.802443081
 31
0.0
  0
LINE
  8
0
  6
CONTINUOUS
 62
     2
 10
33.582981344
 20
78.802443081
 30
0.0
 11
33.633959051
 21
78.753274877
 31
0.0
  0
LINE
  8
0
  6
CONTINUOUS
 62
     2
 10
33.633959051
 20
78.753274877
 30
0.0
 11
33.673152592
 21
78.697165736
 31
0.0
  0
LINE
  8
0
  6
CONTINUOUS
 62
     2
 10
33.673152592
 20
78.697165736
 30
0.0
 11
33.704399121
 21
78.624051679
 31
0.0
  0
LINE
  8
0
  6
CONTINUOUS
 62
     2
 10
33.704399121
 20
78.624051679
 30
0.0
 11
33.718657389
 21
78.548207426
 31
0.0
  0
LINE
  8
0
  6
CONTINUOUS
 62
     2
 10
33.718657389
 20
78.548207426
 30
0.0
 11
33.716742818
 21
78.473457048
 31
0.0
  0
LINE
  8
0
  6
CONTINUOUS
 62
     2
 10
33.716742818
 20
78.473457048
 30
0.0
 11
33.697819689
 21
78.396232204
 31
0.0
  0
LINE
  8
0
  6
CONTINUOUS
 62
     2
 10
33.697819689
 20
78.396232204
 30
0.0
 11
33.663702444
 21
78.326534244
 31
0.0
  0
LINE
  8
0
  6
CONTINUOUS
 62
     2
 10
33.663702444
 20
78.326534244
 30
0.0
 11
33.620415824
 21
78.25209975
 31
0.0
  0
LINE
  8
0
  6
CONTINUOUS
 62
     2
 10
33.620415824
 20
78.25209975
 30
0.0
 11
33.555229965
 21
78.14000792
 31
0.0
  0
LINE
  8
0
  6
CONTINUOUS
 62
     2
 10
33.555229965
 20
78.14000792
 30
0.0
 11
33.490044106
 21
78.027916091
 31
0.0
  0
LINE
  8
0
  6
CONTINUOUS
 62
     2
 10
33.490044106
 20
78.027916091
 30
0.0
 11
33.424858247
 21
77.915824262
 31
0.0
  0
LINE
  8
0
  6
CONTINUOUS
 62
     2
 10
33.424858247
 20
77.915824262
 30
0.0
 11
33.359672388
 21
77.803732433
 31
0.0
  0
LINE
  8
0
  6
CONTINUOUS
 62
     2
 10
33.359672388
 20
77.803732433
 30
0.0
 11
33.294486529
 21
77.691640603
 31
0.0
  0
LINE
  8
0
  6
CONTINUOUS
 62
     2
 10
33.294486529
 20
77.691640603
 30
0.0
 11
33.22930067
 21
77.579548774
 31
0.0
  0
LINE
  8
0
  6
CONTINUOUS
 62
     2
 10
33.22930067
 20
77.579548774
 30
0.0
 11
33.164114812
 21
77.467456945
 31
0.0
  0
LINE
  8
0
  6
CONTINUOUS
 62
     2
 10
33.164114812
 20
77.467456945
 30
0.0
 11
33.098928953
 21
77.355365116
 31
0.0
  0
LINE
  8
0
  6
CONTINUOUS
 62
     2
 10
33.098928953
 20
77.355365116
 30
0.0
 11
33.033743094
 21
77.243273286
 31
0.0
  0
LINE
  8
0
  6
CONTINUOUS
 62
     2
 10
33.033743094
 20
77.243273286
 30
0.0
 11
32.962054772
 21
77.12
 31
0.0
  0
LINE
  8
0
  6
CONTINUOUS
 62
     2
 10
32.962054772
 20
77.12
 30
0.0
 11
33.112054772
 21
77.12
 31
0.0
  0
LINE
  8
0
  6
CONTINUOUS
 62
     2
 10
33.112054772
 20
77.12
 30
0.0
 11
33.262054772
 21
77.12
 31
0.0
  0
LINE
  8
0
  6
CONTINUOUS
 62
     2
 10
33.262054772
 20
77.12
 30
0.0
 11
33.412054772
 21
77.12
 31
0.0
  0
LINE
  8
0
  6
CONTINUOUS
 62
     2
 10
33.412054772
 20
77.12
 30
0.0
 11
33.562054772
 21
77.12
 31
0.0
  0
LINE
  8
0
  6
CONTINUOUS
 62
     2
 10
33.562054772
 20
77.12
 30
0.0
 11
33.719764181
 21
77.12
 31
0.0
  0
LINE
  8
0
  6
CONTINUOUS
 62
     2
 10
34.344692979
 20
78.727631895
 30
0.0
 11
34.310314642
 21
78.584954116
 31
0.0
  0
LINE
  8
0
  6
CONTINUOUS
 62
     2
 10
34.310314642
 20
78.584954116
 30
0.0
 11
34.283340333
 21
78.439200479
 31
0.0
  0
LINE
  8
0
  6
CONTINUOUS
 62
     2
 10
34.283340333
 20
78.439200479
 30
0.0
 11
34.264123205
 21
78.291168417
 31
0.0
  0
LINE
  8
0
  6
CONTINUOUS
 62
     2
 10
34.264123205
 20
78.291168417
 30
0.0
 11
34.252908353
 21
78.141704187
 31
0.0
  0
LINE
  8
0
  6
CONTINUOUS
 62
     2
 10
34.252908353
 20
78.141704187
 30
0.0
 11
34.249824949
 21
77.991683724
 31
0.0
  0
LINE
  8
0
  6
CONTINUOUS
 62
     2
 10
34.249824949
 20
77.991683724
 30
0.0
 11
34.254882439
 21
77.841992158
 31
0.0
  0
LINE
  8
0
  6
CONTINUOUS
 62
     2
 10
34.254882439
 20
77.841992158
 30
0.0
 11
34.267971024
 21
77.69350303
 31
0.0
  0
LINE
  8
0
  6
CONTINUOUS
 62
     2
 10
34.267971024
 20
77.69350303
 30
0.0
 11
34.288866358
 21
77.547058225
 31
0.0
  0
LINE
  8
0
  6
CONTINUOUS
 62
     2
 10
34.288866358
 20
77.547058225
 30
0.0
 11
34.31723811
 21
77.403449583
 31
0.0
  0
LINE
  8
0
  6
CONTINUOUS
 62
     2
 10
34.31723811
 20
77.403449583
 30
0.0
 11
34.352661819
 21
77.263402995
 31
0.0
  0
LINE
  8
0
  6
CONTINUOUS
 62
     2
 10
34.352661819
 20
77.263402995
 30
0.0
 11
34.411749623
 21
77.198126835
 31
0.0
  0
LINE
  8
0
  6
CONTINUOUS
 62
     2
 10
34.411749623
 20
77.198126835
 30
0.0
 11
34.486463496
 21
77.147517728
 31
0.0
  0
LINE
  8
0
  6
CONTINUOUS
 62
     2
 10
34.486463496
 20
77.147517728
 30
0.0
 11
34.611478348
 21
77.120005066
 31
0.0
  0
LINE
  8
0
  6
CONTINUOUS
 62
     2
 10
34.611478348
 20
77.120005066
 30
0.0
 11
34.713683888
 21
77.139258994
 31
0.0
  0
LINE
  8
0
  6
CONTINUOUS
 62
     2
 10
34.713683888
 20
77.139258994
 30
0.0
 11
34.806548122
 21
77.196983388
 31
0.0
  0
LINE
  8
0
  6
CONTINUOUS
 62
     2
 10
34.806548122
 20
77.196983388
 30
0.0
 11
34.856231228
 21
77.257179876
 31
0.0
  0
LINE
  8
0
  6
CONTINUOUS
 62
     2
 10
34.856231228
 20
77.257179876
 30
0.0
 11
34.902208452
 21
77.403086664
 31
0.0
  0
LINE
  8
0
  6
CONTINUOUS
 62
     2
 10
34.902208452
 20
77.403086664
 30
0.0
 11
34.929903738
 21
77.542623558
 31
0.0
  0
LINE
  8
0
  6
CONTINUOUS
 62
     2
 10
34.929903738
 20
77.542623558
 30
0.0
 11
34.951501165
 21
77.693016943
 31
0.0
  0
LINE
  8
0
  6
CONTINUOUS
 62
     2
 10
34.951501165
 20
77.693016943
 30
0.0
 11
34.96465952
 21
77.842215545
 31
0.0
  0
LINE
  8
0
  6
CONTINUOUS
 62
     2
 10
34.96465952
 20
77.842215545
 30
0.0
 11
34.969706871
 21
77.99221524
 31
0.0
  0
LINE
  8
0
  6
CONTINUOUS
 62
     2
 10
34.969706871
 20
77.99221524
 30
0.0
 11
34.966359467
 21
78.147048818
 31
0.0
  0
LINE
  8
0
  6
CONTINUOUS
 62
     2
 10
34.966359467
 20
78.147048818
 30
0.0
 11
34.955429494
 21
78.290930487
 31
0.0
  0
LINE
  8
0
  6
CONTINUOUS
 62
     2
 10
34.955429494
 20
78.290930487
 30
0.0
 11
34.936024891
 21
78.44023539
 31
0.0
  0
LINE
  8
0
  6
CONTINUOUS
 62
     2
 10
34.936024891
 20
78.44023539
 30
0.0
 11
34.909451161
 21
78.583838096
 31
0.0
  0
LINE
  8
0
  6
CONTINUOUS
 62
     2
 10
34.909451161
 20
78.583838096
 30
0.0
 11
34.873464121
 21
78.730674508
 31
0.0
  0
LINE
  8
0
  6
CONTINUOUS
 62
     2
 10
34.873464121
 20
78.730674508
 30
0.0
 11
34.821320702
 21
78.808352803
 31
0.0
  0
LINE
  8
0
  6
CONTINUOUS
 62
     2
 10
34.821320702
 20
78.808352803
 30
0.0
 11
34.73521188
 21
78.871462947
 31
0.0
  0
LINE
  8
0
  6
CONTINUOUS
 62
     2
 10
34.73521188
 20
78.871462947
 30
0.0
 11
34.620333854
 21
78.899807318
 31
0.0
  0
LINE
  8
0
  6
CONTINUOUS
 62
     2
 10
34.620333854
 20
78.899807318
 30
0.0
 11
34.486433084
 21
78.872467984
 31
0.0
  0
LINE
  8
0
  6
CONTINUOUS
 62
     2
 10
34.486433084
 20
78.872467984
 30
0.0
 11
34.396943341
 21
78.806995669
 31
0.0
  0
LINE
  8
0
  6
CONTINUOUS
 62
     2
 10
34.396943341
 20
78.806995669
 30
0.0
 11
34.344692979
 21
78.727631895
 31
0.0
  0
LINE
  8
0
  6
CONTINUOUS
 62
     2
 10
33.094692979
 20
68.727631895
 30
0.0
 11
33.060314642
 21
68.584954116
 31
0.0
  0
LINE
  8
0
  6
CONTINUOUS
 62
     2
 10
33.060314642
 20
68.584954116
 30
0.0
 11
33.033340333
 21
68.439200479
 31
0.0
  0
LINE
  8
0
  6
CONTINUOUS
 62
     2
 10
33.033340333
 20
68.439200479
 30
0.0
 11
33.014123205
 21
68.291168417
 31
0.0
  0
LINE
  8
0
  6
CONTINUOUS
 62
     2
 10
33.014123205
 20
68.291168417
 30
0.0
 11
33.002908353
 21
68.141704187
 31
0.0
  0
LINE
  8
0
  6
CONTINUOUS
 62
     2
 10
33.002908353
 20
68.141704187
 30
0.0
 11
32.999824949
 21
67.991683724
 31
0.0
  0
LINE
  8
0
  6
CONTINUOUS
 62
     2
 10
32.999824949
 20
67.991683724
 30
0.0
 11
33.004882439
 21
67.841992158
 31
0.0
  0
LINE
  8
0
  6
CONTINUOUS
 62
     2
 10
33.004882439
 20
67.841992158
 30
0.0
 11
33.017971024
 21
67.69350303
 31
0.0
  0
LINE
  8
0
  6
CONTINUOUS
 62
     2
 10
33.017971024
 20
67.69350303
 30
0.0
 11
33.038866358
 21
67.547058225
 31
0.0
  0
LINE
  8
0
  6
CONTINUOUS
 62
     2
 10
33.038866358
 20
67.547058225
 30
0.0
 11
33.06723811
 21
67.403449583
 31
0.0
  0
LINE
  8
0
  6
CONTINUOUS
 62
     2
 10
33.06723811
 20
67.403449583
 30
0.0
 11
33.102661819
 21
67.263402995
 31
0.0
  0
LINE
  8
0
  6
CONTINUOUS
 62
     2
 10
33.102661819
 20
67.263402995
 30
0.0
 11
33.161749623
 21
67.198126835
 31
0.0
  0
LINE
  8
0
  6
CONTINUOUS
 62
     2
 10
33.161749623
 20
67.198126835
 30
0.0
 11
33.236463496
 21
67.147517728
 31
0.0
  0
LINE
  8
0
  6
CONTINUOUS
 62
     2
 10
33.236463496
 20
67.147517728
 30
0.0
 11
33.361478348
 21
67.120005066
 31
0.0
  0
LINE
  8
0
  6
CONTINUOUS
 62
     2
 10
33.361478348
 20
67.120005066
 30
0.0
 11
33.463683888
 21
67.139258994
 31
0.0
  0
LINE
  8
0
  6
CONTINUOUS
 62
     2
 10
33.463683888
 20
67.139258994
 30
0.0
 11
33.556548122
 21
67.196983388
 31
0.0
  0
LINE
  8
0
  6
CONTINUOUS
 62
     2
 10
33.556548122
 20
67.196983388
 30
0.0
 11
33.606231228
 21
67.257179876
 31
0.0
  0
LINE
  8
0
  6
CONTINUOUS
 62
     2
 10
33.606231228
 20
67.257179876
 30
0.0
 11
33.652208452
 21
67.403086664
 31
0.0
  0
LINE
  8
0
  6
CONTINUOUS
 62
     2
 10
33.652208452
 20
67.403086664
 30
0.0
 11
33.679903738
 21
67.542623558
 31
0.0
  0
LINE
  8
0
  6
CONTINUOUS
 62
     2
 10
33.679903738
 20
67.542623558
 30
0.0
 11
33.701501165
 21
67.693016943
 31
0.0
  0
LINE
  8
0
  6
CONTINUOUS
 62
     2
 10
33.701501165
 20
67.693016943
 30
0.0
 11
33.71465952
 21
67.842215545
 31
0.0
  0
LINE
  8
0
  6
CONTINUOUS
 62
     2
 10
33.71465952
 20
67.842215545
 30
0.0
 11
33.719706871
 21
67.99221524
 31
0.0
  0
LINE
  8
0
  6
CONTINUOUS
 62
     2
 10
33.719706871
 20
67.99221524
 30
0.0
 11
33.716359467
 21
68.147048818
 31
0.0
  0
LINE
  8
0
  6
CONTINUOUS
 62
     2
 10
33.716359467
 20
68.147048818
 30
0.0
 11
33.705429494
 21
68.290930487
 31
0.0
  0
LINE
  8
0
  6
CONTINUOUS
 62
     2
 10
33.705429494
 20
68.290930487
 30
0.0
 11
33.686024891
 21
68.44023539
 31
0.0
  0
LINE
  8
0
  6
CONTINUOUS
 62
     2
 10
33.686024891
 20
68.44023539
 30
0.0
 11
33.659451161
 21
68.583838096
 31
0.0
  0
LINE
  8
0
  6
CONTINUOUS
 62
     2
 10
33.659451161
 20
68.583838096
 30
0.0
 11
33.623464121
 21
68.730674508
 31
0.0
  0
LINE
  8
0
  6
CONTINUOUS
 62
     2
 10
33.623464121
 20
68.730674508
 30
0.0
 11
33.571320702
 21
68.808352803
 31
0.0
  0
LINE
  8
0
  6
CONTINUOUS
 62
     2
 10
33.571320702
 20
68.808352803
 30
0.0
 11
33.48521188
 21
68.871462947
 31
0.0
  0
LINE
  8
0
  6
CONTINUOUS
 62
     2
 10
33.48521188
 20
68.871462947
 30
0.0
 11
33.370333854
 21
68.899807318
 31
0.0
  0
LINE
  8
0
  6
CONTINUOUS
 62
     2
 10
33.370333854
 20
68.899807318
 30
0.0
 11
33.236433084
 21
68.872467984
 31
0.0
  0
LINE
  8
0
  6
CONTINUOUS
 62
     2
 10
33.236433084
 20
68.872467984
 30
0.0
 11
33.146943341
 21
68.806995669
 31
0.0
  0
LINE
  8
0
  6
CONTINUOUS
 62
     2
 10
33.146943341
 20
68.806995669
 30
0.0
 11
33.094692979
 21
68.727631895
 31
0.0
  0
LINE
  8
0
  6
LTYPE2
 62
     2
 10
31.0
 20
127.8
 30
0.0
 11
31.0
 21
50.3
 31
0.0
  0
TEXT
  8
0
  6
CONTINUOUS
 62
     2
 10
51.0
 20
30.0
 30
0.3
 40
3.0
  1
重量　０．９ｋｇ
 50
0.0
 41
0.9
 51
0.0
  7
KANJI1
  0
TEXT
  8
0
  6
CONTINUOUS
 62
     2
 10
179.8
 20
22.75
 30
0.3
 40
3.0
  1
補助電源ＤＣ２４Ｖ　±２Ｖ
 50
0.0
 41
0.9
 51
0.0
  7
KANJI1
  0
TEXT
  8
0
  6
CONTINUOUS
 62
     2
 10
107.5
 20
149.0
 30
0.3
 40
3.0
  1
２２９．５
 50
0.0
 41
0.6
 51
0.0
  7
KANJI0
  0
TEXT
  8
0
  6
CONTINUOUS
 62
     3
 10
235.0
 20
12.0
 30
0.2
 40
5.8
  1
ＭＳ－１２２３４
 50
0.0
 41
0.827586207
 51
0.0
  7
KANJI13
  0
LINE
  8
0
  6
CONTINUOUS
 62
     2
 10
224.163
 20
139.25
 30
0.0
 11
223.515952387
 21
136.835185434
 31
0.0
  0
LINE
  8
0
  6
CONTINUOUS
 62
     2
 10
224.163
 20
139.25
 30
0.0
 11
224.810047613
 21
136.835185434
 31
0.0
  0
LINE
  8
0
  6
CONTINUOUS
 62
     2
 10
224.163
 20
139.25
 30
0.0
 11
224.163
 21
47.75
 31
0.0
  0
LINE
  8
0
  6
CONTINUOUS
 62
     2
 10
224.163
 20
47.75
 30
0.0
 11
224.810047613
 21
50.164814566
 31
0.0
  0
LINE
  8
0
  6
CONTINUOUS
 62
     2
 10
224.163
 20
47.75
 30
0.0
 11
223.515952387
 21
50.164814566
 31
0.0
  0
TEXT
  8
0
  6
CONTINUOUS
 62
     2
 10
223.912952387
 20
90.5
 30
0.3
 40
3.0
  1
１８３
 50
90.0
 41
0.6
 51
0.0
  7
KANJI0
  0
LINE
  8
0
  6
CONTINUOUS
 62
     2
 10
207.25
 20
139.25
 30
0.0
 11
225.137
 21
139.25
 31
0.0
  0
LINE
  8
0
  6
CONTINUOUS
 62
     2
 10
207.25
 20
47.75
 30
0.0
 11
225.137
 21
47.75
 31
0.0
  0
CIRCLE
  8
0
  6
CONTINUOUS
 62
     2
 10
200.0
 20
88.5
 30
0.0
 40
1.5
  0
LINE
  8
0
  6
CONTINUOUS
 62
     2
 10
200.875
 20
88.3
 30
0.0
 11
200.4
 21
88.3
 31
0.0
  0
ARC
  8
0
  6
CONTINUOUS
 62
     2
 10
200.4
 20
88.1
 30
0.0
 40
0.2
 50
90.0
 51
180.0
  0
LINE
  8
0
  6
CONTINUOUS
 62
     2
 10
200.2
 20
88.1
 30
0.0
 11
200.2
 21
87.625
 31
0.0
  0
LINE
  8
0
  6
CONTINUOUS
 62
     2
 10
200.2
 20
87.625
 30
0.0
 11
199.8
 21
87.625
 31
0.0
  0
LINE
  8
0
  6
CONTINUOUS
 62
     2
 10
199.8
 20
87.625
 30
0.0
 11
199.8
 21
88.1
 31
0.0
  0
ARC
  8
0
  6
CONTINUOUS
 62
     2
 10
199.6
 20
88.1
 30
0.0
 40
0.2
 50
0.0
 51
90.0
  0
LINE
  8
0
  6
CONTINUOUS
 62
     2
 10
199.6
 20
88.3
 30
0.0
 11
199.125
 21
88.3
 31
0.0
  0
LINE
  8
0
  6
CONTINUOUS
 62
     2
 10
199.125
 20
88.3
 30
0.0
 11
199.125
 21
88.7
 31
0.0
  0
LINE
  8
0
  6
CONTINUOUS
 62
     2
 10
199.125
 20
88.7
 30
0.0
 11
199.6
 21
88.7
 31
0.0
  0
ARC
  8
0
  6
CONTINUOUS
 62
     2
 10
199.6
 20
88.9
 30
0.0
 40
0.2
 50
270.0
 51
0.0
  0
LINE
  8
0
  6
CONTINUOUS
 62
     2
 10
199.8
 20
88.9
 30
0.0
 11
199.8
 21
89.375
 31
0.0
  0
LINE
  8
0
  6
CONTINUOUS
 62
     2
 10
199.8
 20
89.375
 30
0.0
 11
200.2
 21
89.375
 31
0.0
  0
LINE
  8
0
  6
CONTINUOUS
 62
     2
 10
200.2
 20
89.375
 30
0.0
 11
200.2
 21
88.9
 31
0.0
  0
ARC
  8
0
  6
CONTINUOUS
 62
     2
 10
200.4
 20
88.9
 30
0.0
 40
0.2
 50
180.0
 51
270.0
  0
LINE
  8
0
  6
CONTINUOUS
 62
     2
 10
200.4
 20
88.7
 30
0.0
 11
200.875
 21
88.7
 31
0.0
  0
LINE
  8
0
  6
CONTINUOUS
 62
     2
 10
200.875
 20
88.7
 30
0.0
 11
200.875
 21
88.3
 31
0.0
  0
CIRCLE
  8
0
  6
CONTINUOUS
 62
     2
 10
200.0
 20
93.5
 30
0.0
 40
1.5
  0
LINE
  8
0
  6
CONTINUOUS
 62
     2
 10
200.875
 20
93.3
 30
0.0
 11
200.4
 21
93.3
 31
0.0
  0
ARC
  8
0
  6
CONTINUOUS
 62
     2
 10
200.4
 20
93.1
 30
0.0
 40
0.2
 50
90.0
 51
180.0
  0
LINE
  8
0
  6
CONTINUOUS
 62
     2
 10
200.2
 20
93.1
 30
0.0
 11
200.2
 21
92.625
 31
0.0
  0
LINE
  8
0
  6
CONTINUOUS
 62
     2
 10
200.2
 20
92.625
 30
0.0
 11
199.8
 21
92.625
 31
0.0
  0
LINE
  8
0
  6
CONTINUOUS
 62
     2
 10
199.8
 20
92.625
 30
0.0
 11
199.8
 21
93.1
 31
0.0
  0
ARC
  8
0
  6
CONTINUOUS
 62
     2
 10
199.6
 20
93.1
 30
0.0
 40
0.2
 50
0.0
 51
90.0
  0
LINE
  8
0
  6
CONTINUOUS
 62
     2
 10
199.6
 20
93.3
 30
0.0
 11
199.125
 21
93.3
 31
0.0
  0
LINE
  8
0
  6
CONTINUOUS
 62
     2
 10
199.125
 20
93.3
 30
0.0
 11
199.125
 21
93.7
 31
0.0
  0
LINE
  8
0
  6
CONTINUOUS
 62
     2
 10
199.125
 20
93.7
 30
0.0
 11
199.6
 21
93.7
 31
0.0
  0
ARC
  8
0
  6
CONTINUOUS
 62
     2
 10
199.6
 20
93.9
 30
0.0
 40
0.2
 50
270.0
 51
0.0
  0
LINE
  8
0
  6
CONTINUOUS
 62
     2
 10
199.8
 20
93.9
 30
0.0
 11
199.8
 21
94.375
 31
0.0
  0
LINE
  8
0
  6
CONTINUOUS
 62
     2
 10
199.8
 20
94.375
 30
0.0
 11
200.2
 21
94.375
 31
0.0
  0
LINE
  8
0
  6
CONTINUOUS
 62
     2
 10
200.2
 20
94.375
 30
0.0
 11
200.2
 21
93.9
 31
0.0
  0
ARC
  8
0
  6
CONTINUOUS
 62
     2
 10
200.4
 20
93.9
 30
0.0
 40
0.2
 50
180.0
 51
270.0
  0
LINE
  8
0
  6
CONTINUOUS
 62
     2
 10
200.4
 20
93.7
 30
0.0
 11
200.875
 21
93.7
 31
0.0
  0
LINE
  8
0
  6
CONTINUOUS
 62
     2
 10
200.875
 20
93.7
 30
0.0
 11
200.875
 21
93.3
 31
0.0
  0
LINE
  8
0
  6
CONTINUOUS
 62
     2
 10
165.54
 20
94.83
 30
0.0
 11
165.54
 21
92.17
 31
0.0
  0
LINE
  8
0
  6
CONTINUOUS
 62
     2
 10
165.85
 20
92.19
 30
0.0
 11
165.54
 21
92.17
 31
0.0
  0
LINE
  8
0
  6
CONTINUOUS
 62
     2
 10
165.54
 20
94.83
 30
0.0
 11
165.85
 21
94.83
 31
0.0
  0
LINE
  8
0
  6
CONTINUOUS
 62
     2
 10
166.59
 20
94.08
 30
0.0
 11
166.59
 21
92.92
 31
0.0
  0
ARC
  8
0
  6
CONTINUOUS
 62
     2
 10
165.84
 20
94.08
 30
0.0
 40
0.75
 50
0.0
 51
90.0
  0
ARC
  8
0
  6
CONTINUOUS
 62
     2
 10
165.84
 20
92.92
 30
0.0
 40
0.75
 50
268.472474559
 51
0.0
  0
LINE
  8
0
  6
CONTINUOUS
 62
     2
 10
165.53
 20
94.85
 30
0.0
 11
165.15
 21
94.85
 31
0.0
  0
LINE
  8
0
  6
CONTINUOUS
 62
     2
 10
165.15
 20
94.85
 30
0.0
 11
165.15
 21
92.17
 31
0.0
  0
LINE
  8
0
  6
CONTINUOUS
 62
     2
 10
165.15
 20
92.17
 30
0.0
 11
165.53
 21
92.17
 31
0.0
  0
LINE
  8
0
  6
CONTINUOUS
 62
     2
 10
165.15
 20
93.38
 30
0.0
 11
165.53
 21
93.69
 31
0.0
  0
LINE
  8
0
  6
CONTINUOUS
 62
     2
 10
165.15
 20
93.14
 30
0.0
 11
165.54
 21
93.43
 31
0.0
  0
LINE
  8
0
  6
CONTINUOUS
 62
     2
 10
166.59
 20
93.71
 30
0.0
 11
166.52
 21
93.71
 31
0.0
  0
LINE
  8
0
  6
CONTINUOUS
 62
     2
 10
166.52
 20
93.72
 30
0.0
 11
166.52
 21
93.34
 31
0.0
  0
LINE
  8
0
  6
CONTINUOUS
 62
     2
 10
166.52
 20
93.34
 30
0.0
 11
166.58
 21
93.34
 31
0.0
  0
LINE
  8
0
  6
CONTINUOUS
 62
     2
 10
165.54
 20
89.83
 30
0.0
 11
165.54
 21
87.17
 31
0.0
  0
LINE
  8
0
  6
CONTINUOUS
 62
     2
 10
165.85
 20
87.19
 30
0.0
 11
165.54
 21
87.17
 31
0.0
  0
LINE
  8
0
  6
CONTINUOUS
 62
     2
 10
165.54
 20
89.83
 30
0.0
 11
165.85
 21
89.83
 31
0.0
  0
LINE
  8
0
  6
CONTINUOUS
 62
     2
 10
166.59
 20
89.08
 30
0.0
 11
166.59
 21
87.92
 31
0.0
  0
ARC
  8
0
  6
CONTINUOUS
 62
     2
 10
165.84
 20
89.08
 30
0.0
 40
0.75
 50
0.0
 51
90.0
  0
ARC
  8
0
  6
CONTINUOUS
 62
     2
 10
165.84
 20
87.92
 30
0.0
 40
0.75
 50
268.472474559
 51
0.0
  0
LINE
  8
0
  6
CONTINUOUS
 62
     2
 10
165.53
 20
89.85
 30
0.0
 11
165.15
 21
89.85
 31
0.0
  0
LINE
  8
0
  6
CONTINUOUS
 62
     2
 10
165.15
 20
89.85
 30
0.0
 11
165.15
 21
87.17
 31
0.0
  0
LINE
  8
0
  6
CONTINUOUS
 62
     2
 10
165.15
 20
87.17
 30
0.0
 11
165.53
 21
87.17
 31
0.0
  0
LINE
  8
0
  6
CONTINUOUS
 62
     2
 10
165.15
 20
88.38
 30
0.0
 11
165.53
 21
88.69
 31
0.0
  0
LINE
  8
0
  6
CONTINUOUS
 62
     2
 10
165.15
 20
88.14
 30
0.0
 11
165.54
 21
88.43
 31
0.0
  0
LINE
  8
0
  6
CONTINUOUS
 62
     2
 10
166.59
 20
88.71
 30
0.0
 11
166.52
 21
88.71
 31
0.0
  0
LINE
  8
0
  6
CONTINUOUS
 62
     2
 10
166.52
 20
88.72
 30
0.0
 11
166.52
 21
88.34
 31
0.0
  0
LINE
  8
0
  6
CONTINUOUS
 62
     2
 10
166.52
 20
88.34
 30
0.0
 11
166.58
 21
88.34
 31
0.0
  0
TEXT
  8
0
  6
CONTINUOUS
 62
     2
 10
172.786152423
 20
77.568282402
 30
0.3
 40
3.0
  1
Ｍ３ネジ
 50
0.0
 41
0.6
 51
0.0
  7
KANJI0
  0
TEXT
  8
0
  6
CONTINUOUS
 62
     2
 10
172.786152423
 20
77.568282402
 30
0.3
 40
3.0
  1
Ｍ３ネジ
 50
0.0
 41
0.6
 51
0.0
  7
KANJI0
  0
LINE
  8
0
  6
CONTINUOUS
 62
     2
 10
172.786152423
 20
76.568282402
 30
0.0
 11
180.786152423
 21
76.568282402
 31
0.0
  0
LINE
  8
0
  6
CONTINUOUS
 62
     2
 10
170.631451884
 20
76.568282402
 30
0.0
 11
180.786152423
 21
76.568282402
 31
0.0
  0
TEXT
  8
0
  6
CONTINUOUS
 62
     1
 10
240.7
 20
21.25
 30
0.4
 40
4.0
  1
縁　形　計　器
 50
0.0
 41
0.9
 51
0.0
  7
KANJI14
  0
TEXT
  8
0
  6
CONTINUOUS
 62
     2
 10
240.7
 20
26.25
 30
0.3
 40
3.0
  1
端子カバー付　電子式
 50
0.0
 41
0.9
 51
0.0
  7
KANJI1
  0
TEXT
  8
0
  6
CONTINUOUS
 62
     6
 10
234.55
 20
34.35
 30
0.6
 40
6.0
  1
□ＥＦ－１７Ｓ
 50
0.0
 41
0.9
 51
0.0
  7
KANJI15
  0
TEXT
  8
0
  6
CONTINUOUS
 62
     2
 10
199.0
 20
155.15
 30
0.3
 40
3.0
  1
（１８５）
 50
90.0
 41
0.6
 51
0.0
  7
KANJI0
  0
LINE
  8
0
  6
LTYPE2
 62
     2
 10
44.1
 20
91.0
 30
0.0
 11
17.85
 21
91.0
 31
0.0
  0
LINE
  8
0
  6
LTYPE2
 62
     2
 10
172.15
 20
91.0
 30
0.0
 11
52.85
 21
91.0
 31
0.0
  0
ENDSEC
  0
EOF
