  0
SECTION
  2
HEADER
  9
$ACADVER
  1
AC1009
  9
$DWGCODEPAGE
  3
dos932
  9
$EXTMIN
 10
0.0
 20
0.0
 30
0.0
  9
$EXTMAX
 10
297.0
 20
210.0
 30
0.0
  9
$LIMMIN
 10
0.0
 20
0.0
  9
$LIMMAX
 10
297.0
 20
210.0
  9
$LTSCALE
 40
1.0
  9
$PDMODE
 70
     0
  0
ENDSEC
  0
SECTION
  2
TABLES
  0
TABLE
  2
VPORT
 70
     1
  0
VPORT
  2
*ACTIVE
 70
     0
 10
0.0
 20
0.0
 11
1.0
 21
1.0
 12
148.5
 22
105.0
 13
0.0
 23
0.0
 14
10.0
 24
10.0
 15
10.0
 25
10.0
 16
0.0
 26
0.0
 36
1.0
 17
0.0
 27
0.0
 37
0.0
 40
297.0
 41
1.414285714
 42
50.0
 43
0.0
 44
0.0
 50
0.0
 51
0.0
 71
     0
 72
  1000
 73
     1
 74
     3
 75
     0
 76
     0
 77
     0
 78
     0
  0
ENDTAB
  0
TABLE
  2
LTYPE
 70
     4
  0
LTYPE
  2
CONTINUOUS
 70
    64
  3
Solid line
 72
    65
 73
     0
 40
0.0
  0
LTYPE
  2
LTYPE1
 70
    64
  3
CENTER
 72
    65
 73
     4
 40
15.0
 49
10.5
 49
-1.5
 49
1.5
 49
-1.5
  0
LTYPE
  2
LTYPE2
 70
    64
  3
CENTER
 72
    65
 73
     4
 40
8.0
 49
5.6
 49
-0.8
 49
0.8
 49
-0.8
  0
LTYPE
  2
LTYPE3
 70
    64
  3
HIDDEN
 72
    65
 73
     2
 40
2.0
 49
1.2
 49
-0.8
  0
ENDTAB
  0
TABLE
  2
LAYER
 70
   128
  0
LAYER
  2
0
 70
     0
 62
     7
  6
CONTINUOUS
  0
LAYER
  2
2
 70
     0
 62
     7
  6
CONTINUOUS
  0
LAYER
  2
3
 70
     0
 62
     7
  6
CONTINUOUS
  0
LAYER
  2
4
 70
     0
 62
     7
  6
CONTINUOUS
  0
LAYER
  2
5
 70
     0
 62
     7
  6
CONTINUOUS
  0
LAYER
  2
6
 70
     0
 62
     7
  6
CONTINUOUS
  0
LAYER
  2
7
 70
     0
 62
     7
  6
CONTINUOUS
  0
LAYER
  2
8
 70
     0
 62
     7
  6
CONTINUOUS
  0
LAYER
  2
9
 70
     0
 62
     7
  6
CONTINUOUS
  0
LAYER
  2
10
 70
     0
 62
     7
  6
CONTINUOUS
  0
LAYER
  2
11
 70
     0
 62
     7
  6
CONTINUOUS
  0
LAYER
  2
12
 70
     0
 62
     7
  6
CONTINUOUS
  0
LAYER
  2
13
 70
     0
 62
     7
  6
CONTINUOUS
  0
LAYER
  2
14
 70
     0
 62
     7
  6
CONTINUOUS
  0
LAYER
  2
15
 70
     0
 62
     7
  6
CONTINUOUS
  0
LAYER
  2
16
 70
     0
 62
     7
  6
CONTINUOUS
  0
LAYER
  2
17
 70
     0
 62
     7
  6
CONTINUOUS
  0
LAYER
  2
18
 70
     0
 62
     7
  6
CONTINUOUS
  0
LAYER
  2
19
 70
     0
 62
     7
  6
CONTINUOUS
  0
LAYER
  2
20
 70
     0
 62
     7
  6
CONTINUOUS
  0
LAYER
  2
21
 70
     0
 62
     7
  6
CONTINUOUS
  0
LAYER
  2
22
 70
     0
 62
     7
  6
CONTINUOUS
  0
LAYER
  2
23
 70
     0
 62
     7
  6
CONTINUOUS
  0
LAYER
  2
24
 70
     0
 62
     7
  6
CONTINUOUS
  0
LAYER
  2
25
 70
     0
 62
     7
  6
CONTINUOUS
  0
LAYER
  2
26
 70
     0
 62
     7
  6
CONTINUOUS
  0
LAYER
  2
27
 70
     0
 62
     7
  6
CONTINUOUS
  0
LAYER
  2
28
 70
     0
 62
     7
  6
CONTINUOUS
  0
LAYER
  2
29
 70
     0
 62
     7
  6
CONTINUOUS
  0
LAYER
  2
30
 70
     0
 62
     7
  6
CONTINUOUS
  0
LAYER
  2
31
 70
     0
 62
     7
  6
CONTINUOUS
  0
LAYER
  2
32
 70
     0
 62
     7
  6
CONTINUOUS
  0
LAYER
  2
33
 70
     0
 62
     7
  6
CONTINUOUS
  0
LAYER
  2
34
 70
     0
 62
     7
  6
CONTINUOUS
  0
LAYER
  2
35
 70
     0
 62
     7
  6
CONTINUOUS
  0
LAYER
  2
36
 70
     0
 62
     7
  6
CONTINUOUS
  0
LAYER
  2
37
 70
     0
 62
     7
  6
CONTINUOUS
  0
LAYER
  2
38
 70
     0
 62
     7
  6
CONTINUOUS
  0
LAYER
  2
39
 70
     0
 62
     7
  6
CONTINUOUS
  0
LAYER
  2
40
 70
     0
 62
     7
  6
CONTINUOUS
  0
LAYER
  2
41
 70
     0
 62
     7
  6
CONTINUOUS
  0
LAYER
  2
42
 70
     0
 62
     7
  6
CONTINUOUS
  0
LAYER
  2
43
 70
     0
 62
     7
  6
CONTINUOUS
  0
LAYER
  2
44
 70
     0
 62
     7
  6
CONTINUOUS
  0
LAYER
  2
45
 70
     0
 62
     7
  6
CONTINUOUS
  0
LAYER
  2
46
 70
     0
 62
     7
  6
CONTINUOUS
  0
LAYER
  2
47
 70
     0
 62
     7
  6
CONTINUOUS
  0
LAYER
  2
48
 70
     0
 62
     7
  6
CONTINUOUS
  0
LAYER
  2
49
 70
     0
 62
     7
  6
CONTINUOUS
  0
LAYER
  2
50
 70
     0
 62
     7
  6
CONTINUOUS
  0
LAYER
  2
51
 70
     0
 62
     7
  6
CONTINUOUS
  0
LAYER
  2
52
 70
     0
 62
     7
  6
CONTINUOUS
  0
LAYER
  2
53
 70
     0
 62
     7
  6
CONTINUOUS
  0
LAYER
  2
54
 70
     0
 62
     7
  6
CONTINUOUS
  0
LAYER
  2
55
 70
     0
 62
     7
  6
CONTINUOUS
  0
LAYER
  2
56
 70
     0
 62
     7
  6
CONTINUOUS
  0
LAYER
  2
57
 70
     0
 62
     7
  6
CONTINUOUS
  0
LAYER
  2
58
 70
     0
 62
     7
  6
CONTINUOUS
  0
LAYER
  2
59
 70
     0
 62
     7
  6
CONTINUOUS
  0
LAYER
  2
60
 70
     0
 62
     7
  6
CONTINUOUS
  0
LAYER
  2
61
 70
     0
 62
     7
  6
CONTINUOUS
  0
LAYER
  2
62
 70
     0
 62
     7
  6
CONTINUOUS
  0
LAYER
  2
63
 70
     0
 62
     7
  6
CONTINUOUS
  0
LAYER
  2
64
 70
     0
 62
     7
  6
CONTINUOUS
  0
LAYER
  2
65
 70
     0
 62
     7
  6
CONTINUOUS
  0
LAYER
  2
66
 70
     0
 62
     7
  6
CONTINUOUS
  0
LAYER
  2
67
 70
     0
 62
     7
  6
CONTINUOUS
  0
LAYER
  2
68
 70
     0
 62
     7
  6
CONTINUOUS
  0
LAYER
  2
69
 70
     0
 62
     7
  6
CONTINUOUS
  0
LAYER
  2
70
 70
     0
 62
     7
  6
CONTINUOUS
  0
LAYER
  2
71
 70
     0
 62
     7
  6
CONTINUOUS
  0
LAYER
  2
72
 70
     0
 62
     7
  6
CONTINUOUS
  0
LAYER
  2
73
 70
     0
 62
     7
  6
CONTINUOUS
  0
LAYER
  2
74
 70
     0
 62
     7
  6
CONTINUOUS
  0
LAYER
  2
75
 70
     0
 62
     7
  6
CONTINUOUS
  0
LAYER
  2
76
 70
     0
 62
     7
  6
CONTINUOUS
  0
LAYER
  2
77
 70
     0
 62
     7
  6
CONTINUOUS
  0
LAYER
  2
78
 70
     0
 62
     7
  6
CONTINUOUS
  0
LAYER
  2
79
 70
     0
 62
     7
  6
CONTINUOUS
  0
LAYER
  2
80
 70
     0
 62
     7
  6
CONTINUOUS
  0
LAYER
  2
81
 70
     0
 62
     7
  6
CONTINUOUS
  0
LAYER
  2
82
 70
     0
 62
     7
  6
CONTINUOUS
  0
LAYER
  2
83
 70
     0
 62
     7
  6
CONTINUOUS
  0
LAYER
  2
84
 70
     0
 62
     7
  6
CONTINUOUS
  0
LAYER
  2
85
 70
     0
 62
     7
  6
CONTINUOUS
  0
LAYER
  2
86
 70
     0
 62
     7
  6
CONTINUOUS
  0
LAYER
  2
87
 70
     0
 62
     7
  6
CONTINUOUS
  0
LAYER
  2
88
 70
     0
 62
     7
  6
CONTINUOUS
  0
LAYER
  2
89
 70
     0
 62
     7
  6
CONTINUOUS
  0
LAYER
  2
90
 70
     0
 62
     7
  6
CONTINUOUS
  0
LAYER
  2
91
 70
     0
 62
     7
  6
CONTINUOUS
  0
LAYER
  2
92
 70
     0
 62
     7
  6
CONTINUOUS
  0
LAYER
  2
93
 70
     0
 62
     7
  6
CONTINUOUS
  0
LAYER
  2
94
 70
     0
 62
     7
  6
CONTINUOUS
  0
LAYER
  2
95
 70
     0
 62
     7
  6
CONTINUOUS
  0
LAYER
  2
96
 70
     0
 62
     7
  6
CONTINUOUS
  0
LAYER
  2
97
 70
     0
 62
     7
  6
CONTINUOUS
  0
LAYER
  2
98
 70
     0
 62
     7
  6
CONTINUOUS
  0
LAYER
  2
99
 70
     0
 62
     7
  6
CONTINUOUS
  0
LAYER
  2
100
 70
     0
 62
     7
  6
CONTINUOUS
  0
LAYER
  2
101
 70
     0
 62
     7
  6
CONTINUOUS
  0
LAYER
  2
102
 70
     0
 62
     7
  6
CONTINUOUS
  0
LAYER
  2
103
 70
     0
 62
     7
  6
CONTINUOUS
  0
LAYER
  2
104
 70
     0
 62
     7
  6
CONTINUOUS
  0
LAYER
  2
105
 70
     0
 62
     7
  6
CONTINUOUS
  0
LAYER
  2
106
 70
     0
 62
     7
  6
CONTINUOUS
  0
LAYER
  2
107
 70
     0
 62
     7
  6
CONTINUOUS
  0
LAYER
  2
108
 70
     0
 62
     7
  6
CONTINUOUS
  0
LAYER
  2
109
 70
     0
 62
     7
  6
CONTINUOUS
  0
LAYER
  2
110
 70
     0
 62
     7
  6
CONTINUOUS
  0
LAYER
  2
111
 70
     0
 62
     7
  6
CONTINUOUS
  0
LAYER
  2
112
 70
     0
 62
     7
  6
CONTINUOUS
  0
LAYER
  2
113
 70
     0
 62
     7
  6
CONTINUOUS
  0
LAYER
  2
114
 70
     0
 62
     7
  6
CONTINUOUS
  0
LAYER
  2
115
 70
     0
 62
     7
  6
CONTINUOUS
  0
LAYER
  2
116
 70
     0
 62
     7
  6
CONTINUOUS
  0
LAYER
  2
117
 70
     0
 62
     7
  6
CONTINUOUS
  0
LAYER
  2
118
 70
     0
 62
     7
  6
CONTINUOUS
  0
LAYER
  2
119
 70
     0
 62
     7
  6
CONTINUOUS
  0
LAYER
  2
120
 70
     0
 62
     7
  6
CONTINUOUS
  0
LAYER
  2
121
 70
     0
 62
     7
  6
CONTINUOUS
  0
LAYER
  2
122
 70
     0
 62
     7
  6
CONTINUOUS
  0
LAYER
  2
123
 70
     0
 62
     7
  6
CONTINUOUS
  0
LAYER
  2
124
 70
     0
 62
     7
  6
CONTINUOUS
  0
LAYER
  2
125
 70
     0
 62
     7
  6
CONTINUOUS
  0
LAYER
  2
126
 70
     0
 62
     7
  6
CONTINUOUS
  0
LAYER
  2
127
 70
     0
 62
     7
  6
CONTINUOUS
  0
LAYER
  2
128
 70
     0
 62
     7
  6
CONTINUOUS
  0
ENDTAB
  0
TABLE
  2
STYLE
 70
    17
  0
STYLE
  2
STANDARD
 70
     0
 40
0.0
 41
1.0
 50
0.0
 71
     0
 42
0.2
  3
txt.shx
  4
extfont.shx
  0
STYLE
  2
KANJI0
 70
     0
 40
3.0
 41
0.6
 50
0.0
 71
     0
 42
3.0
  3
txt.shx
  4
extfont.shx
  0
STYLE
  2
KANJI1
 70
     0
 40
3.0
 41
0.9
 50
0.0
 71
     0
 42
3.0
  3
txt.shx
  4
extfont.shx
  0
STYLE
  2
KANJI2
 70
     0
 40
2.5
 41
0.9
 50
0.0
 71
     0
 42
2.5
  3
txt.shx
  4
extfont.shx
  0
STYLE
  2
KANJI3
 70
     0
 40
2.0
 41
0.8
 50
0.0
 71
     0
 42
2.0
  3
txt.shx
  4
extfont.shx
  0
STYLE
  2
KANJI4
 70
     0
 40
3.0
 41
0.9
 50
0.0
 71
     0
 42
3.0
  3
txt.shx
  4
extfont.shx
  0
STYLE
  2
KANJI5
 70
     0
 40
3.0
 41
0.5
 50
0.0
 71
     0
 42
3.0
  3
txt.shx
  4
extfont.shx
  0
STYLE
  2
KANJI6
 70
     0
 40
3.0
 41
0.666666667
 50
0.0
 71
     0
 42
3.0
  3
txt.shx
  4
extfont.shx
  0
STYLE
  2
KANJI7
 70
     0
 40
1.5
 41
0.666666667
 50
0.0
 71
     0
 42
1.5
  3
txt.shx
  4
extfont.shx
  0
STYLE
  2
KANJI8
 70
     0
 40
1.0
 41
0.75
 50
0.0
 71
     0
 42
1.0
  3
txt.shx
  4
extfont.shx
  0
STYLE
  2
KANJI9
 70
     4
 40
3.0
 41
0.9
 50
0.0
 71
     0
 42
3.0
  3
txt.shx
  4
extfont.shx
  0
STYLE
  2
KANJI10
 70
     0
 40
1.8
 41
0.6
 50
0.0
 71
     0
 42
1.8
  3
txt.shx
  4
extfont.shx
  0
STYLE
  2
KANJI11
 70
     0
 40
1.5
 41
0.4
 50
0.0
 71
     0
 42
1.5
  3
txt.shx
  4
extfont.shx
  0
STYLE
  2
KANJI12
 70
     0
 40
1.5
 41
0.466666667
 50
0.0
 71
     0
 42
1.5
  3
txt.shx
  4
extfont.shx
  0
STYLE
  2
KANJI13
 70
     0
 40
5.8
 41
0.827586207
 50
0.0
 71
     0
 42
5.8
  3
txt.shx
  4
extfont.shx
  0
STYLE
  2
KANJI14
 70
     0
 40
4.0
 41
0.9
 50
0.0
 71
     0
 42
4.0
  3
txt.shx
  4
extfont.shx
  0
STYLE
  2
KANJI15
 70
     0
 40
6.0
 41
0.9
 50
0.0
 71
     0
 42
6.0
  3
txt.shx
  4
extfont.shx
  0
ENDTAB
  0
TABLE
  2
VIEW
 70
     0
  0
ENDTAB
  0
ENDSEC
  0
SECTION
  2
BLOCKS
  0
ENDSEC
  0
SECTION
  2
ENTITIES
  0
LINE
  8
0
  6
CONTINUOUS
 62
     2
 10
-11.865334795
 20
-5.0
 30
0.0
 11
-11.218287182
 21
-7.414814566
 31
0.0
  0
LINE
  8
0
  6
CONTINUOUS
 62
     2
 10
-11.865334795
 20
-5.0
 30
0.0
 11
-10.097567842
 21
-6.767766953
 31
0.0
  0
LINE
  8
0
  6
CONTINUOUS
 62
     2
 10
-11.865334795
 20
-5.0
 30
0.0
 11
-12.512382407
 21
-2.585185434
 31
0.0
  0
LINE
  8
0
  6
CONTINUOUS
 62
     2
 10
-11.865334795
 20
-5.0
 30
0.0
 11
-13.633101748
 21
-3.232233047
 31
0.0
  0
LINE
  8
0
  6
CONTINUOUS
 62
     2
 10
-7.535207776
 20
-2.5
 30
0.0
 11
-13.597385602
 21
-6.0
 31
0.0
  0
LINE
  8
0
  6
CONTINUOUS
 62
     2
 10
-7.535207776
 20
-2.5
 30
0.0
 11
-13.597385602
 21
-6.0
 31
0.0
  0
TEXT
  8
0
  6
CONTINUOUS
 62
     2
 10
-11.756360199
 20
-7.188749537
 30
0.3
 40
3.0
  1
０゜
 50
120.0
 41
0.6
 51
0.0
  7
KANJI0
  0
LINE
  8
0
  6
CONTINUOUS
 62
     1
 10
21.0
 20
125.0
 30
0.0
 11
19.5
 21
125.0
 31
0.0
  0
ARC
  8
0
  6
CONTINUOUS
 62
     1
 10
19.5
 20
124.5
 30
0.0
 40
0.5
 50
90.0
 51
180.0
  0
LINE
  8
0
  6
CONTINUOUS
 62
     1
 10
19.5
 20
40.0
 30
0.0
 11
21.0
 21
40.0
 31
0.0
  0
LINE
  8
0
  6
CONTINUOUS
 62
     1
 10
19.0
 20
124.5
 30
0.0
 11
19.0
 21
40.5
 31
0.0
  0
ARC
  8
0
  6
CONTINUOUS
 62
     1
 10
19.5
 20
40.5
 30
0.0
 40
0.5
 50
180.0
 51
270.0
  0
LINE
  8
0
  6
CONTINUOUS
 62
     1
 10
21.5
 20
41.0
 30
0.0
 11
40.5
 21
41.0
 31
0.0
  0
LINE
  8
0
  6
CONTINUOUS
 62
     1
 10
40.5
 20
41.0
 30
0.0
 11
40.5
 21
124.0
 31
0.0
  0
LINE
  8
0
  6
CONTINUOUS
 62
     1
 10
40.5
 20
124.0
 30
0.0
 11
21.5
 21
124.0
 31
0.0
  0
LINE
  8
0
  6
CONTINUOUS
 62
     1
 10
21.5
 20
124.0
 30
0.0
 11
21.5
 21
41.0
 31
0.0
  0
LINE
  8
0
  6
CONTINUOUS
 62
     1
 10
22.0
 20
47.5
 30
0.0
 11
40.0
 21
47.5
 31
0.0
  0
LINE
  8
0
  6
CONTINUOUS
 62
     1
 10
40.0
 20
47.5
 30
0.0
 11
40.0
 21
112.5
 31
0.0
  0
LINE
  8
0
  6
CONTINUOUS
 62
     1
 10
40.0
 20
112.5
 30
0.0
 11
22.0
 21
112.5
 31
0.0
  0
LINE
  8
0
  6
CONTINUOUS
 62
     1
 10
22.0
 20
112.5
 30
0.0
 11
22.0
 21
47.5
 31
0.0
  0
LINE
  8
0
  6
CONTINUOUS
 62
     1
 10
22.0
 20
41.5
 30
0.0
 11
40.0
 21
41.5
 31
0.0
  0
LINE
  8
0
  6
CONTINUOUS
 62
     1
 10
40.0
 20
41.5
 30
0.0
 11
40.0
 21
46.0
 31
0.0
  0
LINE
  8
0
  6
CONTINUOUS
 62
     1
 10
40.0
 20
46.0
 30
0.0
 11
22.0
 21
46.0
 31
0.0
  0
LINE
  8
0
  6
CONTINUOUS
 62
     1
 10
22.0
 20
46.0
 30
0.0
 11
22.0
 21
41.5
 31
0.0
  0
LINE
  8
0
  6
CONTINUOUS
 62
     1
 10
22.0
 20
114.0
 30
0.0
 11
40.0
 21
114.0
 31
0.0
  0
LINE
  8
0
  6
CONTINUOUS
 62
     1
 10
40.0
 20
114.0
 30
0.0
 11
40.0
 21
123.5
 31
0.0
  0
LINE
  8
0
  6
CONTINUOUS
 62
     1
 10
40.0
 20
123.5
 30
0.0
 11
22.0
 21
123.5
 31
0.0
  0
LINE
  8
0
  6
CONTINUOUS
 62
     1
 10
22.0
 20
123.5
 30
0.0
 11
22.0
 21
114.0
 31
0.0
  0
LINE
  8
0
  6
CONTINUOUS
 62
     1
 10
22.0
 20
51.5
 30
0.0
 11
40.0
 21
51.5
 31
0.0
  0
LINE
  8
0
  6
CONTINUOUS
 62
     1
 10
23.25
 20
52.75
 30
0.0
 11
38.75
 21
52.75
 31
0.0
  0
LINE
  8
0
  6
CONTINUOUS
 62
     1
 10
38.75
 20
52.75
 30
0.0
 11
38.75
 21
111.25
 31
0.0
  0
LINE
  8
0
  6
CONTINUOUS
 62
     1
 10
38.75
 20
111.25
 30
0.0
 11
23.25
 21
111.25
 31
0.0
  0
LINE
  8
0
  6
CONTINUOUS
 62
     1
 10
23.25
 20
111.25
 30
0.0
 11
23.25
 21
52.75
 31
0.0
  0
LINE
  8
0
  6
CONTINUOUS
 62
     1
 10
23.25
 20
110.25
 30
0.0
 11
38.75
 21
110.25
 31
0.0
  0
LINE
  8
0
  6
CONTINUOUS
 62
     1
 10
23.25
 20
53.75
 30
0.0
 11
38.75
 21
53.75
 31
0.0
  0
LINE
  8
0
  6
CONTINUOUS
 62
     1
 10
29.0
 20
53.75
 30
0.0
 11
29.0
 21
110.25
 31
0.0
  0
POLYLINE
  8
0
  6
CONTINUOUS
 62
     1
 66
     1
 70
     1
  0
VERTEX
  8
0
  6
CONTINUOUS
 62
     1
 10
28.475
 20
49.5
 30
0.0
 42
0.022306592
  0
VERTEX
  8
0
  6
CONTINUOUS
 62
     1
 10
28.471289831
 20
49.583119901
 30
0.0
 42
0.022293235
  0
VERTEX
  8
0
  6
CONTINUOUS
 62
     1
 10
28.460187559
 20
49.66560721
 30
0.0
 42
0.022265065
  0
VERTEX
  8
0
  6
CONTINUOUS
 62
     1
 10
28.441777681
 20
49.746834147
 30
0.0
 42
0.022223045
  0
VERTEX
  8
0
  6
CONTINUOUS
 62
     1
 10
28.416200305
 20
49.826182528
 30
0.0
 42
0.022168599
  0
VERTEX
  8
0
  6
CONTINUOUS
 62
     1
 10
28.383650092
 20
49.903048463
 30
0.0
 42
0.022103553
  0
VERTEX
  8
0
  6
CONTINUOUS
 62
     1
 10
28.344374769
 20
49.976846955
 30
0.0
 42
0.022030052
  0
VERTEX
  8
0
  6
CONTINUOUS
 62
     1
 10
28.298673243
 20
50.047016355
 30
0.0
 42
0.021950477
  0
VERTEX
  8
0
  6
CONTINUOUS
 62
     1
 10
28.246893332
 20
50.113022629
 30
0.0
 42
0.021867356
  0
VERTEX
  8
0
  6
CONTINUOUS
 62
     1
 10
28.189429112
 20
50.174363431
 30
0.0
 42
0.021783272
  0
VERTEX
  8
0
  6
CONTINUOUS
 62
     1
 10
28.126717919
 20
50.230571921
 30
0.0
 42
0.02170078
  0
VERTEX
  8
0
  6
CONTINUOUS
 62
     1
 10
28.059237025
 20
50.281220317
 30
0.0
 42
0.02162233
  0
VERTEX
  8
0
  6
CONTINUOUS
 62
     1
 10
27.9875
 20
50.325923154
 30
0.0
 42
0.021550201
  0
VERTEX
  8
0
  6
CONTINUOUS
 62
     1
 10
27.912052805
 20
50.364340218
 30
0.0
 42
0.021486442
  0
VERTEX
  8
0
  6
CONTINUOUS
 62
     1
 10
27.83346964
 20
50.39617913
 30
0.0
 42
0.021432831
  0
VERTEX
  8
0
  6
CONTINUOUS
 62
     1
 10
27.752348569
 20
50.421197579
 30
0.0
 42
0.021390837
  0
VERTEX
  8
0
  6
CONTINUOUS
 62
     1
 10
27.669306973
 20
50.439205157
 30
0.0
 42
0.021361596
  0
VERTEX
  8
0
  6
CONTINUOUS
 62
     1
 10
27.584976849
 20
50.450064817
 30
0.0
 42
0.02134589
  0
VERTEX
  8
0
  6
CONTINUOUS
 62
     1
 10
27.5
 20
50.453693911
 30
0.0
 42
0.021344135
  0
VERTEX
  8
0
  6
CONTINUOUS
 62
     1
 10
27.415023151
 20
50.450064817
 30
0.0
 42
0.021356378
  0
VERTEX
  8
0
  6
CONTINUOUS
 62
     1
 10
27.330693027
 20
50.439205157
 30
0.0
 42
0.021382295
  0
VERTEX
  8
0
  6
CONTINUOUS
 62
     1
 10
27.247651431
 20
50.421197579
 30
0.0
 42
0.021421193
  0
VERTEX
  8
0
  6
CONTINUOUS
 62
     1
 10
27.16653036
 20
50.39617913
 30
0.0
 42
0.021472024
  0
VERTEX
  8
0
  6
CONTINUOUS
 62
     1
 10
27.087947195
 20
50.364340218
 30
0.0
 42
0.021533402
  0
VERTEX
  8
0
  6
CONTINUOUS
 62
     1
 10
27.0125
 20
50.325923154
 30
0.0
 42
0.021603621
  0
VERTEX
  8
0
  6
CONTINUOUS
 62
     1
 10
26.940762975
 20
50.281220317
 30
0.0
 42
0.021680697
  0
VERTEX
  8
0
  6
CONTINUOUS
 62
     1
 10
26.873282081
 20
50.230571921
 30
0.0
 42
0.021762402
  0
VERTEX
  8
0
  6
CONTINUOUS
 62
     1
 10
26.810570888
 20
50.174363431
 30
0.0
 42
0.021846324
  0
VERTEX
  8
0
  6
CONTINUOUS
 62
     1
 10
26.753106668
 20
50.113022629
 30
0.0
 42
0.021929929
  0
VERTEX
  8
0
  6
CONTINUOUS
 62
     1
 10
26.701326757
 20
50.047016355
 30
0.0
 42
0.022010631
  0
VERTEX
  8
0
  6
CONTINUOUS
 62
     1
 10
26.655625231
 20
49.976846955
 30
0.0
 42
0.022085881
  0
VERTEX
  8
0
  6
CONTINUOUS
 62
     1
 10
26.616349908
 20
49.903048463
 30
0.0
 42
0.022153253
  0
VERTEX
  8
0
  6
CONTINUOUS
 62
     1
 10
26.583799695
 20
49.826182528
 30
0.0
 42
0.022210533
  0
VERTEX
  8
0
  6
CONTINUOUS
 62
     1
 10
26.558222319
 20
49.746834147
 30
0.0
 42
0.02225581
  0
VERTEX
  8
0
  6
CONTINUOUS
 62
     1
 10
26.539812441
 20
49.66560721
 30
0.0
 42
0.022287552
  0
VERTEX
  8
0
  6
CONTINUOUS
 62
     1
 10
26.528710169
 20
49.583119901
 30
0.0
 42
0.022304676
  0
VERTEX
  8
0
  6
CONTINUOUS
 62
     1
 10
26.525
 20
49.5
 30
0.0
 42
0.022306592
  0
VERTEX
  8
0
  6
CONTINUOUS
 62
     1
 10
26.528710169
 20
49.416880099
 30
0.0
 42
0.022293235
  0
VERTEX
  8
0
  6
CONTINUOUS
 62
     1
 10
26.539812441
 20
49.33439279
 30
0.0
 42
0.022265065
  0
VERTEX
  8
0
  6
CONTINUOUS
 62
     1
 10
26.558222319
 20
49.253165853
 30
0.0
 42
0.022223045
  0
VERTEX
  8
0
  6
CONTINUOUS
 62
     1
 10
26.583799695
 20
49.173817472
 30
0.0
 42
0.022168599
  0
VERTEX
  8
0
  6
CONTINUOUS
 62
     1
 10
26.616349908
 20
49.096951537
 30
0.0
 42
0.022103553
  0
VERTEX
  8
0
  6
CONTINUOUS
 62
     1
 10
26.655625231
 20
49.023153045
 30
0.0
 42
0.022030052
  0
VERTEX
  8
0
  6
CONTINUOUS
 62
     1
 10
26.701326757
 20
48.952983645
 30
0.0
 42
0.021950477
  0
VERTEX
  8
0
  6
CONTINUOUS
 62
     1
 10
26.753106668
 20
48.886977371
 30
0.0
 42
0.021867356
  0
VERTEX
  8
0
  6
CONTINUOUS
 62
     1
 10
26.810570888
 20
48.825636569
 30
0.0
 42
0.021783272
  0
VERTEX
  8
0
  6
CONTINUOUS
 62
     1
 10
26.873282081
 20
48.769428079
 30
0.0
 42
0.02170078
  0
VERTEX
  8
0
  6
CONTINUOUS
 62
     1
 10
26.940762975
 20
48.718779683
 30
0.0
 42
0.02162233
  0
VERTEX
  8
0
  6
CONTINUOUS
 62
     1
 10
27.0125
 20
48.674076846
 30
0.0
 42
0.021550201
  0
VERTEX
  8
0
  6
CONTINUOUS
 62
     1
 10
27.087947195
 20
48.635659782
 30
0.0
 42
0.021486442
  0
VERTEX
  8
0
  6
CONTINUOUS
 62
     1
 10
27.16653036
 20
48.60382087
 30
0.0
 42
0.021432831
  0
VERTEX
  8
0
  6
CONTINUOUS
 62
     1
 10
27.247651431
 20
48.578802421
 30
0.0
 42
0.021390837
  0
VERTEX
  8
0
  6
CONTINUOUS
 62
     1
 10
27.330693027
 20
48.560794843
 30
0.0
 42
0.021361596
  0
VERTEX
  8
0
  6
CONTINUOUS
 62
     1
 10
27.415023151
 20
48.549935183
 30
0.0
 42
0.02134589
  0
VERTEX
  8
0
  6
CONTINUOUS
 62
     1
 10
27.5
 20
48.546306089
 30
0.0
 42
0.021344135
  0
VERTEX
  8
0
  6
CONTINUOUS
 62
     1
 10
27.584976849
 20
48.549935183
 30
0.0
 42
0.021356378
  0
VERTEX
  8
0
  6
CONTINUOUS
 62
     1
 10
27.669306973
 20
48.560794843
 30
0.0
 42
0.021382295
  0
VERTEX
  8
0
  6
CONTINUOUS
 62
     1
 10
27.752348569
 20
48.578802421
 30
0.0
 42
0.021421193
  0
VERTEX
  8
0
  6
CONTINUOUS
 62
     1
 10
27.83346964
 20
48.60382087
 30
0.0
 42
0.021472024
  0
VERTEX
  8
0
  6
CONTINUOUS
 62
     1
 10
27.912052805
 20
48.635659782
 30
0.0
 42
0.021533402
  0
VERTEX
  8
0
  6
CONTINUOUS
 62
     1
 10
27.9875
 20
48.674076846
 30
0.0
 42
0.021603621
  0
VERTEX
  8
0
  6
CONTINUOUS
 62
     1
 10
28.059237025
 20
48.718779683
 30
0.0
 42
0.021680697
  0
VERTEX
  8
0
  6
CONTINUOUS
 62
     1
 10
28.126717919
 20
48.769428079
 30
0.0
 42
0.021762402
  0
VERTEX
  8
0
  6
CONTINUOUS
 62
     1
 10
28.189429112
 20
48.825636569
 30
0.0
 42
0.021846324
  0
VERTEX
  8
0
  6
CONTINUOUS
 62
     1
 10
28.246893332
 20
48.886977371
 30
0.0
 42
0.021929929
  0
VERTEX
  8
0
  6
CONTINUOUS
 62
     1
 10
28.298673243
 20
48.952983645
 30
0.0
 42
0.022010631
  0
VERTEX
  8
0
  6
CONTINUOUS
 62
     1
 10
28.344374769
 20
49.023153045
 30
0.0
 42
0.022085881
  0
VERTEX
  8
0
  6
CONTINUOUS
 62
     1
 10
28.383650092
 20
49.096951537
 30
0.0
 42
0.022153253
  0
VERTEX
  8
0
  6
CONTINUOUS
 62
     1
 10
28.416200305
 20
49.173817472
 30
0.0
 42
0.022210533
  0
VERTEX
  8
0
  6
CONTINUOUS
 62
     1
 10
28.441777681
 20
49.253165853
 30
0.0
 42
0.02225581
  0
VERTEX
  8
0
  6
CONTINUOUS
 62
     1
 10
28.460187559
 20
49.33439279
 30
0.0
 42
0.022287552
  0
VERTEX
  8
0
  6
CONTINUOUS
 62
     1
 10
28.471289831
 20
49.416880099
 30
0.0
 42
0.022304676
  0
SEQEND
  8
0
  6
CONTINUOUS
 62
     1
  0
LINE
  8
0
  6
CONTINUOUS
 62
     1
 10
27.3
 20
50.433413717
 30
0.0
 11
27.3
 21
48.566586283
 31
0.0
  0
LINE
  8
0
  6
CONTINUOUS
 62
     1
 10
27.7
 20
48.566586283
 30
0.0
 11
27.7
 21
50.433413717
 31
0.0
  0
ARC
  8
0
  6
CONTINUOUS
 62
     1
 10
41.0
 20
124.5
 30
0.0
 40
0.5
 50
0.0
 51
90.0
  0
LINE
  8
0
  6
CONTINUOUS
 62
     1
 10
41.0
 20
125.0
 30
0.0
 11
21.0
 21
125.0
 31
0.0
  0
ARC
  8
0
  6
CONTINUOUS
 62
     1
 10
21.0
 20
124.5
 30
0.0
 40
0.5
 50
90.0
 51
180.0
  0
LINE
  8
0
  6
CONTINUOUS
 62
     1
 10
20.5
 20
124.5
 30
0.0
 11
20.5
 21
40.5
 31
0.0
  0
ARC
  8
0
  6
CONTINUOUS
 62
     1
 10
21.0
 20
40.5
 30
0.0
 40
0.5
 50
180.0
 51
270.0
  0
LINE
  8
0
  6
CONTINUOUS
 62
     1
 10
21.0
 20
40.0
 30
0.0
 11
41.0
 21
40.0
 31
0.0
  0
LINE
  8
0
  6
CONTINUOUS
 62
     1
 10
41.5
 20
40.5
 30
0.0
 11
41.5
 21
124.5
 31
0.0
  0
ARC
  8
0
  6
CONTINUOUS
 62
     1
 10
41.0
 20
40.5
 30
0.0
 40
0.5
 50
270.0
 51
0.0
  0
LINE
  8
0
  6
CONTINUOUS
 62
     1
 10
25.5
 20
57.5
 30
0.0
 11
25.5
 21
110.25
 31
0.0
  0
LINE
  8
0
  6
CONTINUOUS
 62
     1
 10
25.5
 20
53.75
 30
0.0
 11
25.5
 21
55.5
 31
0.0
  0
LINE
  8
0
  6
CONTINUOUS
 62
     2
 10
15.5
 20
41.5
 30
0.0
 11
14.852952387
 21
39.085185434
 31
0.0
  0
LINE
  8
0
  6
CONTINUOUS
 62
     2
 10
15.5
 20
41.5
 30
0.0
 11
16.147047613
 21
39.085185434
 31
0.0
  0
LINE
  8
0
  6
CONTINUOUS
 62
     2
 10
15.5
 20
36.5
 30
0.0
 11
15.5
 21
51.0
 31
0.0
  0
LINE
  8
0
  6
CONTINUOUS
 62
     2
 10
15.5
 20
46.0
 30
0.0
 11
16.147047613
 21
48.414814566
 31
0.0
  0
LINE
  8
0
  6
CONTINUOUS
 62
     2
 10
15.5
 20
46.0
 30
0.0
 11
14.852952387
 21
48.414814566
 31
0.0
  0
TEXT
  8
0
  6
CONTINUOUS
 62
     2
 10
14.5
 20
42.85
 30
0.3
 40
3.0
  1
９
 50
90.0
 41
0.6
 51
0.0
  7
KANJI0
  0
LINE
  8
0
  6
CONTINUOUS
 62
     2
 10
15.5
 20
114.0
 30
0.0
 11
16.147047613
 21
116.414814566
 31
0.0
  0
LINE
  8
0
  6
CONTINUOUS
 62
     2
 10
15.5
 20
114.0
 30
0.0
 11
14.852952387
 21
116.414814566
 31
0.0
  0
LINE
  8
0
  6
CONTINUOUS
 62
     2
 10
15.5
 20
114.0
 30
0.0
 11
15.5
 21
123.5
 31
0.0
  0
LINE
  8
0
  6
CONTINUOUS
 62
     2
 10
15.5
 20
123.5
 30
0.0
 11
14.852952387
 21
121.085185434
 31
0.0
  0
LINE
  8
0
  6
CONTINUOUS
 62
     2
 10
15.5
 20
123.5
 30
0.0
 11
16.147047613
 21
121.085185434
 31
0.0
  0
TEXT
  8
0
  6
CONTINUOUS
 62
     2
 10
14.5
 20
116.8
 30
0.3
 40
3.0
  1
１９
 50
90.0
 41
0.6
 51
0.0
  7
KANJI0
  0
LINE
  8
0
  6
CONTINUOUS
 62
     2
 10
21.0
 20
123.5
 30
0.0
 11
13.5
 21
123.5
 31
0.0
  0
LINE
  8
0
  6
CONTINUOUS
 62
     2
 10
21.0
 20
114.0
 30
0.0
 11
13.5
 21
114.0
 31
0.0
  0
LINE
  8
0
  6
CONTINUOUS
 62
     2
 10
21.0
 20
41.5
 30
0.0
 11
13.5
 21
41.5
 31
0.0
  0
LINE
  8
0
  6
CONTINUOUS
 62
     2
 10
21.0
 20
46.0
 30
0.0
 11
13.5
 21
46.0
 31
0.0
  0
LINE
  8
0
  6
CONTINUOUS
 62
     2
 10
19.0
 20
125.5
 30
0.0
 11
19.0
 21
131.0
 31
0.0
  0
LINE
  8
0
  6
CONTINUOUS
 62
     2
 10
19.0
 20
129.0
 30
0.0
 11
16.585185434
 21
129.647047613
 31
0.0
  0
LINE
  8
0
  6
CONTINUOUS
 62
     2
 10
19.0
 20
129.0
 30
0.0
 11
16.585185434
 21
128.352952387
 31
0.0
  0
LINE
  8
0
  6
CONTINUOUS
 62
     2
 10
20.5
 20
126.0
 30
0.0
 11
20.5
 21
131.0
 31
0.0
  0
TEXT
  8
0
  6
CONTINUOUS
 62
     2
 10
18.85
 20
130.0
 30
0.3
 40
3.0
  1
３
 50
0.0
 41
0.6
 51
0.0
  7
KANJI0
  0
LINE
  8
0
  6
CONTINUOUS
 62
     2
 10
20.5
 20
129.0
 30
0.0
 11
22.914814566
 21
128.352952387
 31
0.0
  0
LINE
  8
0
  6
CONTINUOUS
 62
     2
 10
20.5
 20
129.0
 30
0.0
 11
22.914814566
 21
129.647047613
 31
0.0
  0
LINE
  8
0
  6
CONTINUOUS
 62
     2
 10
41.5
 20
129.0
 30
0.0
 11
39.085185434
 21
129.647047613
 31
0.0
  0
LINE
  8
0
  6
CONTINUOUS
 62
     2
 10
41.5
 20
129.0
 30
0.0
 11
39.085185434
 21
128.352952387
 31
0.0
  0
LINE
  8
0
  6
CONTINUOUS
 62
     2
 10
41.5
 20
126.0
 30
0.0
 11
41.5
 21
131.0
 31
0.0
  0
TEXT
  8
0
  6
CONTINUOUS
 62
     2
 10
29.05
 20
130.0
 30
0.3
 40
3.0
  1
４２
 50
0.0
 41
0.6
 51
0.0
  7
KANJI0
  0
LINE
  8
0
  6
CONTINUOUS
 62
     2
 10
14.585185434
 20
129.0
 30
0.0
 11
41.5
 21
129.0
 31
0.0
  0
LINE
  8
0
  6
CONTINUOUS
 62
     2
 10
22.0
 20
35.0
 30
0.0
 11
24.414814566
 21
34.352952387
 31
0.0
  0
LINE
  8
0
  6
CONTINUOUS
 62
     2
 10
22.0
 20
35.0
 30
0.0
 11
24.414814566
 21
35.647047613
 31
0.0
  0
LINE
  8
0
  6
CONTINUOUS
 62
     2
 10
22.0
 20
35.0
 30
0.0
 11
40.0
 21
35.0
 31
0.0
  0
LINE
  8
0
  6
CONTINUOUS
 62
     2
 10
40.0
 20
35.0
 30
0.0
 11
37.585185434
 21
35.647047613
 31
0.0
  0
LINE
  8
0
  6
CONTINUOUS
 62
     2
 10
40.0
 20
35.0
 30
0.0
 11
37.585185434
 21
34.352952387
 31
0.0
  0
TEXT
  8
0
  6
CONTINUOUS
 62
     2
 10
29.05
 20
36.0
 30
0.3
 40
3.0
  1
３６
 50
0.0
 41
0.6
 51
0.0
  7
KANJI0
  0
LINE
  8
0
  6
CONTINUOUS
 62
     2
 10
40.0
 20
40.5
 30
0.0
 11
40.0
 21
33.0
 31
0.0
  0
LINE
  8
0
  6
CONTINUOUS
 62
     2
 10
22.0
 20
40.5
 30
0.0
 11
22.0
 21
33.0
 31
0.0
  0
TEXT
  8
0
  6
CONTINUOUS
 62
     2
 10
24.45
 20
42.5
 30
0.3
 40
3.0
  1
（ＴＡＧ板）
 50
0.0
 41
0.9
 51
0.0
  7
KANJI1
  0
LINE
  8
0
  6
CONTINUOUS
 62
     2
 10
24.55
 20
55.5
 30
0.0
 11
24.55
 21
57.5
 31
0.0
  0
LINE
  8
0
  6
CONTINUOUS
 62
     2
 10
25.5
 20
55.5
 30
0.0
 11
24.55
 21
55.5
 31
0.0
  0
LINE
  8
0
  6
CONTINUOUS
 62
     2
 10
24.55
 20
57.5
 30
0.0
 11
25.5
 21
57.5
 31
0.0
  0
LINE
  8
0
  6
CONTINUOUS
 62
     2
 10
28.3
 20
56.4
 30
0.0
 11
26.4
 21
56.4
 31
0.0
  0
LINE
  8
0
  6
CONTINUOUS
 62
     2
 10
26.4
 20
56.4
 30
0.0
 11
25.5
 21
55.5
 31
0.0
  0
LINE
  8
0
  6
CONTINUOUS
 62
     2
 10
26.4
 20
56.6
 30
0.0
 11
25.5
 21
57.5
 31
0.0
  0
LINE
  8
0
  6
CONTINUOUS
 62
     2
 10
28.3
 20
56.6
 30
0.0
 11
26.4
 21
56.6
 31
0.0
  0
LINE
  8
0
  6
CONTINUOUS
 62
     2
 10
28.3
 20
56.6
 30
0.0
 11
28.3
 21
56.4
 31
0.0
  0
LINE
  8
0
  6
CONTINUOUS
 62
     2
 10
24.55
 20
56.609549882
 30
0.0
 11
23.902952387
 21
59.024364448
 31
0.0
  0
LINE
  8
0
  6
CONTINUOUS
 62
     2
 10
24.55
 20
56.609549882
 30
0.0
 11
22.782233047
 21
58.377316835
 31
0.0
  0
LINE
  8
0
  6
CONTINUOUS
 62
     2
 10
24.55
 20
56.609549882
 30
0.0
 11
17.5
 21
68.820508076
 31
0.0
  0
LINE
  8
0
  6
CONTINUOUS
 62
     2
 10
17.5
 20
68.820508076
 30
0.0
 11
11.8
 21
68.820508076
 31
0.0
  0
TEXT
  8
0
  6
CONTINUOUS
 62
     2
 10
11.8
 20
69.820508076
 30
0.3
 40
3.0
  1
指針
 50
0.0
 41
0.9
 51
0.0
  7
KANJI1
  0
TEXT
  8
0
  6
CONTINUOUS
 62
     2
 10
23.6
 20
117.4
 30
0.3
 40
3.0
  1
（名称板）
 50
0.0
 41
0.9
 51
0.0
  7
KANJI1
  0
LINE
  8
0
  6
CONTINUOUS
 62
     1
 10
160.0
 20
47.5
 30
0.0
 11
160.0
 21
112.5
 31
0.0
  0
POINT
  8
0
  6
CONTINUOUS
 62
     1
 10
78.0
 20
53.0
 30
0.0
  0
LINE
  8
0
  6
CONTINUOUS
 62
     1
 10
60.5
 20
40.0
 30
0.0
 11
65.0
 21
40.0
 31
0.0
  0
LINE
  8
0
  6
CONTINUOUS
 62
     1
 10
65.0
 20
40.0
 30
0.0
 11
65.0
 21
125.0
 31
0.0
  0
LINE
  8
0
  6
CONTINUOUS
 62
     1
 10
65.0
 20
125.0
 30
0.0
 11
60.5
 21
125.0
 31
0.0
  0
LINE
  8
0
  6
CONTINUOUS
 62
     1
 10
60.5
 20
125.0
 30
0.0
 11
60.5
 21
40.0
 31
0.0
  0
LINE
  8
0
  6
CONTINUOUS
 62
     1
 10
78.0
 20
114.5
 30
0.0
 11
78.0
 21
45.5
 31
0.0
  0
LINE
  8
0
  6
CONTINUOUS
 62
     1
 10
78.0
 20
45.5
 30
0.0
 11
74.5
 21
45.5
 31
0.0
  0
LINE
  8
0
  6
CONTINUOUS
 62
     1
 10
74.5
 20
45.5
 30
0.0
 11
74.5
 21
41.75
 31
0.0
  0
LINE
  8
0
  6
CONTINUOUS
 62
     1
 10
74.5
 20
41.75
 30
0.0
 11
65.0
 21
41.75
 31
0.0
  0
LINE
  8
0
  6
CONTINUOUS
 62
     1
 10
78.0
 20
114.5
 30
0.0
 11
74.5
 21
114.5
 31
0.0
  0
LINE
  8
0
  6
CONTINUOUS
 62
     1
 10
74.5
 20
114.5
 30
0.0
 11
74.5
 21
123.25
 31
0.0
  0
LINE
  8
0
  6
CONTINUOUS
 62
     1
 10
74.5
 20
123.25
 30
0.0
 11
65.0
 21
123.25
 31
0.0
  0
LINE
  8
0
  6
CONTINUOUS
 62
     1
 10
60.156372261
 20
47.5
 30
0.0
 11
60.5
 21
47.5
 31
0.0
  0
LINE
  8
0
  6
CONTINUOUS
 62
     1
 10
60.156372261
 20
112.5
 30
0.0
 11
60.5
 21
112.5
 31
0.0
  0
ARC
  8
0
  6
CONTINUOUS
 62
     1
 10
160.0
 20
80.0
 30
0.0
 40
105.0
 50
161.969464607
 51
198.030535393
  0
LINE
  8
0
  6
CONTINUOUS
 62
     1
 10
69.7
 20
123.25
 30
0.0
 11
69.7
 21
128.25
 31
0.0
  0
LINE
  8
0
  6
CONTINUOUS
 62
     1
 10
69.7
 20
128.25
 30
0.0
 11
70.5
 21
128.25
 31
0.0
  0
LINE
  8
0
  6
CONTINUOUS
 62
     1
 10
70.5
 20
128.25
 30
0.0
 11
70.5
 21
123.25
 31
0.0
  0
LINE
  8
0
  6
CONTINUOUS
 62
     1
 10
70.5
 20
128.25
 30
0.0
 11
71.3
 21
128.25
 31
0.0
  0
LINE
  8
0
  6
CONTINUOUS
 62
     1
 10
71.3
 20
128.25
 30
0.0
 11
71.3
 21
124.05
 31
0.0
  0
LINE
  8
0
  6
CONTINUOUS
 62
     1
 10
71.3
 20
124.05
 30
0.0
 11
148.9
 21
124.05
 31
0.0
  0
LINE
  8
0
  6
CONTINUOUS
 62
     1
 10
148.9
 20
124.05
 30
0.0
 11
148.9
 21
129.05
 31
0.0
  0
LINE
  8
0
  6
CONTINUOUS
 62
     1
 10
148.9
 20
129.05
 30
0.0
 11
149.7
 21
129.05
 31
0.0
  0
LINE
  8
0
  6
CONTINUOUS
 62
     1
 10
149.7
 20
129.05
 30
0.0
 11
149.7
 21
123.25
 31
0.0
  0
LINE
  8
0
  6
CONTINUOUS
 62
     1
 10
149.7
 20
123.25
 30
0.0
 11
70.5
 21
123.25
 31
0.0
  0
LINE
  8
0
  6
CONTINUOUS
 62
     1
 10
71.3
 20
127.4
 30
0.0
 11
148.9
 21
127.4
 31
0.0
  0
LINE
  8
0
  6
CONTINUOUS
 62
     1
 10
71.3
 20
124.9
 30
0.0
 11
148.9
 21
124.9
 31
0.0
  0
LINE
  8
0
  6
CONTINUOUS
 62
     1
 10
78.0
 20
111.875
 30
0.0
 11
159.35
 21
111.875
 31
0.0
  0
LINE
  8
0
  6
CONTINUOUS
 62
     1
 10
159.35
 20
111.875
 30
0.0
 11
159.35
 21
48.125
 31
0.0
  0
LINE
  8
0
  6
CONTINUOUS
 62
     1
 10
159.35
 20
48.125
 30
0.0
 11
78.0
 21
48.125
 31
0.0
  0
LINE
  8
0
  6
CONTINUOUS
 62
     1
 10
78.0
 20
47.5
 30
0.0
 11
160.0
 21
47.5
 31
0.0
  0
LINE
  8
0
  6
CONTINUOUS
 62
     1
 10
160.0
 20
112.5
 30
0.0
 11
78.0
 21
112.5
 31
0.0
  0
LINE
  8
0
  6
CONTINUOUS
 62
     1
 10
69.7
 20
41.75
 30
0.0
 11
69.7
 21
36.75
 31
0.0
  0
LINE
  8
0
  6
CONTINUOUS
 62
     1
 10
69.7
 20
36.75
 30
0.0
 11
70.5
 21
36.75
 31
0.0
  0
LINE
  8
0
  6
CONTINUOUS
 62
     1
 10
70.5
 20
36.75
 30
0.0
 11
70.5
 21
41.75
 31
0.0
  0
LINE
  8
0
  6
CONTINUOUS
 62
     1
 10
70.5
 20
36.75
 30
0.0
 11
71.3
 21
36.75
 31
0.0
  0
LINE
  8
0
  6
CONTINUOUS
 62
     1
 10
71.3
 20
36.75
 30
0.0
 11
71.3
 21
40.95
 31
0.0
  0
LINE
  8
0
  6
CONTINUOUS
 62
     1
 10
71.3
 20
40.95
 30
0.0
 11
148.9
 21
40.95
 31
0.0
  0
LINE
  8
0
  6
CONTINUOUS
 62
     1
 10
148.9
 20
40.95
 30
0.0
 11
148.9
 21
35.95
 31
0.0
  0
LINE
  8
0
  6
CONTINUOUS
 62
     1
 10
148.9
 20
35.95
 30
0.0
 11
149.7
 21
35.95
 31
0.0
  0
LINE
  8
0
  6
CONTINUOUS
 62
     1
 10
149.7
 20
35.95
 30
0.0
 11
149.7
 21
41.75
 31
0.0
  0
LINE
  8
0
  6
CONTINUOUS
 62
     1
 10
149.7
 20
41.75
 30
0.0
 11
70.5
 21
41.75
 31
0.0
  0
LINE
  8
0
  6
CONTINUOUS
 62
     1
 10
71.3
 20
37.6
 30
0.0
 11
148.9
 21
37.6
 31
0.0
  0
LINE
  8
0
  6
CONTINUOUS
 62
     1
 10
71.3
 20
40.1
 30
0.0
 11
148.9
 21
40.1
 31
0.0
  0
LINE
  8
0
  6
CONTINUOUS
 62
     1
 10
68.0
 20
125.7
 30
0.0
 11
68.0
 21
126.8
 31
0.0
  0
LINE
  8
0
  6
CONTINUOUS
 62
     1
 10
68.0
 20
39.3
 30
0.0
 11
68.0
 21
38.2
 31
0.0
  0
LINE
  8
0
  6
CONTINUOUS
 62
     1
 10
68.0
 20
130.0
 30
0.0
 11
68.0
 21
123.75
 31
0.0
  0
LINE
  8
0
  6
CONTINUOUS
 62
     1
 10
68.0
 20
35.0
 30
0.0
 11
68.0
 21
41.25
 31
0.0
  0
LINE
  8
0
  6
CONTINUOUS
 62
     1
 10
68.0
 20
123.75
 30
0.0
 11
65.5
 21
123.75
 31
0.0
  0
LINE
  8
0
  6
CONTINUOUS
 62
     1
 10
68.0
 20
41.25
 30
0.0
 11
65.5
 21
41.25
 31
0.0
  0
POINT
  8
0
  6
CONTINUOUS
 62
     1
 10
68.0
 20
127.05
 30
0.0
  0
LINE
  8
0
  6
CONTINUOUS
 62
     1
 10
68.25
 20
127.3
 30
0.0
 11
69.7
 21
127.3
 31
0.0
  0
LINE
  8
0
  6
CONTINUOUS
 62
     1
 10
68.25
 20
127.3
 30
0.0
 11
68.0
 21
127.05
 31
0.0
  0
POINT
  8
0
  6
CONTINUOUS
 62
     1
 10
68.0
 20
125.05
 30
0.0
  0
LINE
  8
0
  6
CONTINUOUS
 62
     1
 10
68.25
 20
124.8
 30
0.0
 11
69.7
 21
124.8
 31
0.0
  0
LINE
  8
0
  6
CONTINUOUS
 62
     1
 10
68.0
 20
125.05
 30
0.0
 11
68.0
 21
127.05
 31
0.0
  0
LINE
  8
0
  6
CONTINUOUS
 62
     1
 10
68.25
 20
124.8
 30
0.0
 11
68.0
 21
125.05
 31
0.0
  0
LINE
  8
0
  6
CONTINUOUS
 62
     1
 10
65.5
 20
41.25
 30
0.0
 11
65.5
 21
34.5
 31
0.0
  0
LINE
  8
0
  6
CONTINUOUS
 62
     1
 10
68.0
 20
38.4
 30
0.0
 11
68.0
 21
39.5
 31
0.0
  0
POINT
  8
0
  6
CONTINUOUS
 62
     1
 10
68.0
 20
39.75
 30
0.0
  0
LINE
  8
0
  6
CONTINUOUS
 62
     1
 10
68.25
 20
40.0
 30
0.0
 11
69.7
 21
40.0
 31
0.0
  0
LINE
  8
0
  6
CONTINUOUS
 62
     1
 10
68.25
 20
40.0
 30
0.0
 11
68.0
 21
39.75
 31
0.0
  0
POINT
  8
0
  6
CONTINUOUS
 62
     1
 10
68.0
 20
37.75
 30
0.0
  0
LINE
  8
0
  6
CONTINUOUS
 62
     1
 10
68.25
 20
37.5
 30
0.0
 11
69.7
 21
37.5
 31
0.0
  0
LINE
  8
0
  6
CONTINUOUS
 62
     1
 10
68.0
 20
37.75
 30
0.0
 11
68.0
 21
39.75
 31
0.0
  0
LINE
  8
0
  6
CONTINUOUS
 62
     1
 10
68.25
 20
37.5
 30
0.0
 11
68.0
 21
37.75
 31
0.0
  0
LINE
  8
0
  6
CONTINUOUS
 62
     1
 10
65.5
 20
34.5
 30
0.0
 11
65.8
 21
34.9
 31
0.0
  0
LINE
  8
0
  6
CONTINUOUS
 62
     1
 10
65.8
 20
34.9
 30
0.0
 11
66.1
 21
35.1
 31
0.0
  0
LINE
  8
0
  6
CONTINUOUS
 62
     1
 10
66.1
 20
35.1
 30
0.0
 11
66.6
 21
34.9
 31
0.0
  0
LINE
  8
0
  6
CONTINUOUS
 62
     1
 10
66.6
 20
34.9
 30
0.0
 11
66.9
 21
34.7
 31
0.0
  0
LINE
  8
0
  6
CONTINUOUS
 62
     1
 10
66.9
 20
34.7
 30
0.0
 11
67.1
 21
35.0
 31
0.0
  0
LINE
  8
0
  6
CONTINUOUS
 62
     1
 10
67.1
 20
35.0
 30
0.0
 11
67.3
 21
35.2
 31
0.0
  0
LINE
  8
0
  6
CONTINUOUS
 62
     1
 10
67.3
 20
35.2
 30
0.0
 11
67.6
 21
34.9
 31
0.0
  0
LINE
  8
0
  6
CONTINUOUS
 62
     1
 10
67.6
 20
34.9
 30
0.0
 11
68.0
 21
35.0
 31
0.0
  0
LINE
  8
0
  6
CONTINUOUS
 62
     1
 10
65.5
 20
123.75
 30
0.0
 11
65.5
 21
130.5
 31
0.0
  0
LINE
  8
0
  6
CONTINUOUS
 62
     1
 10
68.0
 20
130.0
 30
0.0
 11
67.84375
 21
129.9
 31
0.0
  0
LINE
  8
0
  6
CONTINUOUS
 62
     1
 10
67.84375
 20
129.9
 30
0.0
 11
67.7
 21
129.8
 31
0.0
  0
LINE
  8
0
  6
CONTINUOUS
 62
     1
 10
67.7
 20
129.8
 30
0.0
 11
67.59375
 21
129.69375
 31
0.0
  0
LINE
  8
0
  6
CONTINUOUS
 62
     1
 10
67.59375
 20
129.69375
 30
0.0
 11
67.5
 21
129.6
 31
0.0
  0
LINE
  8
0
  6
CONTINUOUS
 62
     1
 10
67.5
 20
129.6
 30
0.0
 11
67.40625
 21
129.525
 31
0.0
  0
LINE
  8
0
  6
CONTINUOUS
 62
     1
 10
67.40625
 20
129.525
 30
0.0
 11
67.3
 21
129.5
 31
0.0
  0
LINE
  8
0
  6
CONTINUOUS
 62
     1
 10
67.3
 20
129.5
 30
0.0
 11
67.15625
 21
129.58125
 31
0.0
  0
LINE
  8
0
  6
CONTINUOUS
 62
     1
 10
67.15625
 20
129.58125
 30
0.0
 11
67.0
 21
129.7
 31
0.0
  0
LINE
  8
0
  6
CONTINUOUS
 62
     1
 10
67.0
 20
129.7
 30
0.0
 11
66.8375
 21
129.8
 31
0.0
  0
LINE
  8
0
  6
CONTINUOUS
 62
     1
 10
66.8375
 20
129.8
 30
0.0
 11
66.7
 21
129.9
 31
0.0
  0
LINE
  8
0
  6
CONTINUOUS
 62
     1
 10
66.7
 20
129.9
 30
0.0
 11
66.65625
 21
130.025
 31
0.0
  0
LINE
  8
0
  6
CONTINUOUS
 62
     1
 10
66.65625
 20
130.025
 30
0.0
 11
66.6
 21
130.1
 31
0.0
  0
LINE
  8
0
  6
CONTINUOUS
 62
     1
 10
66.6
 20
130.1
 30
0.0
 11
66.4
 21
130.01875
 31
0.0
  0
LINE
  8
0
  6
CONTINUOUS
 62
     1
 10
66.4
 20
130.01875
 30
0.0
 11
66.2
 21
129.9
 31
0.0
  0
LINE
  8
0
  6
CONTINUOUS
 62
     1
 10
66.2
 20
129.9
 30
0.0
 11
66.1375
 21
129.8375
 31
0.0
  0
LINE
  8
0
  6
CONTINUOUS
 62
     1
 10
66.1375
 20
129.8375
 30
0.0
 11
66.1
 21
129.8
 31
0.0
  0
LINE
  8
0
  6
CONTINUOUS
 62
     1
 10
66.1
 20
129.8
 30
0.0
 11
66.00625
 21
129.7625
 31
0.0
  0
LINE
  8
0
  6
CONTINUOUS
 62
     1
 10
66.00625
 20
129.7625
 30
0.0
 11
65.9
 21
129.8
 31
0.0
  0
LINE
  8
0
  6
CONTINUOUS
 62
     1
 10
65.9
 20
129.8
 30
0.0
 11
65.8
 21
130.0375
 31
0.0
  0
LINE
  8
0
  6
CONTINUOUS
 62
     1
 10
65.8
 20
130.0375
 30
0.0
 11
65.7
 21
130.3
 31
0.0
  0
LINE
  8
0
  6
CONTINUOUS
 62
     1
 10
65.7
 20
130.3
 30
0.0
 11
65.6
 21
130.41875
 31
0.0
  0
LINE
  8
0
  6
CONTINUOUS
 62
     1
 10
65.6
 20
130.41875
 30
0.0
 11
65.5
 21
130.5
 31
0.0
  0
LINE
  8
0
  6
CONTINUOUS
 62
     2
 10
59.924995005
 20
48.219607063
 30
0.0
 11
62.422385549
 21
48.333801946
 31
0.0
  0
LINE
  8
0
  6
CONTINUOUS
 62
     2
 10
59.924995005
 20
48.219607063
 30
0.0
 11
62.030701218
 21
49.567198004
 31
0.0
  0
LINE
  8
0
  6
CONTINUOUS
 62
     2
 10
59.924995005
 20
48.219607063
 30
0.0
 11
160.0
 21
80.0
 31
0.0
  0
LINE
  8
0
  6
CONTINUOUS
 62
     2
 10
65.0
 20
126.0
 30
0.0
 11
65.0
 21
136.0
 31
0.0
  0
LINE
  8
0
  6
CONTINUOUS
 62
     2
 10
65.0
 20
134.0
 30
0.0
 11
62.585185434
 21
134.647047613
 31
0.0
  0
LINE
  8
0
  6
CONTINUOUS
 62
     2
 10
65.0
 20
134.0
 30
0.0
 11
62.585185434
 21
133.352952387
 31
0.0
  0
LINE
  8
0
  6
CONTINUOUS
 62
     2
 10
65.0
 20
134.0
 30
0.0
 11
55.0
 21
134.0
 31
0.0
  0
LINE
  8
0
  6
CONTINUOUS
 62
     2
 10
55.0
 20
134.0
 30
0.0
 11
57.414814566
 21
133.352952387
 31
0.0
  0
LINE
  8
0
  6
CONTINUOUS
 62
     2
 10
55.0
 20
134.0
 30
0.0
 11
57.414814566
 21
134.647047613
 31
0.0
  0
LINE
  8
0
  6
CONTINUOUS
 62
     2
 10
55.0
 20
89.0
 30
0.0
 11
55.0
 21
136.0
 31
0.0
  0
TEXT
  8
0
  6
CONTINUOUS
 62
     2
 10
58.05
 20
135.0
 30
0.3
 40
3.0
  1
２０
 50
0.0
 41
0.6
 51
0.0
  7
KANJI0
  0
LINE
  8
0
  6
CONTINUOUS
 62
     2
 10
65.0
 20
134.0
 30
0.0
 11
67.414814566
 21
133.352952387
 31
0.0
  0
LINE
  8
0
  6
CONTINUOUS
 62
     2
 10
65.0
 20
134.0
 30
0.0
 11
67.414814566
 21
134.647047613
 31
0.0
  0
LINE
  8
0
  6
CONTINUOUS
 62
     2
 10
65.0
 20
134.0
 30
0.0
 11
160.0
 21
134.0
 31
0.0
  0
LINE
  8
0
  6
CONTINUOUS
 62
     2
 10
160.0
 20
134.0
 30
0.0
 11
157.585185434
 21
134.647047613
 31
0.0
  0
LINE
  8
0
  6
CONTINUOUS
 62
     2
 10
160.0
 20
134.0
 30
0.0
 11
157.585185434
 21
133.352952387
 31
0.0
  0
LINE
  8
0
  6
CONTINUOUS
 62
     2
 10
160.0
 20
113.5
 30
0.0
 11
160.0
 21
136.0
 31
0.0
  0
TEXT
  8
0
  6
CONTINUOUS
 62
     2
 10
109.5
 20
135.0
 30
0.3
 40
3.0
  1
１９０
 50
0.0
 41
0.6
 51
0.0
  7
KANJI0
  0
LINE
  8
0
  6
CONTINUOUS
 62
     2
 10
65.0
 20
39.0
 30
0.0
 11
65.0
 21
29.0
 31
0.0
  0
LINE
  8
0
  6
CONTINUOUS
 62
     2
 10
65.0
 20
31.0
 30
0.0
 11
62.585185434
 21
31.647047613
 31
0.0
  0
LINE
  8
0
  6
CONTINUOUS
 62
     2
 10
65.0
 20
31.0
 30
0.0
 11
62.585185434
 21
30.352952387
 31
0.0
  0
LINE
  8
0
  6
CONTINUOUS
 62
     2
 10
60.0
 20
31.0
 30
0.0
 11
73.0
 21
31.0
 31
0.0
  0
LINE
  8
0
  6
CONTINUOUS
 62
     2
 10
68.0
 20
31.0
 30
0.0
 11
70.414814566
 21
30.352952387
 31
0.0
  0
LINE
  8
0
  6
CONTINUOUS
 62
     2
 10
68.0
 20
31.0
 30
0.0
 11
70.414814566
 21
31.647047613
 31
0.0
  0
LINE
  8
0
  6
CONTINUOUS
 62
     2
 10
68.0
 20
34.0
 30
0.0
 11
68.0
 21
29.0
 31
0.0
  0
TEXT
  8
0
  6
CONTINUOUS
 62
     2
 10
70.6
 20
32.0
 30
0.3
 40
3.0
  1
６　ｍａｘ．
 50
0.0
 41
0.6
 51
0.0
  7
KANJI0
  0
LINE
  8
0
  6
CONTINUOUS
 62
     2
 10
95.0
 20
37.6
 30
0.0
 11
95.647047613
 21
35.185185434
 31
0.0
  0
LINE
  8
0
  6
CONTINUOUS
 62
     2
 10
95.0
 20
37.6
 30
0.0
 11
96.767766953
 21
35.832233047
 31
0.0
  0
LINE
  8
0
  6
CONTINUOUS
 62
     2
 10
95.0
 20
37.6
 30
0.0
 11
100.773502692
 21
27.6
 31
0.0
  0
LINE
  8
0
  6
CONTINUOUS
 62
     2
 10
100.773502692
 20
27.6
 30
0.0
 11
124.473502692
 21
27.6
 31
0.0
  0
TEXT
  8
0
  6
CONTINUOUS
 62
     2
 10
100.773502692
 20
28.6
 30
0.3
 40
3.0
  1
取付金具（Ｍ５）
 50
0.0
 41
0.9
 51
0.0
  7
KANJI1
  0
LINE
  8
0
  6
CONTINUOUS
 62
     2
 10
160.0
 20
134.0
 30
0.0
 11
157.585185434
 21
134.647047613
 31
0.0
  0
LINE
  8
0
  6
CONTINUOUS
 62
     2
 10
160.0
 20
134.0
 30
0.0
 11
157.585185434
 21
133.352952387
 31
0.0
  0
LINE
  8
0
  6
CONTINUOUS
 62
     2
 10
55.0
 20
136.0
 30
0.0
 11
55.0
 21
141.0
 31
0.0
  0
LINE
  8
0
  6
CONTINUOUS
 62
     2
 10
55.0
 20
139.0
 30
0.0
 11
57.414814566
 21
138.352952387
 31
0.0
  0
LINE
  8
0
  6
CONTINUOUS
 62
     2
 10
55.0
 20
139.0
 30
0.0
 11
57.414814566
 21
139.647047613
 31
0.0
  0
LINE
  8
0
  6
CONTINUOUS
 62
     2
 10
77.0
 20
127.4
 30
0.0
 11
77.0
 21
124.9
 31
0.0
  0
LINE
  8
0
  6
CONTINUOUS
 62
     2
 10
137.0
 20
127.4
 30
0.0
 11
137.0
 21
124.9
 31
0.0
  0
LINE
  8
0
  6
CONTINUOUS
 62
     2
 10
137.0
 20
37.6
 30
0.0
 11
137.0
 21
40.1
 31
0.0
  0
LINE
  8
0
  6
CONTINUOUS
 62
     2
 10
77.0
 20
37.6
 30
0.0
 11
77.0
 21
40.1
 31
0.0
  0
CIRCLE
  8
0
  6
CONTINUOUS
 62
     2
 10
75.5
 20
50.0
 30
0.0
 40
1.5
  0
LINE
  8
0
  6
CONTINUOUS
 62
     2
 10
75.022702923
 20
50.76013979
 30
0.0
 11
75.358578644
 21
50.424264069
 31
0.0
  0
ARC
  8
0
  6
CONTINUOUS
 62
     2
 10
75.5
 20
50.565685425
 30
0.0
 40
0.2
 50
225.0
 51
315.0
  0
LINE
  8
0
  6
CONTINUOUS
 62
     2
 10
75.641421356
 20
50.424264069
 30
0.0
 11
75.977297077
 21
50.76013979
 31
0.0
  0
LINE
  8
0
  6
CONTINUOUS
 62
     2
 10
75.977297077
 20
50.76013979
 30
0.0
 11
76.26013979
 21
50.477297077
 31
0.0
  0
LINE
  8
0
  6
CONTINUOUS
 62
     2
 10
76.26013979
 20
50.477297077
 30
0.0
 11
75.924264069
 21
50.141421356
 31
0.0
  0
ARC
  8
0
  6
CONTINUOUS
 62
     2
 10
76.065685425
 20
50.0
 30
0.0
 40
0.2
 50
135.0
 51
225.0
  0
LINE
  8
0
  6
CONTINUOUS
 62
     2
 10
75.924264069
 20
49.858578644
 30
0.0
 11
76.26013979
 21
49.522702923
 31
0.0
  0
LINE
  8
0
  6
CONTINUOUS
 62
     2
 10
76.26013979
 20
49.522702923
 30
0.0
 11
75.977297077
 21
49.23986021
 31
0.0
  0
LINE
  8
0
  6
CONTINUOUS
 62
     2
 10
75.977297077
 20
49.23986021
 30
0.0
 11
75.641421356
 21
49.575735931
 31
0.0
  0
ARC
  8
0
  6
CONTINUOUS
 62
     2
 10
75.5
 20
49.434314575
 30
0.0
 40
0.2
 50
45.0
 51
135.0
  0
LINE
  8
0
  6
CONTINUOUS
 62
     2
 10
75.358578644
 20
49.575735931
 30
0.0
 11
75.022702923
 21
49.23986021
 31
0.0
  0
LINE
  8
0
  6
CONTINUOUS
 62
     2
 10
75.022702923
 20
49.23986021
 30
0.0
 11
74.73986021
 21
49.522702923
 31
0.0
  0
LINE
  8
0
  6
CONTINUOUS
 62
     2
 10
74.73986021
 20
49.522702923
 30
0.0
 11
75.075735931
 21
49.858578644
 31
0.0
  0
ARC
  8
0
  6
CONTINUOUS
 62
     2
 10
74.934314575
 20
50.0
 30
0.0
 40
0.2
 50
315.0
 51
45.0
  0
LINE
  8
0
  6
CONTINUOUS
 62
     2
 10
75.075735931
 20
50.141421356
 30
0.0
 11
74.73986021
 21
50.477297077
 31
0.0
  0
LINE
  8
0
  6
CONTINUOUS
 62
     2
 10
74.73986021
 20
50.477297077
 30
0.0
 11
75.022702923
 21
50.76013979
 31
0.0
  0
CIRCLE
  8
0
  6
CONTINUOUS
 62
     2
 10
75.5
 20
110.0
 30
0.0
 40
1.5
  0
LINE
  8
0
  6
CONTINUOUS
 62
     2
 10
75.022702923
 20
110.76013979
 30
0.0
 11
75.358578644
 21
110.424264069
 31
0.0
  0
ARC
  8
0
  6
CONTINUOUS
 62
     2
 10
75.5
 20
110.565685425
 30
0.0
 40
0.2
 50
225.0
 51
315.0
  0
LINE
  8
0
  6
CONTINUOUS
 62
     2
 10
75.641421356
 20
110.424264069
 30
0.0
 11
75.977297077
 21
110.76013979
 31
0.0
  0
LINE
  8
0
  6
CONTINUOUS
 62
     2
 10
75.977297077
 20
110.76013979
 30
0.0
 11
76.26013979
 21
110.477297077
 31
0.0
  0
LINE
  8
0
  6
CONTINUOUS
 62
     2
 10
76.26013979
 20
110.477297077
 30
0.0
 11
75.924264069
 21
110.141421356
 31
0.0
  0
ARC
  8
0
  6
CONTINUOUS
 62
     2
 10
76.065685425
 20
110.0
 30
0.0
 40
0.2
 50
135.0
 51
225.0
  0
LINE
  8
0
  6
CONTINUOUS
 62
     2
 10
75.924264069
 20
109.858578644
 30
0.0
 11
76.26013979
 21
109.522702923
 31
0.0
  0
LINE
  8
0
  6
CONTINUOUS
 62
     2
 10
76.26013979
 20
109.522702923
 30
0.0
 11
75.977297077
 21
109.23986021
 31
0.0
  0
LINE
  8
0
  6
CONTINUOUS
 62
     2
 10
75.977297077
 20
109.23986021
 30
0.0
 11
75.641421356
 21
109.575735931
 31
0.0
  0
ARC
  8
0
  6
CONTINUOUS
 62
     2
 10
75.5
 20
109.434314575
 30
0.0
 40
0.2
 50
45.0
 51
135.0
  0
LINE
  8
0
  6
CONTINUOUS
 62
     2
 10
75.358578644
 20
109.575735931
 30
0.0
 11
75.022702923
 21
109.23986021
 31
0.0
  0
LINE
  8
0
  6
CONTINUOUS
 62
     2
 10
75.022702923
 20
109.23986021
 30
0.0
 11
74.73986021
 21
109.522702923
 31
0.0
  0
LINE
  8
0
  6
CONTINUOUS
 62
     2
 10
74.73986021
 20
109.522702923
 30
0.0
 11
75.075735931
 21
109.858578644
 31
0.0
  0
ARC
  8
0
  6
CONTINUOUS
 62
     2
 10
74.934314575
 20
110.0
 30
0.0
 40
0.2
 50
315.0
 51
45.0
  0
LINE
  8
0
  6
CONTINUOUS
 62
     2
 10
75.075735931
 20
110.141421356
 30
0.0
 11
74.73986021
 21
110.477297077
 31
0.0
  0
LINE
  8
0
  6
CONTINUOUS
 62
     2
 10
74.73986021
 20
110.477297077
 30
0.0
 11
75.022702923
 21
110.76013979
 31
0.0
  0
CIRCLE
  8
0
  6
CONTINUOUS
 62
     2
 10
85.0
 20
110.0
 30
0.0
 40
0.99999
  0
LINE
  8
0
  6
CONTINUOUS
 62
     2
 10
84.68180513
 20
110.506754792
 30
0.0
 11
84.905720039
 21
110.282839884
 31
0.0
  0
ARC
  8
0
  6
CONTINUOUS
 62
     2
 10
85.0
 20
110.377119845
 30
0.0
 40
0.133332
 50
225.0
 51
315.0
  0
LINE
  8
0
  6
CONTINUOUS
 62
     2
 10
85.094279961
 20
110.282839884
 30
0.0
 11
85.31819487
 21
110.506754792
 31
0.0
  0
LINE
  8
0
  6
CONTINUOUS
 62
     2
 10
85.31819487
 20
110.506754792
 30
0.0
 11
85.506754792
 21
110.31819487
 31
0.0
  0
LINE
  8
0
  6
CONTINUOUS
 62
     2
 10
85.506754792
 20
110.31819487
 30
0.0
 11
85.282839884
 21
110.094279961
 31
0.0
  0
ARC
  8
0
  6
CONTINUOUS
 62
     2
 10
85.377119845
 20
110.0
 30
0.0
 40
0.133332
 50
135.0
 51
225.0
  0
LINE
  8
0
  6
CONTINUOUS
 62
     2
 10
85.282839884
 20
109.905720039
 30
0.0
 11
85.506754792
 21
109.68180513
 31
0.0
  0
LINE
  8
0
  6
CONTINUOUS
 62
     2
 10
85.506754792
 20
109.68180513
 30
0.0
 11
85.31819487
 21
109.493245208
 31
0.0
  0
LINE
  8
0
  6
CONTINUOUS
 62
     2
 10
85.31819487
 20
109.493245208
 30
0.0
 11
85.094279961
 21
109.717160116
 31
0.0
  0
ARC
  8
0
  6
CONTINUOUS
 62
     2
 10
85.0
 20
109.622880155
 30
0.0
 40
0.133332
 50
45.0
 51
135.0
  0
LINE
  8
0
  6
CONTINUOUS
 62
     2
 10
84.905720039
 20
109.717160116
 30
0.0
 11
84.68180513
 21
109.493245208
 31
0.0
  0
LINE
  8
0
  6
CONTINUOUS
 62
     2
 10
84.68180513
 20
109.493245208
 30
0.0
 11
84.493245208
 21
109.68180513
 31
0.0
  0
LINE
  8
0
  6
CONTINUOUS
 62
     2
 10
84.493245208
 20
109.68180513
 30
0.0
 11
84.717160116
 21
109.905720039
 31
0.0
  0
ARC
  8
0
  6
CONTINUOUS
 62
     2
 10
84.622880155
 20
110.0
 30
0.0
 40
0.133332
 50
315.0
 51
45.0
  0
LINE
  8
0
  6
CONTINUOUS
 62
     2
 10
84.717160116
 20
110.094279961
 30
0.0
 11
84.493245208
 21
110.31819487
 31
0.0
  0
LINE
  8
0
  6
CONTINUOUS
 62
     2
 10
84.493245208
 20
110.31819487
 30
0.0
 11
84.68180513
 21
110.506754792
 31
0.0
  0
CIRCLE
  8
0
  6
CONTINUOUS
 62
     2
 10
85.0
 20
50.0
 30
0.0
 40
0.99999
  0
LINE
  8
0
  6
CONTINUOUS
 62
     2
 10
84.68180513
 20
50.506754792
 30
0.0
 11
84.905720039
 21
50.282839884
 31
0.0
  0
ARC
  8
0
  6
CONTINUOUS
 62
     2
 10
85.0
 20
50.377119845
 30
0.0
 40
0.133332
 50
225.0
 51
315.0
  0
LINE
  8
0
  6
CONTINUOUS
 62
     2
 10
85.094279961
 20
50.282839884
 30
0.0
 11
85.31819487
 21
50.506754792
 31
0.0
  0
LINE
  8
0
  6
CONTINUOUS
 62
     2
 10
85.31819487
 20
50.506754792
 30
0.0
 11
85.506754792
 21
50.31819487
 31
0.0
  0
LINE
  8
0
  6
CONTINUOUS
 62
     2
 10
85.506754792
 20
50.31819487
 30
0.0
 11
85.282839884
 21
50.094279961
 31
0.0
  0
ARC
  8
0
  6
CONTINUOUS
 62
     2
 10
85.377119845
 20
50.0
 30
0.0
 40
0.133332
 50
135.0
 51
225.0
  0
LINE
  8
0
  6
CONTINUOUS
 62
     2
 10
85.282839884
 20
49.905720039
 30
0.0
 11
85.506754792
 21
49.68180513
 31
0.0
  0
LINE
  8
0
  6
CONTINUOUS
 62
     2
 10
85.506754792
 20
49.68180513
 30
0.0
 11
85.31819487
 21
49.493245208
 31
0.0
  0
LINE
  8
0
  6
CONTINUOUS
 62
     2
 10
85.31819487
 20
49.493245208
 30
0.0
 11
85.094279961
 21
49.717160116
 31
0.0
  0
ARC
  8
0
  6
CONTINUOUS
 62
     2
 10
85.0
 20
49.622880155
 30
0.0
 40
0.133332
 50
45.0
 51
135.0
  0
LINE
  8
0
  6
CONTINUOUS
 62
     2
 10
84.905720039
 20
49.717160116
 30
0.0
 11
84.68180513
 21
49.493245208
 31
0.0
  0
LINE
  8
0
  6
CONTINUOUS
 62
     2
 10
84.68180513
 20
49.493245208
 30
0.0
 11
84.493245208
 21
49.68180513
 31
0.0
  0
LINE
  8
0
  6
CONTINUOUS
 62
     2
 10
84.493245208
 20
49.68180513
 30
0.0
 11
84.717160116
 21
49.905720039
 31
0.0
  0
ARC
  8
0
  6
CONTINUOUS
 62
     2
 10
84.622880155
 20
50.0
 30
0.0
 40
0.133332
 50
315.0
 51
45.0
  0
LINE
  8
0
  6
CONTINUOUS
 62
     2
 10
84.717160116
 20
50.094279961
 30
0.0
 11
84.493245208
 21
50.31819487
 31
0.0
  0
LINE
  8
0
  6
CONTINUOUS
 62
     2
 10
84.493245208
 20
50.31819487
 30
0.0
 11
84.68180513
 21
50.506754792
 31
0.0
  0
CIRCLE
  8
0
  6
CONTINUOUS
 62
     2
 10
155.0
 20
50.0
 30
0.0
 40
0.99999
  0
LINE
  8
0
  6
CONTINUOUS
 62
     2
 10
154.68180513
 20
50.506754792
 30
0.0
 11
154.905720039
 21
50.282839884
 31
0.0
  0
ARC
  8
0
  6
CONTINUOUS
 62
     2
 10
155.0
 20
50.377119845
 30
0.0
 40
0.133332
 50
225.0
 51
315.0
  0
LINE
  8
0
  6
CONTINUOUS
 62
     2
 10
155.094279961
 20
50.282839884
 30
0.0
 11
155.31819487
 21
50.506754792
 31
0.0
  0
LINE
  8
0
  6
CONTINUOUS
 62
     2
 10
155.31819487
 20
50.506754792
 30
0.0
 11
155.506754792
 21
50.31819487
 31
0.0
  0
LINE
  8
0
  6
CONTINUOUS
 62
     2
 10
155.506754792
 20
50.31819487
 30
0.0
 11
155.282839884
 21
50.094279961
 31
0.0
  0
ARC
  8
0
  6
CONTINUOUS
 62
     2
 10
155.377119845
 20
50.0
 30
0.0
 40
0.133332
 50
135.0
 51
225.0
  0
LINE
  8
0
  6
CONTINUOUS
 62
     2
 10
155.282839884
 20
49.905720039
 30
0.0
 11
155.506754792
 21
49.68180513
 31
0.0
  0
LINE
  8
0
  6
CONTINUOUS
 62
     2
 10
155.506754792
 20
49.68180513
 30
0.0
 11
155.31819487
 21
49.493245208
 31
0.0
  0
LINE
  8
0
  6
CONTINUOUS
 62
     2
 10
155.31819487
 20
49.493245208
 30
0.0
 11
155.094279961
 21
49.717160116
 31
0.0
  0
ARC
  8
0
  6
CONTINUOUS
 62
     2
 10
155.0
 20
49.622880155
 30
0.0
 40
0.133332
 50
45.0
 51
135.0
  0
LINE
  8
0
  6
CONTINUOUS
 62
     2
 10
154.905720039
 20
49.717160116
 30
0.0
 11
154.68180513
 21
49.493245208
 31
0.0
  0
LINE
  8
0
  6
CONTINUOUS
 62
     2
 10
154.68180513
 20
49.493245208
 30
0.0
 11
154.493245208
 21
49.68180513
 31
0.0
  0
LINE
  8
0
  6
CONTINUOUS
 62
     2
 10
154.493245208
 20
49.68180513
 30
0.0
 11
154.717160116
 21
49.905720039
 31
0.0
  0
ARC
  8
0
  6
CONTINUOUS
 62
     2
 10
154.622880155
 20
50.0
 30
0.0
 40
0.133332
 50
315.0
 51
45.0
  0
LINE
  8
0
  6
CONTINUOUS
 62
     2
 10
154.717160116
 20
50.094279961
 30
0.0
 11
154.493245208
 21
50.31819487
 31
0.0
  0
LINE
  8
0
  6
CONTINUOUS
 62
     2
 10
154.493245208
 20
50.31819487
 30
0.0
 11
154.68180513
 21
50.506754792
 31
0.0
  0
CIRCLE
  8
0
  6
CONTINUOUS
 62
     2
 10
155.0
 20
110.0
 30
0.0
 40
0.99999
  0
LINE
  8
0
  6
CONTINUOUS
 62
     2
 10
154.68180513
 20
110.506754792
 30
0.0
 11
154.905720039
 21
110.282839884
 31
0.0
  0
ARC
  8
0
  6
CONTINUOUS
 62
     2
 10
155.0
 20
110.377119845
 30
0.0
 40
0.133332
 50
225.0
 51
315.0
  0
LINE
  8
0
  6
CONTINUOUS
 62
     2
 10
155.094279961
 20
110.282839884
 30
0.0
 11
155.31819487
 21
110.506754792
 31
0.0
  0
LINE
  8
0
  6
CONTINUOUS
 62
     2
 10
155.31819487
 20
110.506754792
 30
0.0
 11
155.506754792
 21
110.31819487
 31
0.0
  0
LINE
  8
0
  6
CONTINUOUS
 62
     2
 10
155.506754792
 20
110.31819487
 30
0.0
 11
155.282839884
 21
110.094279961
 31
0.0
  0
ARC
  8
0
  6
CONTINUOUS
 62
     2
 10
155.377119845
 20
110.0
 30
0.0
 40
0.133332
 50
135.0
 51
225.0
  0
LINE
  8
0
  6
CONTINUOUS
 62
     2
 10
155.282839884
 20
109.905720039
 30
0.0
 11
155.506754792
 21
109.68180513
 31
0.0
  0
LINE
  8
0
  6
CONTINUOUS
 62
     2
 10
155.506754792
 20
109.68180513
 30
0.0
 11
155.31819487
 21
109.493245208
 31
0.0
  0
LINE
  8
0
  6
CONTINUOUS
 62
     2
 10
155.31819487
 20
109.493245208
 30
0.0
 11
155.094279961
 21
109.717160116
 31
0.0
  0
ARC
  8
0
  6
CONTINUOUS
 62
     2
 10
155.0
 20
109.622880155
 30
0.0
 40
0.133332
 50
45.0
 51
135.0
  0
LINE
  8
0
  6
CONTINUOUS
 62
     2
 10
154.905720039
 20
109.717160116
 30
0.0
 11
154.68180513
 21
109.493245208
 31
0.0
  0
LINE
  8
0
  6
CONTINUOUS
 62
     2
 10
154.68180513
 20
109.493245208
 30
0.0
 11
154.493245208
 21
109.68180513
 31
0.0
  0
LINE
  8
0
  6
CONTINUOUS
 62
     2
 10
154.493245208
 20
109.68180513
 30
0.0
 11
154.717160116
 21
109.905720039
 31
0.0
  0
ARC
  8
0
  6
CONTINUOUS
 62
     2
 10
154.622880155
 20
110.0
 30
0.0
 40
0.133332
 50
315.0
 51
45.0
  0
LINE
  8
0
  6
CONTINUOUS
 62
     2
 10
154.717160116
 20
110.094279961
 30
0.0
 11
154.493245208
 21
110.31819487
 31
0.0
  0
LINE
  8
0
  6
CONTINUOUS
 62
     2
 10
154.493245208
 20
110.31819487
 30
0.0
 11
154.68180513
 21
110.506754792
 31
0.0
  0
TEXT
  8
0
  6
CONTINUOUS
 62
     2
 10
102.159400688
 20
62.862072189
 30
0.3
 40
3.0
  1
Ｒ２１０（カバー面）
 50
17.61806489
 41
0.6
 51
0.0
  7
KANJI0
  0
LINE
  8
0
  6
CONTINUOUS
 62
     2
 10
137.0
 20
127.15
 30
0.0
 11
148.9
 21
127.15
 31
0.0
  0
LINE
  8
0
  6
CONTINUOUS
 62
     2
 10
148.9
 20
125.15
 30
0.0
 11
136.9875
 21
125.15
 31
0.0
  0
LINE
  8
0
  6
CONTINUOUS
 62
     2
 10
68.0
 20
127.05
 30
0.0
 11
69.675
 21
127.05
 31
0.0
  0
LINE
  8
0
  6
CONTINUOUS
 62
     2
 10
68.0
 20
125.05
 30
0.0
 11
69.675
 21
125.05
 31
0.0
  0
LINE
  8
0
  6
CONTINUOUS
 62
     2
 10
68.25
 20
127.3
 30
0.0
 11
68.25
 21
124.8
 31
0.0
  0
LINE
  8
0
  6
CONTINUOUS
 62
     2
 10
77.0
 20
127.15
 30
0.0
 11
71.3
 21
127.15
 31
0.0
  0
LINE
  8
0
  6
CONTINUOUS
 62
     2
 10
71.3
 20
125.15
 30
0.0
 11
77.0
 21
125.15
 31
0.0
  0
LINE
  8
0
  6
CONTINUOUS
 62
     2
 10
68.0
 20
39.75
 30
0.0
 11
69.675
 21
39.75
 31
0.0
  0
LINE
  8
0
  6
CONTINUOUS
 62
     2
 10
68.0
 20
37.75
 30
0.0
 11
69.675
 21
37.75
 31
0.0
  0
LINE
  8
0
  6
CONTINUOUS
 62
     2
 10
68.25
 20
40.0
 30
0.0
 11
68.25
 21
37.5
 31
0.0
  0
LINE
  8
0
  6
CONTINUOUS
 62
     2
 10
77.0
 20
39.85
 30
0.0
 11
71.3
 21
39.85
 31
0.0
  0
LINE
  8
0
  6
CONTINUOUS
 62
     2
 10
71.3
 20
37.85
 30
0.0
 11
77.0
 21
37.85
 31
0.0
  0
LINE
  8
0
  6
CONTINUOUS
 62
     2
 10
137.0
 20
39.85
 30
0.0
 11
148.9
 21
39.85
 31
0.0
  0
LINE
  8
0
  6
CONTINUOUS
 62
     2
 10
148.9
 20
37.85
 30
0.0
 11
137.0
 21
37.85
 31
0.0
  0
LINE
  8
0
  6
LTYPE1
 62
     2
 10
83.00001
 20
50.0
 30
0.0
 11
87.00001
 21
50.0
 31
0.0
  0
LINE
  8
0
  6
LTYPE1
 62
     2
 10
85.00001
 20
52.0
 30
0.0
 11
85.00001
 21
48.0
 31
0.0
  0
LINE
  8
0
  6
LTYPE1
 62
     2
 10
155.0
 20
52.0
 30
0.0
 11
155.0
 21
48.0
 31
0.0
  0
LINE
  8
0
  6
LTYPE1
 62
     2
 10
153.0
 20
50.0
 30
0.0
 11
157.0
 21
50.0
 31
0.0
  0
LINE
  8
0
  6
LTYPE1
 62
     2
 10
155.0
 20
112.0
 30
0.0
 11
155.0
 21
108.0
 31
0.0
  0
LINE
  8
0
  6
LTYPE1
 62
     2
 10
153.0
 20
110.0
 30
0.0
 11
157.0
 21
110.0
 31
0.0
  0
LINE
  8
0
  6
CONTINUOUS
 62
     2
 10
65.810588186
 20
107.0
 30
0.0
 11
67.753853548
 21
105.427193676
 31
0.0
  0
LINE
  8
0
  6
CONTINUOUS
 62
     2
 10
65.810588186
 20
107.0
 30
0.0
 11
68.279908518
 21
106.609542449
 31
0.0
  0
LINE
  8
0
  6
CONTINUOUS
 62
     2
 10
65.810588186
 20
107.0
 30
0.0
 11
122.0
 21
82.0
 31
0.0
  0
LINE
  8
0
  6
CONTINUOUS
 62
     2
 10
65.810588186
 20
57.0
 30
0.0
 11
68.279908518
 21
57.390457551
 31
0.0
  0
LINE
  8
0
  6
CONTINUOUS
 62
     2
 10
65.810588186
 20
57.0
 30
0.0
 11
67.753853548
 21
58.572806324
 31
0.0
  0
LINE
  8
0
  6
CONTINUOUS
 62
     2
 10
65.810588186
 20
57.0
 30
0.0
 11
122.0
 21
82.0
 31
0.0
  0
ARC
  8
0
  6
CONTINUOUS
 62
     2
 10
122.0
 20
82.0
 30
0.0
 40
61.5
 50
156.014586012
 51
203.985413988
  0
TEXT
  8
0
  6
CONTINUOUS
 62
     2
 10
87.017092251
 20
98.613648973
 30
0.3
 40
3.0
  1
Ｒ１２３（指針）
 50
336.014586012
 41
0.6
 51
0.0
  7
KANJI0
  0
LINE
  8
0
  6
CONTINUOUS
 62
     2
 10
87.0
 20
68.035898385
 30
0.0
 11
87.647047613
 21
65.621083819
 31
0.0
  0
LINE
  8
0
  6
CONTINUOUS
 62
     2
 10
87.0
 20
68.035898385
 30
0.0
 11
88.767766953
 21
66.268131432
 31
0.0
  0
LINE
  8
0
  6
CONTINUOUS
 62
     2
 10
107.458925471
 20
32.6
 30
0.0
 11
130.581575202
 21
32.6
 31
0.0
  0
LINE
  8
0
  6
CONTINUOUS
 62
     2
 10
87.0
 20
68.035898385
 30
0.0
 11
107.458925471
 21
32.6
 31
0.0
  0
TEXT
  8
0
  6
CONTINUOUS
 62
     2
 10
107.881575202
 20
33.6
 30
0.3
 40
3.0
  1
感度調整用抵抗器
 50
0.0
 41
0.9
 51
0.0
  7
KANJI1
  0
TEXT
  8
0
  6
CONTINUOUS
 62
     2
 10
51.0
 20
19.0
 30
0.3
 40
3.0
  1
重量　０．９ｋｇ
 50
0.0
 41
0.9
 51
0.0
  7
KANJI1
  0
TEXT
  8
0
  6
CONTINUOUS
 62
     2
 10
168.0
 20
28.0
 30
0.25
 40
2.5
  1
１　　＋
 50
0.0
 41
0.9
 51
0.0
  7
KANJI2
  0
TEXT
  8
0
  6
CONTINUOUS
 62
     2
 10
168.0
 20
21.0
 30
0.25
 40
2.5
  1
２　　－
 50
0.0
 41
0.9
 51
0.0
  7
KANJI2
  0
TEXT
  8
0
  6
CONTINUOUS
 62
     2
 10
173.6
 20
26.0
 30
0.16
 40
2.0
  1
ＬＥＦＴ
 50
0.0
 41
0.8
 51
0.0
  7
KANJI3
  0
TEXT
  8
0
  6
CONTINUOUS
 62
     2
 10
172.6
 20
23.5
 30
0.16
 40
2.0
  1
ＩＮＰＵＴ
 50
0.0
 41
0.8
 51
0.0
  7
KANJI3
  0
TEXT
  8
0
  6
CONTINUOUS
 62
     2
 10
165.0
 20
31.0
 30
0.3
 40
3.0
  1
端子記号
 50
0.0
 41
0.9
 51
0.0
  7
KANJI4
  0
CIRCLE
  8
0
  6
CONTINUOUS
 62
     5
 10
85.0
 20
71.5
 30
0.0
 40
4.0
  0
TEXT
  8
0
  6
CONTINUOUS
 62
     2
 10
15.0
 20
19.0
 30
0.3
 40
3.0
  1
目盛長　１００ｍｍ
 50
0.0
 41
0.9
 51
0.0
  7
KANJI1
  0
LINE
  8
0
  6
CONTINUOUS
 62
     1
 10
162.75
 20
94.55
 30
0.0
 11
162.75
 21
90.45
 31
0.0
  0
LINE
  8
0
  6
CONTINUOUS
 62
     1
 10
162.75
 20
90.45
 30
0.0
 11
169.25
 21
90.45
 31
0.0
  0
LINE
  8
0
  6
CONTINUOUS
 62
     1
 10
169.25
 20
90.45
 30
0.0
 11
169.25
 21
89.55
 31
0.0
  0
LINE
  8
0
  6
CONTINUOUS
 62
     1
 10
169.25
 20
89.55
 30
0.0
 11
162.75
 21
89.55
 31
0.0
  0
LINE
  8
0
  6
CONTINUOUS
 62
     1
 10
162.75
 20
89.55
 30
0.0
 11
162.75
 21
85.45
 31
0.0
  0
LINE
  8
0
  6
CONTINUOUS
 62
     1
 10
162.75
 20
85.45
 30
0.0
 11
169.25
 21
85.45
 31
0.0
  0
LINE
  8
0
  6
CONTINUOUS
 62
     1
 10
169.25
 20
85.45
 30
0.0
 11
169.25
 21
84.55
 31
0.0
  0
LINE
  8
0
  6
CONTINUOUS
 62
     1
 10
169.25
 20
84.55
 30
0.0
 11
162.75
 21
84.55
 31
0.0
  0
LINE
  8
0
  6
CONTINUOUS
 62
     1
 10
162.75
 20
84.55
 30
0.0
 11
162.75
 21
80.45
 31
0.0
  0
LINE
  8
0
  6
CONTINUOUS
 62
     1
 10
162.75
 20
80.45
 30
0.0
 11
169.25
 21
80.45
 31
0.0
  0
LINE
  8
0
  6
CONTINUOUS
 62
     1
 10
169.25
 20
80.45
 30
0.0
 11
169.25
 21
79.55
 31
0.0
  0
LINE
  8
0
  6
CONTINUOUS
 62
     1
 10
169.25
 20
79.55
 30
0.0
 11
162.75
 21
79.55
 31
0.0
  0
LINE
  8
0
  6
CONTINUOUS
 62
     1
 10
162.75
 20
79.55
 30
0.0
 11
162.75
 21
75.45
 31
0.0
  0
LINE
  8
0
  6
CONTINUOUS
 62
     1
 10
162.75
 20
75.45
 30
0.0
 11
169.25
 21
75.45
 31
0.0
  0
LINE
  8
0
  6
CONTINUOUS
 62
     1
 10
169.25
 20
75.45
 30
0.0
 11
169.25
 21
74.55
 31
0.0
  0
LINE
  8
0
  6
CONTINUOUS
 62
     1
 10
169.25
 20
74.55
 30
0.0
 11
162.75
 21
74.55
 31
0.0
  0
LINE
  8
0
  6
CONTINUOUS
 62
     1
 10
162.75
 20
74.55
 30
0.0
 11
162.75
 21
70.45
 31
0.0
  0
LINE
  8
0
  6
CONTINUOUS
 62
     1
 10
162.75
 20
70.45
 30
0.0
 11
169.25
 21
70.45
 31
0.0
  0
LINE
  8
0
  6
CONTINUOUS
 62
     1
 10
169.25
 20
70.45
 30
0.0
 11
169.25
 21
69.55
 31
0.0
  0
LINE
  8
0
  6
CONTINUOUS
 62
     1
 10
169.25
 20
69.55
 30
0.0
 11
162.75
 21
69.55
 31
0.0
  0
LINE
  8
0
  6
CONTINUOUS
 62
     1
 10
162.75
 20
69.55
 30
0.0
 11
162.75
 21
65.45
 31
0.0
  0
LINE
  8
0
  6
CONTINUOUS
 62
     2
 10
164.75
 20
94.55
 30
0.0
 11
164.75
 21
90.45
 31
0.0
  0
LINE
  8
0
  6
CONTINUOUS
 62
     2
 10
165.15
 20
90.45
 30
0.0
 11
165.15
 21
94.55
 31
0.0
  0
LINE
  8
0
  6
CONTINUOUS
 62
     2
 10
165.15
 20
94.55
 30
0.0
 11
164.75
 21
94.55
 31
0.0
  0
LINE
  8
0
  6
CONTINUOUS
 62
     2
 10
164.75
 20
93.75
 30
0.0
 11
165.15
 21
93.75
 31
0.0
  0
LINE
  8
0
  6
CONTINUOUS
 62
     2
 10
164.75
 20
91.25
 30
0.0
 11
165.15
 21
91.25
 31
0.0
  0
LINE
  8
0
  6
CONTINUOUS
 62
     2
 10
164.75
 20
89.55
 30
0.0
 11
164.75
 21
85.45
 31
0.0
  0
LINE
  8
0
  6
CONTINUOUS
 62
     2
 10
165.15
 20
85.45
 30
0.0
 11
165.15
 21
89.55
 31
0.0
  0
LINE
  8
0
  6
CONTINUOUS
 62
     2
 10
164.75
 20
88.75
 30
0.0
 11
165.15
 21
88.75
 31
0.0
  0
LINE
  8
0
  6
CONTINUOUS
 62
     2
 10
164.75
 20
86.25
 30
0.0
 11
165.15
 21
86.25
 31
0.0
  0
LINE
  8
0
  6
CONTINUOUS
 62
     2
 10
164.75
 20
84.55
 30
0.0
 11
164.75
 21
80.45
 31
0.0
  0
LINE
  8
0
  6
CONTINUOUS
 62
     2
 10
165.15
 20
80.45
 30
0.0
 11
165.15
 21
84.55
 31
0.0
  0
LINE
  8
0
  6
CONTINUOUS
 62
     2
 10
164.75
 20
83.75
 30
0.0
 11
165.15
 21
83.75
 31
0.0
  0
LINE
  8
0
  6
CONTINUOUS
 62
     2
 10
164.75
 20
81.25
 30
0.0
 11
165.15
 21
81.25
 31
0.0
  0
LINE
  8
0
  6
CONTINUOUS
 62
     2
 10
164.75
 20
79.55
 30
0.0
 11
164.75
 21
75.45
 31
0.0
  0
LINE
  8
0
  6
CONTINUOUS
 62
     2
 10
164.75
 20
78.75
 30
0.0
 11
165.15
 21
78.75
 31
0.0
  0
LINE
  8
0
  6
CONTINUOUS
 62
     2
 10
164.75
 20
76.25
 30
0.0
 11
165.15
 21
76.25
 31
0.0
  0
LINE
  8
0
  6
CONTINUOUS
 62
     2
 10
164.75
 20
74.55
 30
0.0
 11
164.75
 21
70.45
 31
0.0
  0
LINE
  8
0
  6
CONTINUOUS
 62
     2
 10
164.75
 20
73.75
 30
0.0
 11
165.15
 21
73.75
 31
0.0
  0
LINE
  8
0
  6
CONTINUOUS
 62
     2
 10
164.75
 20
71.25
 30
0.0
 11
165.15
 21
71.25
 31
0.0
  0
LINE
  8
0
  6
CONTINUOUS
 62
     2
 10
164.75
 20
69.55
 30
0.0
 11
164.75
 21
65.45
 31
0.0
  0
LINE
  8
0
  6
CONTINUOUS
 62
     2
 10
165.15
 20
65.45
 30
0.0
 11
165.15
 21
69.55
 31
0.0
  0
LINE
  8
0
  6
CONTINUOUS
 62
     2
 10
164.75
 20
68.75
 30
0.0
 11
165.15
 21
68.75
 31
0.0
  0
LINE
  8
0
  6
CONTINUOUS
 62
     2
 10
164.75
 20
66.25
 30
0.0
 11
165.15
 21
66.25
 31
0.0
  0
LINE
  8
0
  6
CONTINUOUS
 62
     2
 10
167.85
 20
90.45
 30
0.0
 11
167.85
 21
89.55
 31
0.0
  0
LINE
  8
0
  6
CONTINUOUS
 62
     2
 10
168.35
 20
89.55
 30
0.0
 11
168.35
 21
90.45
 31
0.0
  0
LINE
  8
0
  6
CONTINUOUS
 62
     2
 10
167.25
 20
90.45
 30
0.0
 11
167.25
 21
89.55
 31
0.0
  0
LINE
  8
0
  6
CONTINUOUS
 62
     2
 10
167.85
 20
85.45
 30
0.0
 11
167.85
 21
84.55
 31
0.0
  0
LINE
  8
0
  6
CONTINUOUS
 62
     2
 10
168.35
 20
84.55
 30
0.0
 11
168.35
 21
85.45
 31
0.0
  0
LINE
  8
0
  6
CONTINUOUS
 62
     2
 10
167.25
 20
85.45
 30
0.0
 11
167.25
 21
84.55
 31
0.0
  0
LINE
  8
0
  6
CONTINUOUS
 62
     2
 10
167.85
 20
80.45
 30
0.0
 11
167.85
 21
79.55
 31
0.0
  0
LINE
  8
0
  6
CONTINUOUS
 62
     2
 10
168.35
 20
79.55
 30
0.0
 11
168.35
 21
80.45
 31
0.0
  0
LINE
  8
0
  6
CONTINUOUS
 62
     2
 10
167.25
 20
80.45
 30
0.0
 11
167.25
 21
79.55
 31
0.0
  0
LINE
  8
0
  6
CONTINUOUS
 62
     2
 10
167.85
 20
75.45
 30
0.0
 11
167.85
 21
74.55
 31
0.0
  0
LINE
  8
0
  6
CONTINUOUS
 62
     2
 10
168.35
 20
74.55
 30
0.0
 11
168.35
 21
75.45
 31
0.0
  0
LINE
  8
0
  6
CONTINUOUS
 62
     2
 10
167.25
 20
75.45
 30
0.0
 11
167.25
 21
74.55
 31
0.0
  0
LINE
  8
0
  6
CONTINUOUS
 62
     2
 10
167.85
 20
70.45
 30
0.0
 11
167.85
 21
69.55
 31
0.0
  0
LINE
  8
0
  6
CONTINUOUS
 62
     2
 10
168.35
 20
69.55
 30
0.0
 11
168.35
 21
70.45
 31
0.0
  0
LINE
  8
0
  6
CONTINUOUS
 62
     2
 10
167.25
 20
70.45
 30
0.0
 11
167.25
 21
69.55
 31
0.0
  0
LINE
  8
0
  6
CONTINUOUS
 62
     2
 10
165.54
 20
93.83
 30
0.0
 11
165.54
 21
91.17
 31
0.0
  0
LINE
  8
0
  6
CONTINUOUS
 62
     2
 10
165.85
 20
91.19
 30
0.0
 11
165.54
 21
91.17
 31
0.0
  0
LINE
  8
0
  6
CONTINUOUS
 62
     2
 10
165.54
 20
93.83
 30
0.0
 11
165.85
 21
93.83
 31
0.0
  0
LINE
  8
0
  6
CONTINUOUS
 62
     2
 10
166.59
 20
93.08
 30
0.0
 11
166.59
 21
91.92
 31
0.0
  0
ARC
  8
0
  6
CONTINUOUS
 62
     2
 10
165.84
 20
93.08
 30
0.0
 40
0.75
 50
0.0
 51
90.0
  0
ARC
  8
0
  6
CONTINUOUS
 62
     2
 10
165.84
 20
91.92
 30
0.0
 40
0.75
 50
268.472474559
 51
0.0
  0
LINE
  8
0
  6
CONTINUOUS
 62
     2
 10
165.53
 20
93.85
 30
0.0
 11
165.15
 21
93.85
 31
0.0
  0
LINE
  8
0
  6
CONTINUOUS
 62
     2
 10
165.15
 20
93.85
 30
0.0
 11
165.15
 21
91.17
 31
0.0
  0
LINE
  8
0
  6
CONTINUOUS
 62
     2
 10
165.15
 20
91.17
 30
0.0
 11
165.53
 21
91.17
 31
0.0
  0
LINE
  8
0
  6
CONTINUOUS
 62
     2
 10
165.15
 20
92.38
 30
0.0
 11
165.53
 21
92.69
 31
0.0
  0
LINE
  8
0
  6
CONTINUOUS
 62
     2
 10
165.15
 20
92.14
 30
0.0
 11
165.54
 21
92.43
 31
0.0
  0
LINE
  8
0
  6
CONTINUOUS
 62
     2
 10
166.59
 20
92.71
 30
0.0
 11
166.52
 21
92.71
 31
0.0
  0
LINE
  8
0
  6
CONTINUOUS
 62
     2
 10
166.52
 20
92.72
 30
0.0
 11
166.52
 21
92.34
 31
0.0
  0
LINE
  8
0
  6
CONTINUOUS
 62
     2
 10
166.52
 20
92.34
 30
0.0
 11
166.58
 21
92.34
 31
0.0
  0
LINE
  8
0
  6
CONTINUOUS
 62
     2
 10
165.54
 20
88.83
 30
0.0
 11
165.54
 21
86.17
 31
0.0
  0
LINE
  8
0
  6
CONTINUOUS
 62
     2
 10
165.85
 20
86.19
 30
0.0
 11
165.54
 21
86.17
 31
0.0
  0
LINE
  8
0
  6
CONTINUOUS
 62
     2
 10
165.54
 20
88.83
 30
0.0
 11
165.85
 21
88.83
 31
0.0
  0
LINE
  8
0
  6
CONTINUOUS
 62
     2
 10
166.59
 20
88.08
 30
0.0
 11
166.59
 21
86.92
 31
0.0
  0
ARC
  8
0
  6
CONTINUOUS
 62
     2
 10
165.84
 20
88.08
 30
0.0
 40
0.75
 50
0.0
 51
90.0
  0
ARC
  8
0
  6
CONTINUOUS
 62
     2
 10
165.84
 20
86.92
 30
0.0
 40
0.75
 50
268.472474559
 51
0.0
  0
LINE
  8
0
  6
CONTINUOUS
 62
     2
 10
165.53
 20
88.85
 30
0.0
 11
165.15
 21
88.85
 31
0.0
  0
LINE
  8
0
  6
CONTINUOUS
 62
     2
 10
165.15
 20
88.85
 30
0.0
 11
165.15
 21
86.17
 31
0.0
  0
LINE
  8
0
  6
CONTINUOUS
 62
     2
 10
165.15
 20
86.17
 30
0.0
 11
165.53
 21
86.17
 31
0.0
  0
LINE
  8
0
  6
CONTINUOUS
 62
     2
 10
165.15
 20
87.38
 30
0.0
 11
165.53
 21
87.69
 31
0.0
  0
LINE
  8
0
  6
CONTINUOUS
 62
     2
 10
165.15
 20
87.14
 30
0.0
 11
165.54
 21
87.43
 31
0.0
  0
LINE
  8
0
  6
CONTINUOUS
 62
     2
 10
166.59
 20
87.71
 30
0.0
 11
166.52
 21
87.71
 31
0.0
  0
LINE
  8
0
  6
CONTINUOUS
 62
     2
 10
166.52
 20
87.72
 30
0.0
 11
166.52
 21
87.34
 31
0.0
  0
LINE
  8
0
  6
CONTINUOUS
 62
     2
 10
166.52
 20
87.34
 30
0.0
 11
166.58
 21
87.34
 31
0.0
  0
LINE
  8
0
  6
CONTINUOUS
 62
     2
 10
165.54
 20
83.83
 30
0.0
 11
165.54
 21
81.17
 31
0.0
  0
LINE
  8
0
  6
CONTINUOUS
 62
     2
 10
165.85
 20
81.19
 30
0.0
 11
165.54
 21
81.17
 31
0.0
  0
LINE
  8
0
  6
CONTINUOUS
 62
     2
 10
165.54
 20
83.83
 30
0.0
 11
165.85
 21
83.83
 31
0.0
  0
LINE
  8
0
  6
CONTINUOUS
 62
     2
 10
166.59
 20
83.08
 30
0.0
 11
166.59
 21
81.92
 31
0.0
  0
ARC
  8
0
  6
CONTINUOUS
 62
     2
 10
165.84
 20
83.08
 30
0.0
 40
0.75
 50
0.0
 51
90.0
  0
ARC
  8
0
  6
CONTINUOUS
 62
     2
 10
165.84
 20
81.92
 30
0.0
 40
0.75
 50
268.472474559
 51
0.0
  0
LINE
  8
0
  6
CONTINUOUS
 62
     2
 10
165.53
 20
83.85
 30
0.0
 11
165.15
 21
83.85
 31
0.0
  0
LINE
  8
0
  6
CONTINUOUS
 62
     2
 10
165.15
 20
83.85
 30
0.0
 11
165.15
 21
81.17
 31
0.0
  0
LINE
  8
0
  6
CONTINUOUS
 62
     2
 10
165.15
 20
81.17
 30
0.0
 11
165.53
 21
81.17
 31
0.0
  0
LINE
  8
0
  6
CONTINUOUS
 62
     2
 10
165.15
 20
82.38
 30
0.0
 11
165.53
 21
82.69
 31
0.0
  0
LINE
  8
0
  6
CONTINUOUS
 62
     2
 10
165.15
 20
82.14
 30
0.0
 11
165.54
 21
82.43
 31
0.0
  0
LINE
  8
0
  6
CONTINUOUS
 62
     2
 10
166.59
 20
82.71
 30
0.0
 11
166.52
 21
82.71
 31
0.0
  0
LINE
  8
0
  6
CONTINUOUS
 62
     2
 10
166.52
 20
82.72
 30
0.0
 11
166.52
 21
82.34
 31
0.0
  0
LINE
  8
0
  6
CONTINUOUS
 62
     2
 10
166.52
 20
82.34
 30
0.0
 11
166.58
 21
82.34
 31
0.0
  0
LINE
  8
0
  6
CONTINUOUS
 62
     2
 10
165.54
 20
68.83
 30
0.0
 11
165.54
 21
66.17
 31
0.0
  0
LINE
  8
0
  6
CONTINUOUS
 62
     2
 10
165.85
 20
66.19
 30
0.0
 11
165.54
 21
66.17
 31
0.0
  0
LINE
  8
0
  6
CONTINUOUS
 62
     2
 10
165.54
 20
68.83
 30
0.0
 11
165.85
 21
68.83
 31
0.0
  0
LINE
  8
0
  6
CONTINUOUS
 62
     2
 10
166.59
 20
68.08
 30
0.0
 11
166.59
 21
66.92
 31
0.0
  0
ARC
  8
0
  6
CONTINUOUS
 62
     2
 10
165.84
 20
68.08
 30
0.0
 40
0.75
 50
0.0
 51
90.0
  0
ARC
  8
0
  6
CONTINUOUS
 62
     2
 10
165.84
 20
66.92
 30
0.0
 40
0.75
 50
268.472474559
 51
0.0
  0
LINE
  8
0
  6
CONTINUOUS
 62
     2
 10
165.53
 20
68.85
 30
0.0
 11
165.15
 21
68.85
 31
0.0
  0
LINE
  8
0
  6
CONTINUOUS
 62
     2
 10
165.15
 20
68.85
 30
0.0
 11
165.15
 21
66.17
 31
0.0
  0
LINE
  8
0
  6
CONTINUOUS
 62
     2
 10
165.15
 20
66.17
 30
0.0
 11
165.53
 21
66.17
 31
0.0
  0
LINE
  8
0
  6
CONTINUOUS
 62
     2
 10
165.15
 20
67.38
 30
0.0
 11
165.53
 21
67.69
 31
0.0
  0
LINE
  8
0
  6
CONTINUOUS
 62
     2
 10
165.15
 20
67.14
 30
0.0
 11
165.54
 21
67.43
 31
0.0
  0
LINE
  8
0
  6
CONTINUOUS
 62
     2
 10
166.59
 20
67.71
 30
0.0
 11
166.52
 21
67.71
 31
0.0
  0
LINE
  8
0
  6
CONTINUOUS
 62
     2
 10
166.52
 20
67.72
 30
0.0
 11
166.52
 21
67.34
 31
0.0
  0
LINE
  8
0
  6
CONTINUOUS
 62
     2
 10
166.52
 20
67.34
 30
0.0
 11
166.58
 21
67.34
 31
0.0
  0
LINE
  8
0
  6
CONTINUOUS
 62
     2
 10
164.75
 20
65.45
 30
0.0
 11
165.15
 21
65.45
 31
0.0
  0
LINE
  8
0
  6
CONTINUOUS
 62
     1
 10
162.75
 20
65.45
 30
0.0
 11
160.0
 21
65.45
 31
0.0
  0
LINE
  8
0
  6
CONTINUOUS
 62
     1
 10
160.0
 20
65.45
 30
0.0
 11
160.0
 21
94.55
 31
0.0
  0
LINE
  8
0
  6
CONTINUOUS
 62
     1
 10
160.0
 20
94.55
 30
0.0
 11
162.75
 21
94.55
 31
0.0
  0
LINE
  8
0
  6
CONTINUOUS
 62
     2
 10
162.75
 20
94.55
 30
0.0
 11
164.75
 21
94.55
 31
0.0
  0
LINE
  8
0
  6
CONTINUOUS
 62
     2
 10
162.75
 20
65.45
 30
0.0
 11
164.75
 21
65.45
 31
0.0
  0
LINE
  8
0
  6
CONTINUOUS
 62
     2
 10
169.7
 20
69.4
 30
0.0
 11
168.0
 21
69.4
 31
0.0
  0
LINE
  8
0
  6
CONTINUOUS
 62
     2
 10
169.7
 20
90.6
 30
0.0
 11
169.7
 21
69.4
 31
0.0
  0
LINE
  8
0
  6
CONTINUOUS
 62
     2
 10
168.0
 20
69.4
 30
0.0
 11
168.0
 21
90.6
 31
0.0
  0
LINE
  8
0
  6
CONTINUOUS
 62
     2
 10
168.0
 20
90.6
 30
0.0
 11
169.7
 21
90.6
 31
0.0
  0
LINE
  8
0
  6
CONTINUOUS
 62
     2
 10
170.25
 20
89.55
 30
0.0
 11
176.25
 21
89.55
 31
0.0
  0
LINE
  8
0
  6
CONTINUOUS
 62
     2
 10
174.25
 20
89.55
 30
0.0
 11
174.897047613
 21
91.964814566
 31
0.0
  0
LINE
  8
0
  6
CONTINUOUS
 62
     2
 10
174.25
 20
89.55
 30
0.0
 11
173.602952387
 21
91.964814566
 31
0.0
  0
LINE
  8
0
  6
CONTINUOUS
 62
     2
 10
174.25
 20
93.3
 30
0.0
 11
174.25
 21
89.55
 31
0.0
  0
LINE
  8
0
  6
CONTINUOUS
 62
     2
 10
174.25
 20
89.55
 30
0.0
 11
174.25
 21
85.45
 31
0.0
  0
LINE
  8
0
  6
CONTINUOUS
 62
     2
 10
174.25
 20
85.45
 30
0.0
 11
174.25
 21
81.7
 31
0.0
  0
LINE
  8
0
  6
CONTINUOUS
 62
     2
 10
174.25
 20
85.45
 30
0.0
 11
173.602952387
 21
83.035185434
 31
0.0
  0
LINE
  8
0
  6
CONTINUOUS
 62
     2
 10
174.25
 20
85.45
 30
0.0
 11
174.897047613
 21
83.035185434
 31
0.0
  0
LINE
  8
0
  6
CONTINUOUS
 62
     2
 10
170.25
 20
85.45
 30
0.0
 11
176.25
 21
85.45
 31
0.0
  0
TEXT
  8
0
  6
CONTINUOUS
 62
     2
 10
173.25
 20
85.5
 30
0.2
 40
3.0
  1
８．２
 50
90.0
 41
0.5
 51
0.0
  7
KANJI5
  0
LINE
  8
0
  6
CONTINUOUS
 62
     2
 10
166.59
 20
82.568282402
 30
0.0
 11
167.237047613
 21
80.153467837
 31
0.0
  0
LINE
  8
0
  6
CONTINUOUS
 62
     2
 10
166.59
 20
82.568282402
 30
0.0
 11
168.357766953
 21
80.800515449
 31
0.0
  0
LINE
  8
0
  6
CONTINUOUS
 62
     2
 10
166.59
 20
82.568282402
 30
0.0
 11
170.631451884
 21
75.568282402
 31
0.0
  0
TEXT
  8
0
  6
CONTINUOUS
 62
     2
 10
170.631451884
 20
76.568282402
 30
0.3
 40
3.0
  1
Ｍ３ネジ
 50
0.0
 41
0.6
 51
0.0
  7
KANJI0
  0
LINE
  8
0
  6
CONTINUOUS
 62
     2
 10
170.631451884
 20
75.568282402
 30
0.0
 11
178.631451884
 21
75.568282402
 31
0.0
  0
LINE
  8
0
  6
CONTINUOUS
 62
     2
 10
169.7
 20
71.650961894
 30
0.0
 11
170.347047613
 21
69.236147329
 31
0.0
  0
LINE
  8
0
  6
CONTINUOUS
 62
     2
 10
169.7
 20
71.650961894
 30
0.0
 11
171.467766953
 21
69.883194941
 31
0.0
  0
TEXT
  8
0
  6
CONTINUOUS
 62
     2
 10
172.586751346
 20
67.650961894
 30
0.3
 40
3.0
  1
端子カバー
 50
0.0
 41
0.666666667
 51
0.0
  7
KANJI6
  0
LINE
  8
0
  6
CONTINUOUS
 62
     2
 10
172.586751346
 20
66.650961894
 30
0.0
 11
183.786751346
 21
66.650961894
 31
0.0
  0
LINE
  8
0
  6
CONTINUOUS
 62
     2
 10
169.7
 20
71.650961894
 30
0.0
 11
172.586751346
 21
66.650961894
 31
0.0
  0
LINE
  8
0
  6
CONTINUOUS
 62
     1
 10
162.75
 20
94.55
 30
0.0
 11
162.75
 21
90.45
 31
0.0
  0
LINE
  8
0
  6
CONTINUOUS
 62
     1
 10
162.75
 20
90.45
 30
0.0
 11
169.25
 21
90.45
 31
0.0
  0
LINE
  8
0
  6
CONTINUOUS
 62
     1
 10
169.25
 20
90.45
 30
0.0
 11
169.25
 21
89.55
 31
0.0
  0
LINE
  8
0
  6
CONTINUOUS
 62
     1
 10
169.25
 20
89.55
 30
0.0
 11
162.75
 21
89.55
 31
0.0
  0
LINE
  8
0
  6
CONTINUOUS
 62
     1
 10
162.75
 20
89.55
 30
0.0
 11
162.75
 21
85.45
 31
0.0
  0
LINE
  8
0
  6
CONTINUOUS
 62
     1
 10
162.75
 20
85.45
 30
0.0
 11
169.25
 21
85.45
 31
0.0
  0
LINE
  8
0
  6
CONTINUOUS
 62
     1
 10
169.25
 20
85.45
 30
0.0
 11
169.25
 21
84.55
 31
0.0
  0
LINE
  8
0
  6
CONTINUOUS
 62
     1
 10
169.25
 20
84.55
 30
0.0
 11
162.75
 21
84.55
 31
0.0
  0
LINE
  8
0
  6
CONTINUOUS
 62
     1
 10
162.75
 20
84.55
 30
0.0
 11
162.75
 21
80.45
 31
0.0
  0
LINE
  8
0
  6
CONTINUOUS
 62
     1
 10
162.75
 20
80.45
 30
0.0
 11
169.25
 21
80.45
 31
0.0
  0
LINE
  8
0
  6
CONTINUOUS
 62
     1
 10
169.25
 20
80.45
 30
0.0
 11
169.25
 21
79.55
 31
0.0
  0
LINE
  8
0
  6
CONTINUOUS
 62
     1
 10
169.25
 20
79.55
 30
0.0
 11
162.75
 21
79.55
 31
0.0
  0
LINE
  8
0
  6
CONTINUOUS
 62
     1
 10
162.75
 20
79.55
 30
0.0
 11
162.75
 21
75.45
 31
0.0
  0
LINE
  8
0
  6
CONTINUOUS
 62
     1
 10
162.75
 20
75.45
 30
0.0
 11
169.25
 21
75.45
 31
0.0
  0
LINE
  8
0
  6
CONTINUOUS
 62
     1
 10
169.25
 20
75.45
 30
0.0
 11
169.25
 21
74.55
 31
0.0
  0
LINE
  8
0
  6
CONTINUOUS
 62
     1
 10
169.25
 20
74.55
 30
0.0
 11
162.75
 21
74.55
 31
0.0
  0
LINE
  8
0
  6
CONTINUOUS
 62
     1
 10
162.75
 20
74.55
 30
0.0
 11
162.75
 21
70.45
 31
0.0
  0
LINE
  8
0
  6
CONTINUOUS
 62
     1
 10
162.75
 20
70.45
 30
0.0
 11
169.25
 21
70.45
 31
0.0
  0
LINE
  8
0
  6
CONTINUOUS
 62
     1
 10
169.25
 20
70.45
 30
0.0
 11
169.25
 21
69.55
 31
0.0
  0
LINE
  8
0
  6
CONTINUOUS
 62
     1
 10
169.25
 20
69.55
 30
0.0
 11
162.75
 21
69.55
 31
0.0
  0
LINE
  8
0
  6
CONTINUOUS
 62
     1
 10
162.75
 20
69.55
 30
0.0
 11
162.75
 21
65.45
 31
0.0
  0
LINE
  8
0
  6
CONTINUOUS
 62
     2
 10
164.75
 20
94.55
 30
0.0
 11
164.75
 21
90.45
 31
0.0
  0
LINE
  8
0
  6
CONTINUOUS
 62
     2
 10
165.15
 20
90.45
 30
0.0
 11
165.15
 21
94.55
 31
0.0
  0
LINE
  8
0
  6
CONTINUOUS
 62
     2
 10
165.15
 20
94.55
 30
0.0
 11
164.75
 21
94.55
 31
0.0
  0
LINE
  8
0
  6
CONTINUOUS
 62
     2
 10
164.75
 20
93.75
 30
0.0
 11
165.15
 21
93.75
 31
0.0
  0
LINE
  8
0
  6
CONTINUOUS
 62
     2
 10
164.75
 20
91.25
 30
0.0
 11
165.15
 21
91.25
 31
0.0
  0
LINE
  8
0
  6
CONTINUOUS
 62
     2
 10
164.75
 20
89.55
 30
0.0
 11
164.75
 21
85.45
 31
0.0
  0
LINE
  8
0
  6
CONTINUOUS
 62
     2
 10
165.15
 20
85.45
 30
0.0
 11
165.15
 21
89.55
 31
0.0
  0
LINE
  8
0
  6
CONTINUOUS
 62
     2
 10
164.75
 20
88.75
 30
0.0
 11
165.15
 21
88.75
 31
0.0
  0
LINE
  8
0
  6
CONTINUOUS
 62
     2
 10
164.75
 20
86.25
 30
0.0
 11
165.15
 21
86.25
 31
0.0
  0
LINE
  8
0
  6
CONTINUOUS
 62
     2
 10
164.75
 20
84.55
 30
0.0
 11
164.75
 21
80.45
 31
0.0
  0
LINE
  8
0
  6
CONTINUOUS
 62
     2
 10
165.15
 20
80.45
 30
0.0
 11
165.15
 21
84.55
 31
0.0
  0
LINE
  8
0
  6
CONTINUOUS
 62
     2
 10
164.75
 20
83.75
 30
0.0
 11
165.15
 21
83.75
 31
0.0
  0
LINE
  8
0
  6
CONTINUOUS
 62
     2
 10
164.75
 20
81.25
 30
0.0
 11
165.15
 21
81.25
 31
0.0
  0
LINE
  8
0
  6
CONTINUOUS
 62
     2
 10
164.75
 20
79.55
 30
0.0
 11
164.75
 21
75.45
 31
0.0
  0
LINE
  8
0
  6
CONTINUOUS
 62
     2
 10
164.75
 20
78.75
 30
0.0
 11
165.15
 21
78.75
 31
0.0
  0
LINE
  8
0
  6
CONTINUOUS
 62
     2
 10
164.75
 20
76.25
 30
0.0
 11
165.15
 21
76.25
 31
0.0
  0
LINE
  8
0
  6
CONTINUOUS
 62
     2
 10
164.75
 20
74.55
 30
0.0
 11
164.75
 21
70.45
 31
0.0
  0
LINE
  8
0
  6
CONTINUOUS
 62
     2
 10
164.75
 20
73.75
 30
0.0
 11
165.15
 21
73.75
 31
0.0
  0
LINE
  8
0
  6
CONTINUOUS
 62
     2
 10
164.75
 20
71.25
 30
0.0
 11
165.15
 21
71.25
 31
0.0
  0
LINE
  8
0
  6
CONTINUOUS
 62
     2
 10
164.75
 20
69.55
 30
0.0
 11
164.75
 21
65.45
 31
0.0
  0
LINE
  8
0
  6
CONTINUOUS
 62
     2
 10
165.15
 20
65.45
 30
0.0
 11
165.15
 21
69.55
 31
0.0
  0
LINE
  8
0
  6
CONTINUOUS
 62
     2
 10
164.75
 20
68.75
 30
0.0
 11
165.15
 21
68.75
 31
0.0
  0
LINE
  8
0
  6
CONTINUOUS
 62
     2
 10
164.75
 20
66.25
 30
0.0
 11
165.15
 21
66.25
 31
0.0
  0
LINE
  8
0
  6
CONTINUOUS
 62
     2
 10
167.85
 20
90.45
 30
0.0
 11
167.85
 21
89.55
 31
0.0
  0
LINE
  8
0
  6
CONTINUOUS
 62
     2
 10
168.35
 20
89.55
 30
0.0
 11
168.35
 21
90.45
 31
0.0
  0
LINE
  8
0
  6
CONTINUOUS
 62
     2
 10
167.25
 20
90.45
 30
0.0
 11
167.25
 21
89.55
 31
0.0
  0
LINE
  8
0
  6
CONTINUOUS
 62
     2
 10
167.85
 20
85.45
 30
0.0
 11
167.85
 21
84.55
 31
0.0
  0
LINE
  8
0
  6
CONTINUOUS
 62
     2
 10
168.35
 20
84.55
 30
0.0
 11
168.35
 21
85.45
 31
0.0
  0
LINE
  8
0
  6
CONTINUOUS
 62
     2
 10
167.25
 20
85.45
 30
0.0
 11
167.25
 21
84.55
 31
0.0
  0
LINE
  8
0
  6
CONTINUOUS
 62
     2
 10
167.85
 20
80.45
 30
0.0
 11
167.85
 21
79.55
 31
0.0
  0
LINE
  8
0
  6
CONTINUOUS
 62
     2
 10
168.35
 20
79.55
 30
0.0
 11
168.35
 21
80.45
 31
0.0
  0
LINE
  8
0
  6
CONTINUOUS
 62
     2
 10
167.25
 20
80.45
 30
0.0
 11
167.25
 21
79.55
 31
0.0
  0
LINE
  8
0
  6
CONTINUOUS
 62
     2
 10
167.85
 20
75.45
 30
0.0
 11
167.85
 21
74.55
 31
0.0
  0
LINE
  8
0
  6
CONTINUOUS
 62
     2
 10
168.35
 20
74.55
 30
0.0
 11
168.35
 21
75.45
 31
0.0
  0
LINE
  8
0
  6
CONTINUOUS
 62
     2
 10
167.25
 20
75.45
 30
0.0
 11
167.25
 21
74.55
 31
0.0
  0
LINE
  8
0
  6
CONTINUOUS
 62
     2
 10
167.85
 20
70.45
 30
0.0
 11
167.85
 21
69.55
 31
0.0
  0
LINE
  8
0
  6
CONTINUOUS
 62
     2
 10
168.35
 20
69.55
 30
0.0
 11
168.35
 21
70.45
 31
0.0
  0
LINE
  8
0
  6
CONTINUOUS
 62
     2
 10
167.25
 20
70.45
 30
0.0
 11
167.25
 21
69.55
 31
0.0
  0
LINE
  8
0
  6
CONTINUOUS
 62
     2
 10
165.54
 20
93.83
 30
0.0
 11
165.54
 21
91.17
 31
0.0
  0
LINE
  8
0
  6
CONTINUOUS
 62
     2
 10
165.85
 20
91.19
 30
0.0
 11
165.54
 21
91.17
 31
0.0
  0
LINE
  8
0
  6
CONTINUOUS
 62
     2
 10
165.54
 20
93.83
 30
0.0
 11
165.85
 21
93.83
 31
0.0
  0
LINE
  8
0
  6
CONTINUOUS
 62
     2
 10
166.59
 20
93.08
 30
0.0
 11
166.59
 21
91.92
 31
0.0
  0
ARC
  8
0
  6
CONTINUOUS
 62
     2
 10
165.84
 20
93.08
 30
0.0
 40
0.75
 50
0.0
 51
90.0
  0
ARC
  8
0
  6
CONTINUOUS
 62
     2
 10
165.84
 20
91.92
 30
0.0
 40
0.75
 50
268.472474559
 51
0.0
  0
LINE
  8
0
  6
CONTINUOUS
 62
     2
 10
165.53
 20
93.85
 30
0.0
 11
165.15
 21
93.85
 31
0.0
  0
LINE
  8
0
  6
CONTINUOUS
 62
     2
 10
165.15
 20
93.85
 30
0.0
 11
165.15
 21
91.17
 31
0.0
  0
LINE
  8
0
  6
CONTINUOUS
 62
     2
 10
165.15
 20
91.17
 30
0.0
 11
165.53
 21
91.17
 31
0.0
  0
LINE
  8
0
  6
CONTINUOUS
 62
     2
 10
165.15
 20
92.38
 30
0.0
 11
165.53
 21
92.69
 31
0.0
  0
LINE
  8
0
  6
CONTINUOUS
 62
     2
 10
165.15
 20
92.14
 30
0.0
 11
165.54
 21
92.43
 31
0.0
  0
LINE
  8
0
  6
CONTINUOUS
 62
     2
 10
166.59
 20
92.71
 30
0.0
 11
166.52
 21
92.71
 31
0.0
  0
LINE
  8
0
  6
CONTINUOUS
 62
     2
 10
166.52
 20
92.72
 30
0.0
 11
166.52
 21
92.34
 31
0.0
  0
LINE
  8
0
  6
CONTINUOUS
 62
     2
 10
166.52
 20
92.34
 30
0.0
 11
166.58
 21
92.34
 31
0.0
  0
LINE
  8
0
  6
CONTINUOUS
 62
     2
 10
165.54
 20
88.83
 30
0.0
 11
165.54
 21
86.17
 31
0.0
  0
LINE
  8
0
  6
CONTINUOUS
 62
     2
 10
165.85
 20
86.19
 30
0.0
 11
165.54
 21
86.17
 31
0.0
  0
LINE
  8
0
  6
CONTINUOUS
 62
     2
 10
165.54
 20
88.83
 30
0.0
 11
165.85
 21
88.83
 31
0.0
  0
LINE
  8
0
  6
CONTINUOUS
 62
     2
 10
166.59
 20
88.08
 30
0.0
 11
166.59
 21
86.92
 31
0.0
  0
ARC
  8
0
  6
CONTINUOUS
 62
     2
 10
165.84
 20
88.08
 30
0.0
 40
0.75
 50
0.0
 51
90.0
  0
ARC
  8
0
  6
CONTINUOUS
 62
     2
 10
165.84
 20
86.92
 30
0.0
 40
0.75
 50
268.472474559
 51
0.0
  0
LINE
  8
0
  6
CONTINUOUS
 62
     2
 10
165.53
 20
88.85
 30
0.0
 11
165.15
 21
88.85
 31
0.0
  0
LINE
  8
0
  6
CONTINUOUS
 62
     2
 10
165.15
 20
88.85
 30
0.0
 11
165.15
 21
86.17
 31
0.0
  0
LINE
  8
0
  6
CONTINUOUS
 62
     2
 10
165.15
 20
86.17
 30
0.0
 11
165.53
 21
86.17
 31
0.0
  0
LINE
  8
0
  6
CONTINUOUS
 62
     2
 10
165.15
 20
87.38
 30
0.0
 11
165.53
 21
87.69
 31
0.0
  0
LINE
  8
0
  6
CONTINUOUS
 62
     2
 10
165.15
 20
87.14
 30
0.0
 11
165.54
 21
87.43
 31
0.0
  0
LINE
  8
0
  6
CONTINUOUS
 62
     2
 10
166.59
 20
87.71
 30
0.0
 11
166.52
 21
87.71
 31
0.0
  0
LINE
  8
0
  6
CONTINUOUS
 62
     2
 10
166.52
 20
87.72
 30
0.0
 11
166.52
 21
87.34
 31
0.0
  0
LINE
  8
0
  6
CONTINUOUS
 62
     2
 10
166.52
 20
87.34
 30
0.0
 11
166.58
 21
87.34
 31
0.0
  0
LINE
  8
0
  6
CONTINUOUS
 62
     2
 10
165.54
 20
83.83
 30
0.0
 11
165.54
 21
81.17
 31
0.0
  0
LINE
  8
0
  6
CONTINUOUS
 62
     2
 10
165.85
 20
81.19
 30
0.0
 11
165.54
 21
81.17
 31
0.0
  0
LINE
  8
0
  6
CONTINUOUS
 62
     2
 10
165.54
 20
83.83
 30
0.0
 11
165.85
 21
83.83
 31
0.0
  0
LINE
  8
0
  6
CONTINUOUS
 62
     2
 10
166.59
 20
83.08
 30
0.0
 11
166.59
 21
81.92
 31
0.0
  0
ARC
  8
0
  6
CONTINUOUS
 62
     2
 10
165.84
 20
83.08
 30
0.0
 40
0.75
 50
0.0
 51
90.0
  0
ARC
  8
0
  6
CONTINUOUS
 62
     2
 10
165.84
 20
81.92
 30
0.0
 40
0.75
 50
268.472474559
 51
0.0
  0
LINE
  8
0
  6
CONTINUOUS
 62
     2
 10
165.53
 20
83.85
 30
0.0
 11
165.15
 21
83.85
 31
0.0
  0
LINE
  8
0
  6
CONTINUOUS
 62
     2
 10
165.15
 20
83.85
 30
0.0
 11
165.15
 21
81.17
 31
0.0
  0
LINE
  8
0
  6
CONTINUOUS
 62
     2
 10
165.15
 20
81.17
 30
0.0
 11
165.53
 21
81.17
 31
0.0
  0
LINE
  8
0
  6
CONTINUOUS
 62
     2
 10
165.15
 20
82.38
 30
0.0
 11
165.53
 21
82.69
 31
0.0
  0
LINE
  8
0
  6
CONTINUOUS
 62
     2
 10
165.15
 20
82.14
 30
0.0
 11
165.54
 21
82.43
 31
0.0
  0
LINE
  8
0
  6
CONTINUOUS
 62
     2
 10
166.59
 20
82.71
 30
0.0
 11
166.52
 21
82.71
 31
0.0
  0
LINE
  8
0
  6
CONTINUOUS
 62
     2
 10
166.52
 20
82.72
 30
0.0
 11
166.52
 21
82.34
 31
0.0
  0
LINE
  8
0
  6
CONTINUOUS
 62
     2
 10
166.52
 20
82.34
 30
0.0
 11
166.58
 21
82.34
 31
0.0
  0
LINE
  8
0
  6
CONTINUOUS
 62
     2
 10
165.54
 20
68.83
 30
0.0
 11
165.54
 21
66.17
 31
0.0
  0
LINE
  8
0
  6
CONTINUOUS
 62
     2
 10
165.85
 20
66.19
 30
0.0
 11
165.54
 21
66.17
 31
0.0
  0
LINE
  8
0
  6
CONTINUOUS
 62
     2
 10
165.54
 20
68.83
 30
0.0
 11
165.85
 21
68.83
 31
0.0
  0
LINE
  8
0
  6
CONTINUOUS
 62
     2
 10
166.59
 20
68.08
 30
0.0
 11
166.59
 21
66.92
 31
0.0
  0
ARC
  8
0
  6
CONTINUOUS
 62
     2
 10
165.84
 20
68.08
 30
0.0
 40
0.75
 50
0.0
 51
90.0
  0
ARC
  8
0
  6
CONTINUOUS
 62
     2
 10
165.84
 20
66.92
 30
0.0
 40
0.75
 50
268.472474559
 51
0.0
  0
LINE
  8
0
  6
CONTINUOUS
 62
     2
 10
165.53
 20
68.85
 30
0.0
 11
165.15
 21
68.85
 31
0.0
  0
LINE
  8
0
  6
CONTINUOUS
 62
     2
 10
165.15
 20
68.85
 30
0.0
 11
165.15
 21
66.17
 31
0.0
  0
LINE
  8
0
  6
CONTINUOUS
 62
     2
 10
165.15
 20
66.17
 30
0.0
 11
165.53
 21
66.17
 31
0.0
  0
LINE
  8
0
  6
CONTINUOUS
 62
     2
 10
165.15
 20
67.38
 30
0.0
 11
165.53
 21
67.69
 31
0.0
  0
LINE
  8
0
  6
CONTINUOUS
 62
     2
 10
165.15
 20
67.14
 30
0.0
 11
165.54
 21
67.43
 31
0.0
  0
LINE
  8
0
  6
CONTINUOUS
 62
     2
 10
166.59
 20
67.71
 30
0.0
 11
166.52
 21
67.71
 31
0.0
  0
LINE
  8
0
  6
CONTINUOUS
 62
     2
 10
166.52
 20
67.72
 30
0.0
 11
166.52
 21
67.34
 31
0.0
  0
LINE
  8
0
  6
CONTINUOUS
 62
     2
 10
166.52
 20
67.34
 30
0.0
 11
166.58
 21
67.34
 31
0.0
  0
LINE
  8
0
  6
CONTINUOUS
 62
     2
 10
164.75
 20
65.45
 30
0.0
 11
165.15
 21
65.45
 31
0.0
  0
LINE
  8
0
  6
CONTINUOUS
 62
     1
 10
162.75
 20
65.45
 30
0.0
 11
160.0
 21
65.45
 31
0.0
  0
LINE
  8
0
  6
CONTINUOUS
 62
     1
 10
160.0
 20
65.45
 30
0.0
 11
160.0
 21
94.55
 31
0.0
  0
LINE
  8
0
  6
CONTINUOUS
 62
     1
 10
160.0
 20
94.55
 30
0.0
 11
162.75
 21
94.55
 31
0.0
  0
LINE
  8
0
  6
CONTINUOUS
 62
     2
 10
162.75
 20
94.55
 30
0.0
 11
164.75
 21
94.55
 31
0.0
  0
LINE
  8
0
  6
CONTINUOUS
 62
     2
 10
162.75
 20
65.45
 30
0.0
 11
164.75
 21
65.45
 31
0.0
  0
LINE
  8
0
  6
CONTINUOUS
 62
     2
 10
169.7
 20
69.4
 30
0.0
 11
168.0
 21
69.4
 31
0.0
  0
LINE
  8
0
  6
CONTINUOUS
 62
     2
 10
169.7
 20
90.6
 30
0.0
 11
169.7
 21
69.4
 31
0.0
  0
LINE
  8
0
  6
CONTINUOUS
 62
     2
 10
168.0
 20
69.4
 30
0.0
 11
168.0
 21
90.6
 31
0.0
  0
LINE
  8
0
  6
CONTINUOUS
 62
     2
 10
168.0
 20
90.6
 30
0.0
 11
169.7
 21
90.6
 31
0.0
  0
LINE
  8
0
  6
CONTINUOUS
 62
     2
 10
170.25
 20
89.55
 30
0.0
 11
176.25
 21
89.55
 31
0.0
  0
LINE
  8
0
  6
CONTINUOUS
 62
     2
 10
174.25
 20
89.55
 30
0.0
 11
174.897047613
 21
91.964814566
 31
0.0
  0
LINE
  8
0
  6
CONTINUOUS
 62
     2
 10
174.25
 20
89.55
 30
0.0
 11
173.602952387
 21
91.964814566
 31
0.0
  0
LINE
  8
0
  6
CONTINUOUS
 62
     2
 10
174.25
 20
93.3
 30
0.0
 11
174.25
 21
89.55
 31
0.0
  0
LINE
  8
0
  6
CONTINUOUS
 62
     2
 10
174.25
 20
89.55
 30
0.0
 11
174.25
 21
85.45
 31
0.0
  0
LINE
  8
0
  6
CONTINUOUS
 62
     2
 10
174.25
 20
85.45
 30
0.0
 11
174.25
 21
81.7
 31
0.0
  0
LINE
  8
0
  6
CONTINUOUS
 62
     2
 10
174.25
 20
85.45
 30
0.0
 11
173.602952387
 21
83.035185434
 31
0.0
  0
LINE
  8
0
  6
CONTINUOUS
 62
     2
 10
174.25
 20
85.45
 30
0.0
 11
174.897047613
 21
83.035185434
 31
0.0
  0
LINE
  8
0
  6
CONTINUOUS
 62
     2
 10
170.25
 20
85.45
 30
0.0
 11
176.25
 21
85.45
 31
0.0
  0
TEXT
  8
0
  6
CONTINUOUS
 62
     2
 10
173.25
 20
85.5
 30
0.2
 40
3.0
  1
８．２
 50
90.0
 41
0.5
 51
0.0
  7
KANJI5
  0
LINE
  8
0
  6
CONTINUOUS
 62
     2
 10
166.59
 20
82.568282402
 30
0.0
 11
167.237047613
 21
80.153467837
 31
0.0
  0
LINE
  8
0
  6
CONTINUOUS
 62
     2
 10
166.59
 20
82.568282402
 30
0.0
 11
168.357766953
 21
80.800515449
 31
0.0
  0
LINE
  8
0
  6
CONTINUOUS
 62
     2
 10
166.59
 20
82.568282402
 30
0.0
 11
170.631451884
 21
75.568282402
 31
0.0
  0
TEXT
  8
0
  6
CONTINUOUS
 62
     2
 10
170.631451884
 20
76.568282402
 30
0.3
 40
3.0
  1
Ｍ３ネジ
 50
0.0
 41
0.6
 51
0.0
  7
KANJI0
  0
LINE
  8
0
  6
CONTINUOUS
 62
     2
 10
170.631451884
 20
75.568282402
 30
0.0
 11
178.631451884
 21
75.568282402
 31
0.0
  0
LINE
  8
0
  6
CONTINUOUS
 62
     2
 10
169.7
 20
71.650961894
 30
0.0
 11
170.347047613
 21
69.236147329
 31
0.0
  0
LINE
  8
0
  6
CONTINUOUS
 62
     2
 10
169.7
 20
71.650961894
 30
0.0
 11
171.467766953
 21
69.883194941
 31
0.0
  0
TEXT
  8
0
  6
CONTINUOUS
 62
     2
 10
172.586751346
 20
67.650961894
 30
0.3
 40
3.0
  1
端子カバー
 50
0.0
 41
0.666666667
 51
0.0
  7
KANJI6
  0
LINE
  8
0
  6
CONTINUOUS
 62
     2
 10
172.586751346
 20
66.650961894
 30
0.0
 11
183.786751346
 21
66.650961894
 31
0.0
  0
LINE
  8
0
  6
CONTINUOUS
 62
     2
 10
169.7
 20
71.650961894
 30
0.0
 11
172.586751346
 21
66.650961894
 31
0.0
  0
LINE
  8
0
  6
CONTINUOUS
 62
     2
 10
161.0
 20
112.5
 30
0.0
 11
187.281803249
 21
112.5
 31
0.0
  0
LINE
  8
0
  6
CONTINUOUS
 62
     2
 10
184.281803249
 20
47.5
 30
0.0
 11
184.928850862
 21
49.914814566
 31
0.0
  0
LINE
  8
0
  6
CONTINUOUS
 62
     2
 10
184.281803249
 20
47.5
 30
0.0
 11
183.634755636
 21
49.914814566
 31
0.0
  0
LINE
  8
0
  6
CONTINUOUS
 62
     2
 10
184.281803249
 20
47.5
 30
0.0
 11
184.281803249
 21
112.5
 31
0.0
  0
LINE
  8
0
  6
CONTINUOUS
 62
     2
 10
184.281803249
 20
112.5
 30
0.0
 11
183.634755636
 21
110.085185434
 31
0.0
  0
LINE
  8
0
  6
CONTINUOUS
 62
     2
 10
184.281803249
 20
112.5
 30
0.0
 11
184.928850862
 21
110.085185434
 31
0.0
  0
TEXT
  8
0
  6
CONTINUOUS
 62
     2
 10
183.281803249
 20
77.0
 30
0.3
 40
3.0
  1
１３０
 50
90.0
 41
0.6
 51
0.0
  7
KANJI0
  0
TEXT
  8
0
  6
CONTINUOUS
 62
     2
 10
183.281803249
 20
77.0
 30
0.3
 40
3.0
  1
１３０
 50
90.0
 41
0.6
 51
0.0
  7
KANJI0
  0
LINE
  8
0
  6
CONTINUOUS
 62
     2
 10
161.0
 20
47.5
 30
0.0
 11
186.281803249
 21
47.5
 31
0.0
  0
LINE
  8
0
  6
CONTINUOUS
 62
     1
 10
189.75
 20
114.5
 30
0.0
 11
210.25
 21
114.5
 31
0.0
  0
LINE
  8
0
  6
CONTINUOUS
 62
     1
 10
191.0
 20
47.5
 30
0.0
 11
209.0
 21
47.5
 31
0.0
  0
LINE
  8
0
  6
CONTINUOUS
 62
     1
 10
209.0
 20
47.5
 30
0.0
 11
209.0
 21
112.5
 31
0.0
  0
LINE
  8
0
  6
CONTINUOUS
 62
     1
 10
209.0
 20
112.5
 30
0.0
 11
191.0
 21
112.5
 31
0.0
  0
LINE
  8
0
  6
CONTINUOUS
 62
     1
 10
191.0
 20
112.5
 30
0.0
 11
191.0
 21
47.5
 31
0.0
  0
LINE
  8
0
  6
CONTINUOUS
 62
     1
 10
193.5
 20
123.25
 30
0.0
 11
206.5
 21
123.25
 31
0.0
  0
LINE
  8
0
  6
CONTINUOUS
 62
     1
 10
206.5
 20
123.25
 30
0.0
 11
206.5
 21
123.0
 31
0.0
  0
LINE
  8
0
  6
CONTINUOUS
 62
     1
 10
206.5
 20
123.0
 30
0.0
 11
209.5
 21
123.0
 31
0.0
  0
LINE
  8
0
  6
CONTINUOUS
 62
     1
 10
209.5
 20
123.0
 30
0.0
 11
209.5
 21
123.25
 31
0.0
  0
LINE
  8
0
  6
CONTINUOUS
 62
     1
 10
209.5
 20
123.25
 30
0.0
 11
210.25
 21
123.25
 31
0.0
  0
LINE
  8
0
  6
CONTINUOUS
 62
     1
 10
193.5
 20
123.25
 30
0.0
 11
193.5
 21
123.0
 31
0.0
  0
LINE
  8
0
  6
CONTINUOUS
 62
     1
 10
193.5
 20
123.0
 30
0.0
 11
190.5
 21
123.0
 31
0.0
  0
LINE
  8
0
  6
CONTINUOUS
 62
     1
 10
190.5
 20
123.0
 30
0.0
 11
190.5
 21
123.25
 31
0.0
  0
LINE
  8
0
  6
CONTINUOUS
 62
     1
 10
190.5
 20
123.25
 30
0.0
 11
189.75
 21
123.25
 31
0.0
  0
LINE
  8
0
  6
CONTINUOUS
 62
     1
 10
193.5
 20
41.75
 30
0.0
 11
206.5
 21
41.75
 31
0.0
  0
LINE
  8
0
  6
CONTINUOUS
 62
     1
 10
206.5
 20
41.75
 30
0.0
 11
206.5
 21
42.0
 31
0.0
  0
LINE
  8
0
  6
CONTINUOUS
 62
     1
 10
206.5
 20
42.0
 30
0.0
 11
209.5
 21
42.0
 31
0.0
  0
LINE
  8
0
  6
CONTINUOUS
 62
     1
 10
209.5
 20
42.0
 30
0.0
 11
209.5
 21
41.75
 31
0.0
  0
LINE
  8
0
  6
CONTINUOUS
 62
     1
 10
209.5
 20
41.75
 30
0.0
 11
210.25
 21
41.75
 31
0.0
  0
LINE
  8
0
  6
CONTINUOUS
 62
     1
 10
193.5
 20
41.75
 30
0.0
 11
193.5
 21
42.0
 31
0.0
  0
LINE
  8
0
  6
CONTINUOUS
 62
     1
 10
193.5
 20
42.0
 30
0.0
 11
190.5
 21
42.0
 31
0.0
  0
LINE
  8
0
  6
CONTINUOUS
 62
     1
 10
190.5
 20
42.0
 30
0.0
 11
190.5
 21
41.75
 31
0.0
  0
LINE
  8
0
  6
CONTINUOUS
 62
     1
 10
189.75
 20
123.25
 30
0.0
 11
189.75
 21
41.75
 31
0.0
  0
LINE
  8
0
  6
CONTINUOUS
 62
     1
 10
190.5
 20
41.75
 30
0.0
 11
189.75
 21
41.75
 31
0.0
  0
LINE
  8
0
  6
CONTINUOUS
 62
     1
 10
210.25
 20
123.25
 30
0.0
 11
210.25
 21
41.75
 31
0.0
  0
ARC
  8
0
  6
CONTINUOUS
 62
     1
 10
210.0
 20
40.5
 30
0.0
 40
0.5
 50
270.0
 51
0.0
  0
ARC
  8
0
  6
CONTINUOUS
 62
     1
 10
190.0
 20
40.5
 30
0.0
 40
0.5
 50
180.0
 51
270.0
  0
LINE
  8
0
  6
CONTINUOUS
 62
     1
 10
189.5
 20
124.5
 30
0.0
 11
189.5
 21
40.5
 31
0.0
  0
ARC
  8
0
  6
CONTINUOUS
 62
     1
 10
190.0
 20
124.5
 30
0.0
 40
0.5
 50
90.0
 51
180.0
  0
LINE
  8
0
  6
CONTINUOUS
 62
     1
 10
210.5
 20
124.5
 30
0.0
 11
210.5
 21
40.5
 31
0.0
  0
ARC
  8
0
  6
CONTINUOUS
 62
     1
 10
210.0
 20
124.5
 30
0.0
 40
0.5
 50
0.0
 51
90.0
  0
LINE
  8
0
  6
CONTINUOUS
 62
     1
 10
189.75
 20
45.5
 30
0.0
 11
210.25
 21
45.5
 31
0.0
  0
LINE
  8
0
  6
CONTINUOUS
 62
     2
 10
191.75
 20
45.0
 30
0.0
 11
191.75
 21
43.0
 31
0.0
  0
LINE
  8
0
  6
CONTINUOUS
 62
     2
 10
208.25
 20
43.0
 30
0.0
 11
208.25
 21
45.0
 31
0.0
  0
LINE
  8
0
  6
CONTINUOUS
 62
     2
 10
208.25
 20
45.0
 30
0.0
 11
191.75
 21
45.0
 31
0.0
  0
LINE
  8
0
  6
CONTINUOUS
 62
     2
 10
191.75
 20
122.0
 30
0.0
 11
191.75
 21
115.0
 31
0.0
  0
LINE
  8
0
  6
CONTINUOUS
 62
     2
 10
208.25
 20
115.0
 30
0.0
 11
208.25
 21
122.0
 31
0.0
  0
LINE
  8
0
  6
CONTINUOUS
 62
     2
 10
191.75
 20
115.0
 30
0.0
 11
208.25
 21
115.0
 31
0.0
  0
LINE
  8
0
  6
CONTINUOUS
 62
     2
 10
198.78653389
 20
122.0
 30
0.0
 11
191.75
 21
122.0
 31
0.0
  0
LINE
  8
0
  6
CONTINUOUS
 62
     2
 10
208.25
 20
122.0
 30
0.0
 11
201.21346611
 21
122.0
 31
0.0
  0
ARC
  8
0
  6
CONTINUOUS
 62
     2
 10
200.0
 20
121.7
 30
0.0
 40
1.25
 50
166.113459637
 51
13.886540363
  0
LINE
  8
0
  6
CONTINUOUS
 62
     2
 10
201.233896268
 20
43.0
 30
0.0
 11
208.25
 21
43.0
 31
0.0
  0
LINE
  8
0
  6
CONTINUOUS
 62
     2
 10
191.75
 20
43.0
 30
0.0
 11
198.766103732
 21
43.0
 31
0.0
  0
ARC
  8
0
  6
CONTINUOUS
 62
     2
 10
200.0
 20
43.2
 30
0.0
 40
1.25
 50
350.793103779
 51
189.206896221
  0
LINE
  8
0
  6
CONTINUOUS
 62
     2
 10
192.0
 20
112.0
 30
0.0
 11
208.0
 21
112.0
 31
0.0
  0
LINE
  8
0
  6
CONTINUOUS
 62
     2
 10
192.0
 20
112.0
 30
0.0
 11
192.0
 21
98.5
 31
0.0
  0
LINE
  8
0
  6
CONTINUOUS
 62
     2
 10
192.0
 20
98.5
 30
0.0
 11
208.0
 21
98.5
 31
0.0
  0
LINE
  8
0
  6
CONTINUOUS
 62
     2
 10
208.0
 20
98.5
 30
0.0
 11
208.0
 21
112.0
 31
0.0
  0
TEXT
  8
0
  6
CONTINUOUS
 62
     2
 10
194.0
 20
106.0
 30
0.3
 40
3.0
  1
貼　銘　板
 50
0.0
 41
0.9
 51
0.0
  7
KANJI1
  0
TEXT
  8
0
  6
CONTINUOUS
 62
     2
 10
191.4
 20
102.0
 30
0.3
 40
3.0
  1
（表示事項）
 50
0.0
 41
0.9
 51
0.0
  7
KANJI1
  0
LINE
  8
0
  6
CONTINUOUS
 62
     2
 10
189.75
 20
124.55
 30
0.0
 11
189.75
 21
132.05
 31
0.0
  0
LINE
  8
0
  6
CONTINUOUS
 62
     2
 10
189.75
 20
130.05
 30
0.0
 11
192.164814566
 21
129.402952387
 31
0.0
  0
LINE
  8
0
  6
CONTINUOUS
 62
     2
 10
189.75
 20
130.05
 30
0.0
 11
192.164814566
 21
130.697047613
 31
0.0
  0
LINE
  8
0
  6
CONTINUOUS
 62
     2
 10
189.75
 20
130.05
 30
0.0
 11
210.25
 21
130.05
 31
0.0
  0
LINE
  8
0
  6
CONTINUOUS
 62
     2
 10
210.25
 20
130.05
 30
0.0
 11
207.835185434
 21
130.697047613
 31
0.0
  0
LINE
  8
0
  6
CONTINUOUS
 62
     2
 10
210.25
 20
130.05
 30
0.0
 11
207.835185434
 21
129.402952387
 31
0.0
  0
LINE
  8
0
  6
CONTINUOUS
 62
     2
 10
210.25
 20
124.55
 30
0.0
 11
210.25
 21
132.05
 31
0.0
  0
LINE
  8
0
  6
CONTINUOUS
 62
     1
 10
197.0
 20
65.45
 30
0.0
 11
197.0
 21
69.55
 31
0.0
  0
LINE
  8
0
  6
CONTINUOUS
 62
     1
 10
203.0
 20
69.55
 30
0.0
 11
203.0
 21
65.45
 31
0.0
  0
LINE
  8
0
  6
CONTINUOUS
 62
     1
 10
204.25
 20
69.55
 30
0.0
 11
195.75
 21
69.55
 31
0.0
  0
LINE
  8
0
  6
CONTINUOUS
 62
     1
 10
195.75
 20
70.45
 30
0.0
 11
204.25
 21
70.45
 31
0.0
  0
LINE
  8
0
  6
CONTINUOUS
 62
     1
 10
204.25
 20
70.45
 30
0.0
 11
204.25
 21
69.55
 31
0.0
  0
LINE
  8
0
  6
CONTINUOUS
 62
     1
 10
195.75
 20
70.45
 30
0.0
 11
195.75
 21
69.55
 31
0.0
  0
LINE
  8
0
  6
CONTINUOUS
 62
     1
 10
195.75
 20
69.55
 30
0.0
 11
195.75
 21
65.45
 31
0.0
  0
LINE
  8
0
  6
CONTINUOUS
 62
     1
 10
204.25
 20
65.45
 30
0.0
 11
204.25
 21
69.55
 31
0.0
  0
LINE
  8
0
  6
CONTINUOUS
 62
     1
 10
197.0
 20
70.45
 30
0.0
 11
197.0
 21
74.55
 31
0.0
  0
LINE
  8
0
  6
CONTINUOUS
 62
     1
 10
203.0
 20
74.55
 30
0.0
 11
203.0
 21
70.45
 31
0.0
  0
LINE
  8
0
  6
CONTINUOUS
 62
     1
 10
204.25
 20
74.55
 30
0.0
 11
195.75
 21
74.55
 31
0.0
  0
LINE
  8
0
  6
CONTINUOUS
 62
     1
 10
195.75
 20
75.45
 30
0.0
 11
204.25
 21
75.45
 31
0.0
  0
LINE
  8
0
  6
CONTINUOUS
 62
     1
 10
204.25
 20
75.45
 30
0.0
 11
204.25
 21
74.55
 31
0.0
  0
LINE
  8
0
  6
CONTINUOUS
 62
     1
 10
195.75
 20
75.45
 30
0.0
 11
195.75
 21
74.55
 31
0.0
  0
LINE
  8
0
  6
CONTINUOUS
 62
     1
 10
195.75
 20
74.55
 30
0.0
 11
195.75
 21
70.45
 31
0.0
  0
LINE
  8
0
  6
CONTINUOUS
 62
     1
 10
204.25
 20
70.45
 30
0.0
 11
204.25
 21
74.55
 31
0.0
  0
LINE
  8
0
  6
CONTINUOUS
 62
     1
 10
197.0
 20
75.45
 30
0.0
 11
197.0
 21
79.55
 31
0.0
  0
LINE
  8
0
  6
CONTINUOUS
 62
     1
 10
203.0
 20
79.55
 30
0.0
 11
203.0
 21
75.45
 31
0.0
  0
LINE
  8
0
  6
CONTINUOUS
 62
     1
 10
204.25
 20
79.55
 30
0.0
 11
195.75
 21
79.55
 31
0.0
  0
LINE
  8
0
  6
CONTINUOUS
 62
     1
 10
195.75
 20
80.45
 30
0.0
 11
204.25
 21
80.45
 31
0.0
  0
LINE
  8
0
  6
CONTINUOUS
 62
     1
 10
204.25
 20
80.45
 30
0.0
 11
204.25
 21
79.55
 31
0.0
  0
LINE
  8
0
  6
CONTINUOUS
 62
     1
 10
195.75
 20
80.45
 30
0.0
 11
195.75
 21
79.55
 31
0.0
  0
LINE
  8
0
  6
CONTINUOUS
 62
     1
 10
195.75
 20
79.55
 30
0.0
 11
195.75
 21
75.45
 31
0.0
  0
LINE
  8
0
  6
CONTINUOUS
 62
     1
 10
204.25
 20
75.45
 30
0.0
 11
204.25
 21
79.55
 31
0.0
  0
LINE
  8
0
  6
CONTINUOUS
 62
     1
 10
197.0
 20
80.45
 30
0.0
 11
197.0
 21
84.55
 31
0.0
  0
LINE
  8
0
  6
CONTINUOUS
 62
     1
 10
203.0
 20
84.55
 30
0.0
 11
203.0
 21
80.45
 31
0.0
  0
LINE
  8
0
  6
CONTINUOUS
 62
     1
 10
204.25
 20
84.55
 30
0.0
 11
195.75
 21
84.55
 31
0.0
  0
LINE
  8
0
  6
CONTINUOUS
 62
     1
 10
195.75
 20
85.45
 30
0.0
 11
204.25
 21
85.45
 31
0.0
  0
LINE
  8
0
  6
CONTINUOUS
 62
     1
 10
204.25
 20
85.45
 30
0.0
 11
204.25
 21
84.55
 31
0.0
  0
LINE
  8
0
  6
CONTINUOUS
 62
     1
 10
195.75
 20
85.45
 30
0.0
 11
195.75
 21
84.55
 31
0.0
  0
LINE
  8
0
  6
CONTINUOUS
 62
     1
 10
195.75
 20
84.55
 30
0.0
 11
195.75
 21
80.45
 31
0.0
  0
LINE
  8
0
  6
CONTINUOUS
 62
     1
 10
204.25
 20
80.45
 30
0.0
 11
204.25
 21
84.55
 31
0.0
  0
LINE
  8
0
  6
CONTINUOUS
 62
     1
 10
197.0
 20
85.45
 30
0.0
 11
197.0
 21
89.55
 31
0.0
  0
LINE
  8
0
  6
CONTINUOUS
 62
     1
 10
203.0
 20
89.55
 30
0.0
 11
203.0
 21
85.45
 31
0.0
  0
LINE
  8
0
  6
CONTINUOUS
 62
     1
 10
204.25
 20
89.55
 30
0.0
 11
195.75
 21
89.55
 31
0.0
  0
LINE
  8
0
  6
CONTINUOUS
 62
     1
 10
195.75
 20
90.45
 30
0.0
 11
204.25
 21
90.45
 31
0.0
  0
LINE
  8
0
  6
CONTINUOUS
 62
     1
 10
204.25
 20
90.45
 30
0.0
 11
204.25
 21
89.55
 31
0.0
  0
LINE
  8
0
  6
CONTINUOUS
 62
     1
 10
195.75
 20
90.45
 30
0.0
 11
195.75
 21
89.55
 31
0.0
  0
LINE
  8
0
  6
CONTINUOUS
 62
     1
 10
195.75
 20
89.55
 30
0.0
 11
195.75
 21
85.45
 31
0.0
  0
LINE
  8
0
  6
CONTINUOUS
 62
     1
 10
204.25
 20
85.45
 30
0.0
 11
204.25
 21
89.55
 31
0.0
  0
LINE
  8
0
  6
CONTINUOUS
 62
     1
 10
197.0
 20
90.45
 30
0.0
 11
197.0
 21
94.55
 31
0.0
  0
LINE
  8
0
  6
CONTINUOUS
 62
     1
 10
203.0
 20
94.55
 30
0.0
 11
203.0
 21
90.45
 31
0.0
  0
LINE
  8
0
  6
CONTINUOUS
 62
     1
 10
204.25
 20
94.55
 30
0.0
 11
195.75
 21
94.55
 31
0.0
  0
LINE
  8
0
  6
CONTINUOUS
 62
     1
 10
195.75
 20
94.55
 30
0.0
 11
195.75
 21
90.45
 31
0.0
  0
LINE
  8
0
  6
CONTINUOUS
 62
     1
 10
204.25
 20
90.45
 30
0.0
 11
204.25
 21
94.55
 31
0.0
  0
LINE
  8
0
  6
CONTINUOUS
 62
     1
 10
195.75
 20
65.45
 30
0.0
 11
204.25
 21
65.45
 31
0.0
  0
LINE
  8
0
  6
CONTINUOUS
 62
     2
 10
198.25
 20
65.7
 30
0.0
 11
198.25
 21
66.25
 31
0.0
  0
LINE
  8
0
  6
CONTINUOUS
 62
     2
 10
198.25
 20
65.7
 30
0.0
 11
198.5
 21
65.45
 31
0.0
  0
LINE
  8
0
  6
CONTINUOUS
 62
     2
 10
198.25
 20
68.75
 30
0.0
 11
198.25
 21
69.3
 31
0.0
  0
LINE
  8
0
  6
CONTINUOUS
 62
     2
 10
198.25
 20
69.3
 30
0.0
 11
198.5
 21
69.55
 31
0.0
  0
LINE
  8
0
  6
CONTINUOUS
 62
     2
 10
201.5
 20
69.55
 30
0.0
 11
198.5
 21
69.55
 31
0.0
  0
LINE
  8
0
  6
CONTINUOUS
 62
     2
 10
201.75
 20
68.75
 30
0.0
 11
201.75
 21
69.3
 31
0.0
  0
LINE
  8
0
  6
CONTINUOUS
 62
     2
 10
201.5
 20
69.55
 30
0.0
 11
201.75
 21
69.3
 31
0.0
  0
LINE
  8
0
  6
CONTINUOUS
 62
     2
 10
201.75
 20
65.7
 30
0.0
 11
201.75
 21
66.25
 31
0.0
  0
LINE
  8
0
  6
CONTINUOUS
 62
     2
 10
198.5
 20
65.45
 30
0.0
 11
201.5
 21
65.45
 31
0.0
  0
LINE
  8
0
  6
CONTINUOUS
 62
     2
 10
201.75
 20
65.7
 30
0.0
 11
201.5
 21
65.45
 31
0.0
  0
LINE
  8
0
  6
CONTINUOUS
 62
     2
 10
197.85
 20
66.25
 30
0.0
 11
198.25
 21
66.25
 31
0.0
  0
LINE
  8
0
  6
CONTINUOUS
 62
     2
 10
197.85
 20
66.25
 30
0.0
 11
197.85
 21
68.75
 31
0.0
  0
LINE
  8
0
  6
CONTINUOUS
 62
     2
 10
197.85
 20
68.75
 30
0.0
 11
198.25
 21
68.75
 31
0.0
  0
LINE
  8
0
  6
CONTINUOUS
 62
     2
 10
202.15
 20
66.25
 30
0.0
 11
201.75
 21
66.25
 31
0.0
  0
LINE
  8
0
  6
CONTINUOUS
 62
     2
 10
202.15
 20
66.25
 30
0.0
 11
202.15
 21
68.75
 31
0.0
  0
LINE
  8
0
  6
CONTINUOUS
 62
     2
 10
202.15
 20
68.75
 30
0.0
 11
201.75
 21
68.75
 31
0.0
  0
LINE
  8
0
  6
CONTINUOUS
 62
     2
 10
202.15
 20
68.85
 30
0.0
 11
201.75
 21
68.85
 31
0.0
  0
ARC
  8
0
  6
CONTINUOUS
 62
     2
 10
202.15
 20
68.75
 30
0.0
 40
0.1
 50
0.0
 51
90.0
  0
LINE
  8
0
  6
CONTINUOUS
 62
     2
 10
201.75
 20
66.15
 30
0.0
 11
202.15
 21
66.15
 31
0.0
  0
LINE
  8
0
  6
CONTINUOUS
 62
     2
 10
202.25
 20
66.25
 30
0.0
 11
202.25
 21
68.75
 31
0.0
  0
ARC
  8
0
  6
CONTINUOUS
 62
     2
 10
202.15
 20
66.25
 30
0.0
 40
0.1
 50
270.0
 51
0.0
  0
LINE
  8
0
  6
CONTINUOUS
 62
     2
 10
197.85
 20
68.85
 30
0.0
 11
198.25
 21
68.85
 31
0.0
  0
ARC
  8
0
  6
CONTINUOUS
 62
     2
 10
197.85
 20
68.75
 30
0.0
 40
0.1
 50
90.0
 51
180.0
  0
LINE
  8
0
  6
CONTINUOUS
 62
     2
 10
198.25
 20
66.15
 30
0.0
 11
197.85
 21
66.15
 31
0.0
  0
ARC
  8
0
  6
CONTINUOUS
 62
     2
 10
197.85
 20
66.25
 30
0.0
 40
0.1
 50
180.0
 51
270.0
  0
LINE
  8
0
  6
CONTINUOUS
 62
     2
 10
197.75
 20
66.25
 30
0.0
 11
197.75
 21
68.75
 31
0.0
  0
LINE
  8
0
  6
CONTINUOUS
 62
     2
 10
198.25
 20
70.7
 30
0.0
 11
198.25
 21
71.25
 31
0.0
  0
LINE
  8
0
  6
CONTINUOUS
 62
     2
 10
198.25
 20
70.7
 30
0.0
 11
198.5
 21
70.45
 31
0.0
  0
LINE
  8
0
  6
CONTINUOUS
 62
     2
 10
198.25
 20
73.75
 30
0.0
 11
198.25
 21
74.3
 31
0.0
  0
LINE
  8
0
  6
CONTINUOUS
 62
     2
 10
198.25
 20
74.3
 30
0.0
 11
198.5
 21
74.55
 31
0.0
  0
LINE
  8
0
  6
CONTINUOUS
 62
     2
 10
201.5
 20
74.55
 30
0.0
 11
198.5
 21
74.55
 31
0.0
  0
LINE
  8
0
  6
CONTINUOUS
 62
     2
 10
201.75
 20
73.75
 30
0.0
 11
201.75
 21
74.3
 31
0.0
  0
LINE
  8
0
  6
CONTINUOUS
 62
     2
 10
201.5
 20
74.55
 30
0.0
 11
201.75
 21
74.3
 31
0.0
  0
LINE
  8
0
  6
CONTINUOUS
 62
     2
 10
201.75
 20
70.7
 30
0.0
 11
201.75
 21
71.25
 31
0.0
  0
LINE
  8
0
  6
CONTINUOUS
 62
     2
 10
198.5
 20
70.45
 30
0.0
 11
201.5
 21
70.45
 31
0.0
  0
LINE
  8
0
  6
CONTINUOUS
 62
     2
 10
201.75
 20
70.7
 30
0.0
 11
201.5
 21
70.45
 31
0.0
  0
LINE
  8
0
  6
CONTINUOUS
 62
     2
 10
197.85
 20
71.25
 30
0.0
 11
198.25
 21
71.25
 31
0.0
  0
LINE
  8
0
  6
CONTINUOUS
 62
     2
 10
197.85
 20
71.25
 30
0.0
 11
197.85
 21
73.75
 31
0.0
  0
LINE
  8
0
  6
CONTINUOUS
 62
     2
 10
197.85
 20
73.75
 30
0.0
 11
198.25
 21
73.75
 31
0.0
  0
LINE
  8
0
  6
CONTINUOUS
 62
     2
 10
202.15
 20
71.25
 30
0.0
 11
201.75
 21
71.25
 31
0.0
  0
LINE
  8
0
  6
CONTINUOUS
 62
     2
 10
202.15
 20
71.25
 30
0.0
 11
202.15
 21
73.75
 31
0.0
  0
LINE
  8
0
  6
CONTINUOUS
 62
     2
 10
202.15
 20
73.75
 30
0.0
 11
201.75
 21
73.75
 31
0.0
  0
LINE
  8
0
  6
CONTINUOUS
 62
     2
 10
202.15
 20
73.85
 30
0.0
 11
201.75
 21
73.85
 31
0.0
  0
ARC
  8
0
  6
CONTINUOUS
 62
     2
 10
202.15
 20
73.75
 30
0.0
 40
0.1
 50
0.0
 51
90.0
  0
LINE
  8
0
  6
CONTINUOUS
 62
     2
 10
201.75
 20
71.15
 30
0.0
 11
202.15
 21
71.15
 31
0.0
  0
LINE
  8
0
  6
CONTINUOUS
 62
     2
 10
202.25
 20
71.25
 30
0.0
 11
202.25
 21
73.75
 31
0.0
  0
ARC
  8
0
  6
CONTINUOUS
 62
     2
 10
202.15
 20
71.25
 30
0.0
 40
0.1
 50
270.0
 51
0.0
  0
LINE
  8
0
  6
CONTINUOUS
 62
     2
 10
197.85
 20
73.85
 30
0.0
 11
198.25
 21
73.85
 31
0.0
  0
ARC
  8
0
  6
CONTINUOUS
 62
     2
 10
197.85
 20
73.75
 30
0.0
 40
0.1
 50
90.0
 51
180.0
  0
LINE
  8
0
  6
CONTINUOUS
 62
     2
 10
198.25
 20
71.15
 30
0.0
 11
197.85
 21
71.15
 31
0.0
  0
ARC
  8
0
  6
CONTINUOUS
 62
     2
 10
197.85
 20
71.25
 30
0.0
 40
0.1
 50
180.0
 51
270.0
  0
LINE
  8
0
  6
CONTINUOUS
 62
     2
 10
197.75
 20
71.25
 30
0.0
 11
197.75
 21
73.75
 31
0.0
  0
LINE
  8
0
  6
CONTINUOUS
 62
     2
 10
198.25
 20
75.7
 30
0.0
 11
198.25
 21
76.25
 31
0.0
  0
LINE
  8
0
  6
CONTINUOUS
 62
     2
 10
198.25
 20
75.7
 30
0.0
 11
198.5
 21
75.45
 31
0.0
  0
LINE
  8
0
  6
CONTINUOUS
 62
     2
 10
198.25
 20
78.75
 30
0.0
 11
198.25
 21
79.3
 31
0.0
  0
LINE
  8
0
  6
CONTINUOUS
 62
     2
 10
198.25
 20
79.3
 30
0.0
 11
198.5
 21
79.55
 31
0.0
  0
LINE
  8
0
  6
CONTINUOUS
 62
     2
 10
201.5
 20
79.55
 30
0.0
 11
198.5
 21
79.55
 31
0.0
  0
LINE
  8
0
  6
CONTINUOUS
 62
     2
 10
201.75
 20
78.75
 30
0.0
 11
201.75
 21
79.3
 31
0.0
  0
LINE
  8
0
  6
CONTINUOUS
 62
     2
 10
201.5
 20
79.55
 30
0.0
 11
201.75
 21
79.3
 31
0.0
  0
LINE
  8
0
  6
CONTINUOUS
 62
     2
 10
201.75
 20
75.7
 30
0.0
 11
201.75
 21
76.25
 31
0.0
  0
LINE
  8
0
  6
CONTINUOUS
 62
     2
 10
198.5
 20
75.45
 30
0.0
 11
201.5
 21
75.45
 31
0.0
  0
LINE
  8
0
  6
CONTINUOUS
 62
     2
 10
201.75
 20
75.7
 30
0.0
 11
201.5
 21
75.45
 31
0.0
  0
LINE
  8
0
  6
CONTINUOUS
 62
     2
 10
197.85
 20
76.25
 30
0.0
 11
198.25
 21
76.25
 31
0.0
  0
LINE
  8
0
  6
CONTINUOUS
 62
     2
 10
197.85
 20
76.25
 30
0.0
 11
197.85
 21
78.75
 31
0.0
  0
LINE
  8
0
  6
CONTINUOUS
 62
     2
 10
197.85
 20
78.75
 30
0.0
 11
198.25
 21
78.75
 31
0.0
  0
LINE
  8
0
  6
CONTINUOUS
 62
     2
 10
202.15
 20
76.25
 30
0.0
 11
201.75
 21
76.25
 31
0.0
  0
LINE
  8
0
  6
CONTINUOUS
 62
     2
 10
202.15
 20
76.25
 30
0.0
 11
202.15
 21
78.75
 31
0.0
  0
LINE
  8
0
  6
CONTINUOUS
 62
     2
 10
202.15
 20
78.75
 30
0.0
 11
201.75
 21
78.75
 31
0.0
  0
LINE
  8
0
  6
CONTINUOUS
 62
     2
 10
202.15
 20
78.85
 30
0.0
 11
201.75
 21
78.85
 31
0.0
  0
ARC
  8
0
  6
CONTINUOUS
 62
     2
 10
202.15
 20
78.75
 30
0.0
 40
0.1
 50
0.0
 51
90.0
  0
LINE
  8
0
  6
CONTINUOUS
 62
     2
 10
201.75
 20
76.15
 30
0.0
 11
202.15
 21
76.15
 31
0.0
  0
LINE
  8
0
  6
CONTINUOUS
 62
     2
 10
202.25
 20
76.25
 30
0.0
 11
202.25
 21
78.75
 31
0.0
  0
ARC
  8
0
  6
CONTINUOUS
 62
     2
 10
202.15
 20
76.25
 30
0.0
 40
0.1
 50
270.0
 51
0.0
  0
LINE
  8
0
  6
CONTINUOUS
 62
     2
 10
197.85
 20
78.85
 30
0.0
 11
198.25
 21
78.85
 31
0.0
  0
ARC
  8
0
  6
CONTINUOUS
 62
     2
 10
197.85
 20
78.75
 30
0.0
 40
0.1
 50
90.0
 51
180.0
  0
LINE
  8
0
  6
CONTINUOUS
 62
     2
 10
198.25
 20
76.15
 30
0.0
 11
197.85
 21
76.15
 31
0.0
  0
ARC
  8
0
  6
CONTINUOUS
 62
     2
 10
197.85
 20
76.25
 30
0.0
 40
0.1
 50
180.0
 51
270.0
  0
LINE
  8
0
  6
CONTINUOUS
 62
     2
 10
197.75
 20
76.25
 30
0.0
 11
197.75
 21
78.75
 31
0.0
  0
LINE
  8
0
  6
CONTINUOUS
 62
     2
 10
198.25
 20
80.7
 30
0.0
 11
198.25
 21
81.25
 31
0.0
  0
LINE
  8
0
  6
CONTINUOUS
 62
     2
 10
198.25
 20
80.7
 30
0.0
 11
198.5
 21
80.45
 31
0.0
  0
LINE
  8
0
  6
CONTINUOUS
 62
     2
 10
198.25
 20
83.75
 30
0.0
 11
198.25
 21
84.3
 31
0.0
  0
LINE
  8
0
  6
CONTINUOUS
 62
     2
 10
198.25
 20
84.3
 30
0.0
 11
198.5
 21
84.55
 31
0.0
  0
LINE
  8
0
  6
CONTINUOUS
 62
     2
 10
201.5
 20
84.55
 30
0.0
 11
198.5
 21
84.55
 31
0.0
  0
LINE
  8
0
  6
CONTINUOUS
 62
     2
 10
201.75
 20
83.75
 30
0.0
 11
201.75
 21
84.3
 31
0.0
  0
LINE
  8
0
  6
CONTINUOUS
 62
     2
 10
201.5
 20
84.55
 30
0.0
 11
201.75
 21
84.3
 31
0.0
  0
LINE
  8
0
  6
CONTINUOUS
 62
     2
 10
201.75
 20
80.7
 30
0.0
 11
201.75
 21
81.25
 31
0.0
  0
LINE
  8
0
  6
CONTINUOUS
 62
     2
 10
198.5
 20
80.45
 30
0.0
 11
201.5
 21
80.45
 31
0.0
  0
LINE
  8
0
  6
CONTINUOUS
 62
     2
 10
201.75
 20
80.7
 30
0.0
 11
201.5
 21
80.45
 31
0.0
  0
LINE
  8
0
  6
CONTINUOUS
 62
     2
 10
197.85
 20
81.25
 30
0.0
 11
198.25
 21
81.25
 31
0.0
  0
LINE
  8
0
  6
CONTINUOUS
 62
     2
 10
197.85
 20
81.25
 30
0.0
 11
197.85
 21
83.75
 31
0.0
  0
LINE
  8
0
  6
CONTINUOUS
 62
     2
 10
197.85
 20
83.75
 30
0.0
 11
198.25
 21
83.75
 31
0.0
  0
LINE
  8
0
  6
CONTINUOUS
 62
     2
 10
202.15
 20
81.25
 30
0.0
 11
201.75
 21
81.25
 31
0.0
  0
LINE
  8
0
  6
CONTINUOUS
 62
     2
 10
202.15
 20
81.25
 30
0.0
 11
202.15
 21
83.75
 31
0.0
  0
LINE
  8
0
  6
CONTINUOUS
 62
     2
 10
202.15
 20
83.75
 30
0.0
 11
201.75
 21
83.75
 31
0.0
  0
LINE
  8
0
  6
CONTINUOUS
 62
     2
 10
202.15
 20
83.85
 30
0.0
 11
201.75
 21
83.85
 31
0.0
  0
ARC
  8
0
  6
CONTINUOUS
 62
     2
 10
202.15
 20
83.75
 30
0.0
 40
0.1
 50
0.0
 51
90.0
  0
LINE
  8
0
  6
CONTINUOUS
 62
     2
 10
201.75
 20
81.15
 30
0.0
 11
202.15
 21
81.15
 31
0.0
  0
LINE
  8
0
  6
CONTINUOUS
 62
     2
 10
202.25
 20
81.25
 30
0.0
 11
202.25
 21
83.75
 31
0.0
  0
ARC
  8
0
  6
CONTINUOUS
 62
     2
 10
202.15
 20
81.25
 30
0.0
 40
0.1
 50
270.0
 51
0.0
  0
LINE
  8
0
  6
CONTINUOUS
 62
     2
 10
197.85
 20
83.85
 30
0.0
 11
198.25
 21
83.85
 31
0.0
  0
ARC
  8
0
  6
CONTINUOUS
 62
     2
 10
197.85
 20
83.75
 30
0.0
 40
0.1
 50
90.0
 51
180.0
  0
LINE
  8
0
  6
CONTINUOUS
 62
     2
 10
198.25
 20
81.15
 30
0.0
 11
197.85
 21
81.15
 31
0.0
  0
ARC
  8
0
  6
CONTINUOUS
 62
     2
 10
197.85
 20
81.25
 30
0.0
 40
0.1
 50
180.0
 51
270.0
  0
LINE
  8
0
  6
CONTINUOUS
 62
     2
 10
197.75
 20
81.25
 30
0.0
 11
197.75
 21
83.75
 31
0.0
  0
LINE
  8
0
  6
CONTINUOUS
 62
     2
 10
198.25
 20
85.7
 30
0.0
 11
198.25
 21
86.25
 31
0.0
  0
LINE
  8
0
  6
CONTINUOUS
 62
     2
 10
198.25
 20
85.7
 30
0.0
 11
198.5
 21
85.45
 31
0.0
  0
LINE
  8
0
  6
CONTINUOUS
 62
     2
 10
198.25
 20
88.75
 30
0.0
 11
198.25
 21
89.3
 31
0.0
  0
LINE
  8
0
  6
CONTINUOUS
 62
     2
 10
198.25
 20
89.3
 30
0.0
 11
198.5
 21
89.55
 31
0.0
  0
LINE
  8
0
  6
CONTINUOUS
 62
     2
 10
201.5
 20
89.55
 30
0.0
 11
198.5
 21
89.55
 31
0.0
  0
LINE
  8
0
  6
CONTINUOUS
 62
     2
 10
201.75
 20
88.75
 30
0.0
 11
201.75
 21
89.3
 31
0.0
  0
LINE
  8
0
  6
CONTINUOUS
 62
     2
 10
201.5
 20
89.55
 30
0.0
 11
201.75
 21
89.3
 31
0.0
  0
LINE
  8
0
  6
CONTINUOUS
 62
     2
 10
201.75
 20
85.7
 30
0.0
 11
201.75
 21
86.25
 31
0.0
  0
LINE
  8
0
  6
CONTINUOUS
 62
     2
 10
198.5
 20
85.45
 30
0.0
 11
201.5
 21
85.45
 31
0.0
  0
LINE
  8
0
  6
CONTINUOUS
 62
     2
 10
201.75
 20
85.7
 30
0.0
 11
201.5
 21
85.45
 31
0.0
  0
LINE
  8
0
  6
CONTINUOUS
 62
     2
 10
197.85
 20
86.25
 30
0.0
 11
198.25
 21
86.25
 31
0.0
  0
LINE
  8
0
  6
CONTINUOUS
 62
     2
 10
197.85
 20
86.25
 30
0.0
 11
197.85
 21
88.75
 31
0.0
  0
LINE
  8
0
  6
CONTINUOUS
 62
     2
 10
197.85
 20
88.75
 30
0.0
 11
198.25
 21
88.75
 31
0.0
  0
LINE
  8
0
  6
CONTINUOUS
 62
     2
 10
202.15
 20
86.25
 30
0.0
 11
201.75
 21
86.25
 31
0.0
  0
LINE
  8
0
  6
CONTINUOUS
 62
     2
 10
202.15
 20
86.25
 30
0.0
 11
202.15
 21
88.75
 31
0.0
  0
LINE
  8
0
  6
CONTINUOUS
 62
     2
 10
202.15
 20
88.75
 30
0.0
 11
201.75
 21
88.75
 31
0.0
  0
LINE
  8
0
  6
CONTINUOUS
 62
     2
 10
202.15
 20
88.85
 30
0.0
 11
201.75
 21
88.85
 31
0.0
  0
ARC
  8
0
  6
CONTINUOUS
 62
     2
 10
202.15
 20
88.75
 30
0.0
 40
0.1
 50
0.0
 51
90.0
  0
LINE
  8
0
  6
CONTINUOUS
 62
     2
 10
201.75
 20
86.15
 30
0.0
 11
202.15
 21
86.15
 31
0.0
  0
LINE
  8
0
  6
CONTINUOUS
 62
     2
 10
202.25
 20
86.25
 30
0.0
 11
202.25
 21
88.75
 31
0.0
  0
ARC
  8
0
  6
CONTINUOUS
 62
     2
 10
202.15
 20
86.25
 30
0.0
 40
0.1
 50
270.0
 51
0.0
  0
LINE
  8
0
  6
CONTINUOUS
 62
     2
 10
197.85
 20
88.85
 30
0.0
 11
198.25
 21
88.85
 31
0.0
  0
ARC
  8
0
  6
CONTINUOUS
 62
     2
 10
197.85
 20
88.75
 30
0.0
 40
0.1
 50
90.0
 51
180.0
  0
LINE
  8
0
  6
CONTINUOUS
 62
     2
 10
198.25
 20
86.15
 30
0.0
 11
197.85
 21
86.15
 31
0.0
  0
ARC
  8
0
  6
CONTINUOUS
 62
     2
 10
197.85
 20
86.25
 30
0.0
 40
0.1
 50
180.0
 51
270.0
  0
LINE
  8
0
  6
CONTINUOUS
 62
     2
 10
197.75
 20
86.25
 30
0.0
 11
197.75
 21
88.75
 31
0.0
  0
LINE
  8
0
  6
CONTINUOUS
 62
     2
 10
198.25
 20
90.7
 30
0.0
 11
198.25
 21
91.25
 31
0.0
  0
LINE
  8
0
  6
CONTINUOUS
 62
     2
 10
198.25
 20
90.7
 30
0.0
 11
198.5
 21
90.45
 31
0.0
  0
LINE
  8
0
  6
CONTINUOUS
 62
     2
 10
198.25
 20
93.75
 30
0.0
 11
198.25
 21
94.3
 31
0.0
  0
LINE
  8
0
  6
CONTINUOUS
 62
     2
 10
198.25
 20
94.3
 30
0.0
 11
198.5
 21
94.55
 31
0.0
  0
LINE
  8
0
  6
CONTINUOUS
 62
     2
 10
201.5
 20
94.55
 30
0.0
 11
198.5
 21
94.55
 31
0.0
  0
LINE
  8
0
  6
CONTINUOUS
 62
     2
 10
201.75
 20
93.75
 30
0.0
 11
201.75
 21
94.3
 31
0.0
  0
LINE
  8
0
  6
CONTINUOUS
 62
     2
 10
201.5
 20
94.55
 30
0.0
 11
201.75
 21
94.3
 31
0.0
  0
LINE
  8
0
  6
CONTINUOUS
 62
     2
 10
201.75
 20
90.7
 30
0.0
 11
201.75
 21
91.25
 31
0.0
  0
LINE
  8
0
  6
CONTINUOUS
 62
     2
 10
198.5
 20
90.45
 30
0.0
 11
201.5
 21
90.45
 31
0.0
  0
LINE
  8
0
  6
CONTINUOUS
 62
     2
 10
201.75
 20
90.7
 30
0.0
 11
201.5
 21
90.45
 31
0.0
  0
LINE
  8
0
  6
CONTINUOUS
 62
     2
 10
197.85
 20
91.25
 30
0.0
 11
198.25
 21
91.25
 31
0.0
  0
LINE
  8
0
  6
CONTINUOUS
 62
     2
 10
197.85
 20
91.25
 30
0.0
 11
197.85
 21
93.75
 31
0.0
  0
LINE
  8
0
  6
CONTINUOUS
 62
     2
 10
197.85
 20
93.75
 30
0.0
 11
198.25
 21
93.75
 31
0.0
  0
LINE
  8
0
  6
CONTINUOUS
 62
     2
 10
202.15
 20
91.25
 30
0.0
 11
201.75
 21
91.25
 31
0.0
  0
LINE
  8
0
  6
CONTINUOUS
 62
     2
 10
202.15
 20
91.25
 30
0.0
 11
202.15
 21
93.75
 31
0.0
  0
LINE
  8
0
  6
CONTINUOUS
 62
     2
 10
202.15
 20
93.75
 30
0.0
 11
201.75
 21
93.75
 31
0.0
  0
LINE
  8
0
  6
CONTINUOUS
 62
     2
 10
202.15
 20
93.85
 30
0.0
 11
201.75
 21
93.85
 31
0.0
  0
ARC
  8
0
  6
CONTINUOUS
 62
     2
 10
202.15
 20
93.75
 30
0.0
 40
0.1
 50
0.0
 51
90.0
  0
LINE
  8
0
  6
CONTINUOUS
 62
     2
 10
201.75
 20
91.15
 30
0.0
 11
202.15
 21
91.15
 31
0.0
  0
LINE
  8
0
  6
CONTINUOUS
 62
     2
 10
202.25
 20
91.25
 30
0.0
 11
202.25
 21
93.75
 31
0.0
  0
ARC
  8
0
  6
CONTINUOUS
 62
     2
 10
202.15
 20
91.25
 30
0.0
 40
0.1
 50
270.0
 51
0.0
  0
LINE
  8
0
  6
CONTINUOUS
 62
     2
 10
197.85
 20
93.85
 30
0.0
 11
198.25
 21
93.85
 31
0.0
  0
ARC
  8
0
  6
CONTINUOUS
 62
     2
 10
197.85
 20
93.75
 30
0.0
 40
0.1
 50
90.0
 51
180.0
  0
LINE
  8
0
  6
CONTINUOUS
 62
     2
 10
198.25
 20
91.15
 30
0.0
 11
197.85
 21
91.15
 31
0.0
  0
ARC
  8
0
  6
CONTINUOUS
 62
     2
 10
197.85
 20
91.25
 30
0.0
 40
0.1
 50
180.0
 51
270.0
  0
LINE
  8
0
  6
CONTINUOUS
 62
     2
 10
197.75
 20
91.25
 30
0.0
 11
197.75
 21
93.75
 31
0.0
  0
CIRCLE
  8
0
  6
CONTINUOUS
 62
     2
 10
200.0
 20
67.5
 30
0.0
 40
1.5
  0
LINE
  8
0
  6
CONTINUOUS
 62
     2
 10
200.875
 20
67.3
 30
0.0
 11
200.4
 21
67.3
 31
0.0
  0
ARC
  8
0
  6
CONTINUOUS
 62
     2
 10
200.4
 20
67.1
 30
0.0
 40
0.2
 50
90.0
 51
180.0
  0
LINE
  8
0
  6
CONTINUOUS
 62
     2
 10
200.2
 20
67.1
 30
0.0
 11
200.2
 21
66.625
 31
0.0
  0
LINE
  8
0
  6
CONTINUOUS
 62
     2
 10
200.2
 20
66.625
 30
0.0
 11
199.8
 21
66.625
 31
0.0
  0
LINE
  8
0
  6
CONTINUOUS
 62
     2
 10
199.8
 20
66.625
 30
0.0
 11
199.8
 21
67.1
 31
0.0
  0
ARC
  8
0
  6
CONTINUOUS
 62
     2
 10
199.6
 20
67.1
 30
0.0
 40
0.2
 50
0.0
 51
90.0
  0
LINE
  8
0
  6
CONTINUOUS
 62
     2
 10
199.6
 20
67.3
 30
0.0
 11
199.125
 21
67.3
 31
0.0
  0
LINE
  8
0
  6
CONTINUOUS
 62
     2
 10
199.125
 20
67.3
 30
0.0
 11
199.125
 21
67.7
 31
0.0
  0
LINE
  8
0
  6
CONTINUOUS
 62
     2
 10
199.125
 20
67.7
 30
0.0
 11
199.6
 21
67.7
 31
0.0
  0
ARC
  8
0
  6
CONTINUOUS
 62
     2
 10
199.6
 20
67.9
 30
0.0
 40
0.2
 50
270.0
 51
0.0
  0
LINE
  8
0
  6
CONTINUOUS
 62
     2
 10
199.8
 20
67.9
 30
0.0
 11
199.8
 21
68.375
 31
0.0
  0
LINE
  8
0
  6
CONTINUOUS
 62
     2
 10
199.8
 20
68.375
 30
0.0
 11
200.2
 21
68.375
 31
0.0
  0
LINE
  8
0
  6
CONTINUOUS
 62
     2
 10
200.2
 20
68.375
 30
0.0
 11
200.2
 21
67.9
 31
0.0
  0
ARC
  8
0
  6
CONTINUOUS
 62
     2
 10
200.4
 20
67.9
 30
0.0
 40
0.2
 50
180.0
 51
270.0
  0
LINE
  8
0
  6
CONTINUOUS
 62
     2
 10
200.4
 20
67.7
 30
0.0
 11
200.875
 21
67.7
 31
0.0
  0
LINE
  8
0
  6
CONTINUOUS
 62
     2
 10
200.875
 20
67.7
 30
0.0
 11
200.875
 21
67.3
 31
0.0
  0
LINE
  8
0
  6
LTYPE1
 62
     2
 10
202.0
 20
67.5
 30
0.0
 11
198.0
 21
67.5
 31
0.0
  0
LINE
  8
0
  6
LTYPE1
 62
     2
 10
200.0
 20
65.5
 30
0.0
 11
200.0
 21
69.5
 31
0.0
  0
LINE
  8
0
  6
LTYPE1
 62
     2
 10
202.0
 20
72.5
 30
0.0
 11
198.0
 21
72.5
 31
0.0
  0
LINE
  8
0
  6
LTYPE1
 62
     2
 10
200.0
 20
70.5
 30
0.0
 11
200.0
 21
74.5
 31
0.0
  0
LINE
  8
0
  6
LTYPE1
 62
     2
 10
202.0
 20
77.5
 30
0.0
 11
198.0
 21
77.5
 31
0.0
  0
LINE
  8
0
  6
LTYPE1
 62
     2
 10
200.0
 20
75.5
 30
0.0
 11
200.0
 21
79.5
 31
0.0
  0
CIRCLE
  8
0
  6
CONTINUOUS
 62
     2
 10
200.0
 20
82.5
 30
0.0
 40
1.5
  0
LINE
  8
0
  6
CONTINUOUS
 62
     2
 10
200.875
 20
82.3
 30
0.0
 11
200.4
 21
82.3
 31
0.0
  0
ARC
  8
0
  6
CONTINUOUS
 62
     2
 10
200.4
 20
82.1
 30
0.0
 40
0.2
 50
90.0
 51
180.0
  0
LINE
  8
0
  6
CONTINUOUS
 62
     2
 10
200.2
 20
82.1
 30
0.0
 11
200.2
 21
81.625
 31
0.0
  0
LINE
  8
0
  6
CONTINUOUS
 62
     2
 10
200.2
 20
81.625
 30
0.0
 11
199.8
 21
81.625
 31
0.0
  0
LINE
  8
0
  6
CONTINUOUS
 62
     2
 10
199.8
 20
81.625
 30
0.0
 11
199.8
 21
82.1
 31
0.0
  0
ARC
  8
0
  6
CONTINUOUS
 62
     2
 10
199.6
 20
82.1
 30
0.0
 40
0.2
 50
0.0
 51
90.0
  0
LINE
  8
0
  6
CONTINUOUS
 62
     2
 10
199.6
 20
82.3
 30
0.0
 11
199.125
 21
82.3
 31
0.0
  0
LINE
  8
0
  6
CONTINUOUS
 62
     2
 10
199.125
 20
82.3
 30
0.0
 11
199.125
 21
82.7
 31
0.0
  0
LINE
  8
0
  6
CONTINUOUS
 62
     2
 10
199.125
 20
82.7
 30
0.0
 11
199.6
 21
82.7
 31
0.0
  0
ARC
  8
0
  6
CONTINUOUS
 62
     2
 10
199.6
 20
82.9
 30
0.0
 40
0.2
 50
270.0
 51
0.0
  0
LINE
  8
0
  6
CONTINUOUS
 62
     2
 10
199.8
 20
82.9
 30
0.0
 11
199.8
 21
83.375
 31
0.0
  0
LINE
  8
0
  6
CONTINUOUS
 62
     2
 10
199.8
 20
83.375
 30
0.0
 11
200.2
 21
83.375
 31
0.0
  0
LINE
  8
0
  6
CONTINUOUS
 62
     2
 10
200.2
 20
83.375
 30
0.0
 11
200.2
 21
82.9
 31
0.0
  0
ARC
  8
0
  6
CONTINUOUS
 62
     2
 10
200.4
 20
82.9
 30
0.0
 40
0.2
 50
180.0
 51
270.0
  0
LINE
  8
0
  6
CONTINUOUS
 62
     2
 10
200.4
 20
82.7
 30
0.0
 11
200.875
 21
82.7
 31
0.0
  0
LINE
  8
0
  6
CONTINUOUS
 62
     2
 10
200.875
 20
82.7
 30
0.0
 11
200.875
 21
82.3
 31
0.0
  0
LINE
  8
0
  6
LTYPE1
 62
     2
 10
202.0
 20
82.5
 30
0.0
 11
198.0
 21
82.5
 31
0.0
  0
LINE
  8
0
  6
LTYPE1
 62
     2
 10
200.0
 20
80.5
 30
0.0
 11
200.0
 21
84.5
 31
0.0
  0
CIRCLE
  8
0
  6
CONTINUOUS
 62
     2
 10
200.0
 20
87.5
 30
0.0
 40
1.5
  0
LINE
  8
0
  6
CONTINUOUS
 62
     2
 10
200.875
 20
87.3
 30
0.0
 11
200.4
 21
87.3
 31
0.0
  0
ARC
  8
0
  6
CONTINUOUS
 62
     2
 10
200.4
 20
87.1
 30
0.0
 40
0.2
 50
90.0
 51
180.0
  0
LINE
  8
0
  6
CONTINUOUS
 62
     2
 10
200.2
 20
87.1
 30
0.0
 11
200.2
 21
86.625
 31
0.0
  0
LINE
  8
0
  6
CONTINUOUS
 62
     2
 10
200.2
 20
86.625
 30
0.0
 11
199.8
 21
86.625
 31
0.0
  0
LINE
  8
0
  6
CONTINUOUS
 62
     2
 10
199.8
 20
86.625
 30
0.0
 11
199.8
 21
87.1
 31
0.0
  0
ARC
  8
0
  6
CONTINUOUS
 62
     2
 10
199.6
 20
87.1
 30
0.0
 40
0.2
 50
0.0
 51
90.0
  0
LINE
  8
0
  6
CONTINUOUS
 62
     2
 10
199.6
 20
87.3
 30
0.0
 11
199.125
 21
87.3
 31
0.0
  0
LINE
  8
0
  6
CONTINUOUS
 62
     2
 10
199.125
 20
87.3
 30
0.0
 11
199.125
 21
87.7
 31
0.0
  0
LINE
  8
0
  6
CONTINUOUS
 62
     2
 10
199.125
 20
87.7
 30
0.0
 11
199.6
 21
87.7
 31
0.0
  0
ARC
  8
0
  6
CONTINUOUS
 62
     2
 10
199.6
 20
87.9
 30
0.0
 40
0.2
 50
270.0
 51
0.0
  0
LINE
  8
0
  6
CONTINUOUS
 62
     2
 10
199.8
 20
87.9
 30
0.0
 11
199.8
 21
88.375
 31
0.0
  0
LINE
  8
0
  6
CONTINUOUS
 62
     2
 10
199.8
 20
88.375
 30
0.0
 11
200.2
 21
88.375
 31
0.0
  0
LINE
  8
0
  6
CONTINUOUS
 62
     2
 10
200.2
 20
88.375
 30
0.0
 11
200.2
 21
87.9
 31
0.0
  0
ARC
  8
0
  6
CONTINUOUS
 62
     2
 10
200.4
 20
87.9
 30
0.0
 40
0.2
 50
180.0
 51
270.0
  0
LINE
  8
0
  6
CONTINUOUS
 62
     2
 10
200.4
 20
87.7
 30
0.0
 11
200.875
 21
87.7
 31
0.0
  0
LINE
  8
0
  6
CONTINUOUS
 62
     2
 10
200.875
 20
87.7
 30
0.0
 11
200.875
 21
87.3
 31
0.0
  0
LINE
  8
0
  6
LTYPE1
 62
     2
 10
202.0
 20
87.5
 30
0.0
 11
198.0
 21
87.5
 31
0.0
  0
LINE
  8
0
  6
LTYPE1
 62
     2
 10
200.0
 20
85.5
 30
0.0
 11
200.0
 21
89.5
 31
0.0
  0
CIRCLE
  8
0
  6
CONTINUOUS
 62
     2
 10
200.0
 20
92.5
 30
0.0
 40
1.5
  0
LINE
  8
0
  6
CONTINUOUS
 62
     2
 10
200.875
 20
92.3
 30
0.0
 11
200.4
 21
92.3
 31
0.0
  0
ARC
  8
0
  6
CONTINUOUS
 62
     2
 10
200.4
 20
92.1
 30
0.0
 40
0.2
 50
90.0
 51
180.0
  0
LINE
  8
0
  6
CONTINUOUS
 62
     2
 10
200.2
 20
92.1
 30
0.0
 11
200.2
 21
91.625
 31
0.0
  0
LINE
  8
0
  6
CONTINUOUS
 62
     2
 10
200.2
 20
91.625
 30
0.0
 11
199.8
 21
91.625
 31
0.0
  0
LINE
  8
0
  6
CONTINUOUS
 62
     2
 10
199.8
 20
91.625
 30
0.0
 11
199.8
 21
92.1
 31
0.0
  0
ARC
  8
0
  6
CONTINUOUS
 62
     2
 10
199.6
 20
92.1
 30
0.0
 40
0.2
 50
0.0
 51
90.0
  0
LINE
  8
0
  6
CONTINUOUS
 62
     2
 10
199.6
 20
92.3
 30
0.0
 11
199.125
 21
92.3
 31
0.0
  0
LINE
  8
0
  6
CONTINUOUS
 62
     2
 10
199.125
 20
92.3
 30
0.0
 11
199.125
 21
92.7
 31
0.0
  0
LINE
  8
0
  6
CONTINUOUS
 62
     2
 10
199.125
 20
92.7
 30
0.0
 11
199.6
 21
92.7
 31
0.0
  0
ARC
  8
0
  6
CONTINUOUS
 62
     2
 10
199.6
 20
92.9
 30
0.0
 40
0.2
 50
270.0
 51
0.0
  0
LINE
  8
0
  6
CONTINUOUS
 62
     2
 10
199.8
 20
92.9
 30
0.0
 11
199.8
 21
93.375
 31
0.0
  0
LINE
  8
0
  6
CONTINUOUS
 62
     2
 10
199.8
 20
93.375
 30
0.0
 11
200.2
 21
93.375
 31
0.0
  0
LINE
  8
0
  6
CONTINUOUS
 62
     2
 10
200.2
 20
93.375
 30
0.0
 11
200.2
 21
92.9
 31
0.0
  0
ARC
  8
0
  6
CONTINUOUS
 62
     2
 10
200.4
 20
92.9
 30
0.0
 40
0.2
 50
180.0
 51
270.0
  0
LINE
  8
0
  6
CONTINUOUS
 62
     2
 10
200.4
 20
92.7
 30
0.0
 11
200.875
 21
92.7
 31
0.0
  0
LINE
  8
0
  6
CONTINUOUS
 62
     2
 10
200.875
 20
92.7
 30
0.0
 11
200.875
 21
92.3
 31
0.0
  0
LINE
  8
0
  6
LTYPE1
 62
     2
 10
202.0
 20
92.5
 30
0.0
 11
198.0
 21
92.5
 31
0.0
  0
LINE
  8
0
  6
LTYPE1
 62
     2
 10
200.0
 20
90.5
 30
0.0
 11
200.0
 21
94.5
 31
0.0
  0
LINE
  8
0
  6
CONTINUOUS
 62
     2
 10
204.7
 20
69.4
 30
0.0
 11
204.7
 21
90.6
 31
0.0
  0
LINE
  8
0
  6
CONTINUOUS
 62
     2
 10
204.7
 20
90.6
 30
0.0
 11
195.3
 21
90.6
 31
0.0
  0
LINE
  8
0
  6
CONTINUOUS
 62
     2
 10
195.3
 20
90.6
 30
0.0
 11
195.3
 21
69.4
 31
0.0
  0
LINE
  8
0
  6
CONTINUOUS
 62
     2
 10
195.3
 20
69.4
 30
0.0
 11
204.7
 21
69.4
 31
0.0
  0
LINE
  8
0
  6
CONTINUOUS
 62
     5
 10
195.25
 20
90.0
 30
0.0
 11
191.25
 21
90.0
 31
0.0
  0
LINE
  8
0
  6
CONTINUOUS
 62
     5
 10
191.5
 20
86.9
 30
0.0
 11
191.5
 21
82.9
 31
0.0
  0
LINE
  8
0
  6
CONTINUOUS
 62
     5
 10
191.5
 20
86.9
 30
0.0
 11
192.25
 21
87.5
 31
0.0
  0
LINE
  8
0
  6
CONTINUOUS
 62
     5
 10
191.5
 20
82.9
 30
0.0
 11
192.25
 21
82.3
 31
0.0
  0
TEXT
  8
0
  6
CONTINUOUS
 62
     5
 10
192.5
 20
86.75
 30
0.1
 40
1.5
  1
１＋
 50
0.0
 41
0.666666667
 51
0.0
  7
KANJI7
  0
TEXT
  8
0
  6
CONTINUOUS
 62
     5
 10
192.5
 20
81.5
 30
0.1
 40
1.5
  1
２－
 50
0.0
 41
0.666666667
 51
0.0
  7
KANJI7
  0
TEXT
  8
0
  6
CONTINUOUS
 62
     5
 10
191.35
 20
83.8
 30
0.05
 40
1.0
  1
ＩＮＰＵＴ
 50
0.0
 41
0.75
 51
0.0
  7
KANJI8
  0
TEXT
  8
0
  6
CONTINUOUS
 62
     5
 10
191.65
 20
85.2
 30
0.05
 40
1.0
  1
ＬＥＦＴ
 50
0.0
 41
0.75
 51
0.0
  7
KANJI8
  0
LINE
  8
0
  6
CONTINUOUS
 62
     2
 10
220.5
 20
41.75
 30
0.0
 11
221.147047613
 21
44.164814566
 31
0.0
  0
LINE
  8
0
  6
CONTINUOUS
 62
     2
 10
220.5
 20
41.75
 30
0.0
 11
219.852952387
 21
44.164814566
 31
0.0
  0
LINE
  8
0
  6
CONTINUOUS
 62
     2
 10
220.5
 20
41.75
 30
0.0
 11
220.5
 21
123.25
 31
0.0
  0
LINE
  8
0
  6
CONTINUOUS
 62
     2
 10
220.5
 20
123.25
 30
0.0
 11
219.852952387
 21
120.835185434
 31
0.0
  0
LINE
  8
0
  6
CONTINUOUS
 62
     2
 10
220.5
 20
123.25
 30
0.0
 11
221.147047613
 21
120.835185434
 31
0.0
  0
LINE
  8
0
  6
CONTINUOUS
 62
     2
 10
211.25
 20
123.25
 30
0.0
 11
222.5
 21
123.25
 31
0.0
  0
LINE
  8
0
  6
CONTINUOUS
 62
     2
 10
211.25
 20
41.75
 30
0.0
 11
222.5
 21
41.75
 31
0.0
  0
TEXT
  8
0
  6
CONTINUOUS
 62
     2
 10
219.5
 20
81.5
 30
0.3
 40
3.0
  1
１６３
 50
90.0
 41
0.6
 51
0.0
  7
KANJI0
  0
TEXT
  8
0
  6
CONTINUOUS
 62
     2
 10
198.05
 20
130.55
 30
0.3
 40
3.0
  1
４１
 50
0.0
 41
0.6
 51
0.0
  7
KANJI0
  0
LINE
  8
0
  6
CONTINUOUS
 62
     5
 10
191.25
 20
80.0
 30
0.0
 11
195.25
 21
80.0
 31
0.0
  0
LINE
  8
0
  6
CONTINUOUS
 62
     5
 10
191.25
 20
80.0
 30
0.0
 11
191.25
 21
90.0
 31
0.0
  0
LINE
  8
0
  6
CONTINUOUS
 62
     5
 10
195.25
 20
90.0
 30
0.0
 11
195.25
 21
80.0
 31
0.0
  0
LINE
  8
0
  6
CONTINUOUS
 62
     2
 10
158.7
 20
134.0
 30
0.0
 11
174.7
 21
134.0
 31
0.0
  0
LINE
  8
0
  6
CONTINUOUS
 62
     2
 10
169.7
 20
134.0
 30
0.0
 11
172.114814566
 21
133.352952387
 31
0.0
  0
LINE
  8
0
  6
CONTINUOUS
 62
     2
 10
169.7
 20
134.0
 30
0.0
 11
172.114814566
 21
134.647047613
 31
0.0
  0
LINE
  8
0
  6
CONTINUOUS
 62
     2
 10
169.7
 20
91.5
 30
0.0
 11
169.7
 21
136.0
 31
0.0
  0
LINE
  8
0
  6
CONTINUOUS
 62
     2
 10
169.7
 20
139.0
 30
0.0
 11
167.285185434
 21
139.647047613
 31
0.0
  0
LINE
  8
0
  6
CONTINUOUS
 62
     2
 10
169.7
 20
139.0
 30
0.0
 11
167.285185434
 21
138.352952387
 31
0.0
  0
LINE
  8
0
  6
CONTINUOUS
 62
     2
 10
169.7
 20
136.0
 30
0.0
 11
169.7
 21
141.0
 31
0.0
  0
LINE
  8
0
  6
CONTINUOUS
 62
     1
 10
160.0
 20
152.5
 30
0.0
 11
160.0
 21
170.5
 31
0.0
  0
LINE
  8
0
  6
CONTINUOUS
 62
     1
 10
60.5
 20
171.875
 30
0.0
 11
60.5
 21
151.125
 31
0.0
  0
LINE
  8
0
  6
CONTINUOUS
 62
     1
 10
60.5
 20
151.125
 30
0.0
 11
64.75
 21
151.125
 31
0.0
  0
LINE
  8
0
  6
CONTINUOUS
 62
     1
 10
64.75
 20
155.0
 30
0.0
 11
64.75
 21
151.125
 31
0.0
  0
LINE
  8
0
  6
CONTINUOUS
 62
     1
 10
64.75
 20
168.0
 30
0.0
 11
64.75
 21
171.875
 31
0.0
  0
LINE
  8
0
  6
CONTINUOUS
 62
     1
 10
64.75
 20
171.875
 30
0.0
 11
60.5
 21
171.875
 31
0.0
  0
LINE
  8
0
  6
CONTINUOUS
 62
     1
 10
65.0
 20
155.0
 30
0.0
 11
65.0
 21
168.0
 31
0.0
  0
LINE
  8
0
  6
CONTINUOUS
 62
     1
 10
68.0
 20
155.0
 30
0.0
 11
68.0
 21
158.5
 31
0.0
  0
LINE
  8
0
  6
CONTINUOUS
 62
     1
 10
68.0
 20
158.5
 30
0.0
 11
70.5
 21
158.5
 31
0.0
  0
LINE
  8
0
  6
CONTINUOUS
 62
     1
 10
70.5
 20
158.5
 30
0.0
 11
70.5
 21
155.0
 31
0.0
  0
LINE
  8
0
  6
CONTINUOUS
 62
     1
 10
68.0
 20
168.0
 30
0.0
 11
68.0
 21
164.5
 31
0.0
  0
LINE
  8
0
  6
CONTINUOUS
 62
     1
 10
68.0
 20
164.5
 30
0.0
 11
70.5
 21
164.5
 31
0.0
  0
LINE
  8
0
  6
CONTINUOUS
 62
     1
 10
70.5
 20
164.5
 30
0.0
 11
70.5
 21
168.0
 31
0.0
  0
LINE
  8
0
  6
CONTINUOUS
 62
     1
 10
160.0
 20
170.5
 30
0.0
 11
78.0
 21
170.5
 31
0.0
  0
LINE
  8
0
  6
CONTINUOUS
 62
     1
 10
78.0
 20
152.5
 30
0.0
 11
160.0
 21
152.5
 31
0.0
  0
LINE
  8
0
  6
CONTINUOUS
 62
     1
 10
74.5
 20
168.0
 30
0.0
 11
64.75
 21
168.0
 31
0.0
  0
LINE
  8
0
  6
CONTINUOUS
 62
     1
 10
74.5
 20
155.0
 30
0.0
 11
64.75
 21
155.0
 31
0.0
  0
LINE
  8
0
  6
CONTINUOUS
 62
     1
 10
70.5
 20
155.25
 30
0.0
 11
69.7
 21
155.25
 31
0.0
  0
LINE
  8
0
  6
CONTINUOUS
 62
     1
 10
69.7
 20
155.25
 30
0.0
 11
69.7
 21
167.75
 31
0.0
  0
LINE
  8
0
  6
CONTINUOUS
 62
     1
 10
69.7
 20
167.75
 30
0.0
 11
70.5
 21
167.75
 31
0.0
  0
LINE
  8
0
  6
CONTINUOUS
 62
     1
 10
70.5
 20
167.75
 30
0.0
 11
70.5
 21
155.25
 31
0.0
  0
LINE
  8
0
  6
CONTINUOUS
 62
     1
 10
71.3
 20
157.25
 30
0.0
 11
71.3
 21
165.75
 31
0.0
  0
LINE
  8
0
  6
CONTINUOUS
 62
     1
 10
149.7
 20
157.25
 30
0.0
 11
149.7
 21
157.25
 31
0.0
  0
LINE
  8
0
  6
CONTINUOUS
 62
     1
 10
70.5
 20
157.25
 30
0.0
 11
149.7
 21
157.25
 31
0.0
  0
LINE
  8
0
  6
CONTINUOUS
 62
     1
 10
149.7
 20
157.25
 30
0.0
 11
149.7
 21
165.75
 31
0.0
  0
LINE
  8
0
  6
CONTINUOUS
 62
     1
 10
149.7
 20
165.75
 30
0.0
 11
70.5
 21
165.75
 31
0.0
  0
LINE
  8
0
  6
CONTINUOUS
 62
     1
 10
148.9
 20
165.75
 30
0.0
 11
148.9
 21
157.25
 31
0.0
  0
LINE
  8
0
  6
CONTINUOUS
 62
     1
 10
74.5
 20
165.75
 30
0.0
 11
74.5
 21
171.625
 31
0.0
  0
LINE
  8
0
  6
CONTINUOUS
 62
     1
 10
78.0
 20
165.75
 30
0.0
 11
78.0
 21
171.625
 31
0.0
  0
LINE
  8
0
  6
CONTINUOUS
 62
     1
 10
74.5
 20
151.375
 30
0.0
 11
74.5
 21
157.25
 31
0.0
  0
LINE
  8
0
  6
CONTINUOUS
 62
     1
 10
78.0
 20
151.375
 30
0.0
 11
78.0
 21
157.25
 31
0.0
  0
LINE
  8
0
  6
CONTINUOUS
 62
     1
 10
55.1
 20
170.5
 30
0.0
 11
60.5
 21
170.5
 31
0.0
  0
ARC
  8
0
  6
CONTINUOUS
 62
     1
 10
55.1
 20
170.4
 30
0.0
 40
0.1
 50
90.0
 51
180.0
  0
LINE
  8
0
  6
CONTINUOUS
 62
     1
 10
60.5
 20
152.5
 30
0.0
 11
55.1
 21
152.5
 31
0.0
  0
LINE
  8
0
  6
CONTINUOUS
 62
     1
 10
55.0
 20
152.6
 30
0.0
 11
55.0
 21
170.4
 31
0.0
  0
ARC
  8
0
  6
CONTINUOUS
 62
     1
 10
55.1
 20
152.6
 30
0.0
 40
0.1
 50
180.0
 51
270.0
  0
LINE
  8
0
  6
CONTINUOUS
 62
     1
 10
65.0
 20
171.625
 30
0.0
 11
78.0
 21
171.625
 31
0.0
  0
POINT
  8
0
  6
CONTINUOUS
 62
     1
 10
68.0
 20
162.5
 30
0.0
  0
LINE
  8
0
  6
CONTINUOUS
 62
     1
 10
68.25
 20
162.75
 30
0.0
 11
69.7
 21
162.75
 31
0.0
  0
LINE
  8
0
  6
CONTINUOUS
 62
     1
 10
68.25
 20
162.75
 30
0.0
 11
68.0
 21
162.5
 31
0.0
  0
POINT
  8
0
  6
CONTINUOUS
 62
     1
 10
68.0
 20
160.5
 30
0.0
  0
LINE
  8
0
  6
CONTINUOUS
 62
     1
 10
68.25
 20
160.25
 30
0.0
 11
69.7
 21
160.25
 31
0.0
  0
LINE
  8
0
  6
CONTINUOUS
 62
     1
 10
68.0
 20
160.5
 30
0.0
 11
68.0
 21
162.5
 31
0.0
  0
LINE
  8
0
  6
CONTINUOUS
 62
     1
 10
68.25
 20
160.25
 30
0.0
 11
68.0
 21
160.5
 31
0.0
  0
LINE
  8
0
  6
CONTINUOUS
 62
     1
 10
71.3
 20
162.75
 30
0.0
 11
148.9
 21
162.75
 31
0.0
  0
LINE
  8
0
  6
CONTINUOUS
 62
     1
 10
71.3
 20
160.25
 30
0.0
 11
148.9
 21
160.25
 31
0.0
  0
LINE
  8
0
  6
CONTINUOUS
 62
     2
 10
66.607050808
 20
176.375
 30
0.0
 11
87.307050808
 21
176.375
 31
0.0
  0
TEXT
  8
0
  6
CONTINUOUS
 62
     2
 10
66.607050808
 20
177.375
 30
0.3
 40
3.0
  1
エスカッション
 50
0.0
 41
0.9
 51
0.0
  7
KANJI1
  0
LINE
  8
0
  6
CONTINUOUS
 62
     2
 10
71.3
 20
162.5
 30
0.0
 11
77.0
 21
162.5
 31
0.0
  0
LINE
  8
0
  6
CONTINUOUS
 62
     2
 10
68.0
 20
162.5
 30
0.0
 11
69.675
 21
162.5
 31
0.0
  0
LINE
  8
0
  6
CONTINUOUS
 62
     2
 10
68.0
 20
160.5
 30
0.0
 11
69.675
 21
160.5
 31
0.0
  0
LINE
  8
0
  6
CONTINUOUS
 62
     2
 10
77.0
 20
160.25
 30
0.0
 11
77.0
 21
162.75
 31
0.0
  0
LINE
  8
0
  6
CONTINUOUS
 62
     2
 10
71.3
 20
160.5
 30
0.0
 11
77.0
 21
160.5
 31
0.0
  0
LINE
  8
0
  6
CONTINUOUS
 62
     2
 10
68.25
 20
162.75
 30
0.0
 11
68.25
 21
160.25
 31
0.0
  0
LINE
  8
0
  6
CONTINUOUS
 62
     2
 10
137.0
 20
160.25
 30
0.0
 11
137.0
 21
162.75
 31
0.0
  0
LINE
  8
0
  6
CONTINUOUS
 62
     2
 10
148.9
 20
160.5
 30
0.0
 11
137.0
 21
160.5
 31
0.0
  0
LINE
  8
0
  6
CONTINUOUS
 62
     2
 10
137.0
 20
162.5
 30
0.0
 11
148.9
 21
162.5
 31
0.0
  0
TEXT
  8
0
  6
CONTINUOUS
 62
     2
 10
214.8
 20
166.179491924
 30
0.3
 40
3.0
  1
ｎは連結台数
 50
0.0
 41
0.9
 51
0.0
  7
KANJI1
  0
TEXT
  8
0
  6
CONTINUOUS
 62
     2
 10
203.82
 20
170.72
 30
0.3
 40
3.0
  1
連結時：　＝４２．２×ｎ＋１．５
 50
0.0
 41
0.9
 51
0.0
  7
KANJI1
  0
LINE
  8
0
  6
CONTINUOUS
 62
     2
 10
215.752
 20
170.784
 30
0.0
 11
216.052
 21
171.084
 31
0.0
  0
LINE
  8
0
  6
CONTINUOUS
 62
     2
 10
216.052
 20
171.084
 30
0.0
 11
216.316
 21
171.432
 31
0.0
  0
LINE
  8
0
  6
CONTINUOUS
 62
     2
 10
216.316
 20
171.432
 30
0.0
 11
216.52
 21
171.888
 31
0.0
  0
LINE
  8
0
  6
CONTINUOUS
 62
     2
 10
216.52
 20
171.888
 30
0.0
 11
216.652
 21
172.212
 31
0.0
  0
LINE
  8
0
  6
CONTINUOUS
 62
     2
 10
216.652
 20
172.212
 30
0.0
 11
216.712
 21
172.56
 31
0.0
  0
LINE
  8
0
  6
CONTINUOUS
 62
     2
 10
216.712
 20
172.56
 30
0.0
 11
216.712
 21
173.016
 31
0.0
  0
LINE
  8
0
  6
CONTINUOUS
 62
     2
 10
216.712
 20
173.016
 30
0.0
 11
216.712
 21
173.244
 31
0.0
  0
LINE
  8
0
  6
CONTINUOUS
 62
     2
 10
216.712
 20
173.244
 30
0.0
 11
216.616
 21
173.448
 31
0.0
  0
LINE
  8
0
  6
CONTINUOUS
 62
     2
 10
216.616
 20
173.448
 30
0.0
 11
216.424
 21
173.472
 31
0.0
  0
LINE
  8
0
  6
CONTINUOUS
 62
     2
 10
216.424
 20
173.472
 30
0.0
 11
216.244
 21
173.316
 31
0.0
  0
LINE
  8
0
  6
CONTINUOUS
 62
     2
 10
216.244
 20
173.316
 30
0.0
 11
216.208
 21
172.836
 31
0.0
  0
LINE
  8
0
  6
CONTINUOUS
 62
     2
 10
216.208
 20
172.836
 30
0.0
 11
216.16
 21
172.392
 31
0.0
  0
LINE
  8
0
  6
CONTINUOUS
 62
     2
 10
216.16
 20
172.392
 30
0.0
 11
216.136
 21
171.972
 31
0.0
  0
LINE
  8
0
  6
CONTINUOUS
 62
     2
 10
216.136
 20
171.972
 30
0.0
 11
216.124
 21
171.66
 31
0.0
  0
LINE
  8
0
  6
CONTINUOUS
 62
     2
 10
216.124
 20
171.66
 30
0.0
 11
216.124
 21
171.36
 31
0.0
  0
LINE
  8
0
  6
CONTINUOUS
 62
     2
 10
216.124
 20
171.36
 30
0.0
 11
216.232
 21
171.048
 31
0.0
  0
LINE
  8
0
  6
CONTINUOUS
 62
     2
 10
216.232
 20
171.048
 30
0.0
 11
216.388
 21
170.808
 31
0.0
  0
LINE
  8
0
  6
CONTINUOUS
 62
     2
 10
216.388
 20
170.808
 30
0.0
 11
216.64
 21
170.748
 31
0.0
  0
LINE
  8
0
  6
LTYPE2
 62
     2
 10
163.25
 20
67.5
 30
0.0
 11
167.75
 21
67.5
 31
0.0
  0
LINE
  8
0
  6
LTYPE2
 62
     2
 10
163.25
 20
72.5
 30
0.0
 11
167.75
 21
72.5
 31
0.0
  0
LINE
  8
0
  6
LTYPE2
 62
     2
 10
163.25
 20
77.5
 30
0.0
 11
167.75
 21
77.5
 31
0.0
  0
LINE
  8
0
  6
LTYPE2
 62
     2
 10
163.25
 20
82.5
 30
0.0
 11
167.75
 21
82.5
 31
0.0
  0
LINE
  8
0
  6
LTYPE2
 62
     2
 10
163.25
 20
87.5
 30
0.0
 11
167.75
 21
87.5
 31
0.0
  0
LINE
  8
0
  6
LTYPE2
 62
     2
 10
163.25
 20
92.5
 30
0.0
 11
167.75
 21
92.5
 31
0.0
  0
TEXT
  8
0
  6
CONTINUOUS
 62
     2
 10
107.5
 20
140.0
 30
0.3
 40
3.0
  1
２２９．５
 50
0.0
 41
0.6
 51
0.0
  7
KANJI0
  0
TEXT
  8
0
  6
CONTINUOUS
 62
     2
 10
161.55
 20
135.0
 30
0.3
 40
3.0
  1
１９．５
 50
0.0
 41
0.6
 51
0.0
  7
KANJI0
  0
LINE
  8
0
  6
CONTINUOUS
 62
     2
 10
27.020555372
 20
48.669577545
 30
0.0
 11
26.373507759
 21
46.254762979
 31
0.0
  0
LINE
  8
0
  6
CONTINUOUS
 62
     2
 10
27.020555372
 20
48.669577545
 30
0.0
 11
25.252788419
 21
46.901810592
 31
0.0
  0
TEXT
  8
0
  6
CONTINUOUS
 62
     2
 10
17.4
 20
26.879491924
 30
0.3
 40
3.0
  1
零位調整器
 50
0.0
 41
0.9
 51
0.0
  7
KANJI1
  0
LINE
  8
0
  6
CONTINUOUS
 62
     2
 10
13.862693304
 20
25.879491924
 30
0.0
 11
32.1
 21
25.879491924
 31
0.0
  0
LINE
  8
0
  6
CONTINUOUS
 62
     2
 10
27.020555372
 20
48.669577545
 30
0.0
 11
13.862693304
 21
25.879491924
 31
0.0
  0
LINE
  8
0
  6
CONTINUOUS
 62
     1
 10
157.75
 20
162.75
 30
0.0
 11
158.0
 21
162.5
 31
0.0
  0
LINE
  8
0
  6
CONTINUOUS
 62
     1
 10
158.0
 20
160.5
 30
0.0
 11
157.75
 21
160.25
 31
0.0
  0
LINE
  8
0
  6
CONTINUOUS
 62
     1
 10
158.0
 20
162.5
 30
0.0
 11
158.0
 21
160.5
 31
0.0
  0
LINE
  8
0
  6
CONTINUOUS
 62
     2
 10
157.75
 20
160.25
 30
0.0
 11
157.75
 21
162.75
 31
0.0
  0
LINE
  8
0
  6
CONTINUOUS
 62
     1
 10
149.7
 20
163.448557159
 30
0.0
 11
151.7
 21
163.448557159
 31
0.0
  0
LINE
  8
0
  6
CONTINUOUS
 62
     1
 10
151.7
 20
163.448557159
 30
0.0
 11
151.7
 21
159.551442841
 31
0.0
  0
LINE
  8
0
  6
CONTINUOUS
 62
     1
 10
151.7
 20
159.551442841
 30
0.0
 11
149.7
 21
159.551442841
 31
0.0
  0
LINE
  8
0
  6
CONTINUOUS
 62
     1
 10
149.7
 20
161.5
 30
0.0
 11
151.3
 21
161.5
 31
0.0
  0
ARC
  8
0
  6
CONTINUOUS
 62
     2
 10
149.91796875
 20
160.375
 30
0.0
 40
1.78203125
 50
332.474380886
 51
39.146251661
  0
ARC
  8
0
  6
CONTINUOUS
 62
     2
 10
149.91796875
 20
162.625
 30
0.0
 40
1.78203125
 50
320.853748339
 51
27.525619114
  0
LINE
  8
0
  6
CONTINUOUS
 62
     1
 10
151.7
 20
162.75
 30
0.0
 11
157.75
 21
162.75
 31
0.0
  0
LINE
  8
0
  6
CONTINUOUS
 62
     2
 10
151.7
 20
162.5
 30
0.0
 11
158.0
 21
162.5
 31
0.0
  0
LINE
  8
0
  6
CONTINUOUS
 62
     1
 10
157.75
 20
160.25
 30
0.0
 11
151.7
 21
160.25
 31
0.0
  0
LINE
  8
0
  6
CONTINUOUS
 62
     2
 10
158.0
 20
160.5
 30
0.0
 11
151.7
 21
160.5
 31
0.0
  0
LINE
  8
0
  6
CONTINUOUS
 62
     1
 10
160.0
 20
165.75
 30
0.0
 11
160.0
 21
157.25
 31
0.0
  0
LINE
  8
0
  6
CONTINUOUS
 62
     1
 10
160.0
 20
165.75
 30
0.0
 11
162.75
 21
165.75
 31
0.0
  0
LINE
  8
0
  6
CONTINUOUS
 62
     1
 10
164.654993762
 20
164.504750312
 30
0.0
 11
162.75
 21
164.6
 31
0.0
  0
ARC
  8
0
  6
CONTINUOUS
 62
     1
 10
164.65
 20
164.404875078
 30
0.0
 40
0.1
 50
360.0
 51
87.137594774
  0
LINE
  8
0
  6
CONTINUOUS
 62
     1
 10
164.654993762
 20
158.495249688
 30
0.0
 11
162.75
 21
158.4
 31
0.0
  0
LINE
  8
0
  6
CONTINUOUS
 62
     1
 10
164.75
 20
164.404875078
 30
0.0
 11
164.75
 21
158.595124922
 31
0.0
  0
ARC
  8
0
  6
CONTINUOUS
 62
     1
 10
164.65
 20
158.595124922
 30
0.0
 40
0.1
 50
272.862405226
 51
0.0
  0
LINE
  8
0
  6
CONTINUOUS
 62
     1
 10
162.75
 20
165.75
 30
0.0
 11
162.75
 21
164.6
 31
0.0
  0
LINE
  8
0
  6
CONTINUOUS
 62
     1
 10
162.75
 20
158.4
 30
0.0
 11
162.75
 21
157.25
 31
0.0
  0
LINE
  8
0
  6
CONTINUOUS
 62
     1
 10
162.75
 20
157.25
 30
0.0
 11
160.0
 21
157.25
 31
0.0
  0
LINE
  8
0
  6
CONTINUOUS
 62
     1
 10
162.75
 20
165.75
 30
0.0
 11
167.201937515
 21
165.75
 31
0.0
  0
ARC
  8
0
  6
CONTINUOUS
 62
     1
 10
167.201937515
 20
165.65
 30
0.0
 40
0.1
 50
38.659808254
 51
90.0
  0
LINE
  8
0
  6
CONTINUOUS
 62
     1
 10
167.819975604
 20
165.037530495
 30
0.0
 11
167.280024396
 21
165.712469505
 31
0.0
  0
ARC
  8
0
  6
CONTINUOUS
 62
     1
 10
167.898062485
 20
165.1
 30
0.0
 40
0.1
 50
218.659808254
 51
270.0
  0
LINE
  8
0
  6
CONTINUOUS
 62
     1
 10
168.25
 20
165.0
 30
0.0
 11
167.898062485
 21
165.0
 31
0.0
  0
ARC
  8
0
  6
CONTINUOUS
 62
     1
 10
168.25
 20
165.1
 30
0.0
 40
0.1
 50
270.0
 51
0.0
  0
LINE
  8
0
  6
CONTINUOUS
 62
     1
 10
168.35
 20
165.65
 30
0.0
 11
168.35
 21
165.1
 31
0.0
  0
ARC
  8
0
  6
CONTINUOUS
 62
     1
 10
168.45
 20
165.65
 30
0.0
 40
0.1
 50
90.0
 51
180.0
  0
LINE
  8
0
  6
CONTINUOUS
 62
     1
 10
168.45
 20
165.75
 30
0.0
 11
169.15
 21
165.75
 31
0.0
  0
ARC
  8
0
  6
CONTINUOUS
 62
     1
 10
169.15
 20
165.65
 30
0.0
 40
0.1
 50
0.0
 51
90.0
  0
LINE
  8
0
  6
CONTINUOUS
 62
     1
 10
162.75
 20
157.25
 30
0.0
 11
167.201937515
 21
157.25
 31
0.0
  0
ARC
  8
0
  6
CONTINUOUS
 62
     1
 10
167.201937515
 20
157.35
 30
0.0
 40
0.1
 50
270.0
 51
321.340191746
  0
LINE
  8
0
  6
CONTINUOUS
 62
     1
 10
167.819975604
 20
157.962469505
 30
0.0
 11
167.280024396
 21
157.287530495
 31
0.0
  0
ARC
  8
0
  6
CONTINUOUS
 62
     1
 10
167.898062485
 20
157.9
 30
0.0
 40
0.1
 50
90.0
 51
141.340191746
  0
LINE
  8
0
  6
CONTINUOUS
 62
     1
 10
168.25
 20
158.0
 30
0.0
 11
167.898062485
 21
158.0
 31
0.0
  0
ARC
  8
0
  6
CONTINUOUS
 62
     1
 10
168.25
 20
157.9
 30
0.0
 40
0.1
 50
0.0
 51
90.0
  0
LINE
  8
0
  6
CONTINUOUS
 62
     1
 10
168.35
 20
157.35
 30
0.0
 11
168.35
 21
157.9
 31
0.0
  0
ARC
  8
0
  6
CONTINUOUS
 62
     1
 10
168.45
 20
157.35
 30
0.0
 40
0.1
 50
180.0
 51
270.0
  0
LINE
  8
0
  6
CONTINUOUS
 62
     1
 10
169.25
 20
165.65
 30
0.0
 11
169.25
 21
157.35
 31
0.0
  0
LINE
  8
0
  6
CONTINUOUS
 62
     1
 10
168.45
 20
157.25
 30
0.0
 11
169.15
 21
157.25
 31
0.0
  0
ARC
  8
0
  6
CONTINUOUS
 62
     1
 10
169.15
 20
157.35
 30
0.0
 40
0.1
 50
270.0
 51
0.0
  0
LINE
  8
0
  6
CONTINUOUS
 62
     2
 10
164.75
 20
163.65
 30
0.0
 11
164.8
 21
163.65
 31
0.0
  0
ARC
  8
0
  6
CONTINUOUS
 62
     2
 10
164.8
 20
163.3
 30
0.0
 40
0.35
 50
0.0
 51
90.0
  0
LINE
  8
0
  6
CONTINUOUS
 62
     2
 10
164.8
 20
159.35
 30
0.0
 11
164.75
 21
159.35
 31
0.0
  0
LINE
  8
0
  6
CONTINUOUS
 62
     2
 10
165.15
 20
163.3
 30
0.0
 11
165.15
 21
159.7
 31
0.0
  0
ARC
  8
0
  6
CONTINUOUS
 62
     2
 10
164.8
 20
159.7
 30
0.0
 40
0.35
 50
270.0
 51
0.0
  0
LINE
  8
0
  6
CONTINUOUS
 62
     2
 10
168.150003081
 20
157.4
 30
0.0
 11
168.250003081
 21
157.45
 31
0.0
  0
LINE
  8
0
  6
CONTINUOUS
 62
     2
 10
168.250003081
 20
157.45
 30
0.0
 11
168.35
 21
157.35
 31
0.0
  0
LINE
  8
0
  6
CONTINUOUS
 62
     2
 10
168.450003081
 20
156.8
 30
0.0
 11
169.15
 21
156.8
 31
0.0
  0
ARC
  8
0
  6
CONTINUOUS
 62
     2
 10
169.15
 20
157.35
 30
0.0
 40
0.55
 50
270.0
 51
0.0
  0
ARC
  8
0
  6
CONTINUOUS
 62
     2
 10
168.600003081
 20
157.25
 30
0.0
 40
0.474341649
 50
161.565051177
 51
251.565051177
  0
LINE
  8
0
  6
CONTINUOUS
 62
     2
 10
169.7
 20
157.35
 30
0.0
 11
169.7
 21
165.65
 31
0.0
  0
LINE
  8
0
  6
CONTINUOUS
 62
     2
 10
168.450003081
 20
166.2
 30
0.0
 11
169.15
 21
166.2
 31
0.0
  0
ARC
  8
0
  6
CONTINUOUS
 62
     2
 10
169.15
 20
165.65
 30
0.0
 40
0.55
 50
360.0
 51
90.0
  0
LINE
  8
0
  6
CONTINUOUS
 62
     2
 10
168.150003081
 20
165.6
 30
0.0
 11
168.250003081
 21
165.55
 31
0.0
  0
LINE
  8
0
  6
CONTINUOUS
 62
     2
 10
168.250003081
 20
165.55
 30
0.0
 11
168.35
 21
165.65
 31
0.0
  0
ARC
  8
0
  6
CONTINUOUS
 62
     2
 10
168.600003081
 20
165.75
 30
0.0
 40
0.474341649
 50
108.434948823
 51
198.434948823
  0
LINE
  8
0
  6
CONTINUOUS
 62
     2
 10
165.54
 20
162.83
 30
0.0
 11
165.54
 21
160.17
 31
0.0
  0
LINE
  8
0
  6
CONTINUOUS
 62
     2
 10
165.85
 20
160.19
 30
0.0
 11
165.54
 21
160.17
 31
0.0
  0
LINE
  8
0
  6
CONTINUOUS
 62
     2
 10
165.54
 20
162.83
 30
0.0
 11
165.85
 21
162.83
 31
0.0
  0
LINE
  8
0
  6
CONTINUOUS
 62
     2
 10
166.59
 20
162.08
 30
0.0
 11
166.59
 21
160.92
 31
0.0
  0
ARC
  8
0
  6
CONTINUOUS
 62
     2
 10
165.84
 20
162.08
 30
0.0
 40
0.75
 50
0.0
 51
90.0
  0
ARC
  8
0
  6
CONTINUOUS
 62
     2
 10
165.84
 20
160.92
 30
0.0
 40
0.75
 50
268.472474559
 51
0.0
  0
LINE
  8
0
  6
CONTINUOUS
 62
     2
 10
165.53
 20
162.85
 30
0.0
 11
165.15
 21
162.85
 31
0.0
  0
LINE
  8
0
  6
CONTINUOUS
 62
     2
 10
165.15
 20
162.85
 30
0.0
 11
165.15
 21
160.17
 31
0.0
  0
LINE
  8
0
  6
CONTINUOUS
 62
     2
 10
165.15
 20
160.17
 30
0.0
 11
165.53
 21
160.17
 31
0.0
  0
LINE
  8
0
  6
CONTINUOUS
 62
     2
 10
165.15
 20
161.38
 30
0.0
 11
165.53
 21
161.69
 31
0.0
  0
LINE
  8
0
  6
CONTINUOUS
 62
     2
 10
165.15
 20
161.14
 30
0.0
 11
165.54
 21
161.43
 31
0.0
  0
LINE
  8
0
  6
CONTINUOUS
 62
     2
 10
166.59
 20
161.71
 30
0.0
 11
166.52
 21
161.71
 31
0.0
  0
LINE
  8
0
  6
CONTINUOUS
 62
     2
 10
166.52
 20
161.72
 30
0.0
 11
166.52
 21
161.34
 31
0.0
  0
LINE
  8
0
  6
CONTINUOUS
 62
     2
 10
166.52
 20
161.34
 30
0.0
 11
166.58
 21
161.34
 31
0.0
  0
TEXT
  8
0
  6
CONTINUOUS
 62
     2
 10
173.5
 20
159.55
 30
0.3
 40
3.0
  1
３６
 50
90.0
 41
0.6
 51
0.0
  7
KANJI0
  0
LINE
  8
0
  6
CONTINUOUS
 62
     2
 10
174.0
 20
170.6
 30
0.0
 11
173.352952387
 21
168.185185434
 31
0.0
  0
LINE
  8
0
  6
CONTINUOUS
 62
     2
 10
174.0
 20
170.6
 30
0.0
 11
174.647047613
 21
168.185185434
 31
0.0
  0
LINE
  8
0
  6
CONTINUOUS
 62
     2
 10
174.0
 20
170.6
 30
0.0
 11
174.0
 21
152.6
 31
0.0
  0
LINE
  8
0
  6
CONTINUOUS
 62
     2
 10
174.0
 20
152.6
 30
0.0
 11
174.647047613
 21
155.014814566
 31
0.0
  0
LINE
  8
0
  6
CONTINUOUS
 62
     2
 10
174.0
 20
152.6
 30
0.0
 11
173.352952387
 21
155.014814566
 31
0.0
  0
LINE
  8
0
  6
CONTINUOUS
 62
     2
 10
161.0
 20
170.5
 30
0.0
 11
176.0
 21
170.5
 31
0.0
  0
LINE
  8
0
  6
CONTINUOUS
 62
     2
 10
161.0
 20
152.5
 30
0.0
 11
176.0
 21
152.5
 31
0.0
  0
LINE
  8
0
  6
CONTINUOUS
 62
     1
 10
187.0
 20
170.5
 30
0.0
 11
187.0
 21
142.0
 31
0.0
  0
LINE
  8
0
  6
CONTINUOUS
 62
     1
 10
194.0
 20
170.5
 30
0.0
 11
187.0
 21
170.5
 31
0.0
  0
LINE
  8
0
  6
CONTINUOUS
 62
     1
 10
194.0
 20
142.0
 30
0.0
 11
194.0
 21
170.5
 31
0.0
  0
LINE
  8
0
  6
CONTINUOUS
 62
     1
 10
187.0
 20
142.0
 30
0.0
 11
194.0
 21
142.0
 31
0.0
  0
TEXT
  8
0
  6
CONTINUOUS
 62
     2
 10
190.35
 20
169.5
 30
0.3
 40
3.0
  1
パネルカット寸法
 50
0.0
 41
0.9
 51
0.0
  7
KANJI9
  0
LINE
  8
0
  6
CONTINUOUS
 62
     2
 10
186.0
 20
142.0
 30
0.0
 11
180.0
 21
142.0
 31
0.0
  0
LINE
  8
0
  6
CONTINUOUS
 62
     2
 10
182.0
 20
142.0
 30
0.0
 11
182.647047613
 21
144.414814566
 31
0.0
  0
LINE
  8
0
  6
CONTINUOUS
 62
     2
 10
182.0
 20
142.0
 30
0.0
 11
181.352952387
 21
144.414814566
 31
0.0
  0
LINE
  8
0
  6
CONTINUOUS
 62
     2
 10
182.0
 20
142.0
 30
0.0
 11
182.0
 21
170.5
 31
0.0
  0
LINE
  8
0
  6
CONTINUOUS
 62
     2
 10
182.0
 20
170.5
 30
0.0
 11
181.352952387
 21
168.085185434
 31
0.0
  0
LINE
  8
0
  6
CONTINUOUS
 62
     2
 10
182.0
 20
170.5
 30
0.0
 11
182.647047613
 21
168.085185434
 31
0.0
  0
LINE
  8
0
  6
CONTINUOUS
 62
     2
 10
186.0
 20
170.5
 30
0.0
 11
180.0
 21
170.5
 31
0.0
  0
TEXT
  8
0
  6
CONTINUOUS
 62
     2
 10
181.0
 20
152.7
 30
0.3
 40
3.0
  1
１６４
 50
90.0
 41
0.6
 51
0.0
  7
KANJI0
  0
LINE
  8
0
  6
CONTINUOUS
 62
     2
 10
187.0
 20
178.5
 30
0.0
 11
189.414814566
 21
177.852952387
 31
0.0
  0
LINE
  8
0
  6
CONTINUOUS
 62
     2
 10
187.0
 20
178.5
 30
0.0
 11
189.414814566
 21
179.147047613
 31
0.0
  0
LINE
  8
0
  6
CONTINUOUS
 62
     2
 10
187.0
 20
178.5
 30
0.0
 11
194.0
 21
178.5
 31
0.0
  0
LINE
  8
0
  6
CONTINUOUS
 62
     2
 10
194.0
 20
178.5
 30
0.0
 11
191.585185434
 21
179.147047613
 31
0.0
  0
LINE
  8
0
  6
CONTINUOUS
 62
     2
 10
194.0
 20
178.5
 30
0.0
 11
191.585185434
 21
177.852952387
 31
0.0
  0
TEXT
  8
0
  6
CONTINUOUS
 62
     2
 10
195.29
 20
179.61
 30
0.3
 40
3.0
  1
４１．５
 50
0.0
 41
0.6
 51
0.0
  7
KANJI0
  0
LINE
  8
0
  6
CONTINUOUS
 62
     2
 10
190.032
 20
179.924
 30
0.0
 11
190.332
 21
180.224
 31
0.0
  0
LINE
  8
0
  6
CONTINUOUS
 62
     2
 10
190.332
 20
180.224
 30
0.0
 11
190.596
 21
180.572
 31
0.0
  0
LINE
  8
0
  6
CONTINUOUS
 62
     2
 10
190.596
 20
180.572
 30
0.0
 11
190.8
 21
181.028
 31
0.0
  0
LINE
  8
0
  6
CONTINUOUS
 62
     2
 10
190.8
 20
181.028
 30
0.0
 11
190.932
 21
181.352
 31
0.0
  0
LINE
  8
0
  6
CONTINUOUS
 62
     2
 10
190.932
 20
181.352
 30
0.0
 11
190.992
 21
181.7
 31
0.0
  0
LINE
  8
0
  6
CONTINUOUS
 62
     2
 10
190.992
 20
181.7
 30
0.0
 11
190.992
 21
182.156
 31
0.0
  0
LINE
  8
0
  6
CONTINUOUS
 62
     2
 10
190.488
 20
181.976
 30
0.0
 11
190.44
 21
181.532
 31
0.0
  0
LINE
  8
0
  6
CONTINUOUS
 62
     2
 10
190.44
 20
181.532
 30
0.0
 11
190.416
 21
181.112
 31
0.0
  0
LINE
  8
0
  6
CONTINUOUS
 62
     2
 10
190.416
 20
181.112
 30
0.0
 11
190.404
 21
180.8
 31
0.0
  0
LINE
  8
0
  6
CONTINUOUS
 62
     2
 10
190.404
 20
180.8
 30
0.0
 11
190.404
 21
180.5
 31
0.0
  0
LINE
  8
0
  6
CONTINUOUS
 62
     2
 10
190.404
 20
180.5
 30
0.0
 11
190.512
 21
180.188
 31
0.0
  0
LINE
  8
0
  6
CONTINUOUS
 62
     2
 10
190.512
 20
180.188
 30
0.0
 11
190.668
 21
179.948
 31
0.0
  0
LINE
  8
0
  6
CONTINUOUS
 62
     2
 10
190.668
 20
179.948
 30
0.0
 11
190.92
 21
179.888
 31
0.0
  0
LINE
  8
0
  6
LTYPE3
 62
     2
 10
194.0
 20
173.5
 30
0.0
 11
187.0
 21
173.5
 31
0.0
  0
LINE
  8
0
  6
LTYPE3
 62
     2
 10
187.0
 20
139.0
 30
0.0
 11
194.0
 21
139.0
 31
0.0
  0
LINE
  8
0
  6
CONTINUOUS
 62
     2
 10
195.0
 20
139.0
 30
0.0
 11
201.0
 21
139.0
 31
0.0
  0
LINE
  8
0
  6
CONTINUOUS
 62
     2
 10
199.0
 20
139.0
 30
0.0
 11
199.647047613
 21
141.414814566
 31
0.0
  0
LINE
  8
0
  6
CONTINUOUS
 62
     2
 10
199.0
 20
139.0
 30
0.0
 11
198.352952387
 21
141.414814566
 31
0.0
  0
LINE
  8
0
  6
CONTINUOUS
 62
     2
 10
199.0
 20
139.0
 30
0.0
 11
199.0
 21
173.5
 31
0.0
  0
LINE
  8
0
  6
CONTINUOUS
 62
     2
 10
199.0
 20
173.5
 30
0.0
 11
198.352952387
 21
171.085185434
 31
0.0
  0
LINE
  8
0
  6
CONTINUOUS
 62
     2
 10
199.0
 20
173.5
 30
0.0
 11
199.647047613
 21
171.085185434
 31
0.0
  0
LINE
  8
0
  6
CONTINUOUS
 62
     2
 10
195.0
 20
173.5
 30
0.0
 11
201.0
 21
173.5
 31
0.0
  0
TEXT
  8
0
  6
CONTINUOUS
 62
     2
 10
203.0
 20
141.0
 30
0.3
 40
3.0
  1
（裏側取付スペース）
 50
90.0
 41
0.9
 51
0.0
  7
KANJI1
  0
TEXT
  8
0
  6
CONTINUOUS
 62
     2
 10
181.09
 20
159.19
 30
0.18
 40
1.8
  1
－０
 50
90.0
 41
0.6
 51
0.0
  7
KANJI10
  0
TEXT
  8
0
  6
CONTINUOUS
 62
     2
 10
179.29
 20
159.19
 30
0.18
 40
1.8
  1
＋１
 50
90.0
 41
0.6
 51
0.0
  7
KANJI10
  0
LINE
  8
0
  6
CONTINUOUS
 62
     2
 10
190.992
 20
182.156
 30
0.0
 11
190.992
 21
182.384
 31
0.0
  0
LINE
  8
0
  6
CONTINUOUS
 62
     2
 10
190.992
 20
182.384
 30
0.0
 11
190.896
 21
182.588
 31
0.0
  0
LINE
  8
0
  6
CONTINUOUS
 62
     2
 10
190.896
 20
182.588
 30
0.0
 11
190.704
 21
182.612
 31
0.0
  0
LINE
  8
0
  6
CONTINUOUS
 62
     2
 10
190.704
 20
182.612
 30
0.0
 11
190.524
 21
182.456
 31
0.0
  0
LINE
  8
0
  6
CONTINUOUS
 62
     2
 10
190.524
 20
182.456
 30
0.0
 11
190.488
 21
181.976
 31
0.0
  0
LINE
  8
0
  6
CONTINUOUS
 62
     2
 10
187.0
 20
174.5
 30
0.0
 11
187.0
 21
180.5
 31
0.0
  0
LINE
  8
0
  6
CONTINUOUS
 62
     2
 10
194.0
 20
174.5
 30
0.0
 11
194.0
 21
180.5
 31
0.0
  0
LINE
  8
0
  6
LTYPE3
 62
     2
 10
187.0
 20
173.5
 30
0.0
 11
187.0
 21
170.5
 31
0.0
  0
LINE
  8
0
  6
LTYPE3
 62
     2
 10
194.0
 20
173.5
 30
0.0
 11
194.0
 21
170.5
 31
0.0
  0
LINE
  8
0
  6
LTYPE3
 62
     2
 10
187.0
 20
139.0
 30
0.0
 11
187.0
 21
142.0
 31
0.0
  0
LINE
  8
0
  6
LTYPE3
 62
     2
 10
194.0
 20
142.0
 30
0.0
 11
194.0
 21
139.0
 31
0.0
  0
TEXT
  8
0
  6
CONTINUOUS
 62
     2
 10
202.79
 20
181.41
 30
0.18
 40
1.8
  1
＋１．５
 50
0.0
 41
0.6
 51
0.0
  7
KANJI10
  0
TEXT
  8
0
  6
CONTINUOUS
 62
     2
 10
202.79
 20
179.61
 30
0.18
 40
1.8
  1
－０
 50
0.0
 41
0.6
 51
0.0
  7
KANJI10
  0
LINE
  8
0
  6
CONTINUOUS
 62
     1
 10
157.75
 20
127.5
 30
0.0
 11
158.0
 21
127.25
 31
0.0
  0
LINE
  8
0
  6
CONTINUOUS
 62
     1
 10
158.0
 20
125.25
 30
0.0
 11
157.75
 21
125.0
 31
0.0
  0
LINE
  8
0
  6
CONTINUOUS
 62
     1
 10
158.0
 20
127.25
 30
0.0
 11
158.0
 21
125.25
 31
0.0
  0
LINE
  8
0
  6
CONTINUOUS
 62
     2
 10
157.75
 20
125.0
 30
0.0
 11
157.75
 21
127.5
 31
0.0
  0
LINE
  8
0
  6
CONTINUOUS
 62
     1
 10
151.7
 20
124.0
 30
0.0
 11
149.7
 21
124.0
 31
0.0
  0
LINE
  8
0
  6
CONTINUOUS
 62
     1
 10
151.7
 20
128.5
 30
0.0
 11
151.7
 21
124.0
 31
0.0
  0
LINE
  8
0
  6
CONTINUOUS
 62
     1
 10
149.7
 20
128.5
 30
0.0
 11
151.7
 21
128.5
 31
0.0
  0
LINE
  8
0
  6
CONTINUOUS
 62
     1
 10
149.7
 20
125.125
 30
0.0
 11
151.3
 21
125.125
 31
0.0
  0
LINE
  8
0
  6
CONTINUOUS
 62
     1
 10
151.3
 20
127.375
 30
0.0
 11
149.7
 21
127.375
 31
0.0
  0
ARC
  8
0
  6
CONTINUOUS
 62
     2
 10
149.91796875
 20
126.25
 30
0.0
 40
1.78203125
 50
320.853748339
 51
39.146251661
  0
ARC
  8
0
  6
CONTINUOUS
 62
     2
 10
149.91796875
 20
128.5
 30
0.0
 40
1.78203125
 50
320.853748339
 51
360.0
  0
ARC
  8
0
  6
CONTINUOUS
 62
     2
 10
149.91796875
 20
124.0
 30
0.0
 40
1.78203125
 50
0.0
 51
39.146251661
  0
LINE
  8
0
  6
CONTINUOUS
 62
     1
 10
157.75
 20
125.0
 30
0.0
 11
151.7
 21
125.0
 31
0.0
  0
LINE
  8
0
  6
CONTINUOUS
 62
     1
 10
151.7
 20
127.5
 30
0.0
 11
157.75
 21
127.5
 31
0.0
  0
LINE
  8
0
  6
CONTINUOUS
 62
     2
 10
151.7
 20
127.25
 30
0.0
 11
158.0
 21
127.25
 31
0.0
  0
LINE
  8
0
  6
CONTINUOUS
 62
     2
 10
158.0
 20
125.25
 30
0.0
 11
151.7
 21
125.25
 31
0.0
  0
LINE
  8
0
  6
CONTINUOUS
 62
     1
 10
157.75
 20
40.2
 30
0.0
 11
158.0
 21
39.95
 31
0.0
  0
LINE
  8
0
  6
CONTINUOUS
 62
     1
 10
158.0
 20
37.95
 30
0.0
 11
157.75
 21
37.7
 31
0.0
  0
LINE
  8
0
  6
CONTINUOUS
 62
     1
 10
158.0
 20
39.95
 30
0.0
 11
158.0
 21
37.95
 31
0.0
  0
LINE
  8
0
  6
CONTINUOUS
 62
     2
 10
157.75
 20
37.7
 30
0.0
 11
157.75
 21
40.2
 31
0.0
  0
LINE
  8
0
  6
CONTINUOUS
 62
     1
 10
151.7
 20
36.7
 30
0.0
 11
149.7
 21
36.7
 31
0.0
  0
LINE
  8
0
  6
CONTINUOUS
 62
     1
 10
151.7
 20
41.2
 30
0.0
 11
151.7
 21
36.7
 31
0.0
  0
LINE
  8
0
  6
CONTINUOUS
 62
     1
 10
149.7
 20
41.2
 30
0.0
 11
151.7
 21
41.2
 31
0.0
  0
LINE
  8
0
  6
CONTINUOUS
 62
     1
 10
149.7
 20
37.825
 30
0.0
 11
151.3
 21
37.825
 31
0.0
  0
LINE
  8
0
  6
CONTINUOUS
 62
     1
 10
151.3
 20
40.075
 30
0.0
 11
149.7
 21
40.075
 31
0.0
  0
ARC
  8
0
  6
CONTINUOUS
 62
     2
 10
149.91796875
 20
38.95
 30
0.0
 40
1.78203125
 50
320.853748339
 51
39.146251661
  0
ARC
  8
0
  6
CONTINUOUS
 62
     2
 10
149.91796875
 20
41.2
 30
0.0
 40
1.78203125
 50
320.853748339
 51
360.0
  0
ARC
  8
0
  6
CONTINUOUS
 62
     2
 10
149.91796875
 20
36.7
 30
0.0
 40
1.78203125
 50
0.0
 51
39.146251661
  0
LINE
  8
0
  6
CONTINUOUS
 62
     1
 10
157.75
 20
37.7
 30
0.0
 11
151.7
 21
37.7
 31
0.0
  0
LINE
  8
0
  6
CONTINUOUS
 62
     1
 10
151.7
 20
40.2
 30
0.0
 11
157.75
 21
40.2
 31
0.0
  0
LINE
  8
0
  6
CONTINUOUS
 62
     2
 10
151.7
 20
39.95
 30
0.0
 11
158.0
 21
39.95
 31
0.0
  0
LINE
  8
0
  6
CONTINUOUS
 62
     2
 10
158.0
 20
37.95
 30
0.0
 11
151.7
 21
37.95
 31
0.0
  0
LINE
  8
0
  6
CONTINUOUS
 62
     1
 10
193.75
 20
128.25
 30
0.0
 11
193.75
 21
123.25
 31
0.0
  0
LINE
  8
0
  6
CONTINUOUS
 62
     1
 10
206.25
 20
128.25
 30
0.0
 11
206.25
 21
123.25
 31
0.0
  0
CIRCLE
  8
0
  6
CONTINUOUS
 62
     1
 10
200.0
 20
126.25
 30
0.0
 40
1.275
  0
LINE
  8
0
  6
CONTINUOUS
 62
     1
 10
195.75
 20
128.25
 30
0.0
 11
195.75
 21
123.25
 31
0.0
  0
LINE
  8
0
  6
CONTINUOUS
 62
     1
 10
204.25
 20
128.25
 30
0.0
 11
204.25
 21
123.25
 31
0.0
  0
LINE
  8
0
  6
CONTINUOUS
 62
     1
 10
200.0
 20
128.500000962
 30
0.0
 11
198.051442841
 21
127.375000962
 31
0.0
  0
LINE
  8
0
  6
CONTINUOUS
 62
     1
 10
198.051442841
 20
127.375000962
 30
0.0
 11
198.051442841
 21
125.125000962
 31
0.0
  0
LINE
  8
0
  6
CONTINUOUS
 62
     1
 10
198.051442841
 20
125.125000962
 30
0.0
 11
200.0
 21
124.000000962
 31
0.0
  0
LINE
  8
0
  6
CONTINUOUS
 62
     1
 10
200.0
 20
124.000000962
 30
0.0
 11
201.948557159
 21
125.125000962
 31
0.0
  0
LINE
  8
0
  6
CONTINUOUS
 62
     1
 10
201.948557159
 20
125.125000962
 30
0.0
 11
201.948557159
 21
127.375000962
 31
0.0
  0
LINE
  8
0
  6
CONTINUOUS
 62
     1
 10
201.948557159
 20
127.375000962
 30
0.0
 11
200.0
 21
128.500000962
 31
0.0
  0
LINE
  8
0
  6
CONTINUOUS
 62
     1
 10
200.433014368
 20
128.25
 30
0.0
 11
206.25
 21
128.25
 31
0.0
  0
LINE
  8
0
  6
CONTINUOUS
 62
     1
 10
193.75
 20
128.25
 30
0.0
 11
199.566985632
 21
128.25
 31
0.0
  0
ARC
  8
0
  6
CONTINUOUS
 62
     2
 10
200.0
 20
126.25
 30
0.0
 40
1.02
 50
23.088831181
 51
156.911168819
  0
ARC
  8
0
  6
CONTINUOUS
 62
     2
 10
200.0
 20
126.25
 30
0.0
 40
1.02
 50
203.088731761
 51
336.911268239
  0
LINE
  8
0
  6
CONTINUOUS
 62
     2
 10
198.789370317
 20
126.650000962
 30
0.0
 11
201.210629683
 21
126.650000962
 31
0.0
  0
LINE
  8
0
  6
CONTINUOUS
 62
     2
 10
198.789369681
 20
125.850000962
 30
0.0
 11
201.210630319
 21
125.850000962
 31
0.0
  0
LINE
  8
0
  6
CONTINUOUS
 62
     1
 10
206.25
 20
125.0
 30
0.0
 11
210.0
 21
125.0
 31
0.0
  0
LINE
  8
0
  6
CONTINUOUS
 62
     1
 10
190.0
 20
125.0
 30
0.0
 11
193.75
 21
125.0
 31
0.0
  0
LINE
  8
0
  6
CONTINUOUS
 62
     1
 10
193.75
 20
36.75
 30
0.0
 11
193.75
 21
41.75
 31
0.0
  0
LINE
  8
0
  6
CONTINUOUS
 62
     1
 10
206.25
 20
36.75
 30
0.0
 11
206.25
 21
41.75
 31
0.0
  0
CIRCLE
  8
0
  6
CONTINUOUS
 62
     1
 10
200.0
 20
38.75
 30
0.0
 40
1.275
  0
LINE
  8
0
  6
CONTINUOUS
 62
     1
 10
195.75
 20
36.75
 30
0.0
 11
195.75
 21
41.75
 31
0.0
  0
LINE
  8
0
  6
CONTINUOUS
 62
     1
 10
204.25
 20
36.75
 30
0.0
 11
204.25
 21
41.75
 31
0.0
  0
LINE
  8
0
  6
CONTINUOUS
 62
     1
 10
200.0
 20
36.499999038
 30
0.0
 11
198.051442841
 21
37.624999038
 31
0.0
  0
LINE
  8
0
  6
CONTINUOUS
 62
     1
 10
198.051442841
 20
37.624999038
 30
0.0
 11
198.051442841
 21
39.874999038
 31
0.0
  0
LINE
  8
0
  6
CONTINUOUS
 62
     1
 10
198.051442841
 20
39.874999038
 30
0.0
 11
200.0
 21
40.999999038
 31
0.0
  0
LINE
  8
0
  6
CONTINUOUS
 62
     1
 10
200.0
 20
40.999999038
 30
0.0
 11
201.948557159
 21
39.874999038
 31
0.0
  0
LINE
  8
0
  6
CONTINUOUS
 62
     1
 10
201.948557159
 20
39.874999038
 30
0.0
 11
201.948557159
 21
37.624999038
 31
0.0
  0
LINE
  8
0
  6
CONTINUOUS
 62
     1
 10
201.948557159
 20
37.624999038
 30
0.0
 11
200.0
 21
36.499999038
 31
0.0
  0
LINE
  8
0
  6
CONTINUOUS
 62
     1
 10
200.433014368
 20
36.75
 30
0.0
 11
206.25
 21
36.75
 31
0.0
  0
LINE
  8
0
  6
CONTINUOUS
 62
     1
 10
193.75
 20
36.75
 30
0.0
 11
199.566985632
 21
36.75
 31
0.0
  0
ARC
  8
0
  6
CONTINUOUS
 62
     2
 10
200.0
 20
38.75
 30
0.0
 40
1.02
 50
203.088831181
 51
336.911168819
  0
ARC
  8
0
  6
CONTINUOUS
 62
     2
 10
200.0
 20
38.75
 30
0.0
 40
1.02
 50
23.088731761
 51
156.911268239
  0
LINE
  8
0
  6
CONTINUOUS
 62
     2
 10
198.789370317
 20
38.349999038
 30
0.0
 11
201.210629683
 21
38.349999038
 31
0.0
  0
LINE
  8
0
  6
CONTINUOUS
 62
     2
 10
198.789369681
 20
39.149999038
 30
0.0
 11
201.210630319
 21
39.149999038
 31
0.0
  0
LINE
  8
0
  6
CONTINUOUS
 62
     1
 10
206.25
 20
40.0
 30
0.0
 11
210.0
 21
40.0
 31
0.0
  0
LINE
  8
0
  6
CONTINUOUS
 62
     1
 10
190.0
 20
40.0
 30
0.0
 11
193.75
 21
40.0
 31
0.0
  0
LINE
  8
0
  6
CONTINUOUS
 62
     2
 10
165.15
 20
70.45
 30
0.0
 11
165.15
 21
74.55
 31
0.0
  0
LINE
  8
0
  6
CONTINUOUS
 62
     2
 10
165.15
 20
70.45
 30
0.0
 11
165.15
 21
74.55
 31
0.0
  0
LINE
  8
0
  6
CONTINUOUS
 62
     2
 10
165.15
 20
75.45
 30
0.0
 11
165.15
 21
79.55
 31
0.0
  0
LINE
  8
0
  6
CONTINUOUS
 62
     2
 10
165.15
 20
75.45
 30
0.0
 11
165.15
 21
79.55
 31
0.0
  0
LINE
  8
0
  6
CONTINUOUS
 62
     2
 10
55.0
 20
139.0
 30
0.0
 11
169.7
 21
139.0
 31
0.0
  0
LINE
  8
0
  6
LTYPE2
 62
     2
 10
43.0
 20
80.0
 30
0.0
 11
16.0
 21
80.0
 31
0.0
  0
LINE
  8
0
  6
LTYPE2
 62
     2
 10
31.0
 20
116.8
 30
0.0
 11
31.0
 21
39.3
 31
0.0
  0
LINE
  8
0
  6
LTYPE2
 62
     2
 10
85.00001
 20
108.0
 30
0.0
 11
85.00001
 21
112.0
 31
0.0
  0
LINE
  8
0
  6
LTYPE2
 62
     2
 10
83.00001
 20
110.0
 30
0.0
 11
87.00001
 21
110.0
 31
0.0
  0
LINE
  8
0
  6
LTYPE2
 62
     2
 10
75.5
 20
112.0
 30
0.0
 11
75.5
 21
108.0
 31
0.0
  0
LINE
  8
0
  6
LTYPE2
 62
     2
 10
73.5
 20
110.0
 30
0.0
 11
77.5
 21
110.0
 31
0.0
  0
LINE
  8
0
  6
LTYPE2
 62
     2
 10
73.5
 20
50.0
 30
0.0
 11
77.5
 21
50.0
 31
0.0
  0
LINE
  8
0
  6
LTYPE2
 62
     2
 10
75.5
 20
52.0
 30
0.0
 11
75.5
 21
48.0
 31
0.0
  0
LINE
  8
0
  6
CONTINUOUS
 62
     2
 10
68.75
 20
168.125
 30
0.0
 11
64.75
 21
168.125
 31
0.0
  0
LINE
  8
0
  6
CONTINUOUS
 62
     2
 10
68.75
 20
168.125
 30
0.0
 11
68.75
 21
170.875
 31
0.0
  0
LINE
  8
0
  6
CONTINUOUS
 62
     2
 10
68.75
 20
170.875
 30
0.0
 11
65.0
 21
170.875
 31
0.0
  0
LINE
  8
0
  6
CONTINUOUS
 62
     2
 10
64.75
 20
171.875
 30
0.0
 11
64.75
 21
173.375
 31
0.0
  0
LINE
  8
0
  6
CONTINUOUS
 62
     2
 10
64.875
 20
173.375
 30
0.0
 11
66.642766953
 21
175.142766953
 31
0.0
  0
LINE
  8
0
  6
CONTINUOUS
 62
     2
 10
64.875
 20
173.375
 30
0.0
 11
65.522047613
 21
175.789814566
 31
0.0
  0
LINE
  8
0
  6
CONTINUOUS
 62
     2
 10
64.875
 20
173.375
 30
0.0
 11
66.607050808
 21
176.375
 31
0.0
  0
LINE
  8
0
  6
CONTINUOUS
 62
     2
 10
64.75
 20
173.375
 30
0.0
 11
65.0
 21
173.375
 31
0.0
  0
LINE
  8
0
  6
CONTINUOUS
 62
     2
 10
65.0
 20
173.375
 30
0.0
 11
65.0
 21
168.125
 31
0.0
  0
LINE
  8
0
  6
CONTINUOUS
 62
     2
 10
68.75
 20
154.875
 30
0.0
 11
64.75
 21
154.875
 31
0.0
  0
LINE
  8
0
  6
CONTINUOUS
 62
     2
 10
68.75
 20
154.875
 30
0.0
 11
68.75
 21
152.125
 31
0.0
  0
LINE
  8
0
  6
CONTINUOUS
 62
     2
 10
68.75
 20
152.125
 30
0.0
 11
65.0
 21
152.125
 31
0.0
  0
LINE
  8
0
  6
CONTINUOUS
 62
     2
 10
64.75
 20
151.125
 30
0.0
 11
64.75
 21
149.625
 31
0.0
  0
LINE
  8
0
  6
CONTINUOUS
 62
     2
 10
64.75
 20
149.625
 30
0.0
 11
65.0
 21
149.625
 31
0.0
  0
LINE
  8
0
  6
CONTINUOUS
 62
     2
 10
65.0
 20
149.625
 30
0.0
 11
65.0
 21
154.875
 31
0.0
  0
LINE
  8
0
  6
CONTINUOUS
 62
     1
 10
65.0
 20
151.375
 30
0.0
 11
78.0
 21
151.375
 31
0.0
  0
LINE
  8
0
  6
CONTINUOUS
 62
     1
 10
41.0
 20
125.0
 30
0.0
 11
42.5
 21
125.0
 31
0.0
  0
ARC
  8
0
  6
CONTINUOUS
 62
     1
 10
42.5
 20
124.5
 30
0.0
 40
0.5
 50
0.0
 51
90.0
  0
LINE
  8
0
  6
CONTINUOUS
 62
     1
 10
43.0
 20
124.5
 30
0.0
 11
43.0
 21
40.5
 31
0.0
  0
LINE
  8
0
  6
CONTINUOUS
 62
     1
 10
42.5
 20
40.0
 30
0.0
 11
41.0
 21
40.0
 31
0.0
  0
ARC
  8
0
  6
CONTINUOUS
 62
     1
 10
42.5
 20
40.5
 30
0.0
 40
0.5
 50
270.0
 51
360.0
  0
LINE
  8
0
  6
CONTINUOUS
 62
     2
 10
44.0
 20
125.0
 30
0.0
 11
50.5
 21
125.0
 31
0.0
  0
LINE
  8
0
  6
CONTINUOUS
 62
     2
 10
48.5
 20
125.0
 30
0.0
 11
47.852952387
 21
122.585185434
 31
0.0
  0
LINE
  8
0
  6
CONTINUOUS
 62
     2
 10
48.5
 20
125.0
 30
0.0
 11
49.147047613
 21
122.585185434
 31
0.0
  0
LINE
  8
0
  6
CONTINUOUS
 62
     2
 10
48.5
 20
125.0
 30
0.0
 11
48.5
 21
40.0
 31
0.0
  0
LINE
  8
0
  6
CONTINUOUS
 62
     2
 10
48.5
 20
40.0
 30
0.0
 11
49.147047613
 21
42.414814566
 31
0.0
  0
LINE
  8
0
  6
CONTINUOUS
 62
     2
 10
48.5
 20
40.0
 30
0.0
 11
47.852952387
 21
42.414814566
 31
0.0
  0
LINE
  8
0
  6
CONTINUOUS
 62
     2
 10
44.0
 20
40.0
 30
0.0
 11
50.5
 21
40.0
 31
0.0
  0
TEXT
  8
0
  6
CONTINUOUS
 62
     2
 10
47.5
 20
80.5
 30
0.3
 40
3.0
  1
１７０
 50
90.0
 41
0.6
 51
0.0
  7
KANJI0
  0
LINE
  8
0
  6
CONTINUOUS
 62
     1
 10
190.0
 20
125.0
 30
0.0
 11
188.5
 21
125.0
 31
0.0
  0
ARC
  8
0
  6
CONTINUOUS
 62
     1
 10
188.5
 20
124.5
 30
0.0
 40
0.5
 50
90.0
 51
180.0
  0
LINE
  8
0
  6
CONTINUOUS
 62
     1
 10
188.0
 20
124.5
 30
0.0
 11
188.0
 21
40.5
 31
0.0
  0
LINE
  8
0
  6
CONTINUOUS
 62
     1
 10
210.0
 20
125.0
 30
0.0
 11
211.5
 21
125.0
 31
0.0
  0
ARC
  8
0
  6
CONTINUOUS
 62
     1
 10
211.5
 20
124.5
 30
0.0
 40
0.5
 50
0.0
 51
90.0
  0
LINE
  8
0
  6
CONTINUOUS
 62
     1
 10
212.0
 20
124.5
 30
0.0
 11
212.0
 21
40.5
 31
0.0
  0
LINE
  8
0
  6
CONTINUOUS
 62
     1
 10
190.0
 20
40.0
 30
0.0
 11
188.5
 21
40.0
 31
0.0
  0
ARC
  8
0
  6
CONTINUOUS
 62
     1
 10
188.5
 20
40.5
 30
0.0
 40
0.5
 50
180.0
 51
270.0
  0
LINE
  8
0
  6
CONTINUOUS
 62
     1
 10
210.0
 20
40.0
 30
0.0
 11
211.5
 21
40.0
 31
0.0
  0
ARC
  8
0
  6
CONTINUOUS
 62
     1
 10
211.5
 20
40.5
 30
0.0
 40
0.5
 50
270.0
 51
360.0
  0
LINE
  8
0
  6
CONTINUOUS
 62
     2
 10
43.0
 20
125.5
 30
0.0
 11
43.0
 21
131.0
 31
0.0
  0
LINE
  8
0
  6
CONTINUOUS
 62
     2
 10
43.0
 20
129.0
 30
0.0
 11
45.414814566
 21
129.647047613
 31
0.0
  0
LINE
  8
0
  6
CONTINUOUS
 62
     2
 10
43.0
 20
129.0
 30
0.0
 11
45.414814566
 21
128.352952387
 31
0.0
  0
TEXT
  8
0
  6
CONTINUOUS
 62
     2
 10
41.35
 20
130.0
 30
0.3
 40
3.0
  1
３
 50
0.0
 41
0.6
 51
0.0
  7
KANJI0
  0
LINE
  8
0
  6
CONTINUOUS
 62
     2
 10
47.414814566
 20
129.0
 30
0.0
 11
20.5
 21
129.0
 31
0.0
  0
TEXT
  8
0
  6
CONTINUOUS
 62
     5
 10
81.8
 20
72.2
 30
0.05
 40
1.5
  1
ＦＵＬＬ　ＳＣＡＬＥ
 50
0.0
 41
0.4
 51
0.0
  7
KANJI11
  0
TEXT
  8
0
  6
CONTINUOUS
 62
     5
 10
82.0
 20
69.2
 30
0.1
 40
1.5
  1
ＡＤＪＵＳＴＥＲ
 50
0.0
 41
0.466666667
 51
0.0
  7
KANJI12
  0
LINE
  8
0
  6
CONTINUOUS
 62
     2
 10
30.1375
 20
82.0
 30
0.0
 11
29.025
 21
82.0
 31
0.0
  0
LINE
  8
0
  6
CONTINUOUS
 62
     2
 10
29.0
 20
56.925
 30
0.0
 11
29.0
 21
57.075
 31
0.0
  0
LINE
  8
0
  6
CONTINUOUS
 62
     2
 10
32.1625
 20
57.075
 30
0.0
 11
32.1625
 21
56.925
 31
0.0
  0
LINE
  8
0
  6
CONTINUOUS
 62
     2
 10
29.0
 20
57.075
 30
0.0
 11
32.1625
 21
57.075
 31
0.0
  0
LINE
  8
0
  6
CONTINUOUS
 62
     2
 10
32.1625
 20
56.925
 30
0.0
 11
29.0
 21
56.925
 31
0.0
  0
LINE
  8
0
  6
CONTINUOUS
 62
     2
 10
30.9125
 20
58.0
 30
0.0
 11
29.0
 21
58.0
 31
0.0
  0
LINE
  8
0
  6
CONTINUOUS
 62
     2
 10
29.0
 20
58.0
 30
0.0
 11
31.4125
 21
58.0
 31
0.0
  0
LINE
  8
0
  6
CONTINUOUS
 62
     2
 10
30.9125
 20
59.0
 30
0.0
 11
29.0
 21
59.0
 31
0.0
  0
LINE
  8
0
  6
CONTINUOUS
 62
     2
 10
29.0
 20
59.0
 30
0.0
 11
31.4125
 21
59.0
 31
0.0
  0
LINE
  8
0
  6
CONTINUOUS
 62
     2
 10
30.9125
 20
60.0
 30
0.0
 11
29.0
 21
60.0
 31
0.0
  0
LINE
  8
0
  6
CONTINUOUS
 62
     2
 10
29.0
 20
60.0
 30
0.0
 11
31.4125
 21
60.0
 31
0.0
  0
LINE
  8
0
  6
CONTINUOUS
 62
     2
 10
30.9125
 20
61.0
 30
0.0
 11
29.0
 21
61.0
 31
0.0
  0
LINE
  8
0
  6
CONTINUOUS
 62
     2
 10
29.0
 20
61.0
 30
0.0
 11
31.4125
 21
61.0
 31
0.0
  0
LINE
  8
0
  6
CONTINUOUS
 62
     2
 10
29.0
 20
61.925
 30
0.0
 11
29.0
 21
62.075
 31
0.0
  0
LINE
  8
0
  6
CONTINUOUS
 62
     2
 10
32.1625
 20
62.075
 30
0.0
 11
32.1625
 21
61.925
 31
0.0
  0
LINE
  8
0
  6
CONTINUOUS
 62
     2
 10
29.0
 20
62.075
 30
0.0
 11
32.1625
 21
62.075
 31
0.0
  0
LINE
  8
0
  6
CONTINUOUS
 62
     2
 10
32.1625
 20
61.925
 30
0.0
 11
29.0
 21
61.925
 31
0.0
  0
LINE
  8
0
  6
CONTINUOUS
 62
     2
 10
30.9125
 20
63.0
 30
0.0
 11
29.0
 21
63.0
 31
0.0
  0
LINE
  8
0
  6
CONTINUOUS
 62
     2
 10
29.0
 20
63.0
 30
0.0
 11
31.4125
 21
63.0
 31
0.0
  0
LINE
  8
0
  6
CONTINUOUS
 62
     2
 10
30.9125
 20
64.0
 30
0.0
 11
29.0
 21
64.0
 31
0.0
  0
LINE
  8
0
  6
CONTINUOUS
 62
     2
 10
29.0
 20
64.0
 30
0.0
 11
31.4125
 21
64.0
 31
0.0
  0
LINE
  8
0
  6
CONTINUOUS
 62
     2
 10
30.9125
 20
65.0
 30
0.0
 11
29.0
 21
65.0
 31
0.0
  0
LINE
  8
0
  6
CONTINUOUS
 62
     2
 10
29.0
 20
65.0
 30
0.0
 11
31.4125
 21
65.0
 31
0.0
  0
LINE
  8
0
  6
CONTINUOUS
 62
     2
 10
30.9125
 20
66.0
 30
0.0
 11
29.0
 21
66.0
 31
0.0
  0
LINE
  8
0
  6
CONTINUOUS
 62
     2
 10
29.0
 20
66.0
 30
0.0
 11
31.4125
 21
66.0
 31
0.0
  0
LINE
  8
0
  6
CONTINUOUS
 62
     2
 10
29.0
 20
66.925
 30
0.0
 11
29.0
 21
67.075
 31
0.0
  0
LINE
  8
0
  6
CONTINUOUS
 62
     2
 10
32.1625
 20
67.075
 30
0.0
 11
32.1625
 21
66.925
 31
0.0
  0
LINE
  8
0
  6
CONTINUOUS
 62
     2
 10
29.0
 20
67.075
 30
0.0
 11
32.1625
 21
67.075
 31
0.0
  0
LINE
  8
0
  6
CONTINUOUS
 62
     2
 10
32.1625
 20
66.925
 30
0.0
 11
29.0
 21
66.925
 31
0.0
  0
LINE
  8
0
  6
CONTINUOUS
 62
     2
 10
30.9125
 20
68.0
 30
0.0
 11
29.0
 21
68.0
 31
0.0
  0
LINE
  8
0
  6
CONTINUOUS
 62
     2
 10
29.0
 20
68.0
 30
0.0
 11
31.4125
 21
68.0
 31
0.0
  0
LINE
  8
0
  6
CONTINUOUS
 62
     2
 10
30.9125
 20
69.0
 30
0.0
 11
29.0
 21
69.0
 31
0.0
  0
LINE
  8
0
  6
CONTINUOUS
 62
     2
 10
29.0
 20
69.0
 30
0.0
 11
31.4125
 21
69.0
 31
0.0
  0
LINE
  8
0
  6
CONTINUOUS
 62
     2
 10
30.9125
 20
70.0
 30
0.0
 11
29.0
 21
70.0
 31
0.0
  0
LINE
  8
0
  6
CONTINUOUS
 62
     2
 10
29.0
 20
70.0
 30
0.0
 11
31.4125
 21
70.0
 31
0.0
  0
LINE
  8
0
  6
CONTINUOUS
 62
     2
 10
30.9125
 20
71.0
 30
0.0
 11
29.0
 21
71.0
 31
0.0
  0
LINE
  8
0
  6
CONTINUOUS
 62
     2
 10
29.0
 20
71.0
 30
0.0
 11
31.4125
 21
71.0
 31
0.0
  0
LINE
  8
0
  6
CONTINUOUS
 62
     2
 10
29.0
 20
71.925
 30
0.0
 11
29.0
 21
72.075
 31
0.0
  0
LINE
  8
0
  6
CONTINUOUS
 62
     2
 10
32.1625
 20
72.075
 30
0.0
 11
32.1625
 21
71.925
 31
0.0
  0
LINE
  8
0
  6
CONTINUOUS
 62
     2
 10
29.0
 20
72.075
 30
0.0
 11
32.1625
 21
72.075
 31
0.0
  0
LINE
  8
0
  6
CONTINUOUS
 62
     2
 10
32.1625
 20
71.925
 30
0.0
 11
29.0
 21
71.925
 31
0.0
  0
LINE
  8
0
  6
CONTINUOUS
 62
     2
 10
30.9125
 20
73.0
 30
0.0
 11
29.0
 21
73.0
 31
0.0
  0
LINE
  8
0
  6
CONTINUOUS
 62
     2
 10
29.0
 20
73.0
 30
0.0
 11
31.4125
 21
73.0
 31
0.0
  0
LINE
  8
0
  6
CONTINUOUS
 62
     2
 10
30.9125
 20
74.0
 30
0.0
 11
29.0
 21
74.0
 31
0.0
  0
LINE
  8
0
  6
CONTINUOUS
 62
     2
 10
29.0
 20
74.0
 30
0.0
 11
31.4125
 21
74.0
 31
0.0
  0
LINE
  8
0
  6
CONTINUOUS
 62
     2
 10
30.9125
 20
75.0
 30
0.0
 11
29.0
 21
75.0
 31
0.0
  0
LINE
  8
0
  6
CONTINUOUS
 62
     2
 10
29.0
 20
75.0
 30
0.0
 11
31.4125
 21
75.0
 31
0.0
  0
LINE
  8
0
  6
CONTINUOUS
 62
     2
 10
30.9125
 20
76.0
 30
0.0
 11
29.0
 21
76.0
 31
0.0
  0
LINE
  8
0
  6
CONTINUOUS
 62
     2
 10
29.0
 20
76.0
 30
0.0
 11
31.4125
 21
76.0
 31
0.0
  0
LINE
  8
0
  6
CONTINUOUS
 62
     2
 10
29.0
 20
76.925
 30
0.0
 11
29.0
 21
77.075
 31
0.0
  0
LINE
  8
0
  6
CONTINUOUS
 62
     2
 10
32.1625
 20
77.075
 30
0.0
 11
32.1625
 21
76.925
 31
0.0
  0
LINE
  8
0
  6
CONTINUOUS
 62
     2
 10
29.0
 20
77.075
 30
0.0
 11
32.1625
 21
77.075
 31
0.0
  0
LINE
  8
0
  6
CONTINUOUS
 62
     2
 10
32.1625
 20
76.925
 30
0.0
 11
29.0
 21
76.925
 31
0.0
  0
LINE
  8
0
  6
CONTINUOUS
 62
     2
 10
30.9125
 20
78.0
 30
0.0
 11
29.0
 21
78.0
 31
0.0
  0
LINE
  8
0
  6
CONTINUOUS
 62
     2
 10
29.0
 20
78.0
 30
0.0
 11
31.4125
 21
78.0
 31
0.0
  0
LINE
  8
0
  6
CONTINUOUS
 62
     2
 10
30.9125
 20
79.0
 30
0.0
 11
29.0
 21
79.0
 31
0.0
  0
LINE
  8
0
  6
CONTINUOUS
 62
     2
 10
29.0
 20
79.0
 30
0.0
 11
31.4125
 21
79.0
 31
0.0
  0
LINE
  8
0
  6
CONTINUOUS
 62
     2
 10
30.9125
 20
80.0
 30
0.0
 11
29.0
 21
80.0
 31
0.0
  0
LINE
  8
0
  6
CONTINUOUS
 62
     2
 10
29.0
 20
80.0
 30
0.0
 11
31.4125
 21
80.0
 31
0.0
  0
LINE
  8
0
  6
CONTINUOUS
 62
     2
 10
30.9125
 20
81.0
 30
0.0
 11
29.0
 21
81.0
 31
0.0
  0
LINE
  8
0
  6
CONTINUOUS
 62
     2
 10
29.0
 20
81.0
 30
0.0
 11
31.4125
 21
81.0
 31
0.0
  0
LINE
  8
0
  6
CONTINUOUS
 62
     2
 10
32.1625
 20
82.075
 30
0.0
 11
32.1625
 21
81.925
 31
0.0
  0
LINE
  8
0
  6
CONTINUOUS
 62
     2
 10
29.0
 20
82.075
 30
0.0
 11
32.1625
 21
82.075
 31
0.0
  0
LINE
  8
0
  6
CONTINUOUS
 62
     2
 10
32.1625
 20
81.925
 30
0.0
 11
29.0
 21
81.925
 31
0.0
  0
LINE
  8
0
  6
CONTINUOUS
 62
     2
 10
30.9125
 20
83.0
 30
0.0
 11
29.0
 21
83.0
 31
0.0
  0
LINE
  8
0
  6
CONTINUOUS
 62
     2
 10
29.0
 20
83.0
 30
0.0
 11
31.4125
 21
83.0
 31
0.0
  0
LINE
  8
0
  6
CONTINUOUS
 62
     2
 10
30.9125
 20
84.0
 30
0.0
 11
29.0
 21
84.0
 31
0.0
  0
LINE
  8
0
  6
CONTINUOUS
 62
     2
 10
29.0
 20
84.0
 30
0.0
 11
31.4125
 21
84.0
 31
0.0
  0
LINE
  8
0
  6
CONTINUOUS
 62
     2
 10
30.9125
 20
85.0
 30
0.0
 11
29.0
 21
85.0
 31
0.0
  0
LINE
  8
0
  6
CONTINUOUS
 62
     2
 10
29.0
 20
85.0
 30
0.0
 11
31.4125
 21
85.0
 31
0.0
  0
LINE
  8
0
  6
CONTINUOUS
 62
     2
 10
30.9125
 20
86.0
 30
0.0
 11
29.0
 21
86.0
 31
0.0
  0
LINE
  8
0
  6
CONTINUOUS
 62
     2
 10
29.0
 20
86.0
 30
0.0
 11
31.4125
 21
86.0
 31
0.0
  0
LINE
  8
0
  6
CONTINUOUS
 62
     2
 10
29.0
 20
86.925
 30
0.0
 11
29.0
 21
87.075
 31
0.0
  0
LINE
  8
0
  6
CONTINUOUS
 62
     2
 10
32.1625
 20
87.075
 30
0.0
 11
32.1625
 21
86.925
 31
0.0
  0
LINE
  8
0
  6
CONTINUOUS
 62
     2
 10
29.0
 20
87.075
 30
0.0
 11
32.1625
 21
87.075
 31
0.0
  0
LINE
  8
0
  6
CONTINUOUS
 62
     2
 10
32.1625
 20
86.925
 30
0.0
 11
29.0
 21
86.925
 31
0.0
  0
LINE
  8
0
  6
CONTINUOUS
 62
     2
 10
30.9125
 20
88.0
 30
0.0
 11
29.0
 21
88.0
 31
0.0
  0
LINE
  8
0
  6
CONTINUOUS
 62
     2
 10
29.0
 20
88.0
 30
0.0
 11
31.4125
 21
88.0
 31
0.0
  0
LINE
  8
0
  6
CONTINUOUS
 62
     2
 10
30.9125
 20
89.0
 30
0.0
 11
29.0
 21
89.0
 31
0.0
  0
LINE
  8
0
  6
CONTINUOUS
 62
     2
 10
29.0
 20
89.0
 30
0.0
 11
31.4125
 21
89.0
 31
0.0
  0
LINE
  8
0
  6
CONTINUOUS
 62
     2
 10
30.9125
 20
90.0
 30
0.0
 11
29.0
 21
90.0
 31
0.0
  0
LINE
  8
0
  6
CONTINUOUS
 62
     2
 10
29.0
 20
90.0
 30
0.0
 11
31.4125
 21
90.0
 31
0.0
  0
LINE
  8
0
  6
CONTINUOUS
 62
     2
 10
30.9125
 20
91.0
 30
0.0
 11
29.0
 21
91.0
 31
0.0
  0
LINE
  8
0
  6
CONTINUOUS
 62
     2
 10
29.0
 20
91.0
 30
0.0
 11
31.4125
 21
91.0
 31
0.0
  0
LINE
  8
0
  6
CONTINUOUS
 62
     2
 10
29.0
 20
91.925
 30
0.0
 11
29.0
 21
92.075
 31
0.0
  0
LINE
  8
0
  6
CONTINUOUS
 62
     2
 10
32.1625
 20
92.075
 30
0.0
 11
32.1625
 21
91.925
 31
0.0
  0
LINE
  8
0
  6
CONTINUOUS
 62
     2
 10
29.0
 20
92.075
 30
0.0
 11
32.1625
 21
92.075
 31
0.0
  0
LINE
  8
0
  6
CONTINUOUS
 62
     2
 10
32.1625
 20
91.925
 30
0.0
 11
29.0
 21
91.925
 31
0.0
  0
LINE
  8
0
  6
CONTINUOUS
 62
     2
 10
30.9125
 20
93.0
 30
0.0
 11
29.0
 21
93.0
 31
0.0
  0
LINE
  8
0
  6
CONTINUOUS
 62
     2
 10
29.0
 20
93.0
 30
0.0
 11
31.4125
 21
93.0
 31
0.0
  0
LINE
  8
0
  6
CONTINUOUS
 62
     2
 10
30.9125
 20
94.0
 30
0.0
 11
29.0
 21
94.0
 31
0.0
  0
LINE
  8
0
  6
CONTINUOUS
 62
     2
 10
29.0
 20
94.0
 30
0.0
 11
31.4125
 21
94.0
 31
0.0
  0
LINE
  8
0
  6
CONTINUOUS
 62
     2
 10
30.9125
 20
95.0
 30
0.0
 11
29.0
 21
95.0
 31
0.0
  0
LINE
  8
0
  6
CONTINUOUS
 62
     2
 10
29.0
 20
95.0
 30
0.0
 11
31.4125
 21
95.0
 31
0.0
  0
LINE
  8
0
  6
CONTINUOUS
 62
     2
 10
30.9125
 20
96.0
 30
0.0
 11
29.0
 21
96.0
 31
0.0
  0
LINE
  8
0
  6
CONTINUOUS
 62
     2
 10
29.0
 20
96.0
 30
0.0
 11
31.4125
 21
96.0
 31
0.0
  0
LINE
  8
0
  6
CONTINUOUS
 62
     2
 10
29.0
 20
96.925
 30
0.0
 11
29.0
 21
97.075
 31
0.0
  0
LINE
  8
0
  6
CONTINUOUS
 62
     2
 10
32.1625
 20
97.075
 30
0.0
 11
32.1625
 21
96.925
 31
0.0
  0
LINE
  8
0
  6
CONTINUOUS
 62
     2
 10
29.0
 20
97.075
 30
0.0
 11
32.1625
 21
97.075
 31
0.0
  0
LINE
  8
0
  6
CONTINUOUS
 62
     2
 10
32.1625
 20
96.925
 30
0.0
 11
29.0
 21
96.925
 31
0.0
  0
LINE
  8
0
  6
CONTINUOUS
 62
     2
 10
30.9125
 20
98.0
 30
0.0
 11
29.0
 21
98.0
 31
0.0
  0
LINE
  8
0
  6
CONTINUOUS
 62
     2
 10
29.0
 20
98.0
 30
0.0
 11
31.4125
 21
98.0
 31
0.0
  0
LINE
  8
0
  6
CONTINUOUS
 62
     2
 10
30.9125
 20
99.0
 30
0.0
 11
29.0
 21
99.0
 31
0.0
  0
LINE
  8
0
  6
CONTINUOUS
 62
     2
 10
29.0
 20
99.0
 30
0.0
 11
31.4125
 21
99.0
 31
0.0
  0
LINE
  8
0
  6
CONTINUOUS
 62
     2
 10
30.9125
 20
100.0
 30
0.0
 11
29.0
 21
100.0
 31
0.0
  0
LINE
  8
0
  6
CONTINUOUS
 62
     2
 10
29.0
 20
100.0
 30
0.0
 11
31.4125
 21
100.0
 31
0.0
  0
LINE
  8
0
  6
CONTINUOUS
 62
     2
 10
30.9125
 20
101.0
 30
0.0
 11
29.0
 21
101.0
 31
0.0
  0
LINE
  8
0
  6
CONTINUOUS
 62
     2
 10
29.0
 20
101.0
 30
0.0
 11
31.4125
 21
101.0
 31
0.0
  0
LINE
  8
0
  6
CONTINUOUS
 62
     2
 10
29.0
 20
101.925
 30
0.0
 11
29.0
 21
102.075
 31
0.0
  0
LINE
  8
0
  6
CONTINUOUS
 62
     2
 10
32.1625
 20
102.075
 30
0.0
 11
32.1625
 21
101.925
 31
0.0
  0
LINE
  8
0
  6
CONTINUOUS
 62
     2
 10
29.0
 20
102.075
 30
0.0
 11
32.1625
 21
102.075
 31
0.0
  0
LINE
  8
0
  6
CONTINUOUS
 62
     2
 10
32.1625
 20
101.925
 30
0.0
 11
29.0
 21
101.925
 31
0.0
  0
LINE
  8
0
  6
CONTINUOUS
 62
     2
 10
30.9125
 20
103.0
 30
0.0
 11
29.0
 21
103.0
 31
0.0
  0
LINE
  8
0
  6
CONTINUOUS
 62
     2
 10
29.0
 20
103.0
 30
0.0
 11
31.4125
 21
103.0
 31
0.0
  0
LINE
  8
0
  6
CONTINUOUS
 62
     2
 10
30.9125
 20
104.0
 30
0.0
 11
29.0
 21
104.0
 31
0.0
  0
LINE
  8
0
  6
CONTINUOUS
 62
     2
 10
29.0
 20
104.0
 30
0.0
 11
31.4125
 21
104.0
 31
0.0
  0
LINE
  8
0
  6
CONTINUOUS
 62
     2
 10
30.9125
 20
105.0
 30
0.0
 11
29.0
 21
105.0
 31
0.0
  0
LINE
  8
0
  6
CONTINUOUS
 62
     2
 10
29.0
 20
105.0
 30
0.0
 11
31.4125
 21
105.0
 31
0.0
  0
LINE
  8
0
  6
CONTINUOUS
 62
     2
 10
30.9125
 20
106.0
 30
0.0
 11
29.0
 21
106.0
 31
0.0
  0
LINE
  8
0
  6
CONTINUOUS
 62
     2
 10
29.0
 20
106.0
 30
0.0
 11
31.4125
 21
106.0
 31
0.0
  0
LINE
  8
0
  6
CONTINUOUS
 62
     2
 10
29.0
 20
106.925
 30
0.0
 11
29.0
 21
107.075
 31
0.0
  0
LINE
  8
0
  6
CONTINUOUS
 62
     2
 10
32.1625
 20
107.075
 30
0.0
 11
32.1625
 21
106.925
 31
0.0
  0
LINE
  8
0
  6
CONTINUOUS
 62
     2
 10
29.0
 20
107.075
 30
0.0
 11
32.1625
 21
107.075
 31
0.0
  0
LINE
  8
0
  6
CONTINUOUS
 62
     2
 10
32.1625
 20
106.925
 30
0.0
 11
29.0
 21
106.925
 31
0.0
  0
LINE
  8
0
  6
CONTINUOUS
 62
     2
 10
29.125
 20
57.0
 30
0.0
 11
32.0375
 21
57.0
 31
0.0
  0
LINE
  8
0
  6
CONTINUOUS
 62
     2
 10
29.125
 20
62.0
 30
0.0
 11
32.0375
 21
62.0
 31
0.0
  0
LINE
  8
0
  6
CONTINUOUS
 62
     2
 10
29.125
 20
67.0
 30
0.0
 11
32.0375
 21
67.0
 31
0.0
  0
LINE
  8
0
  6
CONTINUOUS
 62
     2
 10
29.125
 20
72.0
 30
0.0
 11
32.0375
 21
72.0
 31
0.0
  0
LINE
  8
0
  6
CONTINUOUS
 62
     2
 10
29.125
 20
77.0
 30
0.0
 11
32.0375
 21
77.0
 31
0.0
  0
LINE
  8
0
  6
CONTINUOUS
 62
     2
 10
29.125
 20
82.0
 30
0.0
 11
32.0375
 21
82.0
 31
0.0
  0
LINE
  8
0
  6
CONTINUOUS
 62
     2
 10
29.125
 20
87.0
 30
0.0
 11
32.0375
 21
87.0
 31
0.0
  0
LINE
  8
0
  6
CONTINUOUS
 62
     2
 10
29.125
 20
92.0
 30
0.0
 11
32.0375
 21
92.0
 31
0.0
  0
LINE
  8
0
  6
CONTINUOUS
 62
     2
 10
29.125
 20
97.0
 30
0.0
 11
32.0375
 21
97.0
 31
0.0
  0
LINE
  8
0
  6
CONTINUOUS
 62
     2
 10
29.125
 20
102.0
 30
0.0
 11
32.0375
 21
102.0
 31
0.0
  0
LINE
  8
0
  6
CONTINUOUS
 62
     2
 10
29.125
 20
107.0
 30
0.0
 11
32.0375
 21
107.0
 31
0.0
  0
LINE
  8
0
  6
CONTINUOUS
 62
     2
 10
33.0
 20
107.88
 30
0.0
 11
33.0
 21
107.73
 31
0.0
  0
LINE
  8
0
  6
CONTINUOUS
 62
     2
 10
33.0
 20
107.73
 30
0.0
 11
33.0
 21
107.58
 31
0.0
  0
LINE
  8
0
  6
CONTINUOUS
 62
     2
 10
33.0
 20
107.58
 30
0.0
 11
33.0
 21
107.43
 31
0.0
  0
LINE
  8
0
  6
CONTINUOUS
 62
     2
 10
33.0
 20
107.43
 30
0.0
 11
33.0
 21
107.28
 31
0.0
  0
LINE
  8
0
  6
CONTINUOUS
 62
     2
 10
33.0
 20
107.28
 30
0.0
 11
33.0
 21
107.13
 31
0.0
  0
LINE
  8
0
  6
CONTINUOUS
 62
     2
 10
33.0
 20
107.13
 30
0.0
 11
33.0
 21
106.98
 31
0.0
  0
LINE
  8
0
  6
CONTINUOUS
 62
     2
 10
33.0
 20
106.98
 30
0.0
 11
33.0
 21
106.83
 31
0.0
  0
LINE
  8
0
  6
CONTINUOUS
 62
     2
 10
33.0
 20
106.83
 30
0.0
 11
33.0
 21
106.68
 31
0.0
  0
LINE
  8
0
  6
CONTINUOUS
 62
     2
 10
33.0
 20
106.68
 30
0.0
 11
33.0
 21
106.53
 31
0.0
  0
LINE
  8
0
  6
CONTINUOUS
 62
     2
 10
33.0
 20
106.53
 30
0.0
 11
33.0
 21
106.38
 31
0.0
  0
LINE
  8
0
  6
CONTINUOUS
 62
     2
 10
33.0
 20
106.38
 30
0.0
 11
33.0
 21
106.23
 31
0.0
  0
LINE
  8
0
  6
CONTINUOUS
 62
     2
 10
33.0
 20
106.23
 30
0.0
 11
33.0
 21
106.12
 31
0.0
  0
LINE
  8
0
  6
CONTINUOUS
 62
     2
 10
33.984928807
 20
107.727631895
 30
0.0
 11
33.95055047
 21
107.584954116
 31
0.0
  0
LINE
  8
0
  6
CONTINUOUS
 62
     2
 10
33.95055047
 20
107.584954116
 30
0.0
 11
33.923576161
 21
107.439200479
 31
0.0
  0
LINE
  8
0
  6
CONTINUOUS
 62
     2
 10
33.923576161
 20
107.439200479
 30
0.0
 11
33.904359033
 21
107.291168417
 31
0.0
  0
LINE
  8
0
  6
CONTINUOUS
 62
     2
 10
33.904359033
 20
107.291168417
 30
0.0
 11
33.893144181
 21
107.141704187
 31
0.0
  0
LINE
  8
0
  6
CONTINUOUS
 62
     2
 10
33.893144181
 20
107.141704187
 30
0.0
 11
33.890060777
 21
106.991683724
 31
0.0
  0
LINE
  8
0
  6
CONTINUOUS
 62
     2
 10
33.890060777
 20
106.991683724
 30
0.0
 11
33.895118267
 21
106.841992158
 31
0.0
  0
LINE
  8
0
  6
CONTINUOUS
 62
     2
 10
33.895118267
 20
106.841992158
 30
0.0
 11
33.908206852
 21
106.69350303
 31
0.0
  0
LINE
  8
0
  6
CONTINUOUS
 62
     2
 10
33.908206852
 20
106.69350303
 30
0.0
 11
33.929102186
 21
106.547058225
 31
0.0
  0
LINE
  8
0
  6
CONTINUOUS
 62
     2
 10
33.929102186
 20
106.547058225
 30
0.0
 11
33.957473939
 21
106.403449583
 31
0.0
  0
LINE
  8
0
  6
CONTINUOUS
 62
     2
 10
33.957473939
 20
106.403449583
 30
0.0
 11
33.992897647
 21
106.263402995
 31
0.0
  0
LINE
  8
0
  6
CONTINUOUS
 62
     2
 10
33.992897647
 20
106.263402995
 30
0.0
 11
34.051985451
 21
106.198126835
 31
0.0
  0
LINE
  8
0
  6
CONTINUOUS
 62
     2
 10
34.051985451
 20
106.198126835
 30
0.0
 11
34.126699324
 21
106.147517728
 31
0.0
  0
LINE
  8
0
  6
CONTINUOUS
 62
     2
 10
34.126699324
 20
106.147517728
 30
0.0
 11
34.251714176
 21
106.120005066
 31
0.0
  0
LINE
  8
0
  6
CONTINUOUS
 62
     2
 10
34.251714176
 20
106.120005066
 30
0.0
 11
34.353919717
 21
106.139258994
 31
0.0
  0
LINE
  8
0
  6
CONTINUOUS
 62
     2
 10
34.353919717
 20
106.139258994
 30
0.0
 11
34.44678395
 21
106.196983388
 31
0.0
  0
LINE
  8
0
  6
CONTINUOUS
 62
     2
 10
34.44678395
 20
106.196983388
 30
0.0
 11
34.496467056
 21
106.257179876
 31
0.0
  0
LINE
  8
0
  6
CONTINUOUS
 62
     2
 10
34.496467056
 20
106.257179876
 30
0.0
 11
34.54244428
 21
106.403086664
 31
0.0
  0
LINE
  8
0
  6
CONTINUOUS
 62
     2
 10
34.54244428
 20
106.403086664
 30
0.0
 11
34.570139566
 21
106.542623558
 31
0.0
  0
LINE
  8
0
  6
CONTINUOUS
 62
     2
 10
34.570139566
 20
106.542623558
 30
0.0
 11
34.591736993
 21
106.693016943
 31
0.0
  0
LINE
  8
0
  6
CONTINUOUS
 62
     2
 10
34.591736993
 20
106.693016943
 30
0.0
 11
34.604895348
 21
106.842215545
 31
0.0
  0
LINE
  8
0
  6
CONTINUOUS
 62
     2
 10
34.604895348
 20
106.842215545
 30
0.0
 11
34.609942699
 21
106.99221524
 31
0.0
  0
LINE
  8
0
  6
CONTINUOUS
 62
     2
 10
34.609942699
 20
106.99221524
 30
0.0
 11
34.606595295
 21
107.147048818
 31
0.0
  0
LINE
  8
0
  6
CONTINUOUS
 62
     2
 10
34.606595295
 20
107.147048818
 30
0.0
 11
34.595665322
 21
107.290930487
 31
0.0
  0
LINE
  8
0
  6
CONTINUOUS
 62
     2
 10
34.595665322
 20
107.290930487
 30
0.0
 11
34.576260719
 21
107.44023539
 31
0.0
  0
LINE
  8
0
  6
CONTINUOUS
 62
     2
 10
34.576260719
 20
107.44023539
 30
0.0
 11
34.549686989
 21
107.583838096
 31
0.0
  0
LINE
  8
0
  6
CONTINUOUS
 62
     2
 10
34.549686989
 20
107.583838096
 30
0.0
 11
34.513699949
 21
107.730674508
 31
0.0
  0
LINE
  8
0
  6
CONTINUOUS
 62
     2
 10
34.513699949
 20
107.730674508
 30
0.0
 11
34.46155653
 21
107.808352803
 31
0.0
  0
LINE
  8
0
  6
CONTINUOUS
 62
     2
 10
34.46155653
 20
107.808352803
 30
0.0
 11
34.375447708
 21
107.871462947
 31
0.0
  0
LINE
  8
0
  6
CONTINUOUS
 62
     2
 10
34.375447708
 20
107.871462947
 30
0.0
 11
34.260569682
 21
107.899807318
 31
0.0
  0
LINE
  8
0
  6
CONTINUOUS
 62
     2
 10
34.260569682
 20
107.899807318
 30
0.0
 11
34.126668912
 21
107.872467984
 31
0.0
  0
LINE
  8
0
  6
CONTINUOUS
 62
     2
 10
34.126668912
 20
107.872467984
 30
0.0
 11
34.037179169
 21
107.806995669
 31
0.0
  0
LINE
  8
0
  6
CONTINUOUS
 62
     2
 10
34.037179169
 20
107.806995669
 30
0.0
 11
33.984928807
 21
107.727631895
 31
0.0
  0
LINE
  8
0
  6
CONTINUOUS
 62
     2
 10
35.234928807
 20
107.727631895
 30
0.0
 11
35.20055047
 21
107.584954116
 31
0.0
  0
LINE
  8
0
  6
CONTINUOUS
 62
     2
 10
35.20055047
 20
107.584954116
 30
0.0
 11
35.173576161
 21
107.439200479
 31
0.0
  0
LINE
  8
0
  6
CONTINUOUS
 62
     2
 10
35.173576161
 20
107.439200479
 30
0.0
 11
35.154359033
 21
107.291168417
 31
0.0
  0
LINE
  8
0
  6
CONTINUOUS
 62
     2
 10
35.154359033
 20
107.291168417
 30
0.0
 11
35.143144181
 21
107.141704187
 31
0.0
  0
LINE
  8
0
  6
CONTINUOUS
 62
     2
 10
35.143144181
 20
107.141704187
 30
0.0
 11
35.140060777
 21
106.991683724
 31
0.0
  0
LINE
  8
0
  6
CONTINUOUS
 62
     2
 10
35.140060777
 20
106.991683724
 30
0.0
 11
35.145118267
 21
106.841992158
 31
0.0
  0
LINE
  8
0
  6
CONTINUOUS
 62
     2
 10
35.145118267
 20
106.841992158
 30
0.0
 11
35.158206852
 21
106.69350303
 31
0.0
  0
LINE
  8
0
  6
CONTINUOUS
 62
     2
 10
35.158206852
 20
106.69350303
 30
0.0
 11
35.179102186
 21
106.547058225
 31
0.0
  0
LINE
  8
0
  6
CONTINUOUS
 62
     2
 10
35.179102186
 20
106.547058225
 30
0.0
 11
35.207473939
 21
106.403449583
 31
0.0
  0
LINE
  8
0
  6
CONTINUOUS
 62
     2
 10
35.207473939
 20
106.403449583
 30
0.0
 11
35.242897647
 21
106.263402995
 31
0.0
  0
LINE
  8
0
  6
CONTINUOUS
 62
     2
 10
35.242897647
 20
106.263402995
 30
0.0
 11
35.301985451
 21
106.198126835
 31
0.0
  0
LINE
  8
0
  6
CONTINUOUS
 62
     2
 10
35.301985451
 20
106.198126835
 30
0.0
 11
35.376699324
 21
106.147517728
 31
0.0
  0
LINE
  8
0
  6
CONTINUOUS
 62
     2
 10
35.376699324
 20
106.147517728
 30
0.0
 11
35.501714176
 21
106.120005066
 31
0.0
  0
LINE
  8
0
  6
CONTINUOUS
 62
     2
 10
35.501714176
 20
106.120005066
 30
0.0
 11
35.603919717
 21
106.139258994
 31
0.0
  0
LINE
  8
0
  6
CONTINUOUS
 62
     2
 10
35.603919717
 20
106.139258994
 30
0.0
 11
35.69678395
 21
106.196983388
 31
0.0
  0
LINE
  8
0
  6
CONTINUOUS
 62
     2
 10
35.69678395
 20
106.196983388
 30
0.0
 11
35.746467056
 21
106.257179876
 31
0.0
  0
LINE
  8
0
  6
CONTINUOUS
 62
     2
 10
35.746467056
 20
106.257179876
 30
0.0
 11
35.79244428
 21
106.403086664
 31
0.0
  0
LINE
  8
0
  6
CONTINUOUS
 62
     2
 10
35.79244428
 20
106.403086664
 30
0.0
 11
35.820139566
 21
106.542623558
 31
0.0
  0
LINE
  8
0
  6
CONTINUOUS
 62
     2
 10
35.820139566
 20
106.542623558
 30
0.0
 11
35.841736993
 21
106.693016943
 31
0.0
  0
LINE
  8
0
  6
CONTINUOUS
 62
     2
 10
35.841736993
 20
106.693016943
 30
0.0
 11
35.854895348
 21
106.842215545
 31
0.0
  0
LINE
  8
0
  6
CONTINUOUS
 62
     2
 10
35.854895348
 20
106.842215545
 30
0.0
 11
35.859942699
 21
106.99221524
 31
0.0
  0
LINE
  8
0
  6
CONTINUOUS
 62
     2
 10
35.859942699
 20
106.99221524
 30
0.0
 11
35.856595295
 21
107.147048818
 31
0.0
  0
LINE
  8
0
  6
CONTINUOUS
 62
     2
 10
35.856595295
 20
107.147048818
 30
0.0
 11
35.845665322
 21
107.290930487
 31
0.0
  0
LINE
  8
0
  6
CONTINUOUS
 62
     2
 10
35.845665322
 20
107.290930487
 30
0.0
 11
35.826260719
 21
107.44023539
 31
0.0
  0
LINE
  8
0
  6
CONTINUOUS
 62
     2
 10
35.826260719
 20
107.44023539
 30
0.0
 11
35.799686989
 21
107.583838096
 31
0.0
  0
LINE
  8
0
  6
CONTINUOUS
 62
     2
 10
35.799686989
 20
107.583838096
 30
0.0
 11
35.763699949
 21
107.730674508
 31
0.0
  0
LINE
  8
0
  6
CONTINUOUS
 62
     2
 10
35.763699949
 20
107.730674508
 30
0.0
 11
35.71155653
 21
107.808352803
 31
0.0
  0
LINE
  8
0
  6
CONTINUOUS
 62
     2
 10
35.71155653
 20
107.808352803
 30
0.0
 11
35.625447708
 21
107.871462947
 31
0.0
  0
LINE
  8
0
  6
CONTINUOUS
 62
     2
 10
35.625447708
 20
107.871462947
 30
0.0
 11
35.510569682
 21
107.899807318
 31
0.0
  0
LINE
  8
0
  6
CONTINUOUS
 62
     2
 10
35.510569682
 20
107.899807318
 30
0.0
 11
35.376668912
 21
107.872467984
 31
0.0
  0
LINE
  8
0
  6
CONTINUOUS
 62
     2
 10
35.376668912
 20
107.872467984
 30
0.0
 11
35.287179169
 21
107.806995669
 31
0.0
  0
LINE
  8
0
  6
CONTINUOUS
 62
     2
 10
35.287179169
 20
107.806995669
 30
0.0
 11
35.234928807
 21
107.727631895
 31
0.0
  0
LINE
  8
0
  6
CONTINUOUS
 62
     2
 10
33.359764222
 20
97.08
 30
0.0
 11
33.456471671
 21
97.064195763
 31
0.0
  0
LINE
  8
0
  6
CONTINUOUS
 62
     2
 10
33.456471671
 20
97.064195763
 30
0.0
 11
33.536044734
 21
97.025226985
 31
0.0
  0
LINE
  8
0
  6
CONTINUOUS
 62
     2
 10
33.536044734
 20
97.025226985
 30
0.0
 11
33.614947654
 21
96.955666753
 31
0.0
  0
LINE
  8
0
  6
CONTINUOUS
 62
     2
 10
33.614947654
 20
96.955666753
 30
0.0
 11
33.683738516
 21
96.85085891
 31
0.0
  0
LINE
  8
0
  6
CONTINUOUS
 62
     2
 10
33.683738516
 20
96.85085891
 30
0.0
 11
33.726954997
 21
96.723575956
 31
0.0
  0
LINE
  8
0
  6
CONTINUOUS
 62
     2
 10
33.726954997
 20
96.723575956
 30
0.0
 11
33.739762381
 21
96.598526286
 31
0.0
  0
LINE
  8
0
  6
CONTINUOUS
 62
     2
 10
33.739762381
 20
96.598526286
 30
0.0
 11
33.725566025
 21
96.470017403
 31
0.0
  0
LINE
  8
0
  6
CONTINUOUS
 62
     2
 10
33.725566025
 20
96.470017403
 30
0.0
 11
33.688028592
 21
96.358203499
 31
0.0
  0
LINE
  8
0
  6
CONTINUOUS
 62
     2
 10
33.688028592
 20
96.358203499
 30
0.0
 11
33.617420627
 21
96.24718946
 31
0.0
  0
LINE
  8
0
  6
CONTINUOUS
 62
     2
 10
33.617420627
 20
96.24718946
 30
0.0
 11
33.539569967
 21
96.177134663
 31
0.0
  0
LINE
  8
0
  6
CONTINUOUS
 62
     2
 10
33.539569967
 20
96.177134663
 30
0.0
 11
33.454945504
 21
96.135301199
 31
0.0
  0
LINE
  8
0
  6
CONTINUOUS
 62
     2
 10
33.454945504
 20
96.135301199
 30
0.0
 11
33.359945618
 21
96.120000055
 31
0.0
  0
LINE
  8
0
  6
CONTINUOUS
 62
     2
 10
33.359945618
 20
96.120000055
 30
0.0
 11
33.25113379
 21
96.140031081
 31
0.0
  0
LINE
  8
0
  6
CONTINUOUS
 62
     2
 10
33.25113379
 20
96.140031081
 30
0.0
 11
33.176044711
 21
96.179827354
 31
0.0
  0
LINE
  8
0
  6
CONTINUOUS
 62
     2
 10
33.176044711
 20
96.179827354
 30
0.0
 11
33.105996749
 21
96.242720317
 31
0.0
  0
LINE
  8
0
  6
CONTINUOUS
 62
     2
 10
33.105996749
 20
96.242720317
 30
0.0
 11
33.034162395
 21
96.352525856
 31
0.0
  0
LINE
  8
0
  6
CONTINUOUS
 62
     2
 10
33.034162395
 20
96.352525856
 30
0.0
 11
32.994495514
 21
96.46764656
 31
0.0
  0
LINE
  8
0
  6
CONTINUOUS
 62
     2
 10
32.994495514
 20
96.46764656
 30
0.0
 11
32.979768855
 21
96.597616918
 31
0.0
  0
LINE
  8
0
  6
CONTINUOUS
 62
     2
 10
32.979768855
 20
96.597616918
 30
0.0
 11
32.992529759
 21
96.723369122
 31
0.0
  0
LINE
  8
0
  6
CONTINUOUS
 62
     2
 10
32.992529759
 20
96.723369122
 30
0.0
 11
33.036773894
 21
96.852875504
 31
0.0
  0
LINE
  8
0
  6
CONTINUOUS
 62
     2
 10
33.036773894
 20
96.852875504
 30
0.0
 11
33.101953145
 21
96.952630326
 31
0.0
  0
LINE
  8
0
  6
CONTINUOUS
 62
     2
 10
33.101953145
 20
96.952630326
 30
0.0
 11
33.189400926
 21
97.029058061
 31
0.0
  0
LINE
  8
0
  6
CONTINUOUS
 62
     2
 10
33.189400926
 20
97.029058061
 30
0.0
 11
33.288282972
 21
97.071431169
 31
0.0
  0
LINE
  8
0
  6
CONTINUOUS
 62
     2
 10
33.288282972
 20
97.071431169
 30
0.0
 11
33.459756405
 21
97.100029703
 31
0.0
  0
LINE
  8
0
  6
CONTINUOUS
 62
     2
 10
33.459756405
 20
97.100029703
 30
0.0
 11
33.543826851
 21
97.152793714
 31
0.0
  0
LINE
  8
0
  6
CONTINUOUS
 62
     2
 10
33.543826851
 20
97.152793714
 30
0.0
 11
33.610292069
 21
97.231140812
 31
0.0
  0
LINE
  8
0
  6
CONTINUOUS
 62
     2
 10
33.610292069
 20
97.231140812
 30
0.0
 11
33.659915041
 21
97.341315018
 31
0.0
  0
LINE
  8
0
  6
CONTINUOUS
 62
     2
 10
33.659915041
 20
97.341315018
 30
0.0
 11
33.679762444
 21
97.481314391
 31
0.0
  0
LINE
  8
0
  6
CONTINUOUS
 62
     2
 10
33.679762444
 20
97.481314391
 30
0.0
 11
33.660510547
 21
97.616654317
 31
0.0
  0
LINE
  8
0
  6
CONTINUOUS
 62
     2
 10
33.660510547
 20
97.616654317
 30
0.0
 11
33.609289209
 21
97.730428557
 31
0.0
  0
LINE
  8
0
  6
CONTINUOUS
 62
     2
 10
33.609289209
 20
97.730428557
 30
0.0
 11
33.539547149
 21
97.810903312
 31
0.0
  0
LINE
  8
0
  6
CONTINUOUS
 62
     2
 10
33.539547149
 20
97.810903312
 30
0.0
 11
33.460540742
 21
97.859646387
 31
0.0
  0
LINE
  8
0
  6
CONTINUOUS
 62
     2
 10
33.460540742
 20
97.859646387
 30
0.0
 11
33.360571737
 21
97.879998726
 31
0.0
  0
LINE
  8
0
  6
CONTINUOUS
 62
     2
 10
33.360571737
 20
97.879998726
 30
0.0
 11
33.260501201
 21
97.860268948
 31
0.0
  0
LINE
  8
0
  6
CONTINUOUS
 62
     2
 10
33.260501201
 20
97.860268948
 30
0.0
 11
33.180101483
 21
97.811005377
 31
0.0
  0
LINE
  8
0
  6
CONTINUOUS
 62
     2
 10
33.180101483
 20
97.811005377
 30
0.0
 11
33.110410337
 21
97.730694862
 31
0.0
  0
LINE
  8
0
  6
CONTINUOUS
 62
     2
 10
33.110410337
 20
97.730694862
 30
0.0
 11
33.0595307
 21
97.618405329
 31
0.0
  0
LINE
  8
0
  6
CONTINUOUS
 62
     2
 10
33.0595307
 20
97.618405329
 30
0.0
 11
33.039766711
 21
97.478406504
 31
0.0
  0
LINE
  8
0
  6
CONTINUOUS
 62
     2
 10
33.039766711
 20
97.478406504
 30
0.0
 11
33.059690028
 21
97.341055834
 31
0.0
  0
LINE
  8
0
  6
CONTINUOUS
 62
     2
 10
33.059690028
 20
97.341055834
 30
0.0
 11
33.109445364
 21
97.230812275
 31
0.0
  0
LINE
  8
0
  6
CONTINUOUS
 62
     2
 10
33.109445364
 20
97.230812275
 30
0.0
 11
33.18598436
 21
97.144122937
 31
0.0
  0
LINE
  8
0
  6
CONTINUOUS
 62
     2
 10
33.18598436
 20
97.144122937
 30
0.0
 11
33.274926469
 21
97.09431359
 31
0.0
  0
LINE
  8
0
  6
CONTINUOUS
 62
     2
 10
33.274926469
 20
97.09431359
 30
0.0
 11
33.359764222
 21
97.08
 31
0.0
  0
LINE
  8
0
  6
CONTINUOUS
 62
     2
 10
34.344692979
 20
97.727631895
 30
0.0
 11
34.310314642
 21
97.584954116
 31
0.0
  0
LINE
  8
0
  6
CONTINUOUS
 62
     2
 10
34.310314642
 20
97.584954116
 30
0.0
 11
34.283340333
 21
97.439200479
 31
0.0
  0
LINE
  8
0
  6
CONTINUOUS
 62
     2
 10
34.283340333
 20
97.439200479
 30
0.0
 11
34.264123205
 21
97.291168417
 31
0.0
  0
LINE
  8
0
  6
CONTINUOUS
 62
     2
 10
34.264123205
 20
97.291168417
 30
0.0
 11
34.252908353
 21
97.141704187
 31
0.0
  0
LINE
  8
0
  6
CONTINUOUS
 62
     2
 10
34.252908353
 20
97.141704187
 30
0.0
 11
34.249824949
 21
96.991683724
 31
0.0
  0
LINE
  8
0
  6
CONTINUOUS
 62
     2
 10
34.249824949
 20
96.991683724
 30
0.0
 11
34.254882439
 21
96.841992158
 31
0.0
  0
LINE
  8
0
  6
CONTINUOUS
 62
     2
 10
34.254882439
 20
96.841992158
 30
0.0
 11
34.267971024
 21
96.69350303
 31
0.0
  0
LINE
  8
0
  6
CONTINUOUS
 62
     2
 10
34.267971024
 20
96.69350303
 30
0.0
 11
34.288866358
 21
96.547058225
 31
0.0
  0
LINE
  8
0
  6
CONTINUOUS
 62
     2
 10
34.288866358
 20
96.547058225
 30
0.0
 11
34.31723811
 21
96.403449583
 31
0.0
  0
LINE
  8
0
  6
CONTINUOUS
 62
     2
 10
34.31723811
 20
96.403449583
 30
0.0
 11
34.352661819
 21
96.263402995
 31
0.0
  0
LINE
  8
0
  6
CONTINUOUS
 62
     2
 10
34.352661819
 20
96.263402995
 30
0.0
 11
34.411749623
 21
96.198126835
 31
0.0
  0
LINE
  8
0
  6
CONTINUOUS
 62
     2
 10
34.411749623
 20
96.198126835
 30
0.0
 11
34.486463496
 21
96.147517728
 31
0.0
  0
LINE
  8
0
  6
CONTINUOUS
 62
     2
 10
34.486463496
 20
96.147517728
 30
0.0
 11
34.611478348
 21
96.120005066
 31
0.0
  0
LINE
  8
0
  6
CONTINUOUS
 62
     2
 10
34.611478348
 20
96.120005066
 30
0.0
 11
34.713683888
 21
96.139258994
 31
0.0
  0
LINE
  8
0
  6
CONTINUOUS
 62
     2
 10
34.713683888
 20
96.139258994
 30
0.0
 11
34.806548122
 21
96.196983388
 31
0.0
  0
LINE
  8
0
  6
CONTINUOUS
 62
     2
 10
34.806548122
 20
96.196983388
 30
0.0
 11
34.856231228
 21
96.257179876
 31
0.0
  0
LINE
  8
0
  6
CONTINUOUS
 62
     2
 10
34.856231228
 20
96.257179876
 30
0.0
 11
34.902208452
 21
96.403086664
 31
0.0
  0
LINE
  8
0
  6
CONTINUOUS
 62
     2
 10
34.902208452
 20
96.403086664
 30
0.0
 11
34.929903738
 21
96.542623558
 31
0.0
  0
LINE
  8
0
  6
CONTINUOUS
 62
     2
 10
34.929903738
 20
96.542623558
 30
0.0
 11
34.951501165
 21
96.693016943
 31
0.0
  0
LINE
  8
0
  6
CONTINUOUS
 62
     2
 10
34.951501165
 20
96.693016943
 30
0.0
 11
34.96465952
 21
96.842215545
 31
0.0
  0
LINE
  8
0
  6
CONTINUOUS
 62
     2
 10
34.96465952
 20
96.842215545
 30
0.0
 11
34.969706871
 21
96.99221524
 31
0.0
  0
LINE
  8
0
  6
CONTINUOUS
 62
     2
 10
34.969706871
 20
96.99221524
 30
0.0
 11
34.966359467
 21
97.147048818
 31
0.0
  0
LINE
  8
0
  6
CONTINUOUS
 62
     2
 10
34.966359467
 20
97.147048818
 30
0.0
 11
34.955429494
 21
97.290930487
 31
0.0
  0
LINE
  8
0
  6
CONTINUOUS
 62
     2
 10
34.955429494
 20
97.290930487
 30
0.0
 11
34.936024891
 21
97.44023539
 31
0.0
  0
LINE
  8
0
  6
CONTINUOUS
 62
     2
 10
34.936024891
 20
97.44023539
 30
0.0
 11
34.909451161
 21
97.583838096
 31
0.0
  0
LINE
  8
0
  6
CONTINUOUS
 62
     2
 10
34.909451161
 20
97.583838096
 30
0.0
 11
34.873464121
 21
97.730674508
 31
0.0
  0
LINE
  8
0
  6
CONTINUOUS
 62
     2
 10
34.873464121
 20
97.730674508
 30
0.0
 11
34.821320702
 21
97.808352803
 31
0.0
  0
LINE
  8
0
  6
CONTINUOUS
 62
     2
 10
34.821320702
 20
97.808352803
 30
0.0
 11
34.73521188
 21
97.871462947
 31
0.0
  0
LINE
  8
0
  6
CONTINUOUS
 62
     2
 10
34.73521188
 20
97.871462947
 30
0.0
 11
34.620333854
 21
97.899807318
 31
0.0
  0
LINE
  8
0
  6
CONTINUOUS
 62
     2
 10
34.620333854
 20
97.899807318
 30
0.0
 11
34.486433084
 21
97.872467984
 31
0.0
  0
LINE
  8
0
  6
CONTINUOUS
 62
     2
 10
34.486433084
 20
97.872467984
 30
0.0
 11
34.396943341
 21
97.806995669
 31
0.0
  0
LINE
  8
0
  6
CONTINUOUS
 62
     2
 10
34.396943341
 20
97.806995669
 30
0.0
 11
34.344692979
 21
97.727631895
 31
0.0
  0
LINE
  8
0
  6
CONTINUOUS
 62
     2
 10
32.979764172
 20
86.6
 30
0.0
 11
32.997974547
 21
86.746810616
 31
0.0
  0
LINE
  8
0
  6
CONTINUOUS
 62
     2
 10
32.997974547
 20
86.746810616
 30
0.0
 11
33.0470165
 21
86.872645817
 31
0.0
  0
LINE
  8
0
  6
CONTINUOUS
 62
     2
 10
33.0470165
 20
86.872645817
 30
0.0
 11
33.121318309
 21
86.973740162
 31
0.0
  0
LINE
  8
0
  6
CONTINUOUS
 62
     2
 10
33.121318309
 20
86.973740162
 30
0.0
 11
33.221781782
 21
87.047237923
 31
0.0
  0
LINE
  8
0
  6
CONTINUOUS
 62
     2
 10
33.221781782
 20
87.047237923
 30
0.0
 11
33.346576342
 21
87.079710851
 31
0.0
  0
LINE
  8
0
  6
CONTINUOUS
 62
     2
 10
33.346576342
 20
87.079710851
 30
0.0
 11
33.50881598
 21
87.041533872
 31
0.0
  0
LINE
  8
0
  6
CONTINUOUS
 62
     2
 10
33.50881598
 20
87.041533872
 30
0.0
 11
33.594436399
 21
86.97753198
 31
0.0
  0
LINE
  8
0
  6
CONTINUOUS
 62
     2
 10
33.594436399
 20
86.97753198
 30
0.0
 11
33.673170778
 21
86.871435848
 31
0.0
  0
LINE
  8
0
  6
CONTINUOUS
 62
     2
 10
33.673170778
 20
86.871435848
 30
0.0
 11
33.720834044
 21
86.749611162
 31
0.0
  0
LINE
  8
0
  6
CONTINUOUS
 62
     2
 10
33.720834044
 20
86.749611162
 30
0.0
 11
33.739764045
 21
86.599607098
 31
0.0
  0
LINE
  8
0
  6
CONTINUOUS
 62
     2
 10
33.739764045
 20
86.599607098
 30
0.0
 11
33.728393893
 21
86.483459539
 31
0.0
  0
LINE
  8
0
  6
CONTINUOUS
 62
     2
 10
33.728393893
 20
86.483459539
 30
0.0
 11
33.68559267
 21
86.353002434
 31
0.0
  0
LINE
  8
0
  6
CONTINUOUS
 62
     2
 10
33.68559267
 20
86.353002434
 30
0.0
 11
33.597289541
 21
86.225325779
 31
0.0
  0
LINE
  8
0
  6
CONTINUOUS
 62
     2
 10
33.597289541
 20
86.225325779
 30
0.0
 11
33.515239712
 21
86.162014947
 31
0.0
  0
LINE
  8
0
  6
CONTINUOUS
 62
     2
 10
33.515239712
 20
86.162014947
 30
0.0
 11
33.350301513
 21
86.120148846
 31
0.0
  0
LINE
  8
0
  6
CONTINUOUS
 62
     2
 10
33.350301513
 20
86.120148846
 30
0.0
 11
33.228804603
 21
86.149405549
 31
0.0
  0
LINE
  8
0
  6
CONTINUOUS
 62
     2
 10
33.228804603
 20
86.149405549
 30
0.0
 11
33.119649823
 21
86.227968156
 31
0.0
  0
LINE
  8
0
  6
CONTINUOUS
 62
     2
 10
33.119649823
 20
86.227968156
 30
0.0
 11
33.042365727
 21
86.336068827
 31
0.0
  0
LINE
  8
0
  6
CONTINUOUS
 62
     2
 10
33.042365727
 20
86.336068827
 30
0.0
 11
32.994373373
 21
86.468185592
 31
0.0
  0
LINE
  8
0
  6
CONTINUOUS
 62
     2
 10
32.994373373
 20
86.468185592
 30
0.0
 11
32.985547143
 21
86.746557868
 31
0.0
  0
LINE
  8
0
  6
CONTINUOUS
 62
     2
 10
32.985547143
 20
86.746557868
 30
0.0
 11
32.999712706
 21
86.871681071
 31
0.0
  0
LINE
  8
0
  6
CONTINUOUS
 62
     2
 10
32.999712706
 20
86.871681071
 30
0.0
 11
33.027704912
 21
87.019572686
 31
0.0
  0
LINE
  8
0
  6
CONTINUOUS
 62
     2
 10
33.027704912
 20
87.019572686
 30
0.0
 11
33.069928782
 21
87.172086263
 31
0.0
  0
LINE
  8
0
  6
CONTINUOUS
 62
     2
 10
33.069928782
 20
87.172086263
 30
0.0
 11
33.117586958
 21
87.302641904
 31
0.0
  0
LINE
  8
0
  6
CONTINUOUS
 62
     2
 10
33.117586958
 20
87.302641904
 30
0.0
 11
33.172872234
 21
87.425270422
 31
0.0
  0
LINE
  8
0
  6
CONTINUOUS
 62
     2
 10
33.172872234
 20
87.425270422
 30
0.0
 11
33.23435944
 21
87.539295292
 31
0.0
  0
LINE
  8
0
  6
CONTINUOUS
 62
     2
 10
33.23435944
 20
87.539295292
 30
0.0
 11
33.300620705
 21
87.644335861
 31
0.0
  0
LINE
  8
0
  6
CONTINUOUS
 62
     2
 10
33.300620705
 20
87.644335861
 30
0.0
 11
33.370285702
 21
87.74027761
 31
0.0
  0
LINE
  8
0
  6
CONTINUOUS
 62
     2
 10
33.370285702
 20
87.74027761
 30
0.0
 11
33.492739895
 21
87.882624496
 31
0.0
  0
LINE
  8
0
  6
CONTINUOUS
 62
     2
 10
34.344692979
 20
87.727631895
 30
0.0
 11
34.310314642
 21
87.584954116
 31
0.0
  0
LINE
  8
0
  6
CONTINUOUS
 62
     2
 10
34.310314642
 20
87.584954116
 30
0.0
 11
34.283340333
 21
87.439200479
 31
0.0
  0
LINE
  8
0
  6
CONTINUOUS
 62
     2
 10
34.283340333
 20
87.439200479
 30
0.0
 11
34.264123205
 21
87.291168417
 31
0.0
  0
LINE
  8
0
  6
CONTINUOUS
 62
     2
 10
34.264123205
 20
87.291168417
 30
0.0
 11
34.252908353
 21
87.141704187
 31
0.0
  0
LINE
  8
0
  6
CONTINUOUS
 62
     2
 10
34.252908353
 20
87.141704187
 30
0.0
 11
34.249824949
 21
86.991683724
 31
0.0
  0
LINE
  8
0
  6
CONTINUOUS
 62
     2
 10
34.249824949
 20
86.991683724
 30
0.0
 11
34.254882439
 21
86.841992158
 31
0.0
  0
LINE
  8
0
  6
CONTINUOUS
 62
     2
 10
34.254882439
 20
86.841992158
 30
0.0
 11
34.267971024
 21
86.69350303
 31
0.0
  0
LINE
  8
0
  6
CONTINUOUS
 62
     2
 10
34.267971024
 20
86.69350303
 30
0.0
 11
34.288866358
 21
86.547058225
 31
0.0
  0
LINE
  8
0
  6
CONTINUOUS
 62
     2
 10
34.288866358
 20
86.547058225
 30
0.0
 11
34.31723811
 21
86.403449583
 31
0.0
  0
LINE
  8
0
  6
CONTINUOUS
 62
     2
 10
34.31723811
 20
86.403449583
 30
0.0
 11
34.352661819
 21
86.263402995
 31
0.0
  0
LINE
  8
0
  6
CONTINUOUS
 62
     2
 10
34.352661819
 20
86.263402995
 30
0.0
 11
34.411749623
 21
86.198126835
 31
0.0
  0
LINE
  8
0
  6
CONTINUOUS
 62
     2
 10
34.411749623
 20
86.198126835
 30
0.0
 11
34.486463496
 21
86.147517728
 31
0.0
  0
LINE
  8
0
  6
CONTINUOUS
 62
     2
 10
34.486463496
 20
86.147517728
 30
0.0
 11
34.611478348
 21
86.120005066
 31
0.0
  0
LINE
  8
0
  6
CONTINUOUS
 62
     2
 10
34.611478348
 20
86.120005066
 30
0.0
 11
34.713683888
 21
86.139258994
 31
0.0
  0
LINE
  8
0
  6
CONTINUOUS
 62
     2
 10
34.713683888
 20
86.139258994
 30
0.0
 11
34.806548122
 21
86.196983388
 31
0.0
  0
LINE
  8
0
  6
CONTINUOUS
 62
     2
 10
34.806548122
 20
86.196983388
 30
0.0
 11
34.856231228
 21
86.257179876
 31
0.0
  0
LINE
  8
0
  6
CONTINUOUS
 62
     2
 10
34.856231228
 20
86.257179876
 30
0.0
 11
34.902208452
 21
86.403086664
 31
0.0
  0
LINE
  8
0
  6
CONTINUOUS
 62
     2
 10
34.902208452
 20
86.403086664
 30
0.0
 11
34.929903738
 21
86.542623558
 31
0.0
  0
LINE
  8
0
  6
CONTINUOUS
 62
     2
 10
34.929903738
 20
86.542623558
 30
0.0
 11
34.951501165
 21
86.693016943
 31
0.0
  0
LINE
  8
0
  6
CONTINUOUS
 62
     2
 10
34.951501165
 20
86.693016943
 30
0.0
 11
34.96465952
 21
86.842215545
 31
0.0
  0
LINE
  8
0
  6
CONTINUOUS
 62
     2
 10
34.96465952
 20
86.842215545
 30
0.0
 11
34.969706871
 21
86.99221524
 31
0.0
  0
LINE
  8
0
  6
CONTINUOUS
 62
     2
 10
34.969706871
 20
86.99221524
 30
0.0
 11
34.966359467
 21
87.147048818
 31
0.0
  0
LINE
  8
0
  6
CONTINUOUS
 62
     2
 10
34.966359467
 20
87.147048818
 30
0.0
 11
34.955429494
 21
87.290930487
 31
0.0
  0
LINE
  8
0
  6
CONTINUOUS
 62
     2
 10
34.955429494
 20
87.290930487
 30
0.0
 11
34.936024891
 21
87.44023539
 31
0.0
  0
LINE
  8
0
  6
CONTINUOUS
 62
     2
 10
34.936024891
 20
87.44023539
 30
0.0
 11
34.909451161
 21
87.583838096
 31
0.0
  0
LINE
  8
0
  6
CONTINUOUS
 62
     2
 10
34.909451161
 20
87.583838096
 30
0.0
 11
34.873464121
 21
87.730674508
 31
0.0
  0
LINE
  8
0
  6
CONTINUOUS
 62
     2
 10
34.873464121
 20
87.730674508
 30
0.0
 11
34.821320702
 21
87.808352803
 31
0.0
  0
LINE
  8
0
  6
CONTINUOUS
 62
     2
 10
34.821320702
 20
87.808352803
 30
0.0
 11
34.73521188
 21
87.871462947
 31
0.0
  0
LINE
  8
0
  6
CONTINUOUS
 62
     2
 10
34.73521188
 20
87.871462947
 30
0.0
 11
34.620333854
 21
87.899807318
 31
0.0
  0
LINE
  8
0
  6
CONTINUOUS
 62
     2
 10
34.620333854
 20
87.899807318
 30
0.0
 11
34.486433084
 21
87.872467984
 31
0.0
  0
LINE
  8
0
  6
CONTINUOUS
 62
     2
 10
34.486433084
 20
87.872467984
 30
0.0
 11
34.396943341
 21
87.806995669
 31
0.0
  0
LINE
  8
0
  6
CONTINUOUS
 62
     2
 10
34.396943341
 20
87.806995669
 30
0.0
 11
34.344692979
 21
87.727631895
 31
0.0
  0
LINE
  8
0
  6
CONTINUOUS
 62
     2
 10
33.519764172
 20
76.12
 30
0.0
 11
33.519764172
 21
76.27
 31
0.0
  0
LINE
  8
0
  6
CONTINUOUS
 62
     2
 10
33.519764172
 20
76.27
 30
0.0
 11
33.519764172
 21
76.42
 31
0.0
  0
LINE
  8
0
  6
CONTINUOUS
 62
     2
 10
33.519764172
 20
76.42
 30
0.0
 11
33.519764172
 21
76.57
 31
0.0
  0
LINE
  8
0
  6
CONTINUOUS
 62
     2
 10
33.519764172
 20
76.57
 30
0.0
 11
33.519764172
 21
76.72
 31
0.0
  0
LINE
  8
0
  6
CONTINUOUS
 62
     2
 10
33.519764172
 20
76.72
 30
0.0
 11
33.519764172
 21
76.87
 31
0.0
  0
LINE
  8
0
  6
CONTINUOUS
 62
     2
 10
33.519764172
 20
76.87
 30
0.0
 11
33.519764172
 21
77.02
 31
0.0
  0
LINE
  8
0
  6
CONTINUOUS
 62
     2
 10
33.519764172
 20
77.02
 30
0.0
 11
33.519764172
 21
77.22
 31
0.0
  0
LINE
  8
0
  6
CONTINUOUS
 62
     2
 10
33.519764172
 20
77.22
 30
0.0
 11
33.519764172
 21
77.07
 31
0.0
  0
LINE
  8
0
  6
CONTINUOUS
 62
     2
 10
33.519764172
 20
77.07
 30
0.0
 11
33.519764172
 21
76.92
 31
0.0
  0
LINE
  8
0
  6
CONTINUOUS
 62
     2
 10
33.519764172
 20
76.92
 30
0.0
 11
33.519764172
 21
76.77
 31
0.0
  0
LINE
  8
0
  6
CONTINUOUS
 62
     2
 10
33.519764172
 20
76.77
 30
0.0
 11
33.519764172
 21
76.62
 31
0.0
  0
LINE
  8
0
  6
CONTINUOUS
 62
     2
 10
33.519764172
 20
76.62
 30
0.0
 11
33.519764172
 21
76.52
 31
0.0
  0
LINE
  8
0
  6
CONTINUOUS
 62
     2
 10
33.519764172
 20
76.52
 30
0.0
 11
33.719764172
 21
76.52
 31
0.0
  0
LINE
  8
0
  6
CONTINUOUS
 62
     2
 10
33.719764172
 20
76.52
 30
0.0
 11
33.569764172
 21
76.52
 31
0.0
  0
LINE
  8
0
  6
CONTINUOUS
 62
     2
 10
33.569764172
 20
76.52
 30
0.0
 11
33.419764172
 21
76.52
 31
0.0
  0
LINE
  8
0
  6
CONTINUOUS
 62
     2
 10
33.419764172
 20
76.52
 30
0.0
 11
33.269764172
 21
76.52
 31
0.0
  0
LINE
  8
0
  6
CONTINUOUS
 62
     2
 10
33.269764172
 20
76.52
 30
0.0
 11
33.119764172
 21
76.52
 31
0.0
  0
LINE
  8
0
  6
CONTINUOUS
 62
     2
 10
33.119764172
 20
76.52
 30
0.0
 11
32.999764172
 21
76.52
 31
0.0
  0
LINE
  8
0
  6
CONTINUOUS
 62
     2
 10
32.999764172
 20
76.52
 30
0.0
 11
33.034212448
 21
76.66162069
 31
0.0
  0
LINE
  8
0
  6
CONTINUOUS
 62
     2
 10
33.034212448
 20
76.66162069
 30
0.0
 11
33.068660724
 21
76.803241379
 31
0.0
  0
LINE
  8
0
  6
CONTINUOUS
 62
     2
 10
33.068660724
 20
76.803241379
 30
0.0
 11
33.103108999
 21
76.944862069
 31
0.0
  0
LINE
  8
0
  6
CONTINUOUS
 62
     2
 10
33.103108999
 20
76.944862069
 30
0.0
 11
33.137557275
 21
77.086482759
 31
0.0
  0
LINE
  8
0
  6
CONTINUOUS
 62
     2
 10
33.137557275
 20
77.086482759
 30
0.0
 11
33.172005551
 21
77.228103448
 31
0.0
  0
LINE
  8
0
  6
CONTINUOUS
 62
     2
 10
33.172005551
 20
77.228103448
 30
0.0
 11
33.206453827
 21
77.369724138
 31
0.0
  0
LINE
  8
0
  6
CONTINUOUS
 62
     2
 10
33.206453827
 20
77.369724138
 30
0.0
 11
33.240902103
 21
77.511344828
 31
0.0
  0
LINE
  8
0
  6
CONTINUOUS
 62
     2
 10
33.240902103
 20
77.511344828
 30
0.0
 11
33.275350379
 21
77.652965517
 31
0.0
  0
LINE
  8
0
  6
CONTINUOUS
 62
     2
 10
33.275350379
 20
77.652965517
 30
0.0
 11
33.309798655
 21
77.794586207
 31
0.0
  0
LINE
  8
0
  6
CONTINUOUS
 62
     2
 10
33.309798655
 20
77.794586207
 30
0.0
 11
33.331401982
 21
77.883399888
 31
0.0
  0
LINE
  8
0
  6
CONTINUOUS
 62
     2
 10
34.344692979
 20
77.727631895
 30
0.0
 11
34.310314642
 21
77.584954116
 31
0.0
  0
LINE
  8
0
  6
CONTINUOUS
 62
     2
 10
34.310314642
 20
77.584954116
 30
0.0
 11
34.283340333
 21
77.439200479
 31
0.0
  0
LINE
  8
0
  6
CONTINUOUS
 62
     2
 10
34.283340333
 20
77.439200479
 30
0.0
 11
34.264123205
 21
77.291168417
 31
0.0
  0
LINE
  8
0
  6
CONTINUOUS
 62
     2
 10
34.264123205
 20
77.291168417
 30
0.0
 11
34.252908353
 21
77.141704187
 31
0.0
  0
LINE
  8
0
  6
CONTINUOUS
 62
     2
 10
34.252908353
 20
77.141704187
 30
0.0
 11
34.249824949
 21
76.991683724
 31
0.0
  0
LINE
  8
0
  6
CONTINUOUS
 62
     2
 10
34.249824949
 20
76.991683724
 30
0.0
 11
34.254882439
 21
76.841992158
 31
0.0
  0
LINE
  8
0
  6
CONTINUOUS
 62
     2
 10
34.254882439
 20
76.841992158
 30
0.0
 11
34.267971024
 21
76.69350303
 31
0.0
  0
LINE
  8
0
  6
CONTINUOUS
 62
     2
 10
34.267971024
 20
76.69350303
 30
0.0
 11
34.288866358
 21
76.547058225
 31
0.0
  0
LINE
  8
0
  6
CONTINUOUS
 62
     2
 10
34.288866358
 20
76.547058225
 30
0.0
 11
34.31723811
 21
76.403449583
 31
0.0
  0
LINE
  8
0
  6
CONTINUOUS
 62
     2
 10
34.31723811
 20
76.403449583
 30
0.0
 11
34.352661819
 21
76.263402995
 31
0.0
  0
LINE
  8
0
  6
CONTINUOUS
 62
     2
 10
34.352661819
 20
76.263402995
 30
0.0
 11
34.411749623
 21
76.198126835
 31
0.0
  0
LINE
  8
0
  6
CONTINUOUS
 62
     2
 10
34.411749623
 20
76.198126835
 30
0.0
 11
34.486463496
 21
76.147517728
 31
0.0
  0
LINE
  8
0
  6
CONTINUOUS
 62
     2
 10
34.486463496
 20
76.147517728
 30
0.0
 11
34.611478348
 21
76.120005066
 31
0.0
  0
LINE
  8
0
  6
CONTINUOUS
 62
     2
 10
34.611478348
 20
76.120005066
 30
0.0
 11
34.713683888
 21
76.139258994
 31
0.0
  0
LINE
  8
0
  6
CONTINUOUS
 62
     2
 10
34.713683888
 20
76.139258994
 30
0.0
 11
34.806548122
 21
76.196983388
 31
0.0
  0
LINE
  8
0
  6
CONTINUOUS
 62
     2
 10
34.806548122
 20
76.196983388
 30
0.0
 11
34.856231228
 21
76.257179876
 31
0.0
  0
LINE
  8
0
  6
CONTINUOUS
 62
     2
 10
34.856231228
 20
76.257179876
 30
0.0
 11
34.902208452
 21
76.403086664
 31
0.0
  0
LINE
  8
0
  6
CONTINUOUS
 62
     2
 10
34.902208452
 20
76.403086664
 30
0.0
 11
34.929903738
 21
76.542623558
 31
0.0
  0
LINE
  8
0
  6
CONTINUOUS
 62
     2
 10
34.929903738
 20
76.542623558
 30
0.0
 11
34.951501165
 21
76.693016943
 31
0.0
  0
LINE
  8
0
  6
CONTINUOUS
 62
     2
 10
34.951501165
 20
76.693016943
 30
0.0
 11
34.96465952
 21
76.842215545
 31
0.0
  0
LINE
  8
0
  6
CONTINUOUS
 62
     2
 10
34.96465952
 20
76.842215545
 30
0.0
 11
34.969706871
 21
76.99221524
 31
0.0
  0
LINE
  8
0
  6
CONTINUOUS
 62
     2
 10
34.969706871
 20
76.99221524
 30
0.0
 11
34.966359467
 21
77.147048818
 31
0.0
  0
LINE
  8
0
  6
CONTINUOUS
 62
     2
 10
34.966359467
 20
77.147048818
 30
0.0
 11
34.955429494
 21
77.290930487
 31
0.0
  0
LINE
  8
0
  6
CONTINUOUS
 62
     2
 10
34.955429494
 20
77.290930487
 30
0.0
 11
34.936024891
 21
77.44023539
 31
0.0
  0
LINE
  8
0
  6
CONTINUOUS
 62
     2
 10
34.936024891
 20
77.44023539
 30
0.0
 11
34.909451161
 21
77.583838096
 31
0.0
  0
LINE
  8
0
  6
CONTINUOUS
 62
     2
 10
34.909451161
 20
77.583838096
 30
0.0
 11
34.873464121
 21
77.730674508
 31
0.0
  0
LINE
  8
0
  6
CONTINUOUS
 62
     2
 10
34.873464121
 20
77.730674508
 30
0.0
 11
34.821320702
 21
77.808352803
 31
0.0
  0
LINE
  8
0
  6
CONTINUOUS
 62
     2
 10
34.821320702
 20
77.808352803
 30
0.0
 11
34.73521188
 21
77.871462947
 31
0.0
  0
LINE
  8
0
  6
CONTINUOUS
 62
     2
 10
34.73521188
 20
77.871462947
 30
0.0
 11
34.620333854
 21
77.899807318
 31
0.0
  0
LINE
  8
0
  6
CONTINUOUS
 62
     2
 10
34.620333854
 20
77.899807318
 30
0.0
 11
34.486433084
 21
77.872467984
 31
0.0
  0
LINE
  8
0
  6
CONTINUOUS
 62
     2
 10
34.486433084
 20
77.872467984
 30
0.0
 11
34.396943341
 21
77.806995669
 31
0.0
  0
LINE
  8
0
  6
CONTINUOUS
 62
     2
 10
34.396943341
 20
77.806995669
 30
0.0
 11
34.344692979
 21
77.727631895
 31
0.0
  0
LINE
  8
0
  6
CONTINUOUS
 62
     2
 10
32.999764172
 20
67.52
 30
0.0
 11
33.008767416
 21
67.600007985
 31
0.0
  0
LINE
  8
0
  6
CONTINUOUS
 62
     2
 10
33.008767416
 20
67.600007985
 30
0.0
 11
33.034645955
 21
67.674590249
 31
0.0
  0
LINE
  8
0
  6
CONTINUOUS
 62
     2
 10
33.034645955
 20
67.674590249
 30
0.0
 11
33.070885354
 21
67.734823249
 31
0.0
  0
LINE
  8
0
  6
CONTINUOUS
 62
     2
 10
33.070885354
 20
67.734823249
 30
0.0
 11
33.118637044
 21
67.787315746
 31
0.0
  0
LINE
  8
0
  6
CONTINUOUS
 62
     2
 10
33.118637044
 20
67.787315746
 30
0.0
 11
33.174018831
 21
67.82838072
 31
0.0
  0
LINE
  8
0
  6
CONTINUOUS
 62
     2
 10
33.174018831
 20
67.82838072
 30
0.0
 11
33.246274157
 21
67.861643113
 31
0.0
  0
LINE
  8
0
  6
CONTINUOUS
 62
     2
 10
33.246274157
 20
67.861643113
 30
0.0
 11
33.346527536
 21
67.879756573
 31
0.0
  0
LINE
  8
0
  6
CONTINUOUS
 62
     2
 10
33.346527536
 20
67.879756573
 30
0.0
 11
33.450085795
 21
67.8684853
 31
0.0
  0
LINE
  8
0
  6
CONTINUOUS
 62
     2
 10
33.450085795
 20
67.8684853
 30
0.0
 11
33.523592125
 21
67.840562633
 31
0.0
  0
LINE
  8
0
  6
CONTINUOUS
 62
     2
 10
33.523592125
 20
67.840562633
 30
0.0
 11
33.582981344
 21
67.802443081
 31
0.0
  0
LINE
  8
0
  6
CONTINUOUS
 62
     2
 10
33.582981344
 20
67.802443081
 30
0.0
 11
33.633959051
 21
67.753274877
 31
0.0
  0
LINE
  8
0
  6
CONTINUOUS
 62
     2
 10
33.633959051
 20
67.753274877
 30
0.0
 11
33.673152592
 21
67.697165736
 31
0.0
  0
LINE
  8
0
  6
CONTINUOUS
 62
     2
 10
33.673152592
 20
67.697165736
 30
0.0
 11
33.704399121
 21
67.624051679
 31
0.0
  0
LINE
  8
0
  6
CONTINUOUS
 62
     2
 10
33.704399121
 20
67.624051679
 30
0.0
 11
33.718657389
 21
67.548207426
 31
0.0
  0
LINE
  8
0
  6
CONTINUOUS
 62
     2
 10
33.718657389
 20
67.548207426
 30
0.0
 11
33.716742818
 21
67.473457048
 31
0.0
  0
LINE
  8
0
  6
CONTINUOUS
 62
     2
 10
33.716742818
 20
67.473457048
 30
0.0
 11
33.697819689
 21
67.396232204
 31
0.0
  0
LINE
  8
0
  6
CONTINUOUS
 62
     2
 10
33.697819689
 20
67.396232204
 30
0.0
 11
33.663702444
 21
67.326534244
 31
0.0
  0
LINE
  8
0
  6
CONTINUOUS
 62
     2
 10
33.663702444
 20
67.326534244
 30
0.0
 11
33.620415824
 21
67.25209975
 31
0.0
  0
LINE
  8
0
  6
CONTINUOUS
 62
     2
 10
33.620415824
 20
67.25209975
 30
0.0
 11
33.555229965
 21
67.14000792
 31
0.0
  0
LINE
  8
0
  6
CONTINUOUS
 62
     2
 10
33.555229965
 20
67.14000792
 30
0.0
 11
33.490044106
 21
67.027916091
 31
0.0
  0
LINE
  8
0
  6
CONTINUOUS
 62
     2
 10
33.490044106
 20
67.027916091
 30
0.0
 11
33.424858247
 21
66.915824262
 31
0.0
  0
LINE
  8
0
  6
CONTINUOUS
 62
     2
 10
33.424858247
 20
66.915824262
 30
0.0
 11
33.359672388
 21
66.803732433
 31
0.0
  0
LINE
  8
0
  6
CONTINUOUS
 62
     2
 10
33.359672388
 20
66.803732433
 30
0.0
 11
33.294486529
 21
66.691640603
 31
0.0
  0
LINE
  8
0
  6
CONTINUOUS
 62
     2
 10
33.294486529
 20
66.691640603
 30
0.0
 11
33.22930067
 21
66.579548774
 31
0.0
  0
LINE
  8
0
  6
CONTINUOUS
 62
     2
 10
33.22930067
 20
66.579548774
 30
0.0
 11
33.164114812
 21
66.467456945
 31
0.0
  0
LINE
  8
0
  6
CONTINUOUS
 62
     2
 10
33.164114812
 20
66.467456945
 30
0.0
 11
33.098928953
 21
66.355365116
 31
0.0
  0
LINE
  8
0
  6
CONTINUOUS
 62
     2
 10
33.098928953
 20
66.355365116
 30
0.0
 11
33.033743094
 21
66.243273286
 31
0.0
  0
LINE
  8
0
  6
CONTINUOUS
 62
     2
 10
33.033743094
 20
66.243273286
 30
0.0
 11
32.962054772
 21
66.12
 31
0.0
  0
LINE
  8
0
  6
CONTINUOUS
 62
     2
 10
32.962054772
 20
66.12
 30
0.0
 11
33.112054772
 21
66.12
 31
0.0
  0
LINE
  8
0
  6
CONTINUOUS
 62
     2
 10
33.112054772
 20
66.12
 30
0.0
 11
33.262054772
 21
66.12
 31
0.0
  0
LINE
  8
0
  6
CONTINUOUS
 62
     2
 10
33.262054772
 20
66.12
 30
0.0
 11
33.412054772
 21
66.12
 31
0.0
  0
LINE
  8
0
  6
CONTINUOUS
 62
     2
 10
33.412054772
 20
66.12
 30
0.0
 11
33.562054772
 21
66.12
 31
0.0
  0
LINE
  8
0
  6
CONTINUOUS
 62
     2
 10
33.562054772
 20
66.12
 30
0.0
 11
33.719764181
 21
66.12
 31
0.0
  0
LINE
  8
0
  6
CONTINUOUS
 62
     2
 10
34.344692979
 20
67.727631895
 30
0.0
 11
34.310314642
 21
67.584954116
 31
0.0
  0
LINE
  8
0
  6
CONTINUOUS
 62
     2
 10
34.310314642
 20
67.584954116
 30
0.0
 11
34.283340333
 21
67.439200479
 31
0.0
  0
LINE
  8
0
  6
CONTINUOUS
 62
     2
 10
34.283340333
 20
67.439200479
 30
0.0
 11
34.264123205
 21
67.291168417
 31
0.0
  0
LINE
  8
0
  6
CONTINUOUS
 62
     2
 10
34.264123205
 20
67.291168417
 30
0.0
 11
34.252908353
 21
67.141704187
 31
0.0
  0
LINE
  8
0
  6
CONTINUOUS
 62
     2
 10
34.252908353
 20
67.141704187
 30
0.0
 11
34.249824949
 21
66.991683724
 31
0.0
  0
LINE
  8
0
  6
CONTINUOUS
 62
     2
 10
34.249824949
 20
66.991683724
 30
0.0
 11
34.254882439
 21
66.841992158
 31
0.0
  0
LINE
  8
0
  6
CONTINUOUS
 62
     2
 10
34.254882439
 20
66.841992158
 30
0.0
 11
34.267971024
 21
66.69350303
 31
0.0
  0
LINE
  8
0
  6
CONTINUOUS
 62
     2
 10
34.267971024
 20
66.69350303
 30
0.0
 11
34.288866358
 21
66.547058225
 31
0.0
  0
LINE
  8
0
  6
CONTINUOUS
 62
     2
 10
34.288866358
 20
66.547058225
 30
0.0
 11
34.31723811
 21
66.403449583
 31
0.0
  0
LINE
  8
0
  6
CONTINUOUS
 62
     2
 10
34.31723811
 20
66.403449583
 30
0.0
 11
34.352661819
 21
66.263402995
 31
0.0
  0
LINE
  8
0
  6
CONTINUOUS
 62
     2
 10
34.352661819
 20
66.263402995
 30
0.0
 11
34.411749623
 21
66.198126835
 31
0.0
  0
LINE
  8
0
  6
CONTINUOUS
 62
     2
 10
34.411749623
 20
66.198126835
 30
0.0
 11
34.486463496
 21
66.147517728
 31
0.0
  0
LINE
  8
0
  6
CONTINUOUS
 62
     2
 10
34.486463496
 20
66.147517728
 30
0.0
 11
34.611478348
 21
66.120005066
 31
0.0
  0
LINE
  8
0
  6
CONTINUOUS
 62
     2
 10
34.611478348
 20
66.120005066
 30
0.0
 11
34.713683888
 21
66.139258994
 31
0.0
  0
LINE
  8
0
  6
CONTINUOUS
 62
     2
 10
34.713683888
 20
66.139258994
 30
0.0
 11
34.806548122
 21
66.196983388
 31
0.0
  0
LINE
  8
0
  6
CONTINUOUS
 62
     2
 10
34.806548122
 20
66.196983388
 30
0.0
 11
34.856231228
 21
66.257179876
 31
0.0
  0
LINE
  8
0
  6
CONTINUOUS
 62
     2
 10
34.856231228
 20
66.257179876
 30
0.0
 11
34.902208452
 21
66.403086664
 31
0.0
  0
LINE
  8
0
  6
CONTINUOUS
 62
     2
 10
34.902208452
 20
66.403086664
 30
0.0
 11
34.929903738
 21
66.542623558
 31
0.0
  0
LINE
  8
0
  6
CONTINUOUS
 62
     2
 10
34.929903738
 20
66.542623558
 30
0.0
 11
34.951501165
 21
66.693016943
 31
0.0
  0
LINE
  8
0
  6
CONTINUOUS
 62
     2
 10
34.951501165
 20
66.693016943
 30
0.0
 11
34.96465952
 21
66.842215545
 31
0.0
  0
LINE
  8
0
  6
CONTINUOUS
 62
     2
 10
34.96465952
 20
66.842215545
 30
0.0
 11
34.969706871
 21
66.99221524
 31
0.0
  0
LINE
  8
0
  6
CONTINUOUS
 62
     2
 10
34.969706871
 20
66.99221524
 30
0.0
 11
34.966359467
 21
67.147048818
 31
0.0
  0
LINE
  8
0
  6
CONTINUOUS
 62
     2
 10
34.966359467
 20
67.147048818
 30
0.0
 11
34.955429494
 21
67.290930487
 31
0.0
  0
LINE
  8
0
  6
CONTINUOUS
 62
     2
 10
34.955429494
 20
67.290930487
 30
0.0
 11
34.936024891
 21
67.44023539
 31
0.0
  0
LINE
  8
0
  6
CONTINUOUS
 62
     2
 10
34.936024891
 20
67.44023539
 30
0.0
 11
34.909451161
 21
67.583838096
 31
0.0
  0
LINE
  8
0
  6
CONTINUOUS
 62
     2
 10
34.909451161
 20
67.583838096
 30
0.0
 11
34.873464121
 21
67.730674508
 31
0.0
  0
LINE
  8
0
  6
CONTINUOUS
 62
     2
 10
34.873464121
 20
67.730674508
 30
0.0
 11
34.821320702
 21
67.808352803
 31
0.0
  0
LINE
  8
0
  6
CONTINUOUS
 62
     2
 10
34.821320702
 20
67.808352803
 30
0.0
 11
34.73521188
 21
67.871462947
 31
0.0
  0
LINE
  8
0
  6
CONTINUOUS
 62
     2
 10
34.73521188
 20
67.871462947
 30
0.0
 11
34.620333854
 21
67.899807318
 31
0.0
  0
LINE
  8
0
  6
CONTINUOUS
 62
     2
 10
34.620333854
 20
67.899807318
 30
0.0
 11
34.486433084
 21
67.872467984
 31
0.0
  0
LINE
  8
0
  6
CONTINUOUS
 62
     2
 10
34.486433084
 20
67.872467984
 30
0.0
 11
34.396943341
 21
67.806995669
 31
0.0
  0
LINE
  8
0
  6
CONTINUOUS
 62
     2
 10
34.396943341
 20
67.806995669
 30
0.0
 11
34.344692979
 21
67.727631895
 31
0.0
  0
LINE
  8
0
  6
CONTINUOUS
 62
     2
 10
33.094692979
 20
57.727631895
 30
0.0
 11
33.060314642
 21
57.584954116
 31
0.0
  0
LINE
  8
0
  6
CONTINUOUS
 62
     2
 10
33.060314642
 20
57.584954116
 30
0.0
 11
33.033340333
 21
57.439200479
 31
0.0
  0
LINE
  8
0
  6
CONTINUOUS
 62
     2
 10
33.033340333
 20
57.439200479
 30
0.0
 11
33.014123205
 21
57.291168417
 31
0.0
  0
LINE
  8
0
  6
CONTINUOUS
 62
     2
 10
33.014123205
 20
57.291168417
 30
0.0
 11
33.002908353
 21
57.141704187
 31
0.0
  0
LINE
  8
0
  6
CONTINUOUS
 62
     2
 10
33.002908353
 20
57.141704187
 30
0.0
 11
32.999824949
 21
56.991683724
 31
0.0
  0
LINE
  8
0
  6
CONTINUOUS
 62
     2
 10
32.999824949
 20
56.991683724
 30
0.0
 11
33.004882439
 21
56.841992158
 31
0.0
  0
LINE
  8
0
  6
CONTINUOUS
 62
     2
 10
33.004882439
 20
56.841992158
 30
0.0
 11
33.017971024
 21
56.69350303
 31
0.0
  0
LINE
  8
0
  6
CONTINUOUS
 62
     2
 10
33.017971024
 20
56.69350303
 30
0.0
 11
33.038866358
 21
56.547058225
 31
0.0
  0
LINE
  8
0
  6
CONTINUOUS
 62
     2
 10
33.038866358
 20
56.547058225
 30
0.0
 11
33.06723811
 21
56.403449583
 31
0.0
  0
LINE
  8
0
  6
CONTINUOUS
 62
     2
 10
33.06723811
 20
56.403449583
 30
0.0
 11
33.102661819
 21
56.263402995
 31
0.0
  0
LINE
  8
0
  6
CONTINUOUS
 62
     2
 10
33.102661819
 20
56.263402995
 30
0.0
 11
33.161749623
 21
56.198126835
 31
0.0
  0
LINE
  8
0
  6
CONTINUOUS
 62
     2
 10
33.161749623
 20
56.198126835
 30
0.0
 11
33.236463496
 21
56.147517728
 31
0.0
  0
LINE
  8
0
  6
CONTINUOUS
 62
     2
 10
33.236463496
 20
56.147517728
 30
0.0
 11
33.361478348
 21
56.120005066
 31
0.0
  0
LINE
  8
0
  6
CONTINUOUS
 62
     2
 10
33.361478348
 20
56.120005066
 30
0.0
 11
33.463683888
 21
56.139258994
 31
0.0
  0
LINE
  8
0
  6
CONTINUOUS
 62
     2
 10
33.463683888
 20
56.139258994
 30
0.0
 11
33.556548122
 21
56.196983388
 31
0.0
  0
LINE
  8
0
  6
CONTINUOUS
 62
     2
 10
33.556548122
 20
56.196983388
 30
0.0
 11
33.606231228
 21
56.257179876
 31
0.0
  0
LINE
  8
0
  6
CONTINUOUS
 62
     2
 10
33.606231228
 20
56.257179876
 30
0.0
 11
33.652208452
 21
56.403086664
 31
0.0
  0
LINE
  8
0
  6
CONTINUOUS
 62
     2
 10
33.652208452
 20
56.403086664
 30
0.0
 11
33.679903738
 21
56.542623558
 31
0.0
  0
LINE
  8
0
  6
CONTINUOUS
 62
     2
 10
33.679903738
 20
56.542623558
 30
0.0
 11
33.701501165
 21
56.693016943
 31
0.0
  0
LINE
  8
0
  6
CONTINUOUS
 62
     2
 10
33.701501165
 20
56.693016943
 30
0.0
 11
33.71465952
 21
56.842215545
 31
0.0
  0
LINE
  8
0
  6
CONTINUOUS
 62
     2
 10
33.71465952
 20
56.842215545
 30
0.0
 11
33.719706871
 21
56.99221524
 31
0.0
  0
LINE
  8
0
  6
CONTINUOUS
 62
     2
 10
33.719706871
 20
56.99221524
 30
0.0
 11
33.716359467
 21
57.147048818
 31
0.0
  0
LINE
  8
0
  6
CONTINUOUS
 62
     2
 10
33.716359467
 20
57.147048818
 30
0.0
 11
33.705429494
 21
57.290930487
 31
0.0
  0
LINE
  8
0
  6
CONTINUOUS
 62
     2
 10
33.705429494
 20
57.290930487
 30
0.0
 11
33.686024891
 21
57.44023539
 31
0.0
  0
LINE
  8
0
  6
CONTINUOUS
 62
     2
 10
33.686024891
 20
57.44023539
 30
0.0
 11
33.659451161
 21
57.583838096
 31
0.0
  0
LINE
  8
0
  6
CONTINUOUS
 62
     2
 10
33.659451161
 20
57.583838096
 30
0.0
 11
33.623464121
 21
57.730674508
 31
0.0
  0
LINE
  8
0
  6
CONTINUOUS
 62
     2
 10
33.623464121
 20
57.730674508
 30
0.0
 11
33.571320702
 21
57.808352803
 31
0.0
  0
LINE
  8
0
  6
CONTINUOUS
 62
     2
 10
33.571320702
 20
57.808352803
 30
0.0
 11
33.48521188
 21
57.871462947
 31
0.0
  0
LINE
  8
0
  6
CONTINUOUS
 62
     2
 10
33.48521188
 20
57.871462947
 30
0.0
 11
33.370333854
 21
57.899807318
 31
0.0
  0
LINE
  8
0
  6
CONTINUOUS
 62
     2
 10
33.370333854
 20
57.899807318
 30
0.0
 11
33.236433084
 21
57.872467984
 31
0.0
  0
LINE
  8
0
  6
CONTINUOUS
 62
     2
 10
33.236433084
 20
57.872467984
 30
0.0
 11
33.146943341
 21
57.806995669
 31
0.0
  0
LINE
  8
0
  6
CONTINUOUS
 62
     2
 10
33.146943341
 20
57.806995669
 30
0.0
 11
33.094692979
 21
57.727631895
 31
0.0
  0
LINE
  8
0
  6
CONTINUOUS
 62
     2
 10
216.5
 20
77.5
 30
0.0
 11
217.147047613
 21
79.914814566
 31
0.0
  0
LINE
  8
0
  6
CONTINUOUS
 62
     2
 10
216.5
 20
77.5
 30
0.0
 11
215.852952387
 21
79.914814566
 31
0.0
  0
LINE
  8
0
  6
CONTINUOUS
 62
     2
 10
216.5
 20
81.25
 30
0.0
 11
216.5
 21
77.5
 31
0.0
  0
LINE
  8
0
  6
CONTINUOUS
 62
     2
 10
216.5
 20
77.5
 30
0.0
 11
216.5
 21
72.5
 31
0.0
  0
LINE
  8
0
  6
CONTINUOUS
 62
     2
 10
216.5
 20
72.5
 30
0.0
 11
216.5
 21
68.75
 31
0.0
  0
LINE
  8
0
  6
CONTINUOUS
 62
     2
 10
216.5
 20
72.5
 30
0.0
 11
215.852952387
 21
70.085185434
 31
0.0
  0
LINE
  8
0
  6
CONTINUOUS
 62
     2
 10
216.5
 20
72.5
 30
0.0
 11
217.147047613
 21
70.085185434
 31
0.0
  0
TEXT
  8
0
  6
CONTINUOUS
 62
     2
 10
215.5
 20
73.05
 30
0.3
 40
3.0
  1
１０
 50
90.0
 41
0.6
 51
0.0
  7
KANJI0
  0
LINE
  8
0
  6
CONTINUOUS
 62
     2
 10
202.9
 20
77.5
 30
0.0
 11
218.5
 21
77.5
 31
0.0
  0
LINE
  8
0
  6
CONTINUOUS
 62
     2
 10
202.9
 20
72.5
 30
0.0
 11
218.5
 21
72.5
 31
0.0
  0
LINE
  8
0
  6
LTYPE2
 62
     2
 10
122.0
 20
117.5
 30
0.0
 11
122.0
 21
42.5
 31
0.0
  0
LINE
  8
0
  6
LTYPE2
 62
     2
 10
127.0
 20
82.0
 30
0.0
 11
117.0
 21
82.0
 31
0.0
  0
LINE
  8
0
  6
LTYPE2
 62
     2
 10
200.0
 20
130.0
 30
0.0
 11
200.0
 21
35.0
 31
0.0
  0
LINE
  8
0
  6
LTYPE2
 62
     2
 10
213.15
 20
80.0
 30
0.0
 11
187.081803249
 21
80.0
 31
0.0
  0
LINE
  8
0
  6
CONTINUOUS
 62
     2
 10
28.125
 20
81.9625
 30
0.0
 11
28.125
 21
82.0375
 31
0.0
  0
ARC
  8
0
  6
CONTINUOUS
 62
     2
 10
25.89
 20
82.4
 30
0.0
 40
1.056
 50
337.467174552
 51
22.511176732
  0
ARC
  8
0
  6
CONTINUOUS
 62
     2
 10
25.89
 20
82.4
 30
0.0
 40
0.96
 50
337.452380695
 51
22.564315364
  0
ARC
  8
0
  6
CONTINUOUS
 62
     2
 10
27.33
 20
82.4
 30
0.0
 40
1.056
 50
157.488823268
 51
202.532825448
  0
ARC
  8
0
  6
CONTINUOUS
 62
     2
 10
27.33
 20
82.4
 30
0.0
 40
0.96
 50
157.435684636
 51
202.547619305
  0
ARC
  8
0
  6
CONTINUOUS
 62
     2
 10
26.61
 20
82.7
 30
0.0
 40
0.18
 50
22.323602445
 51
157.676397555
  0
ARC
  8
0
  6
CONTINUOUS
 62
     2
 10
26.61
 20
82.7
 30
0.0
 40
0.276
 50
22.204019072
 51
157.795980928
  0
ARC
  8
0
  6
CONTINUOUS
 62
     2
 10
26.61
 20
82.1
 30
0.0
 40
0.18
 50
202.234559129
 51
337.765440871
  0
ARC
  8
0
  6
CONTINUOUS
 62
     2
 10
26.61
 20
82.1
 30
0.0
 40
0.276
 50
202.286846658
 51
337.713153342
  0
ARC
  8
0
  6
CONTINUOUS
 62
     2
 10
27.17
 20
81.6
 30
0.0
 40
1.056
 50
337.467174552
 51
22.511176732
  0
ARC
  8
0
  6
CONTINUOUS
 62
     2
 10
27.17
 20
81.6
 30
0.0
 40
0.96
 50
337.452380695
 51
22.564315364
  0
ARC
  8
0
  6
CONTINUOUS
 62
     2
 10
28.61
 20
81.6
 30
0.0
 40
1.056
 50
157.488823268
 51
202.532825448
  0
ARC
  8
0
  6
CONTINUOUS
 62
     2
 10
28.61
 20
81.6
 30
0.0
 40
0.96
 50
157.435684636
 51
202.547619305
  0
ARC
  8
0
  6
CONTINUOUS
 62
     2
 10
27.89
 20
81.9
 30
0.0
 40
0.18
 50
22.323602445
 51
157.676397555
  0
ARC
  8
0
  6
CONTINUOUS
 62
     2
 10
27.89
 20
81.9
 30
0.0
 40
0.276
 50
22.204019072
 51
157.795980928
  0
ARC
  8
0
  6
CONTINUOUS
 62
     2
 10
27.89
 20
81.3
 30
0.0
 40
0.18
 50
202.234559129
 51
337.765440871
  0
ARC
  8
0
  6
CONTINUOUS
 62
     2
 10
27.89
 20
81.3
 30
0.0
 40
0.276
 50
202.286846658
 51
337.713153342
  0
LINE
  8
0
  6
CONTINUOUS
 62
     2
 10
28.065454591
 20
82.897146195
 30
0.0
 11
26.508085676
 21
81.041146195
 31
0.0
  0
LINE
  8
0
  6
CONTINUOUS
 62
     2
 10
27.991914324
 20
82.958853805
 30
0.0
 11
26.434545409
 21
81.102853805
 31
0.0
  0
ARC
  8
0
  6
CONTINUOUS
 62
     2
 10
26.471315542
 20
81.072
 30
0.0
 40
0.048
 50
140.0
 51
320.0
  0
ARC
  8
0
  6
CONTINUOUS
 62
     2
 10
28.028684458
 20
82.928
 30
0.0
 40
0.048
 50
320.0
 51
140.0
  0
TEXT
  8
0
  6
CONTINUOUS
 62
     3
 10
235.0
 20
12.0
 30
0.2
 40
5.8
  1
ＭＳ－１２２３２
 50
0.0
 41
0.827586207
 51
0.0
  7
KANJI13
  0
LINE
  8
0
  6
CONTINUOUS
 62
     2
 10
224.768
 20
128.25
 30
0.0
 11
224.120952387
 21
125.835185434
 31
0.0
  0
LINE
  8
0
  6
CONTINUOUS
 62
     2
 10
224.768
 20
128.25
 30
0.0
 11
225.415047613
 21
125.835185434
 31
0.0
  0
LINE
  8
0
  6
CONTINUOUS
 62
     2
 10
224.768
 20
36.75
 30
0.0
 11
225.415047613
 21
39.164814566
 31
0.0
  0
LINE
  8
0
  6
CONTINUOUS
 62
     2
 10
224.768
 20
36.75
 30
0.0
 11
224.120952387
 21
39.164814566
 31
0.0
  0
TEXT
  8
0
  6
CONTINUOUS
 62
     2
 10
223.768
 20
79.5
 30
0.3
 40
3.0
  1
１８３
 50
90.0
 41
0.6
 51
0.0
  7
KANJI0
  0
LINE
  8
0
  6
CONTINUOUS
 62
     2
 10
207.25
 20
36.75
 30
0.0
 11
225.604
 21
36.75
 31
0.0
  0
LINE
  8
0
  6
CONTINUOUS
 62
     2
 10
207.25
 20
128.25
 30
0.0
 11
225.464
 21
128.25
 31
0.0
  0
LINE
  8
0
  6
CONTINUOUS
 62
     2
 10
165.54
 20
73.83
 30
0.0
 11
165.54
 21
71.17
 31
0.0
  0
LINE
  8
0
  6
CONTINUOUS
 62
     2
 10
165.85
 20
71.19
 30
0.0
 11
165.54
 21
71.17
 31
0.0
  0
LINE
  8
0
  6
CONTINUOUS
 62
     2
 10
165.54
 20
73.83
 30
0.0
 11
165.85
 21
73.83
 31
0.0
  0
LINE
  8
0
  6
CONTINUOUS
 62
     2
 10
166.59
 20
73.08
 30
0.0
 11
166.59
 21
71.92
 31
0.0
  0
ARC
  8
0
  6
CONTINUOUS
 62
     2
 10
165.84
 20
73.08
 30
0.0
 40
0.75
 50
0.0
 51
90.0
  0
ARC
  8
0
  6
CONTINUOUS
 62
     2
 10
165.84
 20
71.92
 30
0.0
 40
0.75
 50
268.472474559
 51
0.0
  0
LINE
  8
0
  6
CONTINUOUS
 62
     2
 10
165.53
 20
73.85
 30
0.0
 11
165.15
 21
73.85
 31
0.0
  0
LINE
  8
0
  6
CONTINUOUS
 62
     2
 10
165.15
 20
73.85
 30
0.0
 11
165.15
 21
71.17
 31
0.0
  0
LINE
  8
0
  6
CONTINUOUS
 62
     2
 10
165.15
 20
71.17
 30
0.0
 11
165.53
 21
71.17
 31
0.0
  0
LINE
  8
0
  6
CONTINUOUS
 62
     2
 10
165.15
 20
72.38
 30
0.0
 11
165.53
 21
72.69
 31
0.0
  0
LINE
  8
0
  6
CONTINUOUS
 62
     2
 10
165.15
 20
72.14
 30
0.0
 11
165.54
 21
72.43
 31
0.0
  0
LINE
  8
0
  6
CONTINUOUS
 62
     2
 10
166.59
 20
72.71
 30
0.0
 11
166.52
 21
72.71
 31
0.0
  0
LINE
  8
0
  6
CONTINUOUS
 62
     2
 10
166.52
 20
72.72
 30
0.0
 11
166.52
 21
72.34
 31
0.0
  0
LINE
  8
0
  6
CONTINUOUS
 62
     2
 10
166.52
 20
72.34
 30
0.0
 11
166.58
 21
72.34
 31
0.0
  0
LINE
  8
0
  6
CONTINUOUS
 62
     2
 10
165.54
 20
73.83
 30
0.0
 11
165.54
 21
71.17
 31
0.0
  0
LINE
  8
0
  6
CONTINUOUS
 62
     2
 10
165.85
 20
71.19
 30
0.0
 11
165.54
 21
71.17
 31
0.0
  0
LINE
  8
0
  6
CONTINUOUS
 62
     2
 10
165.54
 20
73.83
 30
0.0
 11
165.85
 21
73.83
 31
0.0
  0
LINE
  8
0
  6
CONTINUOUS
 62
     2
 10
166.59
 20
73.08
 30
0.0
 11
166.59
 21
71.92
 31
0.0
  0
ARC
  8
0
  6
CONTINUOUS
 62
     2
 10
165.84
 20
73.08
 30
0.0
 40
0.75
 50
0.0
 51
90.0
  0
ARC
  8
0
  6
CONTINUOUS
 62
     2
 10
165.84
 20
71.92
 30
0.0
 40
0.75
 50
268.472474559
 51
0.0
  0
LINE
  8
0
  6
CONTINUOUS
 62
     2
 10
165.53
 20
73.85
 30
0.0
 11
165.15
 21
73.85
 31
0.0
  0
LINE
  8
0
  6
CONTINUOUS
 62
     2
 10
165.15
 20
73.85
 30
0.0
 11
165.15
 21
71.17
 31
0.0
  0
LINE
  8
0
  6
CONTINUOUS
 62
     2
 10
165.15
 20
71.17
 30
0.0
 11
165.53
 21
71.17
 31
0.0
  0
LINE
  8
0
  6
CONTINUOUS
 62
     2
 10
165.15
 20
72.38
 30
0.0
 11
165.53
 21
72.69
 31
0.0
  0
LINE
  8
0
  6
CONTINUOUS
 62
     2
 10
165.15
 20
72.14
 30
0.0
 11
165.54
 21
72.43
 31
0.0
  0
LINE
  8
0
  6
CONTINUOUS
 62
     2
 10
166.59
 20
72.71
 30
0.0
 11
166.52
 21
72.71
 31
0.0
  0
LINE
  8
0
  6
CONTINUOUS
 62
     2
 10
166.52
 20
72.72
 30
0.0
 11
166.52
 21
72.34
 31
0.0
  0
LINE
  8
0
  6
CONTINUOUS
 62
     2
 10
166.52
 20
72.34
 30
0.0
 11
166.58
 21
72.34
 31
0.0
  0
LINE
  8
0
  6
CONTINUOUS
 62
     2
 10
165.54
 20
78.83
 30
0.0
 11
165.54
 21
76.17
 31
0.0
  0
LINE
  8
0
  6
CONTINUOUS
 62
     2
 10
165.85
 20
76.19
 30
0.0
 11
165.54
 21
76.17
 31
0.0
  0
LINE
  8
0
  6
CONTINUOUS
 62
     2
 10
165.54
 20
78.83
 30
0.0
 11
165.85
 21
78.83
 31
0.0
  0
LINE
  8
0
  6
CONTINUOUS
 62
     2
 10
166.59
 20
78.08
 30
0.0
 11
166.59
 21
76.92
 31
0.0
  0
ARC
  8
0
  6
CONTINUOUS
 62
     2
 10
165.84
 20
78.08
 30
0.0
 40
0.75
 50
0.0
 51
90.0
  0
ARC
  8
0
  6
CONTINUOUS
 62
     2
 10
165.84
 20
76.92
 30
0.0
 40
0.75
 50
268.472474559
 51
0.0
  0
LINE
  8
0
  6
CONTINUOUS
 62
     2
 10
165.53
 20
78.85
 30
0.0
 11
165.15
 21
78.85
 31
0.0
  0
LINE
  8
0
  6
CONTINUOUS
 62
     2
 10
165.15
 20
78.85
 30
0.0
 11
165.15
 21
76.17
 31
0.0
  0
LINE
  8
0
  6
CONTINUOUS
 62
     2
 10
165.15
 20
76.17
 30
0.0
 11
165.53
 21
76.17
 31
0.0
  0
LINE
  8
0
  6
CONTINUOUS
 62
     2
 10
165.15
 20
77.38
 30
0.0
 11
165.53
 21
77.69
 31
0.0
  0
LINE
  8
0
  6
CONTINUOUS
 62
     2
 10
165.15
 20
77.14
 30
0.0
 11
165.54
 21
77.43
 31
0.0
  0
LINE
  8
0
  6
CONTINUOUS
 62
     2
 10
166.59
 20
77.71
 30
0.0
 11
166.52
 21
77.71
 31
0.0
  0
LINE
  8
0
  6
CONTINUOUS
 62
     2
 10
166.52
 20
77.72
 30
0.0
 11
166.52
 21
77.34
 31
0.0
  0
LINE
  8
0
  6
CONTINUOUS
 62
     2
 10
166.52
 20
77.34
 30
0.0
 11
166.58
 21
77.34
 31
0.0
  0
LINE
  8
0
  6
CONTINUOUS
 62
     2
 10
165.54
 20
78.83
 30
0.0
 11
165.54
 21
76.17
 31
0.0
  0
LINE
  8
0
  6
CONTINUOUS
 62
     2
 10
165.85
 20
76.19
 30
0.0
 11
165.54
 21
76.17
 31
0.0
  0
LINE
  8
0
  6
CONTINUOUS
 62
     2
 10
165.54
 20
78.83
 30
0.0
 11
165.85
 21
78.83
 31
0.0
  0
LINE
  8
0
  6
CONTINUOUS
 62
     2
 10
166.59
 20
78.08
 30
0.0
 11
166.59
 21
76.92
 31
0.0
  0
ARC
  8
0
  6
CONTINUOUS
 62
     2
 10
165.84
 20
78.08
 30
0.0
 40
0.75
 50
0.0
 51
90.0
  0
ARC
  8
0
  6
CONTINUOUS
 62
     2
 10
165.84
 20
76.92
 30
0.0
 40
0.75
 50
268.472474559
 51
0.0
  0
LINE
  8
0
  6
CONTINUOUS
 62
     2
 10
165.53
 20
78.85
 30
0.0
 11
165.15
 21
78.85
 31
0.0
  0
LINE
  8
0
  6
CONTINUOUS
 62
     2
 10
165.15
 20
78.85
 30
0.0
 11
165.15
 21
76.17
 31
0.0
  0
LINE
  8
0
  6
CONTINUOUS
 62
     2
 10
165.15
 20
76.17
 30
0.0
 11
165.53
 21
76.17
 31
0.0
  0
LINE
  8
0
  6
CONTINUOUS
 62
     2
 10
165.15
 20
77.38
 30
0.0
 11
165.53
 21
77.69
 31
0.0
  0
LINE
  8
0
  6
CONTINUOUS
 62
     2
 10
165.15
 20
77.14
 30
0.0
 11
165.54
 21
77.43
 31
0.0
  0
LINE
  8
0
  6
CONTINUOUS
 62
     2
 10
166.59
 20
77.71
 30
0.0
 11
166.52
 21
77.71
 31
0.0
  0
LINE
  8
0
  6
CONTINUOUS
 62
     2
 10
166.52
 20
77.72
 30
0.0
 11
166.52
 21
77.34
 31
0.0
  0
LINE
  8
0
  6
CONTINUOUS
 62
     2
 10
166.52
 20
77.34
 30
0.0
 11
166.58
 21
77.34
 31
0.0
  0
CIRCLE
  8
0
  6
CONTINUOUS
 62
     2
 10
200.0
 20
72.5
 30
0.0
 40
1.5
  0
LINE
  8
0
  6
CONTINUOUS
 62
     2
 10
200.875
 20
72.3
 30
0.0
 11
200.4
 21
72.3
 31
0.0
  0
ARC
  8
0
  6
CONTINUOUS
 62
     2
 10
200.4
 20
72.1
 30
0.0
 40
0.2
 50
90.0
 51
180.0
  0
LINE
  8
0
  6
CONTINUOUS
 62
     2
 10
200.2
 20
72.1
 30
0.0
 11
200.2
 21
71.625
 31
0.0
  0
LINE
  8
0
  6
CONTINUOUS
 62
     2
 10
200.2
 20
71.625
 30
0.0
 11
199.8
 21
71.625
 31
0.0
  0
LINE
  8
0
  6
CONTINUOUS
 62
     2
 10
199.8
 20
71.625
 30
0.0
 11
199.8
 21
72.1
 31
0.0
  0
ARC
  8
0
  6
CONTINUOUS
 62
     2
 10
199.6
 20
72.1
 30
0.0
 40
0.2
 50
0.0
 51
90.0
  0
LINE
  8
0
  6
CONTINUOUS
 62
     2
 10
199.6
 20
72.3
 30
0.0
 11
199.125
 21
72.3
 31
0.0
  0
LINE
  8
0
  6
CONTINUOUS
 62
     2
 10
199.125
 20
72.3
 30
0.0
 11
199.125
 21
72.7
 31
0.0
  0
LINE
  8
0
  6
CONTINUOUS
 62
     2
 10
199.125
 20
72.7
 30
0.0
 11
199.6
 21
72.7
 31
0.0
  0
ARC
  8
0
  6
CONTINUOUS
 62
     2
 10
199.6
 20
72.9
 30
0.0
 40
0.2
 50
270.0
 51
0.0
  0
LINE
  8
0
  6
CONTINUOUS
 62
     2
 10
199.8
 20
72.9
 30
0.0
 11
199.8
 21
73.375
 31
0.0
  0
LINE
  8
0
  6
CONTINUOUS
 62
     2
 10
199.8
 20
73.375
 30
0.0
 11
200.2
 21
73.375
 31
0.0
  0
LINE
  8
0
  6
CONTINUOUS
 62
     2
 10
200.2
 20
73.375
 30
0.0
 11
200.2
 21
72.9
 31
0.0
  0
ARC
  8
0
  6
CONTINUOUS
 62
     2
 10
200.4
 20
72.9
 30
0.0
 40
0.2
 50
180.0
 51
270.0
  0
LINE
  8
0
  6
CONTINUOUS
 62
     2
 10
200.4
 20
72.7
 30
0.0
 11
200.875
 21
72.7
 31
0.0
  0
LINE
  8
0
  6
CONTINUOUS
 62
     2
 10
200.875
 20
72.7
 30
0.0
 11
200.875
 21
72.3
 31
0.0
  0
CIRCLE
  8
0
  6
CONTINUOUS
 62
     2
 10
200.0
 20
77.5
 30
0.0
 40
1.5
  0
LINE
  8
0
  6
CONTINUOUS
 62
     2
 10
200.875
 20
77.3
 30
0.0
 11
200.4
 21
77.3
 31
0.0
  0
ARC
  8
0
  6
CONTINUOUS
 62
     2
 10
200.4
 20
77.1
 30
0.0
 40
0.2
 50
90.0
 51
180.0
  0
LINE
  8
0
  6
CONTINUOUS
 62
     2
 10
200.2
 20
77.1
 30
0.0
 11
200.2
 21
76.625
 31
0.0
  0
LINE
  8
0
  6
CONTINUOUS
 62
     2
 10
200.2
 20
76.625
 30
0.0
 11
199.8
 21
76.625
 31
0.0
  0
LINE
  8
0
  6
CONTINUOUS
 62
     2
 10
199.8
 20
76.625
 30
0.0
 11
199.8
 21
77.1
 31
0.0
  0
ARC
  8
0
  6
CONTINUOUS
 62
     2
 10
199.6
 20
77.1
 30
0.0
 40
0.2
 50
0.0
 51
90.0
  0
LINE
  8
0
  6
CONTINUOUS
 62
     2
 10
199.6
 20
77.3
 30
0.0
 11
199.125
 21
77.3
 31
0.0
  0
LINE
  8
0
  6
CONTINUOUS
 62
     2
 10
199.125
 20
77.3
 30
0.0
 11
199.125
 21
77.7
 31
0.0
  0
LINE
  8
0
  6
CONTINUOUS
 62
     2
 10
199.125
 20
77.7
 30
0.0
 11
199.6
 21
77.7
 31
0.0
  0
ARC
  8
0
  6
CONTINUOUS
 62
     2
 10
199.6
 20
77.9
 30
0.0
 40
0.2
 50
270.0
 51
0.0
  0
LINE
  8
0
  6
CONTINUOUS
 62
     2
 10
199.8
 20
77.9
 30
0.0
 11
199.8
 21
78.375
 31
0.0
  0
LINE
  8
0
  6
CONTINUOUS
 62
     2
 10
199.8
 20
78.375
 30
0.0
 11
200.2
 21
78.375
 31
0.0
  0
LINE
  8
0
  6
CONTINUOUS
 62
     2
 10
200.2
 20
78.375
 30
0.0
 11
200.2
 21
77.9
 31
0.0
  0
ARC
  8
0
  6
CONTINUOUS
 62
     2
 10
200.4
 20
77.9
 30
0.0
 40
0.2
 50
180.0
 51
270.0
  0
LINE
  8
0
  6
CONTINUOUS
 62
     2
 10
200.4
 20
77.7
 30
0.0
 11
200.875
 21
77.7
 31
0.0
  0
LINE
  8
0
  6
CONTINUOUS
 62
     2
 10
200.875
 20
77.7
 30
0.0
 11
200.875
 21
77.3
 31
0.0
  0
LINE
  8
0
  6
CONTINUOUS
 62
     2
 10
224.768
 20
128.25
 30
0.0
 11
224.768
 21
36.75
 31
0.0
  0
TEXT
  8
0
  6
CONTINUOUS
 62
     1
 10
239.6
 20
22.9
 30
0.4
 40
4.0
  1
縁　形　計　器
 50
0.0
 41
0.9
 51
0.0
  7
KANJI14
  0
TEXT
  8
0
  6
CONTINUOUS
 62
     2
 10
239.6
 20
27.9
 30
0.3
 40
3.0
  1
端子カバー付
 50
0.0
 41
0.9
 51
0.0
  7
KANJI1
  0
TEXT
  8
0
  6
CONTINUOUS
 62
     6
 10
233.75
 20
34.1
 30
0.6
 40
6.0
  1
□ＥＦ－１７Ｓ
 50
0.0
 41
0.9
 51
0.0
  7
KANJI15
  0
LINE
  8
0
  6
LTYPE1
 62
     2
 10
31.0
 20
127.0
 30
0.0
 11
31.0
 21
120.6
 31
0.0
  0
LINE
  8
0
  6
LTYPE2
 62
     2
 10
176.6
 20
80.0
 30
0.0
 11
53.2
 21
80.0
 31
0.0
  0
LINE
  8
0
  6
LTYPE2
 62
     2
 10
122.0
 20
173.15
 30
0.0
 11
122.0
 21
149.65
 31
0.0
  0
LINE
  8
0
  6
LTYPE2
 62
     2
 10
51.4
 20
161.5
 30
0.0
 11
167.7
 21
161.5
 31
0.0
  0
TEXT
  8
0
  6
CONTINUOUS
 62
     2
 10
198.0
 20
153.25
 30
0.3
 40
3.0
  1
（１８５）
 50
90.0
 41
0.6
 51
0.0
  7
KANJI0
  0
ENDSEC
  0
EOF
