  0
SECTION
  2
HEADER
  9
$ACADVER
  1
AC1009
  9
$DWGCODEPAGE
  3
dos932
  9
$EXTMIN
 10
0.0
 20
0.0
 30
0.0
  9
$EXTMAX
 10
297.0
 20
210.0
 30
0.0
  9
$LIMMIN
 10
0.0
 20
0.0
  9
$LIMMAX
 10
297.0
 20
210.0
  9
$LTSCALE
 40
1.0
  9
$PDMODE
 70
     0
  0
ENDSEC
  0
SECTION
  2
TABLES
  0
TABLE
  2
VPORT
 70
     1
  0
VPORT
  2
*ACTIVE
 70
     0
 10
0.0
 20
0.0
 11
1.0
 21
1.0
 12
148.5
 22
105.0
 13
0.0
 23
0.0
 14
10.0
 24
10.0
 15
10.0
 25
10.0
 16
0.0
 26
0.0
 36
1.0
 17
0.0
 27
0.0
 37
0.0
 40
297.0
 41
1.414285714
 42
50.0
 43
0.0
 44
0.0
 50
0.0
 51
0.0
 71
     0
 72
  1000
 73
     1
 74
     3
 75
     0
 76
     0
 77
     0
 78
     0
  0
ENDTAB
  0
TABLE
  2
LTYPE
 70
     4
  0
LTYPE
  2
CONTINUOUS
 70
    64
  3
Solid line
 72
    65
 73
     0
 40
0.0
  0
LTYPE
  2
LTYPE1
 70
    64
  3
CENTER
 72
    65
 73
     4
 40
15.0
 49
10.5
 49
-1.5
 49
1.5
 49
-1.5
  0
LTYPE
  2
LTYPE2
 70
    64
  3
CENTER
 72
    65
 73
     4
 40
8.0
 49
5.6
 49
-0.8
 49
0.8
 49
-0.8
  0
LTYPE
  2
LTYPE3
 70
    64
  3
HIDDEN
 72
    65
 73
     2
 40
2.0
 49
1.2
 49
-0.8
  0
ENDTAB
  0
TABLE
  2
LAYER
 70
   128
  0
LAYER
  2
0
 70
     0
 62
     7
  6
CONTINUOUS
  0
LAYER
  2
2
 70
     0
 62
     7
  6
CONTINUOUS
  0
LAYER
  2
3
 70
     0
 62
     7
  6
CONTINUOUS
  0
LAYER
  2
4
 70
     0
 62
     7
  6
CONTINUOUS
  0
LAYER
  2
5
 70
     0
 62
     7
  6
CONTINUOUS
  0
LAYER
  2
6
 70
     0
 62
     7
  6
CONTINUOUS
  0
LAYER
  2
7
 70
     0
 62
     7
  6
CONTINUOUS
  0
LAYER
  2
8
 70
     0
 62
     7
  6
CONTINUOUS
  0
LAYER
  2
9
 70
     0
 62
     7
  6
CONTINUOUS
  0
LAYER
  2
10
 70
     0
 62
     7
  6
CONTINUOUS
  0
LAYER
  2
11
 70
     0
 62
     7
  6
CONTINUOUS
  0
LAYER
  2
12
 70
     0
 62
     7
  6
CONTINUOUS
  0
LAYER
  2
13
 70
     0
 62
     7
  6
CONTINUOUS
  0
LAYER
  2
14
 70
     0
 62
     7
  6
CONTINUOUS
  0
LAYER
  2
15
 70
     0
 62
     7
  6
CONTINUOUS
  0
LAYER
  2
16
 70
     0
 62
     7
  6
CONTINUOUS
  0
LAYER
  2
17
 70
     0
 62
     7
  6
CONTINUOUS
  0
LAYER
  2
18
 70
     0
 62
     7
  6
CONTINUOUS
  0
LAYER
  2
19
 70
     0
 62
     7
  6
CONTINUOUS
  0
LAYER
  2
20
 70
     0
 62
     7
  6
CONTINUOUS
  0
LAYER
  2
21
 70
     0
 62
     7
  6
CONTINUOUS
  0
LAYER
  2
22
 70
     0
 62
     7
  6
CONTINUOUS
  0
LAYER
  2
23
 70
     0
 62
     7
  6
CONTINUOUS
  0
LAYER
  2
24
 70
     0
 62
     7
  6
CONTINUOUS
  0
LAYER
  2
25
 70
     0
 62
     7
  6
CONTINUOUS
  0
LAYER
  2
26
 70
     0
 62
     7
  6
CONTINUOUS
  0
LAYER
  2
27
 70
     0
 62
     7
  6
CONTINUOUS
  0
LAYER
  2
28
 70
     0
 62
     7
  6
CONTINUOUS
  0
LAYER
  2
29
 70
     0
 62
     7
  6
CONTINUOUS
  0
LAYER
  2
30
 70
     0
 62
     7
  6
CONTINUOUS
  0
LAYER
  2
31
 70
     0
 62
     7
  6
CONTINUOUS
  0
LAYER
  2
32
 70
     0
 62
     7
  6
CONTINUOUS
  0
LAYER
  2
33
 70
     0
 62
     7
  6
CONTINUOUS
  0
LAYER
  2
34
 70
     0
 62
     7
  6
CONTINUOUS
  0
LAYER
  2
35
 70
     0
 62
     7
  6
CONTINUOUS
  0
LAYER
  2
36
 70
     0
 62
     7
  6
CONTINUOUS
  0
LAYER
  2
37
 70
     0
 62
     7
  6
CONTINUOUS
  0
LAYER
  2
38
 70
     0
 62
     7
  6
CONTINUOUS
  0
LAYER
  2
39
 70
     0
 62
     7
  6
CONTINUOUS
  0
LAYER
  2
40
 70
     0
 62
     7
  6
CONTINUOUS
  0
LAYER
  2
41
 70
     0
 62
     7
  6
CONTINUOUS
  0
LAYER
  2
42
 70
     0
 62
     7
  6
CONTINUOUS
  0
LAYER
  2
43
 70
     0
 62
     7
  6
CONTINUOUS
  0
LAYER
  2
44
 70
     0
 62
     7
  6
CONTINUOUS
  0
LAYER
  2
45
 70
     0
 62
     7
  6
CONTINUOUS
  0
LAYER
  2
46
 70
     0
 62
     7
  6
CONTINUOUS
  0
LAYER
  2
47
 70
     0
 62
     7
  6
CONTINUOUS
  0
LAYER
  2
48
 70
     0
 62
     7
  6
CONTINUOUS
  0
LAYER
  2
49
 70
     0
 62
     7
  6
CONTINUOUS
  0
LAYER
  2
50
 70
     0
 62
     7
  6
CONTINUOUS
  0
LAYER
  2
51
 70
     0
 62
     7
  6
CONTINUOUS
  0
LAYER
  2
52
 70
     0
 62
     7
  6
CONTINUOUS
  0
LAYER
  2
53
 70
     0
 62
     7
  6
CONTINUOUS
  0
LAYER
  2
54
 70
     0
 62
     7
  6
CONTINUOUS
  0
LAYER
  2
55
 70
     0
 62
     7
  6
CONTINUOUS
  0
LAYER
  2
56
 70
     0
 62
     7
  6
CONTINUOUS
  0
LAYER
  2
57
 70
     0
 62
     7
  6
CONTINUOUS
  0
LAYER
  2
58
 70
     0
 62
     7
  6
CONTINUOUS
  0
LAYER
  2
59
 70
     0
 62
     7
  6
CONTINUOUS
  0
LAYER
  2
60
 70
     0
 62
     7
  6
CONTINUOUS
  0
LAYER
  2
61
 70
     0
 62
     7
  6
CONTINUOUS
  0
LAYER
  2
62
 70
     0
 62
     7
  6
CONTINUOUS
  0
LAYER
  2
63
 70
     0
 62
     7
  6
CONTINUOUS
  0
LAYER
  2
64
 70
     0
 62
     7
  6
CONTINUOUS
  0
LAYER
  2
65
 70
     0
 62
     7
  6
CONTINUOUS
  0
LAYER
  2
66
 70
     0
 62
     7
  6
CONTINUOUS
  0
LAYER
  2
67
 70
     0
 62
     7
  6
CONTINUOUS
  0
LAYER
  2
68
 70
     0
 62
     7
  6
CONTINUOUS
  0
LAYER
  2
69
 70
     0
 62
     7
  6
CONTINUOUS
  0
LAYER
  2
70
 70
     0
 62
     7
  6
CONTINUOUS
  0
LAYER
  2
71
 70
     0
 62
     7
  6
CONTINUOUS
  0
LAYER
  2
72
 70
     0
 62
     7
  6
CONTINUOUS
  0
LAYER
  2
73
 70
     0
 62
     7
  6
CONTINUOUS
  0
LAYER
  2
74
 70
     0
 62
     7
  6
CONTINUOUS
  0
LAYER
  2
75
 70
     0
 62
     7
  6
CONTINUOUS
  0
LAYER
  2
76
 70
     0
 62
     7
  6
CONTINUOUS
  0
LAYER
  2
77
 70
     0
 62
     7
  6
CONTINUOUS
  0
LAYER
  2
78
 70
     0
 62
     7
  6
CONTINUOUS
  0
LAYER
  2
79
 70
     0
 62
     7
  6
CONTINUOUS
  0
LAYER
  2
80
 70
     0
 62
     7
  6
CONTINUOUS
  0
LAYER
  2
81
 70
     0
 62
     7
  6
CONTINUOUS
  0
LAYER
  2
82
 70
     0
 62
     7
  6
CONTINUOUS
  0
LAYER
  2
83
 70
     0
 62
     7
  6
CONTINUOUS
  0
LAYER
  2
84
 70
     0
 62
     7
  6
CONTINUOUS
  0
LAYER
  2
85
 70
     0
 62
     7
  6
CONTINUOUS
  0
LAYER
  2
86
 70
     0
 62
     7
  6
CONTINUOUS
  0
LAYER
  2
87
 70
     0
 62
     7
  6
CONTINUOUS
  0
LAYER
  2
88
 70
     0
 62
     7
  6
CONTINUOUS
  0
LAYER
  2
89
 70
     0
 62
     7
  6
CONTINUOUS
  0
LAYER
  2
90
 70
     0
 62
     7
  6
CONTINUOUS
  0
LAYER
  2
91
 70
     0
 62
     7
  6
CONTINUOUS
  0
LAYER
  2
92
 70
     0
 62
     7
  6
CONTINUOUS
  0
LAYER
  2
93
 70
     0
 62
     7
  6
CONTINUOUS
  0
LAYER
  2
94
 70
     0
 62
     7
  6
CONTINUOUS
  0
LAYER
  2
95
 70
     0
 62
     7
  6
CONTINUOUS
  0
LAYER
  2
96
 70
     0
 62
     7
  6
CONTINUOUS
  0
LAYER
  2
97
 70
     0
 62
     7
  6
CONTINUOUS
  0
LAYER
  2
98
 70
     0
 62
     7
  6
CONTINUOUS
  0
LAYER
  2
99
 70
     0
 62
     7
  6
CONTINUOUS
  0
LAYER
  2
100
 70
     0
 62
     7
  6
CONTINUOUS
  0
LAYER
  2
101
 70
     0
 62
     7
  6
CONTINUOUS
  0
LAYER
  2
102
 70
     0
 62
     7
  6
CONTINUOUS
  0
LAYER
  2
103
 70
     0
 62
     7
  6
CONTINUOUS
  0
LAYER
  2
104
 70
     0
 62
     7
  6
CONTINUOUS
  0
LAYER
  2
105
 70
     0
 62
     7
  6
CONTINUOUS
  0
LAYER
  2
106
 70
     0
 62
     7
  6
CONTINUOUS
  0
LAYER
  2
107
 70
     0
 62
     7
  6
CONTINUOUS
  0
LAYER
  2
108
 70
     0
 62
     7
  6
CONTINUOUS
  0
LAYER
  2
109
 70
     0
 62
     7
  6
CONTINUOUS
  0
LAYER
  2
110
 70
     0
 62
     7
  6
CONTINUOUS
  0
LAYER
  2
111
 70
     0
 62
     7
  6
CONTINUOUS
  0
LAYER
  2
112
 70
     0
 62
     7
  6
CONTINUOUS
  0
LAYER
  2
113
 70
     0
 62
     7
  6
CONTINUOUS
  0
LAYER
  2
114
 70
     0
 62
     7
  6
CONTINUOUS
  0
LAYER
  2
115
 70
     0
 62
     7
  6
CONTINUOUS
  0
LAYER
  2
116
 70
     0
 62
     7
  6
CONTINUOUS
  0
LAYER
  2
117
 70
     0
 62
     7
  6
CONTINUOUS
  0
LAYER
  2
118
 70
     0
 62
     7
  6
CONTINUOUS
  0
LAYER
  2
119
 70
     0
 62
     7
  6
CONTINUOUS
  0
LAYER
  2
120
 70
     0
 62
     7
  6
CONTINUOUS
  0
LAYER
  2
121
 70
     0
 62
     7
  6
CONTINUOUS
  0
LAYER
  2
122
 70
     0
 62
     7
  6
CONTINUOUS
  0
LAYER
  2
123
 70
     0
 62
     7
  6
CONTINUOUS
  0
LAYER
  2
124
 70
     0
 62
     7
  6
CONTINUOUS
  0
LAYER
  2
125
 70
     0
 62
     7
  6
CONTINUOUS
  0
LAYER
  2
126
 70
     0
 62
     7
  6
CONTINUOUS
  0
LAYER
  2
127
 70
     0
 62
     7
  6
CONTINUOUS
  0
LAYER
  2
128
 70
     0
 62
     7
  6
CONTINUOUS
  0
ENDTAB
  0
TABLE
  2
STYLE
 70
    17
  0
STYLE
  2
STANDARD
 70
     0
 40
0.0
 41
1.0
 50
0.0
 71
     0
 42
0.2
  3
txt.shx
  4
extfont.shx
  0
STYLE
  2
KANJI0
 70
     0
 40
3.0
 41
0.6
 50
0.0
 71
     0
 42
3.0
  3
txt.shx
  4
extfont.shx
  0
STYLE
  2
KANJI1
 70
     0
 40
3.0
 41
0.9
 50
0.0
 71
     0
 42
3.0
  3
txt.shx
  4
extfont.shx
  0
STYLE
  2
KANJI2
 70
     0
 40
2.5
 41
0.9
 50
0.0
 71
     0
 42
2.5
  3
txt.shx
  4
extfont.shx
  0
STYLE
  2
KANJI3
 70
     0
 40
2.0
 41
0.8
 50
0.0
 71
     0
 42
2.0
  3
txt.shx
  4
extfont.shx
  0
STYLE
  2
KANJI4
 70
     0
 40
3.0
 41
0.5
 50
0.0
 71
     0
 42
3.0
  3
txt.shx
  4
extfont.shx
  0
STYLE
  2
KANJI5
 70
     0
 40
3.0
 41
0.666666667
 50
0.0
 71
     0
 42
3.0
  3
txt.shx
  4
extfont.shx
  0
STYLE
  2
KANJI6
 70
     0
 40
3.0
 41
0.9
 50
0.0
 71
     0
 42
3.0
  3
txt.shx
  4
extfont.shx
  0
STYLE
  2
KANJI7
 70
     0
 40
1.5
 41
0.666666667
 50
0.0
 71
     0
 42
1.5
  3
txt.shx
  4
extfont.shx
  0
STYLE
  2
KANJI8
 70
     0
 40
1.0
 41
0.75
 50
0.0
 71
     0
 42
1.0
  3
txt.shx
  4
extfont.shx
  0
STYLE
  2
KANJI9
 70
     0
 40
1.8
 41
0.6
 50
0.0
 71
     0
 42
1.8
  3
txt.shx
  4
extfont.shx
  0
STYLE
  2
KANJI10
 70
     4
 40
3.0
 41
0.9
 50
0.0
 71
     0
 42
3.0
  3
txt.shx
  4
extfont.shx
  0
STYLE
  2
KANJI11
 70
     0
 40
1.5
 41
0.4
 50
0.0
 71
     0
 42
1.5
  3
txt.shx
  4
extfont.shx
  0
STYLE
  2
KANJI12
 70
     0
 40
1.5
 41
0.466666667
 50
0.0
 71
     0
 42
1.5
  3
txt.shx
  4
extfont.shx
  0
STYLE
  2
KANJI13
 70
     0
 40
5.8
 41
0.827586207
 50
0.0
 71
     0
 42
5.8
  3
txt.shx
  4
extfont.shx
  0
STYLE
  2
KANJI14
 70
     0
 40
4.0
 41
0.9
 50
0.0
 71
     0
 42
4.0
  3
txt.shx
  4
extfont.shx
  0
STYLE
  2
KANJI15
 70
     0
 40
6.0
 41
0.9
 50
0.0
 71
     0
 42
6.0
  3
txt.shx
  4
extfont.shx
  0
ENDTAB
  0
TABLE
  2
VIEW
 70
     0
  0
ENDTAB
  0
ENDSEC
  0
SECTION
  2
BLOCKS
  0
ENDSEC
  0
SECTION
  2
ENTITIES
  0
LINE
  8
0
  6
CONTINUOUS
 62
     2
 10
-11.865334795
 20
-5.0
 30
0.0
 11
-11.218287182
 21
-7.414814566
 31
0.0
  0
LINE
  8
0
  6
CONTINUOUS
 62
     2
 10
-11.865334795
 20
-5.0
 30
0.0
 11
-10.097567842
 21
-6.767766953
 31
0.0
  0
LINE
  8
0
  6
CONTINUOUS
 62
     2
 10
-11.865334795
 20
-5.0
 30
0.0
 11
-12.512382407
 21
-2.585185434
 31
0.0
  0
LINE
  8
0
  6
CONTINUOUS
 62
     2
 10
-11.865334795
 20
-5.0
 30
0.0
 11
-13.633101748
 21
-3.232233047
 31
0.0
  0
LINE
  8
0
  6
CONTINUOUS
 62
     2
 10
-7.535207776
 20
-2.5
 30
0.0
 11
-13.597385602
 21
-6.0
 31
0.0
  0
LINE
  8
0
  6
CONTINUOUS
 62
     2
 10
-7.535207776
 20
-2.5
 30
0.0
 11
-13.597385602
 21
-6.0
 31
0.0
  0
TEXT
  8
0
  6
CONTINUOUS
 62
     2
 10
-11.756360199
 20
-7.188749537
 30
0.3
 40
3.0
  1
０゜
 50
120.0
 41
0.6
 51
0.0
  7
KANJI0
  0
LINE
  8
0
  6
CONTINUOUS
 62
     1
 10
21.5
 20
46.0
 30
0.0
 11
40.5
 21
46.0
 31
0.0
  0
LINE
  8
0
  6
CONTINUOUS
 62
     1
 10
22.0
 20
52.5
 30
0.0
 11
40.0
 21
52.5
 31
0.0
  0
LINE
  8
0
  6
CONTINUOUS
 62
     1
 10
40.0
 20
52.5
 30
0.0
 11
40.0
 21
117.5
 31
0.0
  0
LINE
  8
0
  6
CONTINUOUS
 62
     1
 10
40.0
 20
117.5
 30
0.0
 11
22.0
 21
117.5
 31
0.0
  0
LINE
  8
0
  6
CONTINUOUS
 62
     1
 10
22.0
 20
117.5
 30
0.0
 11
22.0
 21
52.5
 31
0.0
  0
LINE
  8
0
  6
CONTINUOUS
 62
     1
 10
22.0
 20
56.5
 30
0.0
 11
40.0
 21
56.5
 31
0.0
  0
LINE
  8
0
  6
CONTINUOUS
 62
     1
 10
23.25
 20
57.75
 30
0.0
 11
38.75
 21
57.75
 31
0.0
  0
LINE
  8
0
  6
CONTINUOUS
 62
     1
 10
38.75
 20
57.75
 30
0.0
 11
38.75
 21
116.25
 31
0.0
  0
LINE
  8
0
  6
CONTINUOUS
 62
     1
 10
38.75
 20
116.25
 30
0.0
 11
23.25
 21
116.25
 31
0.0
  0
LINE
  8
0
  6
CONTINUOUS
 62
     1
 10
23.25
 20
116.25
 30
0.0
 11
23.25
 21
57.75
 31
0.0
  0
LINE
  8
0
  6
CONTINUOUS
 62
     1
 10
23.25
 20
115.25
 30
0.0
 11
38.75
 21
115.25
 31
0.0
  0
LINE
  8
0
  6
CONTINUOUS
 62
     1
 10
23.25
 20
58.75
 30
0.0
 11
38.75
 21
58.75
 31
0.0
  0
LINE
  8
0
  6
CONTINUOUS
 62
     1
 10
33.0
 20
115.25
 30
0.0
 11
33.0
 21
58.75
 31
0.0
  0
LINE
  8
0
  6
CONTINUOUS
 62
     1
 10
29.0
 20
58.75
 30
0.0
 11
29.0
 21
115.25
 31
0.0
  0
POLYLINE
  8
0
  6
CONTINUOUS
 62
     1
 66
     1
 70
     1
  0
VERTEX
  8
0
  6
CONTINUOUS
 62
     1
 10
35.475
 20
54.5
 30
0.0
 42
0.022306592
  0
VERTEX
  8
0
  6
CONTINUOUS
 62
     1
 10
35.471289831
 20
54.583119901
 30
0.0
 42
0.022293235
  0
VERTEX
  8
0
  6
CONTINUOUS
 62
     1
 10
35.460187559
 20
54.66560721
 30
0.0
 42
0.022265065
  0
VERTEX
  8
0
  6
CONTINUOUS
 62
     1
 10
35.441777681
 20
54.746834147
 30
0.0
 42
0.022223045
  0
VERTEX
  8
0
  6
CONTINUOUS
 62
     1
 10
35.416200305
 20
54.826182528
 30
0.0
 42
0.022168599
  0
VERTEX
  8
0
  6
CONTINUOUS
 62
     1
 10
35.383650092
 20
54.903048463
 30
0.0
 42
0.022103553
  0
VERTEX
  8
0
  6
CONTINUOUS
 62
     1
 10
35.344374769
 20
54.976846955
 30
0.0
 42
0.022030052
  0
VERTEX
  8
0
  6
CONTINUOUS
 62
     1
 10
35.298673243
 20
55.047016355
 30
0.0
 42
0.021950477
  0
VERTEX
  8
0
  6
CONTINUOUS
 62
     1
 10
35.246893332
 20
55.113022629
 30
0.0
 42
0.021867356
  0
VERTEX
  8
0
  6
CONTINUOUS
 62
     1
 10
35.189429112
 20
55.174363431
 30
0.0
 42
0.021783272
  0
VERTEX
  8
0
  6
CONTINUOUS
 62
     1
 10
35.126717919
 20
55.230571921
 30
0.0
 42
0.02170078
  0
VERTEX
  8
0
  6
CONTINUOUS
 62
     1
 10
35.059237025
 20
55.281220317
 30
0.0
 42
0.02162233
  0
VERTEX
  8
0
  6
CONTINUOUS
 62
     1
 10
34.9875
 20
55.325923154
 30
0.0
 42
0.021550201
  0
VERTEX
  8
0
  6
CONTINUOUS
 62
     1
 10
34.912052805
 20
55.364340218
 30
0.0
 42
0.021486442
  0
VERTEX
  8
0
  6
CONTINUOUS
 62
     1
 10
34.83346964
 20
55.39617913
 30
0.0
 42
0.021432831
  0
VERTEX
  8
0
  6
CONTINUOUS
 62
     1
 10
34.752348569
 20
55.421197579
 30
0.0
 42
0.021390837
  0
VERTEX
  8
0
  6
CONTINUOUS
 62
     1
 10
34.669306973
 20
55.439205157
 30
0.0
 42
0.021361596
  0
VERTEX
  8
0
  6
CONTINUOUS
 62
     1
 10
34.584976849
 20
55.450064817
 30
0.0
 42
0.02134589
  0
VERTEX
  8
0
  6
CONTINUOUS
 62
     1
 10
34.5
 20
55.453693911
 30
0.0
 42
0.021344135
  0
VERTEX
  8
0
  6
CONTINUOUS
 62
     1
 10
34.415023151
 20
55.450064817
 30
0.0
 42
0.021356378
  0
VERTEX
  8
0
  6
CONTINUOUS
 62
     1
 10
34.330693027
 20
55.439205157
 30
0.0
 42
0.021382295
  0
VERTEX
  8
0
  6
CONTINUOUS
 62
     1
 10
34.247651431
 20
55.421197579
 30
0.0
 42
0.021421193
  0
VERTEX
  8
0
  6
CONTINUOUS
 62
     1
 10
34.16653036
 20
55.39617913
 30
0.0
 42
0.021472024
  0
VERTEX
  8
0
  6
CONTINUOUS
 62
     1
 10
34.087947195
 20
55.364340218
 30
0.0
 42
0.021533402
  0
VERTEX
  8
0
  6
CONTINUOUS
 62
     1
 10
34.0125
 20
55.325923154
 30
0.0
 42
0.021603621
  0
VERTEX
  8
0
  6
CONTINUOUS
 62
     1
 10
33.940762975
 20
55.281220317
 30
0.0
 42
0.021680697
  0
VERTEX
  8
0
  6
CONTINUOUS
 62
     1
 10
33.873282081
 20
55.230571921
 30
0.0
 42
0.021762402
  0
VERTEX
  8
0
  6
CONTINUOUS
 62
     1
 10
33.810570888
 20
55.174363431
 30
0.0
 42
0.021846324
  0
VERTEX
  8
0
  6
CONTINUOUS
 62
     1
 10
33.753106668
 20
55.113022629
 30
0.0
 42
0.021929929
  0
VERTEX
  8
0
  6
CONTINUOUS
 62
     1
 10
33.701326757
 20
55.047016355
 30
0.0
 42
0.022010631
  0
VERTEX
  8
0
  6
CONTINUOUS
 62
     1
 10
33.655625231
 20
54.976846955
 30
0.0
 42
0.022085881
  0
VERTEX
  8
0
  6
CONTINUOUS
 62
     1
 10
33.616349908
 20
54.903048463
 30
0.0
 42
0.022153253
  0
VERTEX
  8
0
  6
CONTINUOUS
 62
     1
 10
33.583799695
 20
54.826182528
 30
0.0
 42
0.022210533
  0
VERTEX
  8
0
  6
CONTINUOUS
 62
     1
 10
33.558222319
 20
54.746834147
 30
0.0
 42
0.02225581
  0
VERTEX
  8
0
  6
CONTINUOUS
 62
     1
 10
33.539812441
 20
54.66560721
 30
0.0
 42
0.022287552
  0
VERTEX
  8
0
  6
CONTINUOUS
 62
     1
 10
33.528710169
 20
54.583119901
 30
0.0
 42
0.022304676
  0
VERTEX
  8
0
  6
CONTINUOUS
 62
     1
 10
33.525
 20
54.5
 30
0.0
 42
0.022306592
  0
VERTEX
  8
0
  6
CONTINUOUS
 62
     1
 10
33.528710169
 20
54.416880099
 30
0.0
 42
0.022293235
  0
VERTEX
  8
0
  6
CONTINUOUS
 62
     1
 10
33.539812441
 20
54.33439279
 30
0.0
 42
0.022265065
  0
VERTEX
  8
0
  6
CONTINUOUS
 62
     1
 10
33.558222319
 20
54.253165853
 30
0.0
 42
0.022223045
  0
VERTEX
  8
0
  6
CONTINUOUS
 62
     1
 10
33.583799695
 20
54.173817472
 30
0.0
 42
0.022168599
  0
VERTEX
  8
0
  6
CONTINUOUS
 62
     1
 10
33.616349908
 20
54.096951537
 30
0.0
 42
0.022103553
  0
VERTEX
  8
0
  6
CONTINUOUS
 62
     1
 10
33.655625231
 20
54.023153045
 30
0.0
 42
0.022030052
  0
VERTEX
  8
0
  6
CONTINUOUS
 62
     1
 10
33.701326757
 20
53.952983645
 30
0.0
 42
0.021950477
  0
VERTEX
  8
0
  6
CONTINUOUS
 62
     1
 10
33.753106668
 20
53.886977371
 30
0.0
 42
0.021867356
  0
VERTEX
  8
0
  6
CONTINUOUS
 62
     1
 10
33.810570888
 20
53.825636569
 30
0.0
 42
0.021783272
  0
VERTEX
  8
0
  6
CONTINUOUS
 62
     1
 10
33.873282081
 20
53.769428079
 30
0.0
 42
0.02170078
  0
VERTEX
  8
0
  6
CONTINUOUS
 62
     1
 10
33.940762975
 20
53.718779683
 30
0.0
 42
0.02162233
  0
VERTEX
  8
0
  6
CONTINUOUS
 62
     1
 10
34.0125
 20
53.674076846
 30
0.0
 42
0.021550201
  0
VERTEX
  8
0
  6
CONTINUOUS
 62
     1
 10
34.087947195
 20
53.635659782
 30
0.0
 42
0.021486442
  0
VERTEX
  8
0
  6
CONTINUOUS
 62
     1
 10
34.16653036
 20
53.60382087
 30
0.0
 42
0.021432831
  0
VERTEX
  8
0
  6
CONTINUOUS
 62
     1
 10
34.247651431
 20
53.578802421
 30
0.0
 42
0.021390837
  0
VERTEX
  8
0
  6
CONTINUOUS
 62
     1
 10
34.330693027
 20
53.560794843
 30
0.0
 42
0.021361596
  0
VERTEX
  8
0
  6
CONTINUOUS
 62
     1
 10
34.415023151
 20
53.549935183
 30
0.0
 42
0.02134589
  0
VERTEX
  8
0
  6
CONTINUOUS
 62
     1
 10
34.5
 20
53.546306089
 30
0.0
 42
0.021344135
  0
VERTEX
  8
0
  6
CONTINUOUS
 62
     1
 10
34.584976849
 20
53.549935183
 30
0.0
 42
0.021356378
  0
VERTEX
  8
0
  6
CONTINUOUS
 62
     1
 10
34.669306973
 20
53.560794843
 30
0.0
 42
0.021382295
  0
VERTEX
  8
0
  6
CONTINUOUS
 62
     1
 10
34.752348569
 20
53.578802421
 30
0.0
 42
0.021421193
  0
VERTEX
  8
0
  6
CONTINUOUS
 62
     1
 10
34.83346964
 20
53.60382087
 30
0.0
 42
0.021472024
  0
VERTEX
  8
0
  6
CONTINUOUS
 62
     1
 10
34.912052805
 20
53.635659782
 30
0.0
 42
0.021533402
  0
VERTEX
  8
0
  6
CONTINUOUS
 62
     1
 10
34.9875
 20
53.674076846
 30
0.0
 42
0.021603621
  0
VERTEX
  8
0
  6
CONTINUOUS
 62
     1
 10
35.059237025
 20
53.718779683
 30
0.0
 42
0.021680697
  0
VERTEX
  8
0
  6
CONTINUOUS
 62
     1
 10
35.126717919
 20
53.769428079
 30
0.0
 42
0.021762402
  0
VERTEX
  8
0
  6
CONTINUOUS
 62
     1
 10
35.189429112
 20
53.825636569
 30
0.0
 42
0.021846324
  0
VERTEX
  8
0
  6
CONTINUOUS
 62
     1
 10
35.246893332
 20
53.886977371
 30
0.0
 42
0.021929929
  0
VERTEX
  8
0
  6
CONTINUOUS
 62
     1
 10
35.298673243
 20
53.952983645
 30
0.0
 42
0.022010631
  0
VERTEX
  8
0
  6
CONTINUOUS
 62
     1
 10
35.344374769
 20
54.023153045
 30
0.0
 42
0.022085881
  0
VERTEX
  8
0
  6
CONTINUOUS
 62
     1
 10
35.383650092
 20
54.096951537
 30
0.0
 42
0.022153253
  0
VERTEX
  8
0
  6
CONTINUOUS
 62
     1
 10
35.416200305
 20
54.173817472
 30
0.0
 42
0.022210533
  0
VERTEX
  8
0
  6
CONTINUOUS
 62
     1
 10
35.441777681
 20
54.253165853
 30
0.0
 42
0.02225581
  0
VERTEX
  8
0
  6
CONTINUOUS
 62
     1
 10
35.460187559
 20
54.33439279
 30
0.0
 42
0.022287552
  0
VERTEX
  8
0
  6
CONTINUOUS
 62
     1
 10
35.471289831
 20
54.416880099
 30
0.0
 42
0.022304676
  0
SEQEND
  8
0
  6
CONTINUOUS
 62
     1
  0
LINE
  8
0
  6
CONTINUOUS
 62
     1
 10
34.3
 20
55.433413717
 30
0.0
 11
34.3
 21
53.566586283
 31
0.0
  0
LINE
  8
0
  6
CONTINUOUS
 62
     1
 10
34.7
 20
53.566586283
 30
0.0
 11
34.7
 21
55.433413717
 31
0.0
  0
POLYLINE
  8
0
  6
CONTINUOUS
 62
     1
 66
     1
 70
     1
  0
VERTEX
  8
0
  6
CONTINUOUS
 62
     1
 10
28.475
 20
54.5
 30
0.0
 42
0.022306592
  0
VERTEX
  8
0
  6
CONTINUOUS
 62
     1
 10
28.471289831
 20
54.583119901
 30
0.0
 42
0.022293235
  0
VERTEX
  8
0
  6
CONTINUOUS
 62
     1
 10
28.460187559
 20
54.66560721
 30
0.0
 42
0.022265065
  0
VERTEX
  8
0
  6
CONTINUOUS
 62
     1
 10
28.441777681
 20
54.746834147
 30
0.0
 42
0.022223045
  0
VERTEX
  8
0
  6
CONTINUOUS
 62
     1
 10
28.416200305
 20
54.826182528
 30
0.0
 42
0.022168599
  0
VERTEX
  8
0
  6
CONTINUOUS
 62
     1
 10
28.383650092
 20
54.903048463
 30
0.0
 42
0.022103553
  0
VERTEX
  8
0
  6
CONTINUOUS
 62
     1
 10
28.344374769
 20
54.976846955
 30
0.0
 42
0.022030052
  0
VERTEX
  8
0
  6
CONTINUOUS
 62
     1
 10
28.298673243
 20
55.047016355
 30
0.0
 42
0.021950477
  0
VERTEX
  8
0
  6
CONTINUOUS
 62
     1
 10
28.246893332
 20
55.113022629
 30
0.0
 42
0.021867356
  0
VERTEX
  8
0
  6
CONTINUOUS
 62
     1
 10
28.189429112
 20
55.174363431
 30
0.0
 42
0.021783272
  0
VERTEX
  8
0
  6
CONTINUOUS
 62
     1
 10
28.126717919
 20
55.230571921
 30
0.0
 42
0.02170078
  0
VERTEX
  8
0
  6
CONTINUOUS
 62
     1
 10
28.059237025
 20
55.281220317
 30
0.0
 42
0.02162233
  0
VERTEX
  8
0
  6
CONTINUOUS
 62
     1
 10
27.9875
 20
55.325923154
 30
0.0
 42
0.021550201
  0
VERTEX
  8
0
  6
CONTINUOUS
 62
     1
 10
27.912052805
 20
55.364340218
 30
0.0
 42
0.021486442
  0
VERTEX
  8
0
  6
CONTINUOUS
 62
     1
 10
27.83346964
 20
55.39617913
 30
0.0
 42
0.021432831
  0
VERTEX
  8
0
  6
CONTINUOUS
 62
     1
 10
27.752348569
 20
55.421197579
 30
0.0
 42
0.021390837
  0
VERTEX
  8
0
  6
CONTINUOUS
 62
     1
 10
27.669306973
 20
55.439205157
 30
0.0
 42
0.021361596
  0
VERTEX
  8
0
  6
CONTINUOUS
 62
     1
 10
27.584976849
 20
55.450064817
 30
0.0
 42
0.02134589
  0
VERTEX
  8
0
  6
CONTINUOUS
 62
     1
 10
27.5
 20
55.453693911
 30
0.0
 42
0.021344135
  0
VERTEX
  8
0
  6
CONTINUOUS
 62
     1
 10
27.415023151
 20
55.450064817
 30
0.0
 42
0.021356378
  0
VERTEX
  8
0
  6
CONTINUOUS
 62
     1
 10
27.330693027
 20
55.439205157
 30
0.0
 42
0.021382295
  0
VERTEX
  8
0
  6
CONTINUOUS
 62
     1
 10
27.247651431
 20
55.421197579
 30
0.0
 42
0.021421193
  0
VERTEX
  8
0
  6
CONTINUOUS
 62
     1
 10
27.16653036
 20
55.39617913
 30
0.0
 42
0.021472024
  0
VERTEX
  8
0
  6
CONTINUOUS
 62
     1
 10
27.087947195
 20
55.364340218
 30
0.0
 42
0.021533402
  0
VERTEX
  8
0
  6
CONTINUOUS
 62
     1
 10
27.0125
 20
55.325923154
 30
0.0
 42
0.021603621
  0
VERTEX
  8
0
  6
CONTINUOUS
 62
     1
 10
26.940762975
 20
55.281220317
 30
0.0
 42
0.021680697
  0
VERTEX
  8
0
  6
CONTINUOUS
 62
     1
 10
26.873282081
 20
55.230571921
 30
0.0
 42
0.021762402
  0
VERTEX
  8
0
  6
CONTINUOUS
 62
     1
 10
26.810570888
 20
55.174363431
 30
0.0
 42
0.021846324
  0
VERTEX
  8
0
  6
CONTINUOUS
 62
     1
 10
26.753106668
 20
55.113022629
 30
0.0
 42
0.021929929
  0
VERTEX
  8
0
  6
CONTINUOUS
 62
     1
 10
26.701326757
 20
55.047016355
 30
0.0
 42
0.022010631
  0
VERTEX
  8
0
  6
CONTINUOUS
 62
     1
 10
26.655625231
 20
54.976846955
 30
0.0
 42
0.022085881
  0
VERTEX
  8
0
  6
CONTINUOUS
 62
     1
 10
26.616349908
 20
54.903048463
 30
0.0
 42
0.022153253
  0
VERTEX
  8
0
  6
CONTINUOUS
 62
     1
 10
26.583799695
 20
54.826182528
 30
0.0
 42
0.022210533
  0
VERTEX
  8
0
  6
CONTINUOUS
 62
     1
 10
26.558222319
 20
54.746834147
 30
0.0
 42
0.02225581
  0
VERTEX
  8
0
  6
CONTINUOUS
 62
     1
 10
26.539812441
 20
54.66560721
 30
0.0
 42
0.022287552
  0
VERTEX
  8
0
  6
CONTINUOUS
 62
     1
 10
26.528710169
 20
54.583119901
 30
0.0
 42
0.022304676
  0
VERTEX
  8
0
  6
CONTINUOUS
 62
     1
 10
26.525
 20
54.5
 30
0.0
 42
0.022306592
  0
VERTEX
  8
0
  6
CONTINUOUS
 62
     1
 10
26.528710169
 20
54.416880099
 30
0.0
 42
0.022293235
  0
VERTEX
  8
0
  6
CONTINUOUS
 62
     1
 10
26.539812441
 20
54.33439279
 30
0.0
 42
0.022265065
  0
VERTEX
  8
0
  6
CONTINUOUS
 62
     1
 10
26.558222319
 20
54.253165853
 30
0.0
 42
0.022223045
  0
VERTEX
  8
0
  6
CONTINUOUS
 62
     1
 10
26.583799695
 20
54.173817472
 30
0.0
 42
0.022168599
  0
VERTEX
  8
0
  6
CONTINUOUS
 62
     1
 10
26.616349908
 20
54.096951537
 30
0.0
 42
0.022103553
  0
VERTEX
  8
0
  6
CONTINUOUS
 62
     1
 10
26.655625231
 20
54.023153045
 30
0.0
 42
0.022030052
  0
VERTEX
  8
0
  6
CONTINUOUS
 62
     1
 10
26.701326757
 20
53.952983645
 30
0.0
 42
0.021950477
  0
VERTEX
  8
0
  6
CONTINUOUS
 62
     1
 10
26.753106668
 20
53.886977371
 30
0.0
 42
0.021867356
  0
VERTEX
  8
0
  6
CONTINUOUS
 62
     1
 10
26.810570888
 20
53.825636569
 30
0.0
 42
0.021783272
  0
VERTEX
  8
0
  6
CONTINUOUS
 62
     1
 10
26.873282081
 20
53.769428079
 30
0.0
 42
0.02170078
  0
VERTEX
  8
0
  6
CONTINUOUS
 62
     1
 10
26.940762975
 20
53.718779683
 30
0.0
 42
0.02162233
  0
VERTEX
  8
0
  6
CONTINUOUS
 62
     1
 10
27.0125
 20
53.674076846
 30
0.0
 42
0.021550201
  0
VERTEX
  8
0
  6
CONTINUOUS
 62
     1
 10
27.087947195
 20
53.635659782
 30
0.0
 42
0.021486442
  0
VERTEX
  8
0
  6
CONTINUOUS
 62
     1
 10
27.16653036
 20
53.60382087
 30
0.0
 42
0.021432831
  0
VERTEX
  8
0
  6
CONTINUOUS
 62
     1
 10
27.247651431
 20
53.578802421
 30
0.0
 42
0.021390837
  0
VERTEX
  8
0
  6
CONTINUOUS
 62
     1
 10
27.330693027
 20
53.560794843
 30
0.0
 42
0.021361596
  0
VERTEX
  8
0
  6
CONTINUOUS
 62
     1
 10
27.415023151
 20
53.549935183
 30
0.0
 42
0.02134589
  0
VERTEX
  8
0
  6
CONTINUOUS
 62
     1
 10
27.5
 20
53.546306089
 30
0.0
 42
0.021344135
  0
VERTEX
  8
0
  6
CONTINUOUS
 62
     1
 10
27.584976849
 20
53.549935183
 30
0.0
 42
0.021356378
  0
VERTEX
  8
0
  6
CONTINUOUS
 62
     1
 10
27.669306973
 20
53.560794843
 30
0.0
 42
0.021382295
  0
VERTEX
  8
0
  6
CONTINUOUS
 62
     1
 10
27.752348569
 20
53.578802421
 30
0.0
 42
0.021421193
  0
VERTEX
  8
0
  6
CONTINUOUS
 62
     1
 10
27.83346964
 20
53.60382087
 30
0.0
 42
0.021472024
  0
VERTEX
  8
0
  6
CONTINUOUS
 62
     1
 10
27.912052805
 20
53.635659782
 30
0.0
 42
0.021533402
  0
VERTEX
  8
0
  6
CONTINUOUS
 62
     1
 10
27.9875
 20
53.674076846
 30
0.0
 42
0.021603621
  0
VERTEX
  8
0
  6
CONTINUOUS
 62
     1
 10
28.059237025
 20
53.718779683
 30
0.0
 42
0.021680697
  0
VERTEX
  8
0
  6
CONTINUOUS
 62
     1
 10
28.126717919
 20
53.769428079
 30
0.0
 42
0.021762402
  0
VERTEX
  8
0
  6
CONTINUOUS
 62
     1
 10
28.189429112
 20
53.825636569
 30
0.0
 42
0.021846324
  0
VERTEX
  8
0
  6
CONTINUOUS
 62
     1
 10
28.246893332
 20
53.886977371
 30
0.0
 42
0.021929929
  0
VERTEX
  8
0
  6
CONTINUOUS
 62
     1
 10
28.298673243
 20
53.952983645
 30
0.0
 42
0.022010631
  0
VERTEX
  8
0
  6
CONTINUOUS
 62
     1
 10
28.344374769
 20
54.023153045
 30
0.0
 42
0.022085881
  0
VERTEX
  8
0
  6
CONTINUOUS
 62
     1
 10
28.383650092
 20
54.096951537
 30
0.0
 42
0.022153253
  0
VERTEX
  8
0
  6
CONTINUOUS
 62
     1
 10
28.416200305
 20
54.173817472
 30
0.0
 42
0.022210533
  0
VERTEX
  8
0
  6
CONTINUOUS
 62
     1
 10
28.441777681
 20
54.253165853
 30
0.0
 42
0.02225581
  0
VERTEX
  8
0
  6
CONTINUOUS
 62
     1
 10
28.460187559
 20
54.33439279
 30
0.0
 42
0.022287552
  0
VERTEX
  8
0
  6
CONTINUOUS
 62
     1
 10
28.471289831
 20
54.416880099
 30
0.0
 42
0.022304676
  0
SEQEND
  8
0
  6
CONTINUOUS
 62
     1
  0
LINE
  8
0
  6
CONTINUOUS
 62
     1
 10
27.3
 20
55.433413717
 30
0.0
 11
27.3
 21
53.566586283
 31
0.0
  0
LINE
  8
0
  6
CONTINUOUS
 62
     1
 10
27.7
 20
53.566586283
 30
0.0
 11
27.7
 21
55.433413717
 31
0.0
  0
ARC
  8
0
  6
CONTINUOUS
 62
     1
 10
41.0
 20
129.5
 30
0.0
 40
0.5
 50
0.0
 51
90.0
  0
LINE
  8
0
  6
CONTINUOUS
 62
     1
 10
41.0
 20
130.0
 30
0.0
 11
21.0
 21
130.0
 31
0.0
  0
ARC
  8
0
  6
CONTINUOUS
 62
     1
 10
21.0
 20
129.5
 30
0.0
 40
0.5
 50
90.0
 51
180.0
  0
ARC
  8
0
  6
CONTINUOUS
 62
     1
 10
21.0
 20
45.5
 30
0.0
 40
0.5
 50
180.0
 51
270.0
  0
LINE
  8
0
  6
CONTINUOUS
 62
     1
 10
21.0
 20
45.0
 30
0.0
 11
41.0
 21
45.0
 31
0.0
  0
ARC
  8
0
  6
CONTINUOUS
 62
     1
 10
41.0
 20
45.5
 30
0.0
 40
0.5
 50
270.0
 51
0.0
  0
LINE
  8
0
  6
CONTINUOUS
 62
     1
 10
21.0
 20
130.0
 30
0.0
 11
19.5
 21
130.0
 31
0.0
  0
ARC
  8
0
  6
CONTINUOUS
 62
     1
 10
19.5
 20
129.5
 30
0.0
 40
0.5
 50
90.0
 51
180.0
  0
LINE
  8
0
  6
CONTINUOUS
 62
     1
 10
19.5
 20
45.0
 30
0.0
 11
21.0
 21
45.0
 31
0.0
  0
LINE
  8
0
  6
CONTINUOUS
 62
     1
 10
19.0
 20
129.5
 30
0.0
 11
19.0
 21
45.5
 31
0.0
  0
ARC
  8
0
  6
CONTINUOUS
 62
     1
 10
19.5
 20
45.5
 30
0.0
 40
0.5
 50
180.0
 51
270.0
  0
LINE
  8
0
  6
CONTINUOUS
 62
     1
 10
40.5
 20
129.0
 30
0.0
 11
21.5
 21
129.0
 31
0.0
  0
LINE
  8
0
  6
CONTINUOUS
 62
     1
 10
20.5
 20
129.5
 30
0.0
 11
20.5
 21
45.5
 31
0.0
  0
LINE
  8
0
  6
CONTINUOUS
 62
     1
 10
21.5
 20
129.0
 30
0.0
 11
21.5
 21
46.0
 31
0.0
  0
LINE
  8
0
  6
CONTINUOUS
 62
     1
 10
41.5
 20
45.5
 30
0.0
 11
41.5
 21
129.5
 31
0.0
  0
LINE
  8
0
  6
CONTINUOUS
 62
     1
 10
40.5
 20
46.0
 30
0.0
 11
40.5
 21
129.0
 31
0.0
  0
LINE
  8
0
  6
CONTINUOUS
 62
     1
 10
25.5
 20
62.5
 30
0.0
 11
25.5
 21
115.25
 31
0.0
  0
LINE
  8
0
  6
CONTINUOUS
 62
     1
 10
25.5
 20
58.75
 30
0.0
 11
25.5
 21
60.5
 31
0.0
  0
LINE
  8
0
  6
CONTINUOUS
 62
     1
 10
36.5
 20
60.5
 30
0.0
 11
36.5
 21
58.75
 31
0.0
  0
LINE
  8
0
  6
CONTINUOUS
 62
     1
 10
36.5
 20
115.25
 30
0.0
 11
36.5
 21
62.5
 31
0.0
  0
LINE
  8
0
  6
CONTINUOUS
 62
     2
 10
26.994692979
 20
62.727631895
 30
0.0
 11
26.960314642
 21
62.584954116
 31
0.0
  0
LINE
  8
0
  6
CONTINUOUS
 62
     2
 10
26.960314642
 20
62.584954116
 30
0.0
 11
26.933340333
 21
62.439200479
 31
0.0
  0
LINE
  8
0
  6
CONTINUOUS
 62
     2
 10
26.933340333
 20
62.439200479
 30
0.0
 11
26.914123205
 21
62.291168417
 31
0.0
  0
LINE
  8
0
  6
CONTINUOUS
 62
     2
 10
26.914123205
 20
62.291168417
 30
0.0
 11
26.902908353
 21
62.141704187
 31
0.0
  0
LINE
  8
0
  6
CONTINUOUS
 62
     2
 10
26.902908353
 20
62.141704187
 30
0.0
 11
26.899824949
 21
61.991683724
 31
0.0
  0
LINE
  8
0
  6
CONTINUOUS
 62
     2
 10
26.899824949
 20
61.991683724
 30
0.0
 11
26.904882439
 21
61.841992158
 31
0.0
  0
LINE
  8
0
  6
CONTINUOUS
 62
     2
 10
26.904882439
 20
61.841992158
 30
0.0
 11
26.917971024
 21
61.69350303
 31
0.0
  0
LINE
  8
0
  6
CONTINUOUS
 62
     2
 10
26.917971024
 20
61.69350303
 30
0.0
 11
26.938866358
 21
61.547058225
 31
0.0
  0
LINE
  8
0
  6
CONTINUOUS
 62
     2
 10
26.938866358
 20
61.547058225
 30
0.0
 11
26.96723811
 21
61.403449583
 31
0.0
  0
LINE
  8
0
  6
CONTINUOUS
 62
     2
 10
26.96723811
 20
61.403449583
 30
0.0
 11
27.002661819
 21
61.263402995
 31
0.0
  0
LINE
  8
0
  6
CONTINUOUS
 62
     2
 10
27.002661819
 20
61.263402995
 30
0.0
 11
27.061749623
 21
61.198126835
 31
0.0
  0
LINE
  8
0
  6
CONTINUOUS
 62
     2
 10
27.061749623
 20
61.198126835
 30
0.0
 11
27.136463496
 21
61.147517728
 31
0.0
  0
LINE
  8
0
  6
CONTINUOUS
 62
     2
 10
27.136463496
 20
61.147517728
 30
0.0
 11
27.261478348
 21
61.120005066
 31
0.0
  0
LINE
  8
0
  6
CONTINUOUS
 62
     2
 10
27.261478348
 20
61.120005066
 30
0.0
 11
27.363683888
 21
61.139258994
 31
0.0
  0
LINE
  8
0
  6
CONTINUOUS
 62
     2
 10
27.363683888
 20
61.139258994
 30
0.0
 11
27.456548122
 21
61.196983388
 31
0.0
  0
LINE
  8
0
  6
CONTINUOUS
 62
     2
 10
27.456548122
 20
61.196983388
 30
0.0
 11
27.506231228
 21
61.257179876
 31
0.0
  0
LINE
  8
0
  6
CONTINUOUS
 62
     2
 10
27.506231228
 20
61.257179876
 30
0.0
 11
27.552208452
 21
61.403086664
 31
0.0
  0
LINE
  8
0
  6
CONTINUOUS
 62
     2
 10
27.552208452
 20
61.403086664
 30
0.0
 11
27.579903738
 21
61.542623558
 31
0.0
  0
LINE
  8
0
  6
CONTINUOUS
 62
     2
 10
27.579903738
 20
61.542623558
 30
0.0
 11
27.601501165
 21
61.693016943
 31
0.0
  0
LINE
  8
0
  6
CONTINUOUS
 62
     2
 10
27.601501165
 20
61.693016943
 30
0.0
 11
27.61465952
 21
61.842215545
 31
0.0
  0
LINE
  8
0
  6
CONTINUOUS
 62
     2
 10
27.61465952
 20
61.842215545
 30
0.0
 11
27.619706871
 21
61.99221524
 31
0.0
  0
LINE
  8
0
  6
CONTINUOUS
 62
     2
 10
27.619706871
 20
61.99221524
 30
0.0
 11
27.616359467
 21
62.147048818
 31
0.0
  0
LINE
  8
0
  6
CONTINUOUS
 62
     2
 10
27.616359467
 20
62.147048818
 30
0.0
 11
27.605429494
 21
62.290930487
 31
0.0
  0
LINE
  8
0
  6
CONTINUOUS
 62
     2
 10
27.605429494
 20
62.290930487
 30
0.0
 11
27.586024891
 21
62.44023539
 31
0.0
  0
LINE
  8
0
  6
CONTINUOUS
 62
     2
 10
27.586024891
 20
62.44023539
 30
0.0
 11
27.559451161
 21
62.583838096
 31
0.0
  0
LINE
  8
0
  6
CONTINUOUS
 62
     2
 10
27.559451161
 20
62.583838096
 30
0.0
 11
27.523464121
 21
62.730674508
 31
0.0
  0
LINE
  8
0
  6
CONTINUOUS
 62
     2
 10
27.523464121
 20
62.730674508
 30
0.0
 11
27.471320702
 21
62.808352803
 31
0.0
  0
LINE
  8
0
  6
CONTINUOUS
 62
     2
 10
27.471320702
 20
62.808352803
 30
0.0
 11
27.38521188
 21
62.871462947
 31
0.0
  0
LINE
  8
0
  6
CONTINUOUS
 62
     2
 10
27.38521188
 20
62.871462947
 30
0.0
 11
27.270333854
 21
62.899807318
 31
0.0
  0
LINE
  8
0
  6
CONTINUOUS
 62
     2
 10
27.270333854
 20
62.899807318
 30
0.0
 11
27.136433084
 21
62.872467984
 31
0.0
  0
LINE
  8
0
  6
CONTINUOUS
 62
     2
 10
27.136433084
 20
62.872467984
 30
0.0
 11
27.046943341
 21
62.806995669
 31
0.0
  0
LINE
  8
0
  6
CONTINUOUS
 62
     2
 10
27.046943341
 20
62.806995669
 30
0.0
 11
26.994692979
 21
62.727631895
 31
0.0
  0
LINE
  8
0
  6
CONTINUOUS
 62
     2
 10
26.265
 20
72.52
 30
0.0
 11
26.274003244
 21
72.600007985
 31
0.0
  0
LINE
  8
0
  6
CONTINUOUS
 62
     2
 10
26.274003244
 20
72.600007985
 30
0.0
 11
26.299881783
 21
72.674590249
 31
0.0
  0
LINE
  8
0
  6
CONTINUOUS
 62
     2
 10
26.299881783
 20
72.674590249
 30
0.0
 11
26.336121182
 21
72.734823249
 31
0.0
  0
LINE
  8
0
  6
CONTINUOUS
 62
     2
 10
26.336121182
 20
72.734823249
 30
0.0
 11
26.383872872
 21
72.787315746
 31
0.0
  0
LINE
  8
0
  6
CONTINUOUS
 62
     2
 10
26.383872872
 20
72.787315746
 30
0.0
 11
26.439254659
 21
72.82838072
 31
0.0
  0
LINE
  8
0
  6
CONTINUOUS
 62
     2
 10
26.439254659
 20
72.82838072
 30
0.0
 11
26.511509985
 21
72.861643113
 31
0.0
  0
LINE
  8
0
  6
CONTINUOUS
 62
     2
 10
26.511509985
 20
72.861643113
 30
0.0
 11
26.611763364
 21
72.879756573
 31
0.0
  0
LINE
  8
0
  6
CONTINUOUS
 62
     2
 10
26.611763364
 20
72.879756573
 30
0.0
 11
26.715321623
 21
72.8684853
 31
0.0
  0
LINE
  8
0
  6
CONTINUOUS
 62
     2
 10
26.715321623
 20
72.8684853
 30
0.0
 11
26.788827953
 21
72.840562633
 31
0.0
  0
LINE
  8
0
  6
CONTINUOUS
 62
     2
 10
26.788827953
 20
72.840562633
 30
0.0
 11
26.848217173
 21
72.802443081
 31
0.0
  0
LINE
  8
0
  6
CONTINUOUS
 62
     2
 10
26.848217173
 20
72.802443081
 30
0.0
 11
26.899194879
 21
72.753274877
 31
0.0
  0
LINE
  8
0
  6
CONTINUOUS
 62
     2
 10
26.899194879
 20
72.753274877
 30
0.0
 11
26.93838842
 21
72.697165736
 31
0.0
  0
LINE
  8
0
  6
CONTINUOUS
 62
     2
 10
26.93838842
 20
72.697165736
 30
0.0
 11
26.969634949
 21
72.624051679
 31
0.0
  0
LINE
  8
0
  6
CONTINUOUS
 62
     2
 10
26.969634949
 20
72.624051679
 30
0.0
 11
26.983893217
 21
72.548207426
 31
0.0
  0
LINE
  8
0
  6
CONTINUOUS
 62
     2
 10
26.983893217
 20
72.548207426
 30
0.0
 11
26.981978646
 21
72.473457048
 31
0.0
  0
LINE
  8
0
  6
CONTINUOUS
 62
     2
 10
26.981978646
 20
72.473457048
 30
0.0
 11
26.963055517
 21
72.396232204
 31
0.0
  0
LINE
  8
0
  6
CONTINUOUS
 62
     2
 10
26.963055517
 20
72.396232204
 30
0.0
 11
26.928938272
 21
72.326534244
 31
0.0
  0
LINE
  8
0
  6
CONTINUOUS
 62
     2
 10
26.928938272
 20
72.326534244
 30
0.0
 11
26.885651652
 21
72.25209975
 31
0.0
  0
LINE
  8
0
  6
CONTINUOUS
 62
     2
 10
26.885651652
 20
72.25209975
 30
0.0
 11
26.820465793
 21
72.14000792
 31
0.0
  0
LINE
  8
0
  6
CONTINUOUS
 62
     2
 10
26.820465793
 20
72.14000792
 30
0.0
 11
26.755279934
 21
72.027916091
 31
0.0
  0
LINE
  8
0
  6
CONTINUOUS
 62
     2
 10
26.755279934
 20
72.027916091
 30
0.0
 11
26.690094075
 21
71.915824262
 31
0.0
  0
LINE
  8
0
  6
CONTINUOUS
 62
     2
 10
26.690094075
 20
71.915824262
 30
0.0
 11
26.624908216
 21
71.803732433
 31
0.0
  0
LINE
  8
0
  6
CONTINUOUS
 62
     2
 10
26.624908216
 20
71.803732433
 30
0.0
 11
26.559722357
 21
71.691640603
 31
0.0
  0
LINE
  8
0
  6
CONTINUOUS
 62
     2
 10
26.559722357
 20
71.691640603
 30
0.0
 11
26.494536499
 21
71.579548774
 31
0.0
  0
LINE
  8
0
  6
CONTINUOUS
 62
     2
 10
26.494536499
 20
71.579548774
 30
0.0
 11
26.42935064
 21
71.467456945
 31
0.0
  0
LINE
  8
0
  6
CONTINUOUS
 62
     2
 10
26.42935064
 20
71.467456945
 30
0.0
 11
26.364164781
 21
71.355365116
 31
0.0
  0
LINE
  8
0
  6
CONTINUOUS
 62
     2
 10
26.364164781
 20
71.355365116
 30
0.0
 11
26.298978922
 21
71.243273286
 31
0.0
  0
LINE
  8
0
  6
CONTINUOUS
 62
     2
 10
26.298978922
 20
71.243273286
 30
0.0
 11
26.227290601
 21
71.12
 31
0.0
  0
LINE
  8
0
  6
CONTINUOUS
 62
     2
 10
26.227290601
 20
71.12
 30
0.0
 11
26.377290601
 21
71.12
 31
0.0
  0
LINE
  8
0
  6
CONTINUOUS
 62
     2
 10
26.377290601
 20
71.12
 30
0.0
 11
26.527290601
 21
71.12
 31
0.0
  0
LINE
  8
0
  6
CONTINUOUS
 62
     2
 10
26.527290601
 20
71.12
 30
0.0
 11
26.677290601
 21
71.12
 31
0.0
  0
LINE
  8
0
  6
CONTINUOUS
 62
     2
 10
26.677290601
 20
71.12
 30
0.0
 11
26.827290601
 21
71.12
 31
0.0
  0
LINE
  8
0
  6
CONTINUOUS
 62
     2
 10
26.827290601
 20
71.12
 30
0.0
 11
26.98500001
 21
71.12
 31
0.0
  0
LINE
  8
0
  6
CONTINUOUS
 62
     2
 10
27.619692979
 20
72.727631895
 30
0.0
 11
27.585314642
 21
72.584954116
 31
0.0
  0
LINE
  8
0
  6
CONTINUOUS
 62
     2
 10
27.585314642
 20
72.584954116
 30
0.0
 11
27.558340333
 21
72.439200479
 31
0.0
  0
LINE
  8
0
  6
CONTINUOUS
 62
     2
 10
27.558340333
 20
72.439200479
 30
0.0
 11
27.539123205
 21
72.291168417
 31
0.0
  0
LINE
  8
0
  6
CONTINUOUS
 62
     2
 10
27.539123205
 20
72.291168417
 30
0.0
 11
27.527908353
 21
72.141704187
 31
0.0
  0
LINE
  8
0
  6
CONTINUOUS
 62
     2
 10
27.527908353
 20
72.141704187
 30
0.0
 11
27.524824949
 21
71.991683724
 31
0.0
  0
LINE
  8
0
  6
CONTINUOUS
 62
     2
 10
27.524824949
 20
71.991683724
 30
0.0
 11
27.529882439
 21
71.841992158
 31
0.0
  0
LINE
  8
0
  6
CONTINUOUS
 62
     2
 10
27.529882439
 20
71.841992158
 30
0.0
 11
27.542971024
 21
71.69350303
 31
0.0
  0
LINE
  8
0
  6
CONTINUOUS
 62
     2
 10
27.542971024
 20
71.69350303
 30
0.0
 11
27.563866358
 21
71.547058225
 31
0.0
  0
LINE
  8
0
  6
CONTINUOUS
 62
     2
 10
27.563866358
 20
71.547058225
 30
0.0
 11
27.59223811
 21
71.403449583
 31
0.0
  0
LINE
  8
0
  6
CONTINUOUS
 62
     2
 10
27.59223811
 20
71.403449583
 30
0.0
 11
27.627661819
 21
71.263402995
 31
0.0
  0
LINE
  8
0
  6
CONTINUOUS
 62
     2
 10
27.627661819
 20
71.263402995
 30
0.0
 11
27.686749623
 21
71.198126835
 31
0.0
  0
LINE
  8
0
  6
CONTINUOUS
 62
     2
 10
27.686749623
 20
71.198126835
 30
0.0
 11
27.761463496
 21
71.147517728
 31
0.0
  0
LINE
  8
0
  6
CONTINUOUS
 62
     2
 10
27.761463496
 20
71.147517728
 30
0.0
 11
27.886478348
 21
71.120005066
 31
0.0
  0
LINE
  8
0
  6
CONTINUOUS
 62
     2
 10
27.886478348
 20
71.120005066
 30
0.0
 11
27.988683888
 21
71.139258994
 31
0.0
  0
LINE
  8
0
  6
CONTINUOUS
 62
     2
 10
27.988683888
 20
71.139258994
 30
0.0
 11
28.081548122
 21
71.196983388
 31
0.0
  0
LINE
  8
0
  6
CONTINUOUS
 62
     2
 10
28.081548122
 20
71.196983388
 30
0.0
 11
28.131231228
 21
71.257179876
 31
0.0
  0
LINE
  8
0
  6
CONTINUOUS
 62
     2
 10
28.131231228
 20
71.257179876
 30
0.0
 11
28.177208452
 21
71.403086664
 31
0.0
  0
LINE
  8
0
  6
CONTINUOUS
 62
     2
 10
28.177208452
 20
71.403086664
 30
0.0
 11
28.204903738
 21
71.542623558
 31
0.0
  0
LINE
  8
0
  6
CONTINUOUS
 62
     2
 10
28.204903738
 20
71.542623558
 30
0.0
 11
28.226501165
 21
71.693016943
 31
0.0
  0
LINE
  8
0
  6
CONTINUOUS
 62
     2
 10
28.226501165
 20
71.693016943
 30
0.0
 11
28.23965952
 21
71.842215545
 31
0.0
  0
LINE
  8
0
  6
CONTINUOUS
 62
     2
 10
28.23965952
 20
71.842215545
 30
0.0
 11
28.244706871
 21
71.99221524
 31
0.0
  0
LINE
  8
0
  6
CONTINUOUS
 62
     2
 10
28.244706871
 20
71.99221524
 30
0.0
 11
28.241359467
 21
72.147048818
 31
0.0
  0
LINE
  8
0
  6
CONTINUOUS
 62
     2
 10
28.241359467
 20
72.147048818
 30
0.0
 11
28.230429494
 21
72.290930487
 31
0.0
  0
LINE
  8
0
  6
CONTINUOUS
 62
     2
 10
28.230429494
 20
72.290930487
 30
0.0
 11
28.211024891
 21
72.44023539
 31
0.0
  0
LINE
  8
0
  6
CONTINUOUS
 62
     2
 10
28.211024891
 20
72.44023539
 30
0.0
 11
28.184451161
 21
72.583838096
 31
0.0
  0
LINE
  8
0
  6
CONTINUOUS
 62
     2
 10
28.184451161
 20
72.583838096
 30
0.0
 11
28.148464121
 21
72.730674508
 31
0.0
  0
LINE
  8
0
  6
CONTINUOUS
 62
     2
 10
28.148464121
 20
72.730674508
 30
0.0
 11
28.096320702
 21
72.808352803
 31
0.0
  0
LINE
  8
0
  6
CONTINUOUS
 62
     2
 10
28.096320702
 20
72.808352803
 30
0.0
 11
28.01021188
 21
72.871462947
 31
0.0
  0
LINE
  8
0
  6
CONTINUOUS
 62
     2
 10
28.01021188
 20
72.871462947
 30
0.0
 11
27.895333854
 21
72.899807318
 31
0.0
  0
LINE
  8
0
  6
CONTINUOUS
 62
     2
 10
27.895333854
 20
72.899807318
 30
0.0
 11
27.761433084
 21
72.872467984
 31
0.0
  0
LINE
  8
0
  6
CONTINUOUS
 62
     2
 10
27.761433084
 20
72.872467984
 30
0.0
 11
27.671943341
 21
72.806995669
 31
0.0
  0
LINE
  8
0
  6
CONTINUOUS
 62
     2
 10
27.671943341
 20
72.806995669
 30
0.0
 11
27.619692979
 21
72.727631895
 31
0.0
  0
LINE
  8
0
  6
CONTINUOUS
 62
     2
 10
27.619692979
 20
82.727631895
 30
0.0
 11
27.585314642
 21
82.584954116
 31
0.0
  0
LINE
  8
0
  6
CONTINUOUS
 62
     2
 10
27.585314642
 20
82.584954116
 30
0.0
 11
27.558340333
 21
82.439200479
 31
0.0
  0
LINE
  8
0
  6
CONTINUOUS
 62
     2
 10
27.558340333
 20
82.439200479
 30
0.0
 11
27.539123205
 21
82.291168417
 31
0.0
  0
LINE
  8
0
  6
CONTINUOUS
 62
     2
 10
27.539123205
 20
82.291168417
 30
0.0
 11
27.527908353
 21
82.141704187
 31
0.0
  0
LINE
  8
0
  6
CONTINUOUS
 62
     2
 10
27.527908353
 20
82.141704187
 30
0.0
 11
27.524824949
 21
81.991683724
 31
0.0
  0
LINE
  8
0
  6
CONTINUOUS
 62
     2
 10
27.524824949
 20
81.991683724
 30
0.0
 11
27.529882439
 21
81.841992158
 31
0.0
  0
LINE
  8
0
  6
CONTINUOUS
 62
     2
 10
27.529882439
 20
81.841992158
 30
0.0
 11
27.542971024
 21
81.69350303
 31
0.0
  0
LINE
  8
0
  6
CONTINUOUS
 62
     2
 10
27.542971024
 20
81.69350303
 30
0.0
 11
27.563866358
 21
81.547058225
 31
0.0
  0
LINE
  8
0
  6
CONTINUOUS
 62
     2
 10
27.563866358
 20
81.547058225
 30
0.0
 11
27.59223811
 21
81.403449583
 31
0.0
  0
LINE
  8
0
  6
CONTINUOUS
 62
     2
 10
27.59223811
 20
81.403449583
 30
0.0
 11
27.627661819
 21
81.263402995
 31
0.0
  0
LINE
  8
0
  6
CONTINUOUS
 62
     2
 10
27.627661819
 20
81.263402995
 30
0.0
 11
27.686749623
 21
81.198126835
 31
0.0
  0
LINE
  8
0
  6
CONTINUOUS
 62
     2
 10
27.686749623
 20
81.198126835
 30
0.0
 11
27.761463496
 21
81.147517728
 31
0.0
  0
LINE
  8
0
  6
CONTINUOUS
 62
     2
 10
27.761463496
 20
81.147517728
 30
0.0
 11
27.886478348
 21
81.120005066
 31
0.0
  0
LINE
  8
0
  6
CONTINUOUS
 62
     2
 10
27.886478348
 20
81.120005066
 30
0.0
 11
27.988683888
 21
81.139258994
 31
0.0
  0
LINE
  8
0
  6
CONTINUOUS
 62
     2
 10
27.988683888
 20
81.139258994
 30
0.0
 11
28.081548122
 21
81.196983388
 31
0.0
  0
LINE
  8
0
  6
CONTINUOUS
 62
     2
 10
28.081548122
 20
81.196983388
 30
0.0
 11
28.131231228
 21
81.257179876
 31
0.0
  0
LINE
  8
0
  6
CONTINUOUS
 62
     2
 10
28.131231228
 20
81.257179876
 30
0.0
 11
28.177208452
 21
81.403086664
 31
0.0
  0
LINE
  8
0
  6
CONTINUOUS
 62
     2
 10
28.177208452
 20
81.403086664
 30
0.0
 11
28.204903738
 21
81.542623558
 31
0.0
  0
LINE
  8
0
  6
CONTINUOUS
 62
     2
 10
28.204903738
 20
81.542623558
 30
0.0
 11
28.226501165
 21
81.693016943
 31
0.0
  0
LINE
  8
0
  6
CONTINUOUS
 62
     2
 10
28.226501165
 20
81.693016943
 30
0.0
 11
28.23965952
 21
81.842215545
 31
0.0
  0
LINE
  8
0
  6
CONTINUOUS
 62
     2
 10
28.23965952
 20
81.842215545
 30
0.0
 11
28.244706871
 21
81.99221524
 31
0.0
  0
LINE
  8
0
  6
CONTINUOUS
 62
     2
 10
28.244706871
 20
81.99221524
 30
0.0
 11
28.241359467
 21
82.147048818
 31
0.0
  0
LINE
  8
0
  6
CONTINUOUS
 62
     2
 10
28.241359467
 20
82.147048818
 30
0.0
 11
28.230429494
 21
82.290930487
 31
0.0
  0
LINE
  8
0
  6
CONTINUOUS
 62
     2
 10
28.230429494
 20
82.290930487
 30
0.0
 11
28.211024891
 21
82.44023539
 31
0.0
  0
LINE
  8
0
  6
CONTINUOUS
 62
     2
 10
28.211024891
 20
82.44023539
 30
0.0
 11
28.184451161
 21
82.583838096
 31
0.0
  0
LINE
  8
0
  6
CONTINUOUS
 62
     2
 10
28.184451161
 20
82.583838096
 30
0.0
 11
28.148464121
 21
82.730674508
 31
0.0
  0
LINE
  8
0
  6
CONTINUOUS
 62
     2
 10
28.148464121
 20
82.730674508
 30
0.0
 11
28.096320702
 21
82.808352803
 31
0.0
  0
LINE
  8
0
  6
CONTINUOUS
 62
     2
 10
28.096320702
 20
82.808352803
 30
0.0
 11
28.01021188
 21
82.871462947
 31
0.0
  0
LINE
  8
0
  6
CONTINUOUS
 62
     2
 10
28.01021188
 20
82.871462947
 30
0.0
 11
27.895333854
 21
82.899807318
 31
0.0
  0
LINE
  8
0
  6
CONTINUOUS
 62
     2
 10
27.895333854
 20
82.899807318
 30
0.0
 11
27.761433084
 21
82.872467984
 31
0.0
  0
LINE
  8
0
  6
CONTINUOUS
 62
     2
 10
27.761433084
 20
82.872467984
 30
0.0
 11
27.671943341
 21
82.806995669
 31
0.0
  0
LINE
  8
0
  6
CONTINUOUS
 62
     2
 10
27.671943341
 20
82.806995669
 30
0.0
 11
27.619692979
 21
82.727631895
 31
0.0
  0
LINE
  8
0
  6
CONTINUOUS
 62
     2
 10
26.785
 20
81.12
 30
0.0
 11
26.785
 21
81.27
 31
0.0
  0
LINE
  8
0
  6
CONTINUOUS
 62
     2
 10
26.785
 20
81.27
 30
0.0
 11
26.785
 21
81.42
 31
0.0
  0
LINE
  8
0
  6
CONTINUOUS
 62
     2
 10
26.785
 20
81.42
 30
0.0
 11
26.785
 21
81.57
 31
0.0
  0
LINE
  8
0
  6
CONTINUOUS
 62
     2
 10
26.785
 20
81.57
 30
0.0
 11
26.785
 21
81.72
 31
0.0
  0
LINE
  8
0
  6
CONTINUOUS
 62
     2
 10
26.785
 20
81.72
 30
0.0
 11
26.785
 21
81.87
 31
0.0
  0
LINE
  8
0
  6
CONTINUOUS
 62
     2
 10
26.785
 20
81.87
 30
0.0
 11
26.785
 21
82.02
 31
0.0
  0
LINE
  8
0
  6
CONTINUOUS
 62
     2
 10
26.785
 20
82.02
 30
0.0
 11
26.785
 21
82.22
 31
0.0
  0
LINE
  8
0
  6
CONTINUOUS
 62
     2
 10
26.785
 20
82.22
 30
0.0
 11
26.785
 21
82.07
 31
0.0
  0
LINE
  8
0
  6
CONTINUOUS
 62
     2
 10
26.785
 20
82.07
 30
0.0
 11
26.785
 21
81.92
 31
0.0
  0
LINE
  8
0
  6
CONTINUOUS
 62
     2
 10
26.785
 20
81.92
 30
0.0
 11
26.785
 21
81.77
 31
0.0
  0
LINE
  8
0
  6
CONTINUOUS
 62
     2
 10
26.785
 20
81.77
 30
0.0
 11
26.785
 21
81.62
 31
0.0
  0
LINE
  8
0
  6
CONTINUOUS
 62
     2
 10
26.785
 20
81.62
 30
0.0
 11
26.785
 21
81.52
 31
0.0
  0
LINE
  8
0
  6
CONTINUOUS
 62
     2
 10
26.785
 20
81.52
 30
0.0
 11
26.985
 21
81.52
 31
0.0
  0
LINE
  8
0
  6
CONTINUOUS
 62
     2
 10
26.985
 20
81.52
 30
0.0
 11
26.835
 21
81.52
 31
0.0
  0
LINE
  8
0
  6
CONTINUOUS
 62
     2
 10
26.835
 20
81.52
 30
0.0
 11
26.685
 21
81.52
 31
0.0
  0
LINE
  8
0
  6
CONTINUOUS
 62
     2
 10
26.685
 20
81.52
 30
0.0
 11
26.535
 21
81.52
 31
0.0
  0
LINE
  8
0
  6
CONTINUOUS
 62
     2
 10
26.535
 20
81.52
 30
0.0
 11
26.385
 21
81.52
 31
0.0
  0
LINE
  8
0
  6
CONTINUOUS
 62
     2
 10
26.385
 20
81.52
 30
0.0
 11
26.265
 21
81.52
 31
0.0
  0
LINE
  8
0
  6
CONTINUOUS
 62
     2
 10
26.265
 20
81.52
 30
0.0
 11
26.299448276
 21
81.66162069
 31
0.0
  0
LINE
  8
0
  6
CONTINUOUS
 62
     2
 10
26.299448276
 20
81.66162069
 30
0.0
 11
26.333896552
 21
81.803241379
 31
0.0
  0
LINE
  8
0
  6
CONTINUOUS
 62
     2
 10
26.333896552
 20
81.803241379
 30
0.0
 11
26.368344828
 21
81.944862069
 31
0.0
  0
LINE
  8
0
  6
CONTINUOUS
 62
     2
 10
26.368344828
 20
81.944862069
 30
0.0
 11
26.402793103
 21
82.086482759
 31
0.0
  0
LINE
  8
0
  6
CONTINUOUS
 62
     2
 10
26.402793103
 20
82.086482759
 30
0.0
 11
26.437241379
 21
82.228103448
 31
0.0
  0
LINE
  8
0
  6
CONTINUOUS
 62
     2
 10
26.437241379
 20
82.228103448
 30
0.0
 11
26.471689655
 21
82.369724138
 31
0.0
  0
LINE
  8
0
  6
CONTINUOUS
 62
     2
 10
26.471689655
 20
82.369724138
 30
0.0
 11
26.506137931
 21
82.511344828
 31
0.0
  0
LINE
  8
0
  6
CONTINUOUS
 62
     2
 10
26.506137931
 20
82.511344828
 30
0.0
 11
26.540586207
 21
82.652965517
 31
0.0
  0
LINE
  8
0
  6
CONTINUOUS
 62
     2
 10
26.540586207
 20
82.652965517
 30
0.0
 11
26.575034483
 21
82.794586207
 31
0.0
  0
LINE
  8
0
  6
CONTINUOUS
 62
     2
 10
26.575034483
 20
82.794586207
 30
0.0
 11
26.596637811
 21
82.883399888
 31
0.0
  0
LINE
  8
0
  6
CONTINUOUS
 62
     2
 10
27.619692979
 20
92.727631895
 30
0.0
 11
27.585314642
 21
92.584954116
 31
0.0
  0
LINE
  8
0
  6
CONTINUOUS
 62
     2
 10
27.585314642
 20
92.584954116
 30
0.0
 11
27.558340333
 21
92.439200479
 31
0.0
  0
LINE
  8
0
  6
CONTINUOUS
 62
     2
 10
27.558340333
 20
92.439200479
 30
0.0
 11
27.539123205
 21
92.291168417
 31
0.0
  0
LINE
  8
0
  6
CONTINUOUS
 62
     2
 10
27.539123205
 20
92.291168417
 30
0.0
 11
27.527908353
 21
92.141704187
 31
0.0
  0
LINE
  8
0
  6
CONTINUOUS
 62
     2
 10
27.527908353
 20
92.141704187
 30
0.0
 11
27.524824949
 21
91.991683724
 31
0.0
  0
LINE
  8
0
  6
CONTINUOUS
 62
     2
 10
27.524824949
 20
91.991683724
 30
0.0
 11
27.529882439
 21
91.841992158
 31
0.0
  0
LINE
  8
0
  6
CONTINUOUS
 62
     2
 10
27.529882439
 20
91.841992158
 30
0.0
 11
27.542971024
 21
91.69350303
 31
0.0
  0
LINE
  8
0
  6
CONTINUOUS
 62
     2
 10
27.542971024
 20
91.69350303
 30
0.0
 11
27.563866358
 21
91.547058225
 31
0.0
  0
LINE
  8
0
  6
CONTINUOUS
 62
     2
 10
27.563866358
 20
91.547058225
 30
0.0
 11
27.59223811
 21
91.403449583
 31
0.0
  0
LINE
  8
0
  6
CONTINUOUS
 62
     2
 10
27.59223811
 20
91.403449583
 30
0.0
 11
27.627661819
 21
91.263402995
 31
0.0
  0
LINE
  8
0
  6
CONTINUOUS
 62
     2
 10
27.627661819
 20
91.263402995
 30
0.0
 11
27.686749623
 21
91.198126835
 31
0.0
  0
LINE
  8
0
  6
CONTINUOUS
 62
     2
 10
27.686749623
 20
91.198126835
 30
0.0
 11
27.761463496
 21
91.147517728
 31
0.0
  0
LINE
  8
0
  6
CONTINUOUS
 62
     2
 10
27.761463496
 20
91.147517728
 30
0.0
 11
27.886478348
 21
91.120005066
 31
0.0
  0
LINE
  8
0
  6
CONTINUOUS
 62
     2
 10
27.886478348
 20
91.120005066
 30
0.0
 11
27.988683888
 21
91.139258994
 31
0.0
  0
LINE
  8
0
  6
CONTINUOUS
 62
     2
 10
27.988683888
 20
91.139258994
 30
0.0
 11
28.081548122
 21
91.196983388
 31
0.0
  0
LINE
  8
0
  6
CONTINUOUS
 62
     2
 10
28.081548122
 20
91.196983388
 30
0.0
 11
28.131231228
 21
91.257179876
 31
0.0
  0
LINE
  8
0
  6
CONTINUOUS
 62
     2
 10
28.131231228
 20
91.257179876
 30
0.0
 11
28.177208452
 21
91.403086664
 31
0.0
  0
LINE
  8
0
  6
CONTINUOUS
 62
     2
 10
28.177208452
 20
91.403086664
 30
0.0
 11
28.204903738
 21
91.542623558
 31
0.0
  0
LINE
  8
0
  6
CONTINUOUS
 62
     2
 10
28.204903738
 20
91.542623558
 30
0.0
 11
28.226501165
 21
91.693016943
 31
0.0
  0
LINE
  8
0
  6
CONTINUOUS
 62
     2
 10
28.226501165
 20
91.693016943
 30
0.0
 11
28.23965952
 21
91.842215545
 31
0.0
  0
LINE
  8
0
  6
CONTINUOUS
 62
     2
 10
28.23965952
 20
91.842215545
 30
0.0
 11
28.244706871
 21
91.99221524
 31
0.0
  0
LINE
  8
0
  6
CONTINUOUS
 62
     2
 10
28.244706871
 20
91.99221524
 30
0.0
 11
28.241359467
 21
92.147048818
 31
0.0
  0
LINE
  8
0
  6
CONTINUOUS
 62
     2
 10
28.241359467
 20
92.147048818
 30
0.0
 11
28.230429494
 21
92.290930487
 31
0.0
  0
LINE
  8
0
  6
CONTINUOUS
 62
     2
 10
28.230429494
 20
92.290930487
 30
0.0
 11
28.211024891
 21
92.44023539
 31
0.0
  0
LINE
  8
0
  6
CONTINUOUS
 62
     2
 10
28.211024891
 20
92.44023539
 30
0.0
 11
28.184451161
 21
92.583838096
 31
0.0
  0
LINE
  8
0
  6
CONTINUOUS
 62
     2
 10
28.184451161
 20
92.583838096
 30
0.0
 11
28.148464121
 21
92.730674508
 31
0.0
  0
LINE
  8
0
  6
CONTINUOUS
 62
     2
 10
28.148464121
 20
92.730674508
 30
0.0
 11
28.096320702
 21
92.808352803
 31
0.0
  0
LINE
  8
0
  6
CONTINUOUS
 62
     2
 10
28.096320702
 20
92.808352803
 30
0.0
 11
28.01021188
 21
92.871462947
 31
0.0
  0
LINE
  8
0
  6
CONTINUOUS
 62
     2
 10
28.01021188
 20
92.871462947
 30
0.0
 11
27.895333854
 21
92.899807318
 31
0.0
  0
LINE
  8
0
  6
CONTINUOUS
 62
     2
 10
27.895333854
 20
92.899807318
 30
0.0
 11
27.761433084
 21
92.872467984
 31
0.0
  0
LINE
  8
0
  6
CONTINUOUS
 62
     2
 10
27.761433084
 20
92.872467984
 30
0.0
 11
27.671943341
 21
92.806995669
 31
0.0
  0
LINE
  8
0
  6
CONTINUOUS
 62
     2
 10
27.671943341
 20
92.806995669
 30
0.0
 11
27.619692979
 21
92.727631895
 31
0.0
  0
LINE
  8
0
  6
CONTINUOUS
 62
     2
 10
26.245
 20
91.6
 30
0.0
 11
26.263210375
 21
91.746810616
 31
0.0
  0
LINE
  8
0
  6
CONTINUOUS
 62
     2
 10
26.263210375
 20
91.746810616
 30
0.0
 11
26.312252328
 21
91.872645817
 31
0.0
  0
LINE
  8
0
  6
CONTINUOUS
 62
     2
 10
26.312252328
 20
91.872645817
 30
0.0
 11
26.386554138
 21
91.973740162
 31
0.0
  0
LINE
  8
0
  6
CONTINUOUS
 62
     2
 10
26.386554138
 20
91.973740162
 30
0.0
 11
26.48701761
 21
92.047237923
 31
0.0
  0
LINE
  8
0
  6
CONTINUOUS
 62
     2
 10
26.48701761
 20
92.047237923
 30
0.0
 11
26.61181217
 21
92.079710851
 31
0.0
  0
LINE
  8
0
  6
CONTINUOUS
 62
     2
 10
26.61181217
 20
92.079710851
 30
0.0
 11
26.774051808
 21
92.041533872
 31
0.0
  0
LINE
  8
0
  6
CONTINUOUS
 62
     2
 10
26.774051808
 20
92.041533872
 30
0.0
 11
26.859672227
 21
91.97753198
 31
0.0
  0
LINE
  8
0
  6
CONTINUOUS
 62
     2
 10
26.859672227
 20
91.97753198
 30
0.0
 11
26.938406606
 21
91.871435848
 31
0.0
  0
LINE
  8
0
  6
CONTINUOUS
 62
     2
 10
26.938406606
 20
91.871435848
 30
0.0
 11
26.986069872
 21
91.749611162
 31
0.0
  0
LINE
  8
0
  6
CONTINUOUS
 62
     2
 10
26.986069872
 20
91.749611162
 30
0.0
 11
27.004999873
 21
91.599607098
 31
0.0
  0
LINE
  8
0
  6
CONTINUOUS
 62
     2
 10
27.004999873
 20
91.599607098
 30
0.0
 11
26.993629721
 21
91.483459539
 31
0.0
  0
LINE
  8
0
  6
CONTINUOUS
 62
     2
 10
26.993629721
 20
91.483459539
 30
0.0
 11
26.950828498
 21
91.353002434
 31
0.0
  0
LINE
  8
0
  6
CONTINUOUS
 62
     2
 10
26.950828498
 20
91.353002434
 30
0.0
 11
26.862525369
 21
91.225325779
 31
0.0
  0
LINE
  8
0
  6
CONTINUOUS
 62
     2
 10
26.862525369
 20
91.225325779
 30
0.0
 11
26.78047554
 21
91.162014947
 31
0.0
  0
LINE
  8
0
  6
CONTINUOUS
 62
     2
 10
26.78047554
 20
91.162014947
 30
0.0
 11
26.615537341
 21
91.120148846
 31
0.0
  0
LINE
  8
0
  6
CONTINUOUS
 62
     2
 10
26.615537341
 20
91.120148846
 30
0.0
 11
26.494040431
 21
91.149405549
 31
0.0
  0
LINE
  8
0
  6
CONTINUOUS
 62
     2
 10
26.494040431
 20
91.149405549
 30
0.0
 11
26.384885651
 21
91.227968156
 31
0.0
  0
LINE
  8
0
  6
CONTINUOUS
 62
     2
 10
26.384885651
 20
91.227968156
 30
0.0
 11
26.307601555
 21
91.336068827
 31
0.0
  0
LINE
  8
0
  6
CONTINUOUS
 62
     2
 10
26.307601555
 20
91.336068827
 30
0.0
 11
26.259609201
 21
91.468185592
 31
0.0
  0
LINE
  8
0
  6
CONTINUOUS
 62
     2
 10
26.259609201
 20
91.468185592
 30
0.0
 11
26.250782971
 21
91.746557868
 31
0.0
  0
LINE
  8
0
  6
CONTINUOUS
 62
     2
 10
26.250782971
 20
91.746557868
 30
0.0
 11
26.264948535
 21
91.871681071
 31
0.0
  0
LINE
  8
0
  6
CONTINUOUS
 62
     2
 10
26.264948535
 20
91.871681071
 30
0.0
 11
26.29294074
 21
92.019572686
 31
0.0
  0
LINE
  8
0
  6
CONTINUOUS
 62
     2
 10
26.29294074
 20
92.019572686
 30
0.0
 11
26.33516461
 21
92.172086263
 31
0.0
  0
LINE
  8
0
  6
CONTINUOUS
 62
     2
 10
26.33516461
 20
92.172086263
 30
0.0
 11
26.382822786
 21
92.302641904
 31
0.0
  0
LINE
  8
0
  6
CONTINUOUS
 62
     2
 10
26.382822786
 20
92.302641904
 30
0.0
 11
26.438108063
 21
92.425270422
 31
0.0
  0
LINE
  8
0
  6
CONTINUOUS
 62
     2
 10
26.438108063
 20
92.425270422
 30
0.0
 11
26.499595268
 21
92.539295292
 31
0.0
  0
LINE
  8
0
  6
CONTINUOUS
 62
     2
 10
26.499595268
 20
92.539295292
 30
0.0
 11
26.565856534
 21
92.644335861
 31
0.0
  0
LINE
  8
0
  6
CONTINUOUS
 62
     2
 10
26.565856534
 20
92.644335861
 30
0.0
 11
26.63552153
 21
92.74027761
 31
0.0
  0
LINE
  8
0
  6
CONTINUOUS
 62
     2
 10
26.63552153
 20
92.74027761
 30
0.0
 11
26.757975723
 21
92.882624496
 31
0.0
  0
LINE
  8
0
  6
CONTINUOUS
 62
     2
 10
27.619692979
 20
102.727631895
 30
0.0
 11
27.585314642
 21
102.584954116
 31
0.0
  0
LINE
  8
0
  6
CONTINUOUS
 62
     2
 10
27.585314642
 20
102.584954116
 30
0.0
 11
27.558340333
 21
102.439200479
 31
0.0
  0
LINE
  8
0
  6
CONTINUOUS
 62
     2
 10
27.558340333
 20
102.439200479
 30
0.0
 11
27.539123205
 21
102.291168417
 31
0.0
  0
LINE
  8
0
  6
CONTINUOUS
 62
     2
 10
27.539123205
 20
102.291168417
 30
0.0
 11
27.527908353
 21
102.141704187
 31
0.0
  0
LINE
  8
0
  6
CONTINUOUS
 62
     2
 10
27.527908353
 20
102.141704187
 30
0.0
 11
27.524824949
 21
101.991683724
 31
0.0
  0
LINE
  8
0
  6
CONTINUOUS
 62
     2
 10
27.524824949
 20
101.991683724
 30
0.0
 11
27.529882439
 21
101.841992158
 31
0.0
  0
LINE
  8
0
  6
CONTINUOUS
 62
     2
 10
27.529882439
 20
101.841992158
 30
0.0
 11
27.542971024
 21
101.69350303
 31
0.0
  0
LINE
  8
0
  6
CONTINUOUS
 62
     2
 10
27.542971024
 20
101.69350303
 30
0.0
 11
27.563866358
 21
101.547058225
 31
0.0
  0
LINE
  8
0
  6
CONTINUOUS
 62
     2
 10
27.563866358
 20
101.547058225
 30
0.0
 11
27.59223811
 21
101.403449583
 31
0.0
  0
LINE
  8
0
  6
CONTINUOUS
 62
     2
 10
27.59223811
 20
101.403449583
 30
0.0
 11
27.627661819
 21
101.263402995
 31
0.0
  0
LINE
  8
0
  6
CONTINUOUS
 62
     2
 10
27.627661819
 20
101.263402995
 30
0.0
 11
27.686749623
 21
101.198126835
 31
0.0
  0
LINE
  8
0
  6
CONTINUOUS
 62
     2
 10
27.686749623
 20
101.198126835
 30
0.0
 11
27.761463496
 21
101.147517728
 31
0.0
  0
LINE
  8
0
  6
CONTINUOUS
 62
     2
 10
27.761463496
 20
101.147517728
 30
0.0
 11
27.886478348
 21
101.120005066
 31
0.0
  0
LINE
  8
0
  6
CONTINUOUS
 62
     2
 10
27.886478348
 20
101.120005066
 30
0.0
 11
27.988683888
 21
101.139258994
 31
0.0
  0
LINE
  8
0
  6
CONTINUOUS
 62
     2
 10
27.988683888
 20
101.139258994
 30
0.0
 11
28.081548122
 21
101.196983388
 31
0.0
  0
LINE
  8
0
  6
CONTINUOUS
 62
     2
 10
28.081548122
 20
101.196983388
 30
0.0
 11
28.131231228
 21
101.257179876
 31
0.0
  0
LINE
  8
0
  6
CONTINUOUS
 62
     2
 10
28.131231228
 20
101.257179876
 30
0.0
 11
28.177208452
 21
101.403086664
 31
0.0
  0
LINE
  8
0
  6
CONTINUOUS
 62
     2
 10
28.177208452
 20
101.403086664
 30
0.0
 11
28.204903738
 21
101.542623558
 31
0.0
  0
LINE
  8
0
  6
CONTINUOUS
 62
     2
 10
28.204903738
 20
101.542623558
 30
0.0
 11
28.226501165
 21
101.693016943
 31
0.0
  0
LINE
  8
0
  6
CONTINUOUS
 62
     2
 10
28.226501165
 20
101.693016943
 30
0.0
 11
28.23965952
 21
101.842215545
 31
0.0
  0
LINE
  8
0
  6
CONTINUOUS
 62
     2
 10
28.23965952
 20
101.842215545
 30
0.0
 11
28.244706871
 21
101.99221524
 31
0.0
  0
LINE
  8
0
  6
CONTINUOUS
 62
     2
 10
28.244706871
 20
101.99221524
 30
0.0
 11
28.241359467
 21
102.147048818
 31
0.0
  0
LINE
  8
0
  6
CONTINUOUS
 62
     2
 10
28.241359467
 20
102.147048818
 30
0.0
 11
28.230429494
 21
102.290930487
 31
0.0
  0
LINE
  8
0
  6
CONTINUOUS
 62
     2
 10
28.230429494
 20
102.290930487
 30
0.0
 11
28.211024891
 21
102.44023539
 31
0.0
  0
LINE
  8
0
  6
CONTINUOUS
 62
     2
 10
28.211024891
 20
102.44023539
 30
0.0
 11
28.184451161
 21
102.583838096
 31
0.0
  0
LINE
  8
0
  6
CONTINUOUS
 62
     2
 10
28.184451161
 20
102.583838096
 30
0.0
 11
28.148464121
 21
102.730674508
 31
0.0
  0
LINE
  8
0
  6
CONTINUOUS
 62
     2
 10
28.148464121
 20
102.730674508
 30
0.0
 11
28.096320702
 21
102.808352803
 31
0.0
  0
LINE
  8
0
  6
CONTINUOUS
 62
     2
 10
28.096320702
 20
102.808352803
 30
0.0
 11
28.01021188
 21
102.871462947
 31
0.0
  0
LINE
  8
0
  6
CONTINUOUS
 62
     2
 10
28.01021188
 20
102.871462947
 30
0.0
 11
27.895333854
 21
102.899807318
 31
0.0
  0
LINE
  8
0
  6
CONTINUOUS
 62
     2
 10
27.895333854
 20
102.899807318
 30
0.0
 11
27.761433084
 21
102.872467984
 31
0.0
  0
LINE
  8
0
  6
CONTINUOUS
 62
     2
 10
27.761433084
 20
102.872467984
 30
0.0
 11
27.671943341
 21
102.806995669
 31
0.0
  0
LINE
  8
0
  6
CONTINUOUS
 62
     2
 10
27.671943341
 20
102.806995669
 30
0.0
 11
27.619692979
 21
102.727631895
 31
0.0
  0
LINE
  8
0
  6
CONTINUOUS
 62
     2
 10
26.62500005
 20
102.08
 30
0.0
 11
26.721707499
 21
102.064195763
 31
0.0
  0
LINE
  8
0
  6
CONTINUOUS
 62
     2
 10
26.721707499
 20
102.064195763
 30
0.0
 11
26.801280563
 21
102.025226985
 31
0.0
  0
LINE
  8
0
  6
CONTINUOUS
 62
     2
 10
26.801280563
 20
102.025226985
 30
0.0
 11
26.880183482
 21
101.955666753
 31
0.0
  0
LINE
  8
0
  6
CONTINUOUS
 62
     2
 10
26.880183482
 20
101.955666753
 30
0.0
 11
26.948974344
 21
101.85085891
 31
0.0
  0
LINE
  8
0
  6
CONTINUOUS
 62
     2
 10
26.948974344
 20
101.85085891
 30
0.0
 11
26.992190825
 21
101.723575956
 31
0.0
  0
LINE
  8
0
  6
CONTINUOUS
 62
     2
 10
26.992190825
 20
101.723575956
 30
0.0
 11
27.004998209
 21
101.598526286
 31
0.0
  0
LINE
  8
0
  6
CONTINUOUS
 62
     2
 10
27.004998209
 20
101.598526286
 30
0.0
 11
26.990801853
 21
101.470017403
 31
0.0
  0
LINE
  8
0
  6
CONTINUOUS
 62
     2
 10
26.990801853
 20
101.470017403
 30
0.0
 11
26.953264421
 21
101.358203499
 31
0.0
  0
LINE
  8
0
  6
CONTINUOUS
 62
     2
 10
26.953264421
 20
101.358203499
 30
0.0
 11
26.882656455
 21
101.24718946
 31
0.0
  0
LINE
  8
0
  6
CONTINUOUS
 62
     2
 10
26.882656455
 20
101.24718946
 30
0.0
 11
26.804805795
 21
101.177134663
 31
0.0
  0
LINE
  8
0
  6
CONTINUOUS
 62
     2
 10
26.804805795
 20
101.177134663
 30
0.0
 11
26.720181332
 21
101.135301199
 31
0.0
  0
LINE
  8
0
  6
CONTINUOUS
 62
     2
 10
26.720181332
 20
101.135301199
 30
0.0
 11
26.625181446
 21
101.120000055
 31
0.0
  0
LINE
  8
0
  6
CONTINUOUS
 62
     2
 10
26.625181446
 20
101.120000055
 30
0.0
 11
26.516369619
 21
101.140031081
 31
0.0
  0
LINE
  8
0
  6
CONTINUOUS
 62
     2
 10
26.516369619
 20
101.140031081
 30
0.0
 11
26.441280539
 21
101.179827354
 31
0.0
  0
LINE
  8
0
  6
CONTINUOUS
 62
     2
 10
26.441280539
 20
101.179827354
 30
0.0
 11
26.371232577
 21
101.242720317
 31
0.0
  0
LINE
  8
0
  6
CONTINUOUS
 62
     2
 10
26.371232577
 20
101.242720317
 30
0.0
 11
26.299398223
 21
101.352525856
 31
0.0
  0
LINE
  8
0
  6
CONTINUOUS
 62
     2
 10
26.299398223
 20
101.352525856
 30
0.0
 11
26.259731343
 21
101.46764656
 31
0.0
  0
LINE
  8
0
  6
CONTINUOUS
 62
     2
 10
26.259731343
 20
101.46764656
 30
0.0
 11
26.245004683
 21
101.597616918
 31
0.0
  0
LINE
  8
0
  6
CONTINUOUS
 62
     2
 10
26.245004683
 20
101.597616918
 30
0.0
 11
26.257765587
 21
101.723369122
 31
0.0
  0
LINE
  8
0
  6
CONTINUOUS
 62
     2
 10
26.257765587
 20
101.723369122
 30
0.0
 11
26.302009722
 21
101.852875504
 31
0.0
  0
LINE
  8
0
  6
CONTINUOUS
 62
     2
 10
26.302009722
 20
101.852875504
 30
0.0
 11
26.367188973
 21
101.952630326
 31
0.0
  0
LINE
  8
0
  6
CONTINUOUS
 62
     2
 10
26.367188973
 20
101.952630326
 30
0.0
 11
26.454636755
 21
102.029058061
 31
0.0
  0
LINE
  8
0
  6
CONTINUOUS
 62
     2
 10
26.454636755
 20
102.029058061
 30
0.0
 11
26.5535188
 21
102.071431169
 31
0.0
  0
LINE
  8
0
  6
CONTINUOUS
 62
     2
 10
26.5535188
 20
102.071431169
 30
0.0
 11
26.724992233
 21
102.100029703
 31
0.0
  0
LINE
  8
0
  6
CONTINUOUS
 62
     2
 10
26.724992233
 20
102.100029703
 30
0.0
 11
26.809062679
 21
102.152793714
 31
0.0
  0
LINE
  8
0
  6
CONTINUOUS
 62
     2
 10
26.809062679
 20
102.152793714
 30
0.0
 11
26.875527897
 21
102.231140812
 31
0.0
  0
LINE
  8
0
  6
CONTINUOUS
 62
     2
 10
26.875527897
 20
102.231140812
 30
0.0
 11
26.92515087
 21
102.341315018
 31
0.0
  0
LINE
  8
0
  6
CONTINUOUS
 62
     2
 10
26.92515087
 20
102.341315018
 30
0.0
 11
26.944998272
 21
102.481314391
 31
0.0
  0
LINE
  8
0
  6
CONTINUOUS
 62
     2
 10
26.944998272
 20
102.481314391
 30
0.0
 11
26.925746376
 21
102.616654317
 31
0.0
  0
LINE
  8
0
  6
CONTINUOUS
 62
     2
 10
26.925746376
 20
102.616654317
 30
0.0
 11
26.874525037
 21
102.730428557
 31
0.0
  0
LINE
  8
0
  6
CONTINUOUS
 62
     2
 10
26.874525037
 20
102.730428557
 30
0.0
 11
26.804782977
 21
102.810903312
 31
0.0
  0
LINE
  8
0
  6
CONTINUOUS
 62
     2
 10
26.804782977
 20
102.810903312
 30
0.0
 11
26.72577657
 21
102.859646387
 31
0.0
  0
LINE
  8
0
  6
CONTINUOUS
 62
     2
 10
26.72577657
 20
102.859646387
 30
0.0
 11
26.625807566
 21
102.879998726
 31
0.0
  0
LINE
  8
0
  6
CONTINUOUS
 62
     2
 10
26.625807566
 20
102.879998726
 30
0.0
 11
26.525737029
 21
102.860268948
 31
0.0
  0
LINE
  8
0
  6
CONTINUOUS
 62
     2
 10
26.525737029
 20
102.860268948
 30
0.0
 11
26.445337311
 21
102.811005377
 31
0.0
  0
LINE
  8
0
  6
CONTINUOUS
 62
     2
 10
26.445337311
 20
102.811005377
 30
0.0
 11
26.375646165
 21
102.730694862
 31
0.0
  0
LINE
  8
0
  6
CONTINUOUS
 62
     2
 10
26.375646165
 20
102.730694862
 30
0.0
 11
26.324766528
 21
102.618405329
 31
0.0
  0
LINE
  8
0
  6
CONTINUOUS
 62
     2
 10
26.324766528
 20
102.618405329
 30
0.0
 11
26.305002539
 21
102.478406504
 31
0.0
  0
LINE
  8
0
  6
CONTINUOUS
 62
     2
 10
26.305002539
 20
102.478406504
 30
0.0
 11
26.324925856
 21
102.341055834
 31
0.0
  0
LINE
  8
0
  6
CONTINUOUS
 62
     2
 10
26.324925856
 20
102.341055834
 30
0.0
 11
26.374681192
 21
102.230812275
 31
0.0
  0
LINE
  8
0
  6
CONTINUOUS
 62
     2
 10
26.374681192
 20
102.230812275
 30
0.0
 11
26.451220188
 21
102.144122937
 31
0.0
  0
LINE
  8
0
  6
CONTINUOUS
 62
     2
 10
26.451220188
 20
102.144122937
 30
0.0
 11
26.540162297
 21
102.09431359
 31
0.0
  0
LINE
  8
0
  6
CONTINUOUS
 62
     2
 10
26.540162297
 20
102.09431359
 30
0.0
 11
26.62500005
 21
102.08
 31
0.0
  0
LINE
  8
0
  6
CONTINUOUS
 62
     2
 10
26.0
 20
112.88
 30
0.0
 11
26.0
 21
112.73
 31
0.0
  0
LINE
  8
0
  6
CONTINUOUS
 62
     2
 10
26.0
 20
112.73
 30
0.0
 11
26.0
 21
112.58
 31
0.0
  0
LINE
  8
0
  6
CONTINUOUS
 62
     2
 10
26.0
 20
112.58
 30
0.0
 11
26.0
 21
112.43
 31
0.0
  0
LINE
  8
0
  6
CONTINUOUS
 62
     2
 10
26.0
 20
112.43
 30
0.0
 11
26.0
 21
112.28
 31
0.0
  0
LINE
  8
0
  6
CONTINUOUS
 62
     2
 10
26.0
 20
112.28
 30
0.0
 11
26.0
 21
112.13
 31
0.0
  0
LINE
  8
0
  6
CONTINUOUS
 62
     2
 10
26.0
 20
112.13
 30
0.0
 11
26.0
 21
111.98
 31
0.0
  0
LINE
  8
0
  6
CONTINUOUS
 62
     2
 10
26.0
 20
111.98
 30
0.0
 11
26.0
 21
111.83
 31
0.0
  0
LINE
  8
0
  6
CONTINUOUS
 62
     2
 10
26.0
 20
111.83
 30
0.0
 11
26.0
 21
111.68
 31
0.0
  0
LINE
  8
0
  6
CONTINUOUS
 62
     2
 10
26.0
 20
111.68
 30
0.0
 11
26.0
 21
111.53
 31
0.0
  0
LINE
  8
0
  6
CONTINUOUS
 62
     2
 10
26.0
 20
111.53
 30
0.0
 11
26.0
 21
111.38
 31
0.0
  0
LINE
  8
0
  6
CONTINUOUS
 62
     2
 10
26.0
 20
111.38
 30
0.0
 11
26.0
 21
111.23
 31
0.0
  0
LINE
  8
0
  6
CONTINUOUS
 62
     2
 10
26.0
 20
111.23
 30
0.0
 11
26.0
 21
111.12
 31
0.0
  0
LINE
  8
0
  6
CONTINUOUS
 62
     2
 10
26.994692979
 20
112.727631895
 30
0.0
 11
26.960314642
 21
112.584954116
 31
0.0
  0
LINE
  8
0
  6
CONTINUOUS
 62
     2
 10
26.960314642
 20
112.584954116
 30
0.0
 11
26.933340333
 21
112.439200479
 31
0.0
  0
LINE
  8
0
  6
CONTINUOUS
 62
     2
 10
26.933340333
 20
112.439200479
 30
0.0
 11
26.914123205
 21
112.291168417
 31
0.0
  0
LINE
  8
0
  6
CONTINUOUS
 62
     2
 10
26.914123205
 20
112.291168417
 30
0.0
 11
26.902908353
 21
112.141704187
 31
0.0
  0
LINE
  8
0
  6
CONTINUOUS
 62
     2
 10
26.902908353
 20
112.141704187
 30
0.0
 11
26.899824949
 21
111.991683724
 31
0.0
  0
LINE
  8
0
  6
CONTINUOUS
 62
     2
 10
26.899824949
 20
111.991683724
 30
0.0
 11
26.904882439
 21
111.841992158
 31
0.0
  0
LINE
  8
0
  6
CONTINUOUS
 62
     2
 10
26.904882439
 20
111.841992158
 30
0.0
 11
26.917971024
 21
111.69350303
 31
0.0
  0
LINE
  8
0
  6
CONTINUOUS
 62
     2
 10
26.917971024
 20
111.69350303
 30
0.0
 11
26.938866358
 21
111.547058225
 31
0.0
  0
LINE
  8
0
  6
CONTINUOUS
 62
     2
 10
26.938866358
 20
111.547058225
 30
0.0
 11
26.96723811
 21
111.403449583
 31
0.0
  0
LINE
  8
0
  6
CONTINUOUS
 62
     2
 10
26.96723811
 20
111.403449583
 30
0.0
 11
27.002661819
 21
111.263402995
 31
0.0
  0
LINE
  8
0
  6
CONTINUOUS
 62
     2
 10
27.002661819
 20
111.263402995
 30
0.0
 11
27.061749623
 21
111.198126835
 31
0.0
  0
LINE
  8
0
  6
CONTINUOUS
 62
     2
 10
27.061749623
 20
111.198126835
 30
0.0
 11
27.136463496
 21
111.147517728
 31
0.0
  0
LINE
  8
0
  6
CONTINUOUS
 62
     2
 10
27.136463496
 20
111.147517728
 30
0.0
 11
27.261478348
 21
111.120005066
 31
0.0
  0
LINE
  8
0
  6
CONTINUOUS
 62
     2
 10
27.261478348
 20
111.120005066
 30
0.0
 11
27.363683888
 21
111.139258994
 31
0.0
  0
LINE
  8
0
  6
CONTINUOUS
 62
     2
 10
27.363683888
 20
111.139258994
 30
0.0
 11
27.456548122
 21
111.196983388
 31
0.0
  0
LINE
  8
0
  6
CONTINUOUS
 62
     2
 10
27.456548122
 20
111.196983388
 30
0.0
 11
27.506231228
 21
111.257179876
 31
0.0
  0
LINE
  8
0
  6
CONTINUOUS
 62
     2
 10
27.506231228
 20
111.257179876
 30
0.0
 11
27.552208452
 21
111.403086664
 31
0.0
  0
LINE
  8
0
  6
CONTINUOUS
 62
     2
 10
27.552208452
 20
111.403086664
 30
0.0
 11
27.579903738
 21
111.542623558
 31
0.0
  0
LINE
  8
0
  6
CONTINUOUS
 62
     2
 10
27.579903738
 20
111.542623558
 30
0.0
 11
27.601501165
 21
111.693016943
 31
0.0
  0
LINE
  8
0
  6
CONTINUOUS
 62
     2
 10
27.601501165
 20
111.693016943
 30
0.0
 11
27.61465952
 21
111.842215545
 31
0.0
  0
LINE
  8
0
  6
CONTINUOUS
 62
     2
 10
27.61465952
 20
111.842215545
 30
0.0
 11
27.619706871
 21
111.99221524
 31
0.0
  0
LINE
  8
0
  6
CONTINUOUS
 62
     2
 10
27.619706871
 20
111.99221524
 30
0.0
 11
27.616359467
 21
112.147048818
 31
0.0
  0
LINE
  8
0
  6
CONTINUOUS
 62
     2
 10
27.616359467
 20
112.147048818
 30
0.0
 11
27.605429494
 21
112.290930487
 31
0.0
  0
LINE
  8
0
  6
CONTINUOUS
 62
     2
 10
27.605429494
 20
112.290930487
 30
0.0
 11
27.586024891
 21
112.44023539
 31
0.0
  0
LINE
  8
0
  6
CONTINUOUS
 62
     2
 10
27.586024891
 20
112.44023539
 30
0.0
 11
27.559451161
 21
112.583838096
 31
0.0
  0
LINE
  8
0
  6
CONTINUOUS
 62
     2
 10
27.559451161
 20
112.583838096
 30
0.0
 11
27.523464121
 21
112.730674508
 31
0.0
  0
LINE
  8
0
  6
CONTINUOUS
 62
     2
 10
27.523464121
 20
112.730674508
 30
0.0
 11
27.471320702
 21
112.808352803
 31
0.0
  0
LINE
  8
0
  6
CONTINUOUS
 62
     2
 10
27.471320702
 20
112.808352803
 30
0.0
 11
27.38521188
 21
112.871462947
 31
0.0
  0
LINE
  8
0
  6
CONTINUOUS
 62
     2
 10
27.38521188
 20
112.871462947
 30
0.0
 11
27.270333854
 21
112.899807318
 31
0.0
  0
LINE
  8
0
  6
CONTINUOUS
 62
     2
 10
27.270333854
 20
112.899807318
 30
0.0
 11
27.136433084
 21
112.872467984
 31
0.0
  0
LINE
  8
0
  6
CONTINUOUS
 62
     2
 10
27.136433084
 20
112.872467984
 30
0.0
 11
27.046943341
 21
112.806995669
 31
0.0
  0
LINE
  8
0
  6
CONTINUOUS
 62
     2
 10
27.046943341
 20
112.806995669
 30
0.0
 11
26.994692979
 21
112.727631895
 31
0.0
  0
LINE
  8
0
  6
CONTINUOUS
 62
     2
 10
28.244692979
 20
112.727631895
 30
0.0
 11
28.210314642
 21
112.584954116
 31
0.0
  0
LINE
  8
0
  6
CONTINUOUS
 62
     2
 10
28.210314642
 20
112.584954116
 30
0.0
 11
28.183340333
 21
112.439200479
 31
0.0
  0
LINE
  8
0
  6
CONTINUOUS
 62
     2
 10
28.183340333
 20
112.439200479
 30
0.0
 11
28.164123205
 21
112.291168417
 31
0.0
  0
LINE
  8
0
  6
CONTINUOUS
 62
     2
 10
28.164123205
 20
112.291168417
 30
0.0
 11
28.152908353
 21
112.141704187
 31
0.0
  0
LINE
  8
0
  6
CONTINUOUS
 62
     2
 10
28.152908353
 20
112.141704187
 30
0.0
 11
28.149824949
 21
111.991683724
 31
0.0
  0
LINE
  8
0
  6
CONTINUOUS
 62
     2
 10
28.149824949
 20
111.991683724
 30
0.0
 11
28.154882439
 21
111.841992158
 31
0.0
  0
LINE
  8
0
  6
CONTINUOUS
 62
     2
 10
28.154882439
 20
111.841992158
 30
0.0
 11
28.167971024
 21
111.69350303
 31
0.0
  0
LINE
  8
0
  6
CONTINUOUS
 62
     2
 10
28.167971024
 20
111.69350303
 30
0.0
 11
28.188866358
 21
111.547058225
 31
0.0
  0
LINE
  8
0
  6
CONTINUOUS
 62
     2
 10
28.188866358
 20
111.547058225
 30
0.0
 11
28.21723811
 21
111.403449583
 31
0.0
  0
LINE
  8
0
  6
CONTINUOUS
 62
     2
 10
28.21723811
 20
111.403449583
 30
0.0
 11
28.252661819
 21
111.263402995
 31
0.0
  0
LINE
  8
0
  6
CONTINUOUS
 62
     2
 10
28.252661819
 20
111.263402995
 30
0.0
 11
28.311749623
 21
111.198126835
 31
0.0
  0
LINE
  8
0
  6
CONTINUOUS
 62
     2
 10
28.311749623
 20
111.198126835
 30
0.0
 11
28.386463496
 21
111.147517728
 31
0.0
  0
LINE
  8
0
  6
CONTINUOUS
 62
     2
 10
28.386463496
 20
111.147517728
 30
0.0
 11
28.511478348
 21
111.120005066
 31
0.0
  0
LINE
  8
0
  6
CONTINUOUS
 62
     2
 10
28.511478348
 20
111.120005066
 30
0.0
 11
28.613683888
 21
111.139258994
 31
0.0
  0
LINE
  8
0
  6
CONTINUOUS
 62
     2
 10
28.613683888
 20
111.139258994
 30
0.0
 11
28.706548122
 21
111.196983388
 31
0.0
  0
LINE
  8
0
  6
CONTINUOUS
 62
     2
 10
28.706548122
 20
111.196983388
 30
0.0
 11
28.756231228
 21
111.257179876
 31
0.0
  0
LINE
  8
0
  6
CONTINUOUS
 62
     2
 10
28.756231228
 20
111.257179876
 30
0.0
 11
28.802208452
 21
111.403086664
 31
0.0
  0
LINE
  8
0
  6
CONTINUOUS
 62
     2
 10
28.802208452
 20
111.403086664
 30
0.0
 11
28.829903738
 21
111.542623558
 31
0.0
  0
LINE
  8
0
  6
CONTINUOUS
 62
     2
 10
28.829903738
 20
111.542623558
 30
0.0
 11
28.851501165
 21
111.693016943
 31
0.0
  0
LINE
  8
0
  6
CONTINUOUS
 62
     2
 10
28.851501165
 20
111.693016943
 30
0.0
 11
28.86465952
 21
111.842215545
 31
0.0
  0
LINE
  8
0
  6
CONTINUOUS
 62
     2
 10
28.86465952
 20
111.842215545
 30
0.0
 11
28.869706871
 21
111.99221524
 31
0.0
  0
LINE
  8
0
  6
CONTINUOUS
 62
     2
 10
28.869706871
 20
111.99221524
 30
0.0
 11
28.866359467
 21
112.147048818
 31
0.0
  0
LINE
  8
0
  6
CONTINUOUS
 62
     2
 10
28.866359467
 20
112.147048818
 30
0.0
 11
28.855429494
 21
112.290930487
 31
0.0
  0
LINE
  8
0
  6
CONTINUOUS
 62
     2
 10
28.855429494
 20
112.290930487
 30
0.0
 11
28.836024891
 21
112.44023539
 31
0.0
  0
LINE
  8
0
  6
CONTINUOUS
 62
     2
 10
28.836024891
 20
112.44023539
 30
0.0
 11
28.809451161
 21
112.583838096
 31
0.0
  0
LINE
  8
0
  6
CONTINUOUS
 62
     2
 10
28.809451161
 20
112.583838096
 30
0.0
 11
28.773464121
 21
112.730674508
 31
0.0
  0
LINE
  8
0
  6
CONTINUOUS
 62
     2
 10
28.773464121
 20
112.730674508
 30
0.0
 11
28.721320702
 21
112.808352803
 31
0.0
  0
LINE
  8
0
  6
CONTINUOUS
 62
     2
 10
28.721320702
 20
112.808352803
 30
0.0
 11
28.63521188
 21
112.871462947
 31
0.0
  0
LINE
  8
0
  6
CONTINUOUS
 62
     2
 10
28.63521188
 20
112.871462947
 30
0.0
 11
28.520333854
 21
112.899807318
 31
0.0
  0
LINE
  8
0
  6
CONTINUOUS
 62
     2
 10
28.520333854
 20
112.899807318
 30
0.0
 11
28.386433084
 21
112.872467984
 31
0.0
  0
LINE
  8
0
  6
CONTINUOUS
 62
     2
 10
28.386433084
 20
112.872467984
 30
0.0
 11
28.296943341
 21
112.806995669
 31
0.0
  0
LINE
  8
0
  6
CONTINUOUS
 62
     2
 10
28.296943341
 20
112.806995669
 30
0.0
 11
28.244692979
 21
112.727631895
 31
0.0
  0
LINE
  8
0
  6
CONTINUOUS
 62
     2
 10
34.494692979
 20
62.727631895
 30
0.0
 11
34.460314642
 21
62.584954116
 31
0.0
  0
LINE
  8
0
  6
CONTINUOUS
 62
     2
 10
34.460314642
 20
62.584954116
 30
0.0
 11
34.433340333
 21
62.439200479
 31
0.0
  0
LINE
  8
0
  6
CONTINUOUS
 62
     2
 10
34.433340333
 20
62.439200479
 30
0.0
 11
34.414123205
 21
62.291168417
 31
0.0
  0
LINE
  8
0
  6
CONTINUOUS
 62
     2
 10
34.414123205
 20
62.291168417
 30
0.0
 11
34.402908353
 21
62.141704187
 31
0.0
  0
LINE
  8
0
  6
CONTINUOUS
 62
     2
 10
34.402908353
 20
62.141704187
 30
0.0
 11
34.399824949
 21
61.991683724
 31
0.0
  0
LINE
  8
0
  6
CONTINUOUS
 62
     2
 10
34.399824949
 20
61.991683724
 30
0.0
 11
34.404882439
 21
61.841992158
 31
0.0
  0
LINE
  8
0
  6
CONTINUOUS
 62
     2
 10
34.404882439
 20
61.841992158
 30
0.0
 11
34.417971024
 21
61.69350303
 31
0.0
  0
LINE
  8
0
  6
CONTINUOUS
 62
     2
 10
34.417971024
 20
61.69350303
 30
0.0
 11
34.438866358
 21
61.547058225
 31
0.0
  0
LINE
  8
0
  6
CONTINUOUS
 62
     2
 10
34.438866358
 20
61.547058225
 30
0.0
 11
34.46723811
 21
61.403449583
 31
0.0
  0
LINE
  8
0
  6
CONTINUOUS
 62
     2
 10
34.46723811
 20
61.403449583
 30
0.0
 11
34.502661819
 21
61.263402995
 31
0.0
  0
LINE
  8
0
  6
CONTINUOUS
 62
     2
 10
34.502661819
 20
61.263402995
 30
0.0
 11
34.561749623
 21
61.198126835
 31
0.0
  0
LINE
  8
0
  6
CONTINUOUS
 62
     2
 10
34.561749623
 20
61.198126835
 30
0.0
 11
34.636463496
 21
61.147517728
 31
0.0
  0
LINE
  8
0
  6
CONTINUOUS
 62
     2
 10
34.636463496
 20
61.147517728
 30
0.0
 11
34.761478348
 21
61.120005066
 31
0.0
  0
LINE
  8
0
  6
CONTINUOUS
 62
     2
 10
34.761478348
 20
61.120005066
 30
0.0
 11
34.863683888
 21
61.139258994
 31
0.0
  0
LINE
  8
0
  6
CONTINUOUS
 62
     2
 10
34.863683888
 20
61.139258994
 30
0.0
 11
34.956548122
 21
61.196983388
 31
0.0
  0
LINE
  8
0
  6
CONTINUOUS
 62
     2
 10
34.956548122
 20
61.196983388
 30
0.0
 11
35.006231228
 21
61.257179876
 31
0.0
  0
LINE
  8
0
  6
CONTINUOUS
 62
     2
 10
35.006231228
 20
61.257179876
 30
0.0
 11
35.052208452
 21
61.403086664
 31
0.0
  0
LINE
  8
0
  6
CONTINUOUS
 62
     2
 10
35.052208452
 20
61.403086664
 30
0.0
 11
35.079903738
 21
61.542623558
 31
0.0
  0
LINE
  8
0
  6
CONTINUOUS
 62
     2
 10
35.079903738
 20
61.542623558
 30
0.0
 11
35.101501165
 21
61.693016943
 31
0.0
  0
LINE
  8
0
  6
CONTINUOUS
 62
     2
 10
35.101501165
 20
61.693016943
 30
0.0
 11
35.11465952
 21
61.842215545
 31
0.0
  0
LINE
  8
0
  6
CONTINUOUS
 62
     2
 10
35.11465952
 20
61.842215545
 30
0.0
 11
35.119706871
 21
61.99221524
 31
0.0
  0
LINE
  8
0
  6
CONTINUOUS
 62
     2
 10
35.119706871
 20
61.99221524
 30
0.0
 11
35.116359467
 21
62.147048818
 31
0.0
  0
LINE
  8
0
  6
CONTINUOUS
 62
     2
 10
35.116359467
 20
62.147048818
 30
0.0
 11
35.105429494
 21
62.290930487
 31
0.0
  0
LINE
  8
0
  6
CONTINUOUS
 62
     2
 10
35.105429494
 20
62.290930487
 30
0.0
 11
35.086024891
 21
62.44023539
 31
0.0
  0
LINE
  8
0
  6
CONTINUOUS
 62
     2
 10
35.086024891
 20
62.44023539
 30
0.0
 11
35.059451161
 21
62.583838096
 31
0.0
  0
LINE
  8
0
  6
CONTINUOUS
 62
     2
 10
35.059451161
 20
62.583838096
 30
0.0
 11
35.023464121
 21
62.730674508
 31
0.0
  0
LINE
  8
0
  6
CONTINUOUS
 62
     2
 10
35.023464121
 20
62.730674508
 30
0.0
 11
34.971320702
 21
62.808352803
 31
0.0
  0
LINE
  8
0
  6
CONTINUOUS
 62
     2
 10
34.971320702
 20
62.808352803
 30
0.0
 11
34.88521188
 21
62.871462947
 31
0.0
  0
LINE
  8
0
  6
CONTINUOUS
 62
     2
 10
34.88521188
 20
62.871462947
 30
0.0
 11
34.770333854
 21
62.899807318
 31
0.0
  0
LINE
  8
0
  6
CONTINUOUS
 62
     2
 10
34.770333854
 20
62.899807318
 30
0.0
 11
34.636433084
 21
62.872467984
 31
0.0
  0
LINE
  8
0
  6
CONTINUOUS
 62
     2
 10
34.636433084
 20
62.872467984
 30
0.0
 11
34.546943341
 21
62.806995669
 31
0.0
  0
LINE
  8
0
  6
CONTINUOUS
 62
     2
 10
34.546943341
 20
62.806995669
 30
0.0
 11
34.494692979
 21
62.727631895
 31
0.0
  0
LINE
  8
0
  6
CONTINUOUS
 62
     2
 10
33.765
 20
72.52
 30
0.0
 11
33.774003244
 21
72.600007985
 31
0.0
  0
LINE
  8
0
  6
CONTINUOUS
 62
     2
 10
33.774003244
 20
72.600007985
 30
0.0
 11
33.799881783
 21
72.674590249
 31
0.0
  0
LINE
  8
0
  6
CONTINUOUS
 62
     2
 10
33.799881783
 20
72.674590249
 30
0.0
 11
33.836121182
 21
72.734823249
 31
0.0
  0
LINE
  8
0
  6
CONTINUOUS
 62
     2
 10
33.836121182
 20
72.734823249
 30
0.0
 11
33.883872872
 21
72.787315746
 31
0.0
  0
LINE
  8
0
  6
CONTINUOUS
 62
     2
 10
33.883872872
 20
72.787315746
 30
0.0
 11
33.939254659
 21
72.82838072
 31
0.0
  0
LINE
  8
0
  6
CONTINUOUS
 62
     2
 10
33.939254659
 20
72.82838072
 30
0.0
 11
34.011509985
 21
72.861643113
 31
0.0
  0
LINE
  8
0
  6
CONTINUOUS
 62
     2
 10
34.011509985
 20
72.861643113
 30
0.0
 11
34.111763364
 21
72.879756573
 31
0.0
  0
LINE
  8
0
  6
CONTINUOUS
 62
     2
 10
34.111763364
 20
72.879756573
 30
0.0
 11
34.215321623
 21
72.8684853
 31
0.0
  0
LINE
  8
0
  6
CONTINUOUS
 62
     2
 10
34.215321623
 20
72.8684853
 30
0.0
 11
34.288827953
 21
72.840562633
 31
0.0
  0
LINE
  8
0
  6
CONTINUOUS
 62
     2
 10
34.288827953
 20
72.840562633
 30
0.0
 11
34.348217173
 21
72.802443081
 31
0.0
  0
LINE
  8
0
  6
CONTINUOUS
 62
     2
 10
34.348217173
 20
72.802443081
 30
0.0
 11
34.399194879
 21
72.753274877
 31
0.0
  0
LINE
  8
0
  6
CONTINUOUS
 62
     2
 10
34.399194879
 20
72.753274877
 30
0.0
 11
34.43838842
 21
72.697165736
 31
0.0
  0
LINE
  8
0
  6
CONTINUOUS
 62
     2
 10
34.43838842
 20
72.697165736
 30
0.0
 11
34.469634949
 21
72.624051679
 31
0.0
  0
LINE
  8
0
  6
CONTINUOUS
 62
     2
 10
34.469634949
 20
72.624051679
 30
0.0
 11
34.483893217
 21
72.548207426
 31
0.0
  0
LINE
  8
0
  6
CONTINUOUS
 62
     2
 10
34.483893217
 20
72.548207426
 30
0.0
 11
34.481978646
 21
72.473457048
 31
0.0
  0
LINE
  8
0
  6
CONTINUOUS
 62
     2
 10
34.481978646
 20
72.473457048
 30
0.0
 11
34.463055517
 21
72.396232204
 31
0.0
  0
LINE
  8
0
  6
CONTINUOUS
 62
     2
 10
34.463055517
 20
72.396232204
 30
0.0
 11
34.428938272
 21
72.326534244
 31
0.0
  0
LINE
  8
0
  6
CONTINUOUS
 62
     2
 10
34.428938272
 20
72.326534244
 30
0.0
 11
34.385651652
 21
72.25209975
 31
0.0
  0
LINE
  8
0
  6
CONTINUOUS
 62
     2
 10
34.385651652
 20
72.25209975
 30
0.0
 11
34.320465793
 21
72.14000792
 31
0.0
  0
LINE
  8
0
  6
CONTINUOUS
 62
     2
 10
34.320465793
 20
72.14000792
 30
0.0
 11
34.255279934
 21
72.027916091
 31
0.0
  0
LINE
  8
0
  6
CONTINUOUS
 62
     2
 10
34.255279934
 20
72.027916091
 30
0.0
 11
34.190094075
 21
71.915824262
 31
0.0
  0
LINE
  8
0
  6
CONTINUOUS
 62
     2
 10
34.190094075
 20
71.915824262
 30
0.0
 11
34.124908216
 21
71.803732433
 31
0.0
  0
LINE
  8
0
  6
CONTINUOUS
 62
     2
 10
34.124908216
 20
71.803732433
 30
0.0
 11
34.059722357
 21
71.691640603
 31
0.0
  0
LINE
  8
0
  6
CONTINUOUS
 62
     2
 10
34.059722357
 20
71.691640603
 30
0.0
 11
33.994536499
 21
71.579548774
 31
0.0
  0
LINE
  8
0
  6
CONTINUOUS
 62
     2
 10
33.994536499
 20
71.579548774
 30
0.0
 11
33.92935064
 21
71.467456945
 31
0.0
  0
LINE
  8
0
  6
CONTINUOUS
 62
     2
 10
33.92935064
 20
71.467456945
 30
0.0
 11
33.864164781
 21
71.355365116
 31
0.0
  0
LINE
  8
0
  6
CONTINUOUS
 62
     2
 10
33.864164781
 20
71.355365116
 30
0.0
 11
33.798978922
 21
71.243273286
 31
0.0
  0
LINE
  8
0
  6
CONTINUOUS
 62
     2
 10
33.798978922
 20
71.243273286
 30
0.0
 11
33.727290601
 21
71.12
 31
0.0
  0
LINE
  8
0
  6
CONTINUOUS
 62
     2
 10
33.727290601
 20
71.12
 30
0.0
 11
33.877290601
 21
71.12
 31
0.0
  0
LINE
  8
0
  6
CONTINUOUS
 62
     2
 10
33.877290601
 20
71.12
 30
0.0
 11
34.027290601
 21
71.12
 31
0.0
  0
LINE
  8
0
  6
CONTINUOUS
 62
     2
 10
34.027290601
 20
71.12
 30
0.0
 11
34.177290601
 21
71.12
 31
0.0
  0
LINE
  8
0
  6
CONTINUOUS
 62
     2
 10
34.177290601
 20
71.12
 30
0.0
 11
34.327290601
 21
71.12
 31
0.0
  0
LINE
  8
0
  6
CONTINUOUS
 62
     2
 10
34.327290601
 20
71.12
 30
0.0
 11
34.48500001
 21
71.12
 31
0.0
  0
LINE
  8
0
  6
CONTINUOUS
 62
     2
 10
35.119692979
 20
72.727631895
 30
0.0
 11
35.085314642
 21
72.584954116
 31
0.0
  0
LINE
  8
0
  6
CONTINUOUS
 62
     2
 10
35.085314642
 20
72.584954116
 30
0.0
 11
35.058340333
 21
72.439200479
 31
0.0
  0
LINE
  8
0
  6
CONTINUOUS
 62
     2
 10
35.058340333
 20
72.439200479
 30
0.0
 11
35.039123205
 21
72.291168417
 31
0.0
  0
LINE
  8
0
  6
CONTINUOUS
 62
     2
 10
35.039123205
 20
72.291168417
 30
0.0
 11
35.027908353
 21
72.141704187
 31
0.0
  0
LINE
  8
0
  6
CONTINUOUS
 62
     2
 10
35.027908353
 20
72.141704187
 30
0.0
 11
35.024824949
 21
71.991683724
 31
0.0
  0
LINE
  8
0
  6
CONTINUOUS
 62
     2
 10
35.024824949
 20
71.991683724
 30
0.0
 11
35.029882439
 21
71.841992158
 31
0.0
  0
LINE
  8
0
  6
CONTINUOUS
 62
     2
 10
35.029882439
 20
71.841992158
 30
0.0
 11
35.042971024
 21
71.69350303
 31
0.0
  0
LINE
  8
0
  6
CONTINUOUS
 62
     2
 10
35.042971024
 20
71.69350303
 30
0.0
 11
35.063866358
 21
71.547058225
 31
0.0
  0
LINE
  8
0
  6
CONTINUOUS
 62
     2
 10
35.063866358
 20
71.547058225
 30
0.0
 11
35.09223811
 21
71.403449583
 31
0.0
  0
LINE
  8
0
  6
CONTINUOUS
 62
     2
 10
35.09223811
 20
71.403449583
 30
0.0
 11
35.127661819
 21
71.263402995
 31
0.0
  0
LINE
  8
0
  6
CONTINUOUS
 62
     2
 10
35.127661819
 20
71.263402995
 30
0.0
 11
35.186749623
 21
71.198126835
 31
0.0
  0
LINE
  8
0
  6
CONTINUOUS
 62
     2
 10
35.186749623
 20
71.198126835
 30
0.0
 11
35.261463496
 21
71.147517728
 31
0.0
  0
LINE
  8
0
  6
CONTINUOUS
 62
     2
 10
35.261463496
 20
71.147517728
 30
0.0
 11
35.386478348
 21
71.120005066
 31
0.0
  0
LINE
  8
0
  6
CONTINUOUS
 62
     2
 10
35.386478348
 20
71.120005066
 30
0.0
 11
35.488683888
 21
71.139258994
 31
0.0
  0
LINE
  8
0
  6
CONTINUOUS
 62
     2
 10
35.488683888
 20
71.139258994
 30
0.0
 11
35.581548122
 21
71.196983388
 31
0.0
  0
LINE
  8
0
  6
CONTINUOUS
 62
     2
 10
35.581548122
 20
71.196983388
 30
0.0
 11
35.631231228
 21
71.257179876
 31
0.0
  0
LINE
  8
0
  6
CONTINUOUS
 62
     2
 10
35.631231228
 20
71.257179876
 30
0.0
 11
35.677208452
 21
71.403086664
 31
0.0
  0
LINE
  8
0
  6
CONTINUOUS
 62
     2
 10
35.677208452
 20
71.403086664
 30
0.0
 11
35.704903738
 21
71.542623558
 31
0.0
  0
LINE
  8
0
  6
CONTINUOUS
 62
     2
 10
35.704903738
 20
71.542623558
 30
0.0
 11
35.726501165
 21
71.693016943
 31
0.0
  0
LINE
  8
0
  6
CONTINUOUS
 62
     2
 10
35.726501165
 20
71.693016943
 30
0.0
 11
35.73965952
 21
71.842215545
 31
0.0
  0
LINE
  8
0
  6
CONTINUOUS
 62
     2
 10
35.73965952
 20
71.842215545
 30
0.0
 11
35.744706871
 21
71.99221524
 31
0.0
  0
LINE
  8
0
  6
CONTINUOUS
 62
     2
 10
35.744706871
 20
71.99221524
 30
0.0
 11
35.741359467
 21
72.147048818
 31
0.0
  0
LINE
  8
0
  6
CONTINUOUS
 62
     2
 10
35.741359467
 20
72.147048818
 30
0.0
 11
35.730429494
 21
72.290930487
 31
0.0
  0
LINE
  8
0
  6
CONTINUOUS
 62
     2
 10
35.730429494
 20
72.290930487
 30
0.0
 11
35.711024891
 21
72.44023539
 31
0.0
  0
LINE
  8
0
  6
CONTINUOUS
 62
     2
 10
35.711024891
 20
72.44023539
 30
0.0
 11
35.684451161
 21
72.583838096
 31
0.0
  0
LINE
  8
0
  6
CONTINUOUS
 62
     2
 10
35.684451161
 20
72.583838096
 30
0.0
 11
35.648464121
 21
72.730674508
 31
0.0
  0
LINE
  8
0
  6
CONTINUOUS
 62
     2
 10
35.648464121
 20
72.730674508
 30
0.0
 11
35.596320702
 21
72.808352803
 31
0.0
  0
LINE
  8
0
  6
CONTINUOUS
 62
     2
 10
35.596320702
 20
72.808352803
 30
0.0
 11
35.51021188
 21
72.871462947
 31
0.0
  0
LINE
  8
0
  6
CONTINUOUS
 62
     2
 10
35.51021188
 20
72.871462947
 30
0.0
 11
35.395333854
 21
72.899807318
 31
0.0
  0
LINE
  8
0
  6
CONTINUOUS
 62
     2
 10
35.395333854
 20
72.899807318
 30
0.0
 11
35.261433084
 21
72.872467984
 31
0.0
  0
LINE
  8
0
  6
CONTINUOUS
 62
     2
 10
35.261433084
 20
72.872467984
 30
0.0
 11
35.171943341
 21
72.806995669
 31
0.0
  0
LINE
  8
0
  6
CONTINUOUS
 62
     2
 10
35.171943341
 20
72.806995669
 30
0.0
 11
35.119692979
 21
72.727631895
 31
0.0
  0
LINE
  8
0
  6
CONTINUOUS
 62
     2
 10
35.119692979
 20
82.727631895
 30
0.0
 11
35.085314642
 21
82.584954116
 31
0.0
  0
LINE
  8
0
  6
CONTINUOUS
 62
     2
 10
35.085314642
 20
82.584954116
 30
0.0
 11
35.058340333
 21
82.439200479
 31
0.0
  0
LINE
  8
0
  6
CONTINUOUS
 62
     2
 10
35.058340333
 20
82.439200479
 30
0.0
 11
35.039123205
 21
82.291168417
 31
0.0
  0
LINE
  8
0
  6
CONTINUOUS
 62
     2
 10
35.039123205
 20
82.291168417
 30
0.0
 11
35.027908353
 21
82.141704187
 31
0.0
  0
LINE
  8
0
  6
CONTINUOUS
 62
     2
 10
35.027908353
 20
82.141704187
 30
0.0
 11
35.024824949
 21
81.991683724
 31
0.0
  0
LINE
  8
0
  6
CONTINUOUS
 62
     2
 10
35.024824949
 20
81.991683724
 30
0.0
 11
35.029882439
 21
81.841992158
 31
0.0
  0
LINE
  8
0
  6
CONTINUOUS
 62
     2
 10
35.029882439
 20
81.841992158
 30
0.0
 11
35.042971024
 21
81.69350303
 31
0.0
  0
LINE
  8
0
  6
CONTINUOUS
 62
     2
 10
35.042971024
 20
81.69350303
 30
0.0
 11
35.063866358
 21
81.547058225
 31
0.0
  0
LINE
  8
0
  6
CONTINUOUS
 62
     2
 10
35.063866358
 20
81.547058225
 30
0.0
 11
35.09223811
 21
81.403449583
 31
0.0
  0
LINE
  8
0
  6
CONTINUOUS
 62
     2
 10
35.09223811
 20
81.403449583
 30
0.0
 11
35.127661819
 21
81.263402995
 31
0.0
  0
LINE
  8
0
  6
CONTINUOUS
 62
     2
 10
35.127661819
 20
81.263402995
 30
0.0
 11
35.186749623
 21
81.198126835
 31
0.0
  0
LINE
  8
0
  6
CONTINUOUS
 62
     2
 10
35.186749623
 20
81.198126835
 30
0.0
 11
35.261463496
 21
81.147517728
 31
0.0
  0
LINE
  8
0
  6
CONTINUOUS
 62
     2
 10
35.261463496
 20
81.147517728
 30
0.0
 11
35.386478348
 21
81.120005066
 31
0.0
  0
LINE
  8
0
  6
CONTINUOUS
 62
     2
 10
35.386478348
 20
81.120005066
 30
0.0
 11
35.488683888
 21
81.139258994
 31
0.0
  0
LINE
  8
0
  6
CONTINUOUS
 62
     2
 10
35.488683888
 20
81.139258994
 30
0.0
 11
35.581548122
 21
81.196983388
 31
0.0
  0
LINE
  8
0
  6
CONTINUOUS
 62
     2
 10
35.581548122
 20
81.196983388
 30
0.0
 11
35.631231228
 21
81.257179876
 31
0.0
  0
LINE
  8
0
  6
CONTINUOUS
 62
     2
 10
35.631231228
 20
81.257179876
 30
0.0
 11
35.677208452
 21
81.403086664
 31
0.0
  0
LINE
  8
0
  6
CONTINUOUS
 62
     2
 10
35.677208452
 20
81.403086664
 30
0.0
 11
35.704903738
 21
81.542623558
 31
0.0
  0
LINE
  8
0
  6
CONTINUOUS
 62
     2
 10
35.704903738
 20
81.542623558
 30
0.0
 11
35.726501165
 21
81.693016943
 31
0.0
  0
LINE
  8
0
  6
CONTINUOUS
 62
     2
 10
35.726501165
 20
81.693016943
 30
0.0
 11
35.73965952
 21
81.842215545
 31
0.0
  0
LINE
  8
0
  6
CONTINUOUS
 62
     2
 10
35.73965952
 20
81.842215545
 30
0.0
 11
35.744706871
 21
81.99221524
 31
0.0
  0
LINE
  8
0
  6
CONTINUOUS
 62
     2
 10
35.744706871
 20
81.99221524
 30
0.0
 11
35.741359467
 21
82.147048818
 31
0.0
  0
LINE
  8
0
  6
CONTINUOUS
 62
     2
 10
35.741359467
 20
82.147048818
 30
0.0
 11
35.730429494
 21
82.290930487
 31
0.0
  0
LINE
  8
0
  6
CONTINUOUS
 62
     2
 10
35.730429494
 20
82.290930487
 30
0.0
 11
35.711024891
 21
82.44023539
 31
0.0
  0
LINE
  8
0
  6
CONTINUOUS
 62
     2
 10
35.711024891
 20
82.44023539
 30
0.0
 11
35.684451161
 21
82.583838096
 31
0.0
  0
LINE
  8
0
  6
CONTINUOUS
 62
     2
 10
35.684451161
 20
82.583838096
 30
0.0
 11
35.648464121
 21
82.730674508
 31
0.0
  0
LINE
  8
0
  6
CONTINUOUS
 62
     2
 10
35.648464121
 20
82.730674508
 30
0.0
 11
35.596320702
 21
82.808352803
 31
0.0
  0
LINE
  8
0
  6
CONTINUOUS
 62
     2
 10
35.596320702
 20
82.808352803
 30
0.0
 11
35.51021188
 21
82.871462947
 31
0.0
  0
LINE
  8
0
  6
CONTINUOUS
 62
     2
 10
35.51021188
 20
82.871462947
 30
0.0
 11
35.395333854
 21
82.899807318
 31
0.0
  0
LINE
  8
0
  6
CONTINUOUS
 62
     2
 10
35.395333854
 20
82.899807318
 30
0.0
 11
35.261433084
 21
82.872467984
 31
0.0
  0
LINE
  8
0
  6
CONTINUOUS
 62
     2
 10
35.261433084
 20
82.872467984
 30
0.0
 11
35.171943341
 21
82.806995669
 31
0.0
  0
LINE
  8
0
  6
CONTINUOUS
 62
     2
 10
35.171943341
 20
82.806995669
 30
0.0
 11
35.119692979
 21
82.727631895
 31
0.0
  0
LINE
  8
0
  6
CONTINUOUS
 62
     2
 10
34.285
 20
81.12
 30
0.0
 11
34.285
 21
81.27
 31
0.0
  0
LINE
  8
0
  6
CONTINUOUS
 62
     2
 10
34.285
 20
81.27
 30
0.0
 11
34.285
 21
81.42
 31
0.0
  0
LINE
  8
0
  6
CONTINUOUS
 62
     2
 10
34.285
 20
81.42
 30
0.0
 11
34.285
 21
81.57
 31
0.0
  0
LINE
  8
0
  6
CONTINUOUS
 62
     2
 10
34.285
 20
81.57
 30
0.0
 11
34.285
 21
81.72
 31
0.0
  0
LINE
  8
0
  6
CONTINUOUS
 62
     2
 10
34.285
 20
81.72
 30
0.0
 11
34.285
 21
81.87
 31
0.0
  0
LINE
  8
0
  6
CONTINUOUS
 62
     2
 10
34.285
 20
81.87
 30
0.0
 11
34.285
 21
82.02
 31
0.0
  0
LINE
  8
0
  6
CONTINUOUS
 62
     2
 10
34.285
 20
82.02
 30
0.0
 11
34.285
 21
82.22
 31
0.0
  0
LINE
  8
0
  6
CONTINUOUS
 62
     2
 10
34.285
 20
82.22
 30
0.0
 11
34.285
 21
82.07
 31
0.0
  0
LINE
  8
0
  6
CONTINUOUS
 62
     2
 10
34.285
 20
82.07
 30
0.0
 11
34.285
 21
81.92
 31
0.0
  0
LINE
  8
0
  6
CONTINUOUS
 62
     2
 10
34.285
 20
81.92
 30
0.0
 11
34.285
 21
81.77
 31
0.0
  0
LINE
  8
0
  6
CONTINUOUS
 62
     2
 10
34.285
 20
81.77
 30
0.0
 11
34.285
 21
81.62
 31
0.0
  0
LINE
  8
0
  6
CONTINUOUS
 62
     2
 10
34.285
 20
81.62
 30
0.0
 11
34.285
 21
81.52
 31
0.0
  0
LINE
  8
0
  6
CONTINUOUS
 62
     2
 10
34.285
 20
81.52
 30
0.0
 11
34.485
 21
81.52
 31
0.0
  0
LINE
  8
0
  6
CONTINUOUS
 62
     2
 10
34.485
 20
81.52
 30
0.0
 11
34.335
 21
81.52
 31
0.0
  0
LINE
  8
0
  6
CONTINUOUS
 62
     2
 10
34.335
 20
81.52
 30
0.0
 11
34.185
 21
81.52
 31
0.0
  0
LINE
  8
0
  6
CONTINUOUS
 62
     2
 10
34.185
 20
81.52
 30
0.0
 11
34.035
 21
81.52
 31
0.0
  0
LINE
  8
0
  6
CONTINUOUS
 62
     2
 10
34.035
 20
81.52
 30
0.0
 11
33.885
 21
81.52
 31
0.0
  0
LINE
  8
0
  6
CONTINUOUS
 62
     2
 10
33.885
 20
81.52
 30
0.0
 11
33.765
 21
81.52
 31
0.0
  0
LINE
  8
0
  6
CONTINUOUS
 62
     2
 10
33.765
 20
81.52
 30
0.0
 11
33.799448276
 21
81.66162069
 31
0.0
  0
LINE
  8
0
  6
CONTINUOUS
 62
     2
 10
33.799448276
 20
81.66162069
 30
0.0
 11
33.833896552
 21
81.803241379
 31
0.0
  0
LINE
  8
0
  6
CONTINUOUS
 62
     2
 10
33.833896552
 20
81.803241379
 30
0.0
 11
33.868344828
 21
81.944862069
 31
0.0
  0
LINE
  8
0
  6
CONTINUOUS
 62
     2
 10
33.868344828
 20
81.944862069
 30
0.0
 11
33.902793103
 21
82.086482759
 31
0.0
  0
LINE
  8
0
  6
CONTINUOUS
 62
     2
 10
33.902793103
 20
82.086482759
 30
0.0
 11
33.937241379
 21
82.228103448
 31
0.0
  0
LINE
  8
0
  6
CONTINUOUS
 62
     2
 10
33.937241379
 20
82.228103448
 30
0.0
 11
33.971689655
 21
82.369724138
 31
0.0
  0
LINE
  8
0
  6
CONTINUOUS
 62
     2
 10
33.971689655
 20
82.369724138
 30
0.0
 11
34.006137931
 21
82.511344828
 31
0.0
  0
LINE
  8
0
  6
CONTINUOUS
 62
     2
 10
34.006137931
 20
82.511344828
 30
0.0
 11
34.040586207
 21
82.652965517
 31
0.0
  0
LINE
  8
0
  6
CONTINUOUS
 62
     2
 10
34.040586207
 20
82.652965517
 30
0.0
 11
34.075034483
 21
82.794586207
 31
0.0
  0
LINE
  8
0
  6
CONTINUOUS
 62
     2
 10
34.075034483
 20
82.794586207
 30
0.0
 11
34.096637811
 21
82.883399888
 31
0.0
  0
LINE
  8
0
  6
CONTINUOUS
 62
     2
 10
35.119692979
 20
92.727631895
 30
0.0
 11
35.085314642
 21
92.584954116
 31
0.0
  0
LINE
  8
0
  6
CONTINUOUS
 62
     2
 10
35.085314642
 20
92.584954116
 30
0.0
 11
35.058340333
 21
92.439200479
 31
0.0
  0
LINE
  8
0
  6
CONTINUOUS
 62
     2
 10
35.058340333
 20
92.439200479
 30
0.0
 11
35.039123205
 21
92.291168417
 31
0.0
  0
LINE
  8
0
  6
CONTINUOUS
 62
     2
 10
35.039123205
 20
92.291168417
 30
0.0
 11
35.027908353
 21
92.141704187
 31
0.0
  0
LINE
  8
0
  6
CONTINUOUS
 62
     2
 10
35.027908353
 20
92.141704187
 30
0.0
 11
35.024824949
 21
91.991683724
 31
0.0
  0
LINE
  8
0
  6
CONTINUOUS
 62
     2
 10
35.024824949
 20
91.991683724
 30
0.0
 11
35.029882439
 21
91.841992158
 31
0.0
  0
LINE
  8
0
  6
CONTINUOUS
 62
     2
 10
35.029882439
 20
91.841992158
 30
0.0
 11
35.042971024
 21
91.69350303
 31
0.0
  0
LINE
  8
0
  6
CONTINUOUS
 62
     2
 10
35.042971024
 20
91.69350303
 30
0.0
 11
35.063866358
 21
91.547058225
 31
0.0
  0
LINE
  8
0
  6
CONTINUOUS
 62
     2
 10
35.063866358
 20
91.547058225
 30
0.0
 11
35.09223811
 21
91.403449583
 31
0.0
  0
LINE
  8
0
  6
CONTINUOUS
 62
     2
 10
35.09223811
 20
91.403449583
 30
0.0
 11
35.127661819
 21
91.263402995
 31
0.0
  0
LINE
  8
0
  6
CONTINUOUS
 62
     2
 10
35.127661819
 20
91.263402995
 30
0.0
 11
35.186749623
 21
91.198126835
 31
0.0
  0
LINE
  8
0
  6
CONTINUOUS
 62
     2
 10
35.186749623
 20
91.198126835
 30
0.0
 11
35.261463496
 21
91.147517728
 31
0.0
  0
LINE
  8
0
  6
CONTINUOUS
 62
     2
 10
35.261463496
 20
91.147517728
 30
0.0
 11
35.386478348
 21
91.120005066
 31
0.0
  0
LINE
  8
0
  6
CONTINUOUS
 62
     2
 10
35.386478348
 20
91.120005066
 30
0.0
 11
35.488683888
 21
91.139258994
 31
0.0
  0
LINE
  8
0
  6
CONTINUOUS
 62
     2
 10
35.488683888
 20
91.139258994
 30
0.0
 11
35.581548122
 21
91.196983388
 31
0.0
  0
LINE
  8
0
  6
CONTINUOUS
 62
     2
 10
35.581548122
 20
91.196983388
 30
0.0
 11
35.631231228
 21
91.257179876
 31
0.0
  0
LINE
  8
0
  6
CONTINUOUS
 62
     2
 10
35.631231228
 20
91.257179876
 30
0.0
 11
35.677208452
 21
91.403086664
 31
0.0
  0
LINE
  8
0
  6
CONTINUOUS
 62
     2
 10
35.677208452
 20
91.403086664
 30
0.0
 11
35.704903738
 21
91.542623558
 31
0.0
  0
LINE
  8
0
  6
CONTINUOUS
 62
     2
 10
35.704903738
 20
91.542623558
 30
0.0
 11
35.726501165
 21
91.693016943
 31
0.0
  0
LINE
  8
0
  6
CONTINUOUS
 62
     2
 10
35.726501165
 20
91.693016943
 30
0.0
 11
35.73965952
 21
91.842215545
 31
0.0
  0
LINE
  8
0
  6
CONTINUOUS
 62
     2
 10
35.73965952
 20
91.842215545
 30
0.0
 11
35.744706871
 21
91.99221524
 31
0.0
  0
LINE
  8
0
  6
CONTINUOUS
 62
     2
 10
35.744706871
 20
91.99221524
 30
0.0
 11
35.741359467
 21
92.147048818
 31
0.0
  0
LINE
  8
0
  6
CONTINUOUS
 62
     2
 10
35.741359467
 20
92.147048818
 30
0.0
 11
35.730429494
 21
92.290930487
 31
0.0
  0
LINE
  8
0
  6
CONTINUOUS
 62
     2
 10
35.730429494
 20
92.290930487
 30
0.0
 11
35.711024891
 21
92.44023539
 31
0.0
  0
LINE
  8
0
  6
CONTINUOUS
 62
     2
 10
35.711024891
 20
92.44023539
 30
0.0
 11
35.684451161
 21
92.583838096
 31
0.0
  0
LINE
  8
0
  6
CONTINUOUS
 62
     2
 10
35.684451161
 20
92.583838096
 30
0.0
 11
35.648464121
 21
92.730674508
 31
0.0
  0
LINE
  8
0
  6
CONTINUOUS
 62
     2
 10
35.648464121
 20
92.730674508
 30
0.0
 11
35.596320702
 21
92.808352803
 31
0.0
  0
LINE
  8
0
  6
CONTINUOUS
 62
     2
 10
35.596320702
 20
92.808352803
 30
0.0
 11
35.51021188
 21
92.871462947
 31
0.0
  0
LINE
  8
0
  6
CONTINUOUS
 62
     2
 10
35.51021188
 20
92.871462947
 30
0.0
 11
35.395333854
 21
92.899807318
 31
0.0
  0
LINE
  8
0
  6
CONTINUOUS
 62
     2
 10
35.395333854
 20
92.899807318
 30
0.0
 11
35.261433084
 21
92.872467984
 31
0.0
  0
LINE
  8
0
  6
CONTINUOUS
 62
     2
 10
35.261433084
 20
92.872467984
 30
0.0
 11
35.171943341
 21
92.806995669
 31
0.0
  0
LINE
  8
0
  6
CONTINUOUS
 62
     2
 10
35.171943341
 20
92.806995669
 30
0.0
 11
35.119692979
 21
92.727631895
 31
0.0
  0
LINE
  8
0
  6
CONTINUOUS
 62
     2
 10
33.745
 20
91.6
 30
0.0
 11
33.763210375
 21
91.746810616
 31
0.0
  0
LINE
  8
0
  6
CONTINUOUS
 62
     2
 10
33.763210375
 20
91.746810616
 30
0.0
 11
33.812252328
 21
91.872645817
 31
0.0
  0
LINE
  8
0
  6
CONTINUOUS
 62
     2
 10
33.812252328
 20
91.872645817
 30
0.0
 11
33.886554138
 21
91.973740162
 31
0.0
  0
LINE
  8
0
  6
CONTINUOUS
 62
     2
 10
33.886554138
 20
91.973740162
 30
0.0
 11
33.98701761
 21
92.047237923
 31
0.0
  0
LINE
  8
0
  6
CONTINUOUS
 62
     2
 10
33.98701761
 20
92.047237923
 30
0.0
 11
34.11181217
 21
92.079710851
 31
0.0
  0
LINE
  8
0
  6
CONTINUOUS
 62
     2
 10
34.11181217
 20
92.079710851
 30
0.0
 11
34.274051808
 21
92.041533872
 31
0.0
  0
LINE
  8
0
  6
CONTINUOUS
 62
     2
 10
34.274051808
 20
92.041533872
 30
0.0
 11
34.359672227
 21
91.97753198
 31
0.0
  0
LINE
  8
0
  6
CONTINUOUS
 62
     2
 10
34.359672227
 20
91.97753198
 30
0.0
 11
34.438406606
 21
91.871435848
 31
0.0
  0
LINE
  8
0
  6
CONTINUOUS
 62
     2
 10
34.438406606
 20
91.871435848
 30
0.0
 11
34.486069872
 21
91.749611162
 31
0.0
  0
LINE
  8
0
  6
CONTINUOUS
 62
     2
 10
34.486069872
 20
91.749611162
 30
0.0
 11
34.504999873
 21
91.599607098
 31
0.0
  0
LINE
  8
0
  6
CONTINUOUS
 62
     2
 10
34.504999873
 20
91.599607098
 30
0.0
 11
34.493629721
 21
91.483459539
 31
0.0
  0
LINE
  8
0
  6
CONTINUOUS
 62
     2
 10
34.493629721
 20
91.483459539
 30
0.0
 11
34.450828498
 21
91.353002434
 31
0.0
  0
LINE
  8
0
  6
CONTINUOUS
 62
     2
 10
34.450828498
 20
91.353002434
 30
0.0
 11
34.362525369
 21
91.225325779
 31
0.0
  0
LINE
  8
0
  6
CONTINUOUS
 62
     2
 10
34.362525369
 20
91.225325779
 30
0.0
 11
34.28047554
 21
91.162014947
 31
0.0
  0
LINE
  8
0
  6
CONTINUOUS
 62
     2
 10
34.28047554
 20
91.162014947
 30
0.0
 11
34.115537341
 21
91.120148846
 31
0.0
  0
LINE
  8
0
  6
CONTINUOUS
 62
     2
 10
34.115537341
 20
91.120148846
 30
0.0
 11
33.994040431
 21
91.149405549
 31
0.0
  0
LINE
  8
0
  6
CONTINUOUS
 62
     2
 10
33.994040431
 20
91.149405549
 30
0.0
 11
33.884885651
 21
91.227968156
 31
0.0
  0
LINE
  8
0
  6
CONTINUOUS
 62
     2
 10
33.884885651
 20
91.227968156
 30
0.0
 11
33.807601555
 21
91.336068827
 31
0.0
  0
LINE
  8
0
  6
CONTINUOUS
 62
     2
 10
33.807601555
 20
91.336068827
 30
0.0
 11
33.759609201
 21
91.468185592
 31
0.0
  0
LINE
  8
0
  6
CONTINUOUS
 62
     2
 10
33.759609201
 20
91.468185592
 30
0.0
 11
33.750782971
 21
91.746557868
 31
0.0
  0
LINE
  8
0
  6
CONTINUOUS
 62
     2
 10
33.750782971
 20
91.746557868
 30
0.0
 11
33.764948535
 21
91.871681071
 31
0.0
  0
LINE
  8
0
  6
CONTINUOUS
 62
     2
 10
33.764948535
 20
91.871681071
 30
0.0
 11
33.79294074
 21
92.019572686
 31
0.0
  0
LINE
  8
0
  6
CONTINUOUS
 62
     2
 10
33.79294074
 20
92.019572686
 30
0.0
 11
33.83516461
 21
92.172086263
 31
0.0
  0
LINE
  8
0
  6
CONTINUOUS
 62
     2
 10
33.83516461
 20
92.172086263
 30
0.0
 11
33.882822786
 21
92.302641904
 31
0.0
  0
LINE
  8
0
  6
CONTINUOUS
 62
     2
 10
33.882822786
 20
92.302641904
 30
0.0
 11
33.938108063
 21
92.425270422
 31
0.0
  0
LINE
  8
0
  6
CONTINUOUS
 62
     2
 10
33.938108063
 20
92.425270422
 30
0.0
 11
33.999595268
 21
92.539295292
 31
0.0
  0
LINE
  8
0
  6
CONTINUOUS
 62
     2
 10
33.999595268
 20
92.539295292
 30
0.0
 11
34.065856534
 21
92.644335861
 31
0.0
  0
LINE
  8
0
  6
CONTINUOUS
 62
     2
 10
34.065856534
 20
92.644335861
 30
0.0
 11
34.13552153
 21
92.74027761
 31
0.0
  0
LINE
  8
0
  6
CONTINUOUS
 62
     2
 10
34.13552153
 20
92.74027761
 30
0.0
 11
34.257975723
 21
92.882624496
 31
0.0
  0
LINE
  8
0
  6
CONTINUOUS
 62
     2
 10
35.119692979
 20
102.727631895
 30
0.0
 11
35.085314642
 21
102.584954116
 31
0.0
  0
LINE
  8
0
  6
CONTINUOUS
 62
     2
 10
35.085314642
 20
102.584954116
 30
0.0
 11
35.058340333
 21
102.439200479
 31
0.0
  0
LINE
  8
0
  6
CONTINUOUS
 62
     2
 10
35.058340333
 20
102.439200479
 30
0.0
 11
35.039123205
 21
102.291168417
 31
0.0
  0
LINE
  8
0
  6
CONTINUOUS
 62
     2
 10
35.039123205
 20
102.291168417
 30
0.0
 11
35.027908353
 21
102.141704187
 31
0.0
  0
LINE
  8
0
  6
CONTINUOUS
 62
     2
 10
35.027908353
 20
102.141704187
 30
0.0
 11
35.024824949
 21
101.991683724
 31
0.0
  0
LINE
  8
0
  6
CONTINUOUS
 62
     2
 10
35.024824949
 20
101.991683724
 30
0.0
 11
35.029882439
 21
101.841992158
 31
0.0
  0
LINE
  8
0
  6
CONTINUOUS
 62
     2
 10
35.029882439
 20
101.841992158
 30
0.0
 11
35.042971024
 21
101.69350303
 31
0.0
  0
LINE
  8
0
  6
CONTINUOUS
 62
     2
 10
35.042971024
 20
101.69350303
 30
0.0
 11
35.063866358
 21
101.547058225
 31
0.0
  0
LINE
  8
0
  6
CONTINUOUS
 62
     2
 10
35.063866358
 20
101.547058225
 30
0.0
 11
35.09223811
 21
101.403449583
 31
0.0
  0
LINE
  8
0
  6
CONTINUOUS
 62
     2
 10
35.09223811
 20
101.403449583
 30
0.0
 11
35.127661819
 21
101.263402995
 31
0.0
  0
LINE
  8
0
  6
CONTINUOUS
 62
     2
 10
35.127661819
 20
101.263402995
 30
0.0
 11
35.186749623
 21
101.198126835
 31
0.0
  0
LINE
  8
0
  6
CONTINUOUS
 62
     2
 10
35.186749623
 20
101.198126835
 30
0.0
 11
35.261463496
 21
101.147517728
 31
0.0
  0
LINE
  8
0
  6
CONTINUOUS
 62
     2
 10
35.261463496
 20
101.147517728
 30
0.0
 11
35.386478348
 21
101.120005066
 31
0.0
  0
LINE
  8
0
  6
CONTINUOUS
 62
     2
 10
35.386478348
 20
101.120005066
 30
0.0
 11
35.488683888
 21
101.139258994
 31
0.0
  0
LINE
  8
0
  6
CONTINUOUS
 62
     2
 10
35.488683888
 20
101.139258994
 30
0.0
 11
35.581548122
 21
101.196983388
 31
0.0
  0
LINE
  8
0
  6
CONTINUOUS
 62
     2
 10
35.581548122
 20
101.196983388
 30
0.0
 11
35.631231228
 21
101.257179876
 31
0.0
  0
LINE
  8
0
  6
CONTINUOUS
 62
     2
 10
35.631231228
 20
101.257179876
 30
0.0
 11
35.677208452
 21
101.403086664
 31
0.0
  0
LINE
  8
0
  6
CONTINUOUS
 62
     2
 10
35.677208452
 20
101.403086664
 30
0.0
 11
35.704903738
 21
101.542623558
 31
0.0
  0
LINE
  8
0
  6
CONTINUOUS
 62
     2
 10
35.704903738
 20
101.542623558
 30
0.0
 11
35.726501165
 21
101.693016943
 31
0.0
  0
LINE
  8
0
  6
CONTINUOUS
 62
     2
 10
35.726501165
 20
101.693016943
 30
0.0
 11
35.73965952
 21
101.842215545
 31
0.0
  0
LINE
  8
0
  6
CONTINUOUS
 62
     2
 10
35.73965952
 20
101.842215545
 30
0.0
 11
35.744706871
 21
101.99221524
 31
0.0
  0
LINE
  8
0
  6
CONTINUOUS
 62
     2
 10
35.744706871
 20
101.99221524
 30
0.0
 11
35.741359467
 21
102.147048818
 31
0.0
  0
LINE
  8
0
  6
CONTINUOUS
 62
     2
 10
35.741359467
 20
102.147048818
 30
0.0
 11
35.730429494
 21
102.290930487
 31
0.0
  0
LINE
  8
0
  6
CONTINUOUS
 62
     2
 10
35.730429494
 20
102.290930487
 30
0.0
 11
35.711024891
 21
102.44023539
 31
0.0
  0
LINE
  8
0
  6
CONTINUOUS
 62
     2
 10
35.711024891
 20
102.44023539
 30
0.0
 11
35.684451161
 21
102.583838096
 31
0.0
  0
LINE
  8
0
  6
CONTINUOUS
 62
     2
 10
35.684451161
 20
102.583838096
 30
0.0
 11
35.648464121
 21
102.730674508
 31
0.0
  0
LINE
  8
0
  6
CONTINUOUS
 62
     2
 10
35.648464121
 20
102.730674508
 30
0.0
 11
35.596320702
 21
102.808352803
 31
0.0
  0
LINE
  8
0
  6
CONTINUOUS
 62
     2
 10
35.596320702
 20
102.808352803
 30
0.0
 11
35.51021188
 21
102.871462947
 31
0.0
  0
LINE
  8
0
  6
CONTINUOUS
 62
     2
 10
35.51021188
 20
102.871462947
 30
0.0
 11
35.395333854
 21
102.899807318
 31
0.0
  0
LINE
  8
0
  6
CONTINUOUS
 62
     2
 10
35.395333854
 20
102.899807318
 30
0.0
 11
35.261433084
 21
102.872467984
 31
0.0
  0
LINE
  8
0
  6
CONTINUOUS
 62
     2
 10
35.261433084
 20
102.872467984
 30
0.0
 11
35.171943341
 21
102.806995669
 31
0.0
  0
LINE
  8
0
  6
CONTINUOUS
 62
     2
 10
35.171943341
 20
102.806995669
 30
0.0
 11
35.119692979
 21
102.727631895
 31
0.0
  0
LINE
  8
0
  6
CONTINUOUS
 62
     2
 10
34.12500005
 20
102.08
 30
0.0
 11
34.221707499
 21
102.064195763
 31
0.0
  0
LINE
  8
0
  6
CONTINUOUS
 62
     2
 10
34.221707499
 20
102.064195763
 30
0.0
 11
34.301280563
 21
102.025226985
 31
0.0
  0
LINE
  8
0
  6
CONTINUOUS
 62
     2
 10
34.301280563
 20
102.025226985
 30
0.0
 11
34.380183482
 21
101.955666753
 31
0.0
  0
LINE
  8
0
  6
CONTINUOUS
 62
     2
 10
34.380183482
 20
101.955666753
 30
0.0
 11
34.448974344
 21
101.85085891
 31
0.0
  0
LINE
  8
0
  6
CONTINUOUS
 62
     2
 10
34.448974344
 20
101.85085891
 30
0.0
 11
34.492190825
 21
101.723575956
 31
0.0
  0
LINE
  8
0
  6
CONTINUOUS
 62
     2
 10
34.492190825
 20
101.723575956
 30
0.0
 11
34.504998209
 21
101.598526286
 31
0.0
  0
LINE
  8
0
  6
CONTINUOUS
 62
     2
 10
34.504998209
 20
101.598526286
 30
0.0
 11
34.490801853
 21
101.470017403
 31
0.0
  0
LINE
  8
0
  6
CONTINUOUS
 62
     2
 10
34.490801853
 20
101.470017403
 30
0.0
 11
34.453264421
 21
101.358203499
 31
0.0
  0
LINE
  8
0
  6
CONTINUOUS
 62
     2
 10
34.453264421
 20
101.358203499
 30
0.0
 11
34.382656455
 21
101.24718946
 31
0.0
  0
LINE
  8
0
  6
CONTINUOUS
 62
     2
 10
34.382656455
 20
101.24718946
 30
0.0
 11
34.304805795
 21
101.177134663
 31
0.0
  0
LINE
  8
0
  6
CONTINUOUS
 62
     2
 10
34.304805795
 20
101.177134663
 30
0.0
 11
34.220181332
 21
101.135301199
 31
0.0
  0
LINE
  8
0
  6
CONTINUOUS
 62
     2
 10
34.220181332
 20
101.135301199
 30
0.0
 11
34.125181446
 21
101.120000055
 31
0.0
  0
LINE
  8
0
  6
CONTINUOUS
 62
     2
 10
34.125181446
 20
101.120000055
 30
0.0
 11
34.016369619
 21
101.140031081
 31
0.0
  0
LINE
  8
0
  6
CONTINUOUS
 62
     2
 10
34.016369619
 20
101.140031081
 30
0.0
 11
33.941280539
 21
101.179827354
 31
0.0
  0
LINE
  8
0
  6
CONTINUOUS
 62
     2
 10
33.941280539
 20
101.179827354
 30
0.0
 11
33.871232577
 21
101.242720317
 31
0.0
  0
LINE
  8
0
  6
CONTINUOUS
 62
     2
 10
33.871232577
 20
101.242720317
 30
0.0
 11
33.799398223
 21
101.352525856
 31
0.0
  0
LINE
  8
0
  6
CONTINUOUS
 62
     2
 10
33.799398223
 20
101.352525856
 30
0.0
 11
33.759731343
 21
101.46764656
 31
0.0
  0
LINE
  8
0
  6
CONTINUOUS
 62
     2
 10
33.759731343
 20
101.46764656
 30
0.0
 11
33.745004683
 21
101.597616918
 31
0.0
  0
LINE
  8
0
  6
CONTINUOUS
 62
     2
 10
33.745004683
 20
101.597616918
 30
0.0
 11
33.757765587
 21
101.723369122
 31
0.0
  0
LINE
  8
0
  6
CONTINUOUS
 62
     2
 10
33.757765587
 20
101.723369122
 30
0.0
 11
33.802009722
 21
101.852875504
 31
0.0
  0
LINE
  8
0
  6
CONTINUOUS
 62
     2
 10
33.802009722
 20
101.852875504
 30
0.0
 11
33.867188973
 21
101.952630326
 31
0.0
  0
LINE
  8
0
  6
CONTINUOUS
 62
     2
 10
33.867188973
 20
101.952630326
 30
0.0
 11
33.954636755
 21
102.029058061
 31
0.0
  0
LINE
  8
0
  6
CONTINUOUS
 62
     2
 10
33.954636755
 20
102.029058061
 30
0.0
 11
34.0535188
 21
102.071431169
 31
0.0
  0
LINE
  8
0
  6
CONTINUOUS
 62
     2
 10
34.0535188
 20
102.071431169
 30
0.0
 11
34.224992233
 21
102.100029703
 31
0.0
  0
LINE
  8
0
  6
CONTINUOUS
 62
     2
 10
34.224992233
 20
102.100029703
 30
0.0
 11
34.309062679
 21
102.152793714
 31
0.0
  0
LINE
  8
0
  6
CONTINUOUS
 62
     2
 10
34.309062679
 20
102.152793714
 30
0.0
 11
34.375527897
 21
102.231140812
 31
0.0
  0
LINE
  8
0
  6
CONTINUOUS
 62
     2
 10
34.375527897
 20
102.231140812
 30
0.0
 11
34.42515087
 21
102.341315018
 31
0.0
  0
LINE
  8
0
  6
CONTINUOUS
 62
     2
 10
34.42515087
 20
102.341315018
 30
0.0
 11
34.444998272
 21
102.481314391
 31
0.0
  0
LINE
  8
0
  6
CONTINUOUS
 62
     2
 10
34.444998272
 20
102.481314391
 30
0.0
 11
34.425746376
 21
102.616654317
 31
0.0
  0
LINE
  8
0
  6
CONTINUOUS
 62
     2
 10
34.425746376
 20
102.616654317
 30
0.0
 11
34.374525037
 21
102.730428557
 31
0.0
  0
LINE
  8
0
  6
CONTINUOUS
 62
     2
 10
34.374525037
 20
102.730428557
 30
0.0
 11
34.304782977
 21
102.810903312
 31
0.0
  0
LINE
  8
0
  6
CONTINUOUS
 62
     2
 10
34.304782977
 20
102.810903312
 30
0.0
 11
34.22577657
 21
102.859646387
 31
0.0
  0
LINE
  8
0
  6
CONTINUOUS
 62
     2
 10
34.22577657
 20
102.859646387
 30
0.0
 11
34.125807566
 21
102.879998726
 31
0.0
  0
LINE
  8
0
  6
CONTINUOUS
 62
     2
 10
34.125807566
 20
102.879998726
 30
0.0
 11
34.025737029
 21
102.860268948
 31
0.0
  0
LINE
  8
0
  6
CONTINUOUS
 62
     2
 10
34.025737029
 20
102.860268948
 30
0.0
 11
33.945337311
 21
102.811005377
 31
0.0
  0
LINE
  8
0
  6
CONTINUOUS
 62
     2
 10
33.945337311
 20
102.811005377
 30
0.0
 11
33.875646165
 21
102.730694862
 31
0.0
  0
LINE
  8
0
  6
CONTINUOUS
 62
     2
 10
33.875646165
 20
102.730694862
 30
0.0
 11
33.824766528
 21
102.618405329
 31
0.0
  0
LINE
  8
0
  6
CONTINUOUS
 62
     2
 10
33.824766528
 20
102.618405329
 30
0.0
 11
33.805002539
 21
102.478406504
 31
0.0
  0
LINE
  8
0
  6
CONTINUOUS
 62
     2
 10
33.805002539
 20
102.478406504
 30
0.0
 11
33.824925856
 21
102.341055834
 31
0.0
  0
LINE
  8
0
  6
CONTINUOUS
 62
     2
 10
33.824925856
 20
102.341055834
 30
0.0
 11
33.874681192
 21
102.230812275
 31
0.0
  0
LINE
  8
0
  6
CONTINUOUS
 62
     2
 10
33.874681192
 20
102.230812275
 30
0.0
 11
33.951220188
 21
102.144122937
 31
0.0
  0
LINE
  8
0
  6
CONTINUOUS
 62
     2
 10
33.951220188
 20
102.144122937
 30
0.0
 11
34.040162297
 21
102.09431359
 31
0.0
  0
LINE
  8
0
  6
CONTINUOUS
 62
     2
 10
34.040162297
 20
102.09431359
 30
0.0
 11
34.12500005
 21
102.08
 31
0.0
  0
LINE
  8
0
  6
CONTINUOUS
 62
     2
 10
33.5
 20
112.88
 30
0.0
 11
33.5
 21
112.73
 31
0.0
  0
LINE
  8
0
  6
CONTINUOUS
 62
     2
 10
33.5
 20
112.73
 30
0.0
 11
33.5
 21
112.58
 31
0.0
  0
LINE
  8
0
  6
CONTINUOUS
 62
     2
 10
33.5
 20
112.58
 30
0.0
 11
33.5
 21
112.43
 31
0.0
  0
LINE
  8
0
  6
CONTINUOUS
 62
     2
 10
33.5
 20
112.43
 30
0.0
 11
33.5
 21
112.28
 31
0.0
  0
LINE
  8
0
  6
CONTINUOUS
 62
     2
 10
33.5
 20
112.28
 30
0.0
 11
33.5
 21
112.13
 31
0.0
  0
LINE
  8
0
  6
CONTINUOUS
 62
     2
 10
33.5
 20
112.13
 30
0.0
 11
33.5
 21
111.98
 31
0.0
  0
LINE
  8
0
  6
CONTINUOUS
 62
     2
 10
33.5
 20
111.98
 30
0.0
 11
33.5
 21
111.83
 31
0.0
  0
LINE
  8
0
  6
CONTINUOUS
 62
     2
 10
33.5
 20
111.83
 30
0.0
 11
33.5
 21
111.68
 31
0.0
  0
LINE
  8
0
  6
CONTINUOUS
 62
     2
 10
33.5
 20
111.68
 30
0.0
 11
33.5
 21
111.53
 31
0.0
  0
LINE
  8
0
  6
CONTINUOUS
 62
     2
 10
33.5
 20
111.53
 30
0.0
 11
33.5
 21
111.38
 31
0.0
  0
LINE
  8
0
  6
CONTINUOUS
 62
     2
 10
33.5
 20
111.38
 30
0.0
 11
33.5
 21
111.23
 31
0.0
  0
LINE
  8
0
  6
CONTINUOUS
 62
     2
 10
33.5
 20
111.23
 30
0.0
 11
33.5
 21
111.12
 31
0.0
  0
LINE
  8
0
  6
CONTINUOUS
 62
     2
 10
34.494692979
 20
112.727631895
 30
0.0
 11
34.460314642
 21
112.584954116
 31
0.0
  0
LINE
  8
0
  6
CONTINUOUS
 62
     2
 10
34.460314642
 20
112.584954116
 30
0.0
 11
34.433340333
 21
112.439200479
 31
0.0
  0
LINE
  8
0
  6
CONTINUOUS
 62
     2
 10
34.433340333
 20
112.439200479
 30
0.0
 11
34.414123205
 21
112.291168417
 31
0.0
  0
LINE
  8
0
  6
CONTINUOUS
 62
     2
 10
34.414123205
 20
112.291168417
 30
0.0
 11
34.402908353
 21
112.141704187
 31
0.0
  0
LINE
  8
0
  6
CONTINUOUS
 62
     2
 10
34.402908353
 20
112.141704187
 30
0.0
 11
34.399824949
 21
111.991683724
 31
0.0
  0
LINE
  8
0
  6
CONTINUOUS
 62
     2
 10
34.399824949
 20
111.991683724
 30
0.0
 11
34.404882439
 21
111.841992158
 31
0.0
  0
LINE
  8
0
  6
CONTINUOUS
 62
     2
 10
34.404882439
 20
111.841992158
 30
0.0
 11
34.417971024
 21
111.69350303
 31
0.0
  0
LINE
  8
0
  6
CONTINUOUS
 62
     2
 10
34.417971024
 20
111.69350303
 30
0.0
 11
34.438866358
 21
111.547058225
 31
0.0
  0
LINE
  8
0
  6
CONTINUOUS
 62
     2
 10
34.438866358
 20
111.547058225
 30
0.0
 11
34.46723811
 21
111.403449583
 31
0.0
  0
LINE
  8
0
  6
CONTINUOUS
 62
     2
 10
34.46723811
 20
111.403449583
 30
0.0
 11
34.502661819
 21
111.263402995
 31
0.0
  0
LINE
  8
0
  6
CONTINUOUS
 62
     2
 10
34.502661819
 20
111.263402995
 30
0.0
 11
34.561749623
 21
111.198126835
 31
0.0
  0
LINE
  8
0
  6
CONTINUOUS
 62
     2
 10
34.561749623
 20
111.198126835
 30
0.0
 11
34.636463496
 21
111.147517728
 31
0.0
  0
LINE
  8
0
  6
CONTINUOUS
 62
     2
 10
34.636463496
 20
111.147517728
 30
0.0
 11
34.761478348
 21
111.120005066
 31
0.0
  0
LINE
  8
0
  6
CONTINUOUS
 62
     2
 10
34.761478348
 20
111.120005066
 30
0.0
 11
34.863683888
 21
111.139258994
 31
0.0
  0
LINE
  8
0
  6
CONTINUOUS
 62
     2
 10
34.863683888
 20
111.139258994
 30
0.0
 11
34.956548122
 21
111.196983388
 31
0.0
  0
LINE
  8
0
  6
CONTINUOUS
 62
     2
 10
34.956548122
 20
111.196983388
 30
0.0
 11
35.006231228
 21
111.257179876
 31
0.0
  0
LINE
  8
0
  6
CONTINUOUS
 62
     2
 10
35.006231228
 20
111.257179876
 30
0.0
 11
35.052208452
 21
111.403086664
 31
0.0
  0
LINE
  8
0
  6
CONTINUOUS
 62
     2
 10
35.052208452
 20
111.403086664
 30
0.0
 11
35.079903738
 21
111.542623558
 31
0.0
  0
LINE
  8
0
  6
CONTINUOUS
 62
     2
 10
35.079903738
 20
111.542623558
 30
0.0
 11
35.101501165
 21
111.693016943
 31
0.0
  0
LINE
  8
0
  6
CONTINUOUS
 62
     2
 10
35.101501165
 20
111.693016943
 30
0.0
 11
35.11465952
 21
111.842215545
 31
0.0
  0
LINE
  8
0
  6
CONTINUOUS
 62
     2
 10
35.11465952
 20
111.842215545
 30
0.0
 11
35.119706871
 21
111.99221524
 31
0.0
  0
LINE
  8
0
  6
CONTINUOUS
 62
     2
 10
35.119706871
 20
111.99221524
 30
0.0
 11
35.116359467
 21
112.147048818
 31
0.0
  0
LINE
  8
0
  6
CONTINUOUS
 62
     2
 10
35.116359467
 20
112.147048818
 30
0.0
 11
35.105429494
 21
112.290930487
 31
0.0
  0
LINE
  8
0
  6
CONTINUOUS
 62
     2
 10
35.105429494
 20
112.290930487
 30
0.0
 11
35.086024891
 21
112.44023539
 31
0.0
  0
LINE
  8
0
  6
CONTINUOUS
 62
     2
 10
35.086024891
 20
112.44023539
 30
0.0
 11
35.059451161
 21
112.583838096
 31
0.0
  0
LINE
  8
0
  6
CONTINUOUS
 62
     2
 10
35.059451161
 20
112.583838096
 30
0.0
 11
35.023464121
 21
112.730674508
 31
0.0
  0
LINE
  8
0
  6
CONTINUOUS
 62
     2
 10
35.023464121
 20
112.730674508
 30
0.0
 11
34.971320702
 21
112.808352803
 31
0.0
  0
LINE
  8
0
  6
CONTINUOUS
 62
     2
 10
34.971320702
 20
112.808352803
 30
0.0
 11
34.88521188
 21
112.871462947
 31
0.0
  0
LINE
  8
0
  6
CONTINUOUS
 62
     2
 10
34.88521188
 20
112.871462947
 30
0.0
 11
34.770333854
 21
112.899807318
 31
0.0
  0
LINE
  8
0
  6
CONTINUOUS
 62
     2
 10
34.770333854
 20
112.899807318
 30
0.0
 11
34.636433084
 21
112.872467984
 31
0.0
  0
LINE
  8
0
  6
CONTINUOUS
 62
     2
 10
34.636433084
 20
112.872467984
 30
0.0
 11
34.546943341
 21
112.806995669
 31
0.0
  0
LINE
  8
0
  6
CONTINUOUS
 62
     2
 10
34.546943341
 20
112.806995669
 30
0.0
 11
34.494692979
 21
112.727631895
 31
0.0
  0
LINE
  8
0
  6
CONTINUOUS
 62
     2
 10
35.744692979
 20
112.727631895
 30
0.0
 11
35.710314642
 21
112.584954116
 31
0.0
  0
LINE
  8
0
  6
CONTINUOUS
 62
     2
 10
35.710314642
 20
112.584954116
 30
0.0
 11
35.683340333
 21
112.439200479
 31
0.0
  0
LINE
  8
0
  6
CONTINUOUS
 62
     2
 10
35.683340333
 20
112.439200479
 30
0.0
 11
35.664123205
 21
112.291168417
 31
0.0
  0
LINE
  8
0
  6
CONTINUOUS
 62
     2
 10
35.664123205
 20
112.291168417
 30
0.0
 11
35.652908353
 21
112.141704187
 31
0.0
  0
LINE
  8
0
  6
CONTINUOUS
 62
     2
 10
35.652908353
 20
112.141704187
 30
0.0
 11
35.649824949
 21
111.991683724
 31
0.0
  0
LINE
  8
0
  6
CONTINUOUS
 62
     2
 10
35.649824949
 20
111.991683724
 30
0.0
 11
35.654882439
 21
111.841992158
 31
0.0
  0
LINE
  8
0
  6
CONTINUOUS
 62
     2
 10
35.654882439
 20
111.841992158
 30
0.0
 11
35.667971024
 21
111.69350303
 31
0.0
  0
LINE
  8
0
  6
CONTINUOUS
 62
     2
 10
35.667971024
 20
111.69350303
 30
0.0
 11
35.688866358
 21
111.547058225
 31
0.0
  0
LINE
  8
0
  6
CONTINUOUS
 62
     2
 10
35.688866358
 20
111.547058225
 30
0.0
 11
35.71723811
 21
111.403449583
 31
0.0
  0
LINE
  8
0
  6
CONTINUOUS
 62
     2
 10
35.71723811
 20
111.403449583
 30
0.0
 11
35.752661819
 21
111.263402995
 31
0.0
  0
LINE
  8
0
  6
CONTINUOUS
 62
     2
 10
35.752661819
 20
111.263402995
 30
0.0
 11
35.811749623
 21
111.198126835
 31
0.0
  0
LINE
  8
0
  6
CONTINUOUS
 62
     2
 10
35.811749623
 20
111.198126835
 30
0.0
 11
35.886463496
 21
111.147517728
 31
0.0
  0
LINE
  8
0
  6
CONTINUOUS
 62
     2
 10
35.886463496
 20
111.147517728
 30
0.0
 11
36.011478348
 21
111.120005066
 31
0.0
  0
LINE
  8
0
  6
CONTINUOUS
 62
     2
 10
36.011478348
 20
111.120005066
 30
0.0
 11
36.113683888
 21
111.139258994
 31
0.0
  0
LINE
  8
0
  6
CONTINUOUS
 62
     2
 10
36.113683888
 20
111.139258994
 30
0.0
 11
36.206548122
 21
111.196983388
 31
0.0
  0
LINE
  8
0
  6
CONTINUOUS
 62
     2
 10
36.206548122
 20
111.196983388
 30
0.0
 11
36.256231228
 21
111.257179876
 31
0.0
  0
LINE
  8
0
  6
CONTINUOUS
 62
     2
 10
36.256231228
 20
111.257179876
 30
0.0
 11
36.302208452
 21
111.403086664
 31
0.0
  0
LINE
  8
0
  6
CONTINUOUS
 62
     2
 10
36.302208452
 20
111.403086664
 30
0.0
 11
36.329903738
 21
111.542623558
 31
0.0
  0
LINE
  8
0
  6
CONTINUOUS
 62
     2
 10
36.329903738
 20
111.542623558
 30
0.0
 11
36.351501165
 21
111.693016943
 31
0.0
  0
LINE
  8
0
  6
CONTINUOUS
 62
     2
 10
36.351501165
 20
111.693016943
 30
0.0
 11
36.36465952
 21
111.842215545
 31
0.0
  0
LINE
  8
0
  6
CONTINUOUS
 62
     2
 10
36.36465952
 20
111.842215545
 30
0.0
 11
36.369706871
 21
111.99221524
 31
0.0
  0
LINE
  8
0
  6
CONTINUOUS
 62
     2
 10
36.369706871
 20
111.99221524
 30
0.0
 11
36.366359467
 21
112.147048818
 31
0.0
  0
LINE
  8
0
  6
CONTINUOUS
 62
     2
 10
36.366359467
 20
112.147048818
 30
0.0
 11
36.355429494
 21
112.290930487
 31
0.0
  0
LINE
  8
0
  6
CONTINUOUS
 62
     2
 10
36.355429494
 20
112.290930487
 30
0.0
 11
36.336024891
 21
112.44023539
 31
0.0
  0
LINE
  8
0
  6
CONTINUOUS
 62
     2
 10
36.336024891
 20
112.44023539
 30
0.0
 11
36.309451161
 21
112.583838096
 31
0.0
  0
LINE
  8
0
  6
CONTINUOUS
 62
     2
 10
36.309451161
 20
112.583838096
 30
0.0
 11
36.273464121
 21
112.730674508
 31
0.0
  0
LINE
  8
0
  6
CONTINUOUS
 62
     2
 10
36.273464121
 20
112.730674508
 30
0.0
 11
36.221320702
 21
112.808352803
 31
0.0
  0
LINE
  8
0
  6
CONTINUOUS
 62
     2
 10
36.221320702
 20
112.808352803
 30
0.0
 11
36.13521188
 21
112.871462947
 31
0.0
  0
LINE
  8
0
  6
CONTINUOUS
 62
     2
 10
36.13521188
 20
112.871462947
 30
0.0
 11
36.020333854
 21
112.899807318
 31
0.0
  0
LINE
  8
0
  6
CONTINUOUS
 62
     2
 10
36.020333854
 20
112.899807318
 30
0.0
 11
35.886433084
 21
112.872467984
 31
0.0
  0
LINE
  8
0
  6
CONTINUOUS
 62
     2
 10
35.886433084
 20
112.872467984
 30
0.0
 11
35.796943341
 21
112.806995669
 31
0.0
  0
LINE
  8
0
  6
CONTINUOUS
 62
     2
 10
35.796943341
 20
112.806995669
 30
0.0
 11
35.744692979
 21
112.727631895
 31
0.0
  0
LINE
  8
0
  6
CONTINUOUS
 62
     2
 10
30.6625
 20
61.95
 30
0.0
 11
30.6625
 21
62.05
 31
0.0
  0
LINE
  8
0
  6
CONTINUOUS
 62
     2
 10
30.6375
 20
61.925
 30
0.0
 11
29.025
 21
61.925
 31
0.0
  0
LINE
  8
0
  6
CONTINUOUS
 62
     2
 10
30.6375
 20
62.075
 30
0.0
 11
29.025
 21
62.075
 31
0.0
  0
LINE
  8
0
  6
CONTINUOUS
 62
     2
 10
30.1375
 20
63.0
 30
0.0
 11
29.025
 21
63.0
 31
0.0
  0
LINE
  8
0
  6
CONTINUOUS
 62
     2
 10
30.1375
 20
64.0
 30
0.0
 11
29.025
 21
64.0
 31
0.0
  0
LINE
  8
0
  6
CONTINUOUS
 62
     2
 10
30.1375
 20
65.0
 30
0.0
 11
29.025
 21
65.0
 31
0.0
  0
LINE
  8
0
  6
CONTINUOUS
 62
     2
 10
30.1375
 20
66.0
 30
0.0
 11
29.025
 21
66.0
 31
0.0
  0
LINE
  8
0
  6
CONTINUOUS
 62
     2
 10
30.6625
 20
66.95
 30
0.0
 11
30.6625
 21
67.05
 31
0.0
  0
LINE
  8
0
  6
CONTINUOUS
 62
     2
 10
30.6375
 20
66.925
 30
0.0
 11
29.025
 21
66.925
 31
0.0
  0
LINE
  8
0
  6
CONTINUOUS
 62
     2
 10
30.6375
 20
67.075
 30
0.0
 11
29.025
 21
67.075
 31
0.0
  0
LINE
  8
0
  6
CONTINUOUS
 62
     2
 10
30.1375
 20
68.0
 30
0.0
 11
29.025
 21
68.0
 31
0.0
  0
LINE
  8
0
  6
CONTINUOUS
 62
     2
 10
30.1375
 20
69.0
 30
0.0
 11
29.025
 21
69.0
 31
0.0
  0
LINE
  8
0
  6
CONTINUOUS
 62
     2
 10
30.1375
 20
70.0
 30
0.0
 11
29.025
 21
70.0
 31
0.0
  0
LINE
  8
0
  6
CONTINUOUS
 62
     2
 10
30.1375
 20
71.0
 30
0.0
 11
29.025
 21
71.0
 31
0.0
  0
LINE
  8
0
  6
CONTINUOUS
 62
     2
 10
30.6625
 20
71.95
 30
0.0
 11
30.6625
 21
72.05
 31
0.0
  0
LINE
  8
0
  6
CONTINUOUS
 62
     2
 10
30.6375
 20
71.925
 30
0.0
 11
29.025
 21
71.925
 31
0.0
  0
LINE
  8
0
  6
CONTINUOUS
 62
     2
 10
30.6375
 20
72.075
 30
0.0
 11
29.025
 21
72.075
 31
0.0
  0
LINE
  8
0
  6
CONTINUOUS
 62
     2
 10
30.1375
 20
73.0
 30
0.0
 11
29.025
 21
73.0
 31
0.0
  0
LINE
  8
0
  6
CONTINUOUS
 62
     2
 10
30.1375
 20
74.0
 30
0.0
 11
29.025
 21
74.0
 31
0.0
  0
LINE
  8
0
  6
CONTINUOUS
 62
     2
 10
30.1375
 20
75.0
 30
0.0
 11
29.025
 21
75.0
 31
0.0
  0
LINE
  8
0
  6
CONTINUOUS
 62
     2
 10
30.1375
 20
76.0
 30
0.0
 11
29.025
 21
76.0
 31
0.0
  0
LINE
  8
0
  6
CONTINUOUS
 62
     2
 10
30.6625
 20
76.95
 30
0.0
 11
30.6625
 21
77.05
 31
0.0
  0
LINE
  8
0
  6
CONTINUOUS
 62
     2
 10
30.6375
 20
76.925
 30
0.0
 11
29.025
 21
76.925
 31
0.0
  0
LINE
  8
0
  6
CONTINUOUS
 62
     2
 10
30.6375
 20
77.075
 30
0.0
 11
29.025
 21
77.075
 31
0.0
  0
LINE
  8
0
  6
CONTINUOUS
 62
     2
 10
30.1375
 20
78.0
 30
0.0
 11
29.025
 21
78.0
 31
0.0
  0
LINE
  8
0
  6
CONTINUOUS
 62
     2
 10
30.1375
 20
79.0
 30
0.0
 11
29.025
 21
79.0
 31
0.0
  0
LINE
  8
0
  6
CONTINUOUS
 62
     2
 10
30.1375
 20
80.0
 30
0.0
 11
29.025
 21
80.0
 31
0.0
  0
LINE
  8
0
  6
CONTINUOUS
 62
     2
 10
30.1375
 20
81.0
 30
0.0
 11
29.025
 21
81.0
 31
0.0
  0
LINE
  8
0
  6
CONTINUOUS
 62
     2
 10
30.6625
 20
81.95
 30
0.0
 11
30.6625
 21
82.05
 31
0.0
  0
LINE
  8
0
  6
CONTINUOUS
 62
     2
 10
30.6375
 20
81.925
 30
0.0
 11
29.025
 21
81.925
 31
0.0
  0
LINE
  8
0
  6
CONTINUOUS
 62
     2
 10
30.6375
 20
82.075
 30
0.0
 11
29.025
 21
82.075
 31
0.0
  0
LINE
  8
0
  6
CONTINUOUS
 62
     2
 10
30.1375
 20
83.0
 30
0.0
 11
29.025
 21
83.0
 31
0.0
  0
LINE
  8
0
  6
CONTINUOUS
 62
     2
 10
30.1375
 20
84.0
 30
0.0
 11
29.025
 21
84.0
 31
0.0
  0
LINE
  8
0
  6
CONTINUOUS
 62
     2
 10
30.1375
 20
85.0
 30
0.0
 11
29.025
 21
85.0
 31
0.0
  0
LINE
  8
0
  6
CONTINUOUS
 62
     2
 10
30.1375
 20
86.0
 30
0.0
 11
29.025
 21
86.0
 31
0.0
  0
LINE
  8
0
  6
CONTINUOUS
 62
     2
 10
30.6625
 20
86.95
 30
0.0
 11
30.6625
 21
87.05
 31
0.0
  0
LINE
  8
0
  6
CONTINUOUS
 62
     2
 10
30.6375
 20
86.925
 30
0.0
 11
29.025
 21
86.925
 31
0.0
  0
LINE
  8
0
  6
CONTINUOUS
 62
     2
 10
30.6375
 20
87.075
 30
0.0
 11
29.025
 21
87.075
 31
0.0
  0
LINE
  8
0
  6
CONTINUOUS
 62
     2
 10
30.1375
 20
88.0
 30
0.0
 11
29.025
 21
88.0
 31
0.0
  0
LINE
  8
0
  6
CONTINUOUS
 62
     2
 10
30.1375
 20
89.0
 30
0.0
 11
29.025
 21
89.0
 31
0.0
  0
LINE
  8
0
  6
CONTINUOUS
 62
     2
 10
30.1375
 20
90.0
 30
0.0
 11
29.025
 21
90.0
 31
0.0
  0
LINE
  8
0
  6
CONTINUOUS
 62
     2
 10
30.1375
 20
91.0
 30
0.0
 11
29.025
 21
91.0
 31
0.0
  0
LINE
  8
0
  6
CONTINUOUS
 62
     2
 10
30.6625
 20
91.95
 30
0.0
 11
30.6625
 21
92.05
 31
0.0
  0
LINE
  8
0
  6
CONTINUOUS
 62
     2
 10
30.6375
 20
91.925
 30
0.0
 11
29.025
 21
91.925
 31
0.0
  0
LINE
  8
0
  6
CONTINUOUS
 62
     2
 10
30.6375
 20
92.075
 30
0.0
 11
29.025
 21
92.075
 31
0.0
  0
LINE
  8
0
  6
CONTINUOUS
 62
     2
 10
30.1375
 20
93.0
 30
0.0
 11
29.025
 21
93.0
 31
0.0
  0
LINE
  8
0
  6
CONTINUOUS
 62
     2
 10
30.1375
 20
94.0
 30
0.0
 11
29.025
 21
94.0
 31
0.0
  0
LINE
  8
0
  6
CONTINUOUS
 62
     2
 10
30.1375
 20
95.0
 30
0.0
 11
29.025
 21
95.0
 31
0.0
  0
LINE
  8
0
  6
CONTINUOUS
 62
     2
 10
30.1375
 20
96.0
 30
0.0
 11
29.025
 21
96.0
 31
0.0
  0
LINE
  8
0
  6
CONTINUOUS
 62
     2
 10
30.6625
 20
96.95
 30
0.0
 11
30.6625
 21
97.05
 31
0.0
  0
LINE
  8
0
  6
CONTINUOUS
 62
     2
 10
30.6375
 20
96.925
 30
0.0
 11
29.025
 21
96.925
 31
0.0
  0
LINE
  8
0
  6
CONTINUOUS
 62
     2
 10
30.6375
 20
97.075
 30
0.0
 11
29.025
 21
97.075
 31
0.0
  0
LINE
  8
0
  6
CONTINUOUS
 62
     2
 10
30.1375
 20
98.0
 30
0.0
 11
29.025
 21
98.0
 31
0.0
  0
LINE
  8
0
  6
CONTINUOUS
 62
     2
 10
30.1375
 20
99.0
 30
0.0
 11
29.025
 21
99.0
 31
0.0
  0
LINE
  8
0
  6
CONTINUOUS
 62
     2
 10
30.1375
 20
100.0
 30
0.0
 11
29.025
 21
100.0
 31
0.0
  0
LINE
  8
0
  6
CONTINUOUS
 62
     2
 10
30.1375
 20
101.0
 30
0.0
 11
29.025
 21
101.0
 31
0.0
  0
LINE
  8
0
  6
CONTINUOUS
 62
     2
 10
30.6625
 20
101.95
 30
0.0
 11
30.6625
 21
102.05
 31
0.0
  0
LINE
  8
0
  6
CONTINUOUS
 62
     2
 10
30.6375
 20
101.925
 30
0.0
 11
29.025
 21
101.925
 31
0.0
  0
LINE
  8
0
  6
CONTINUOUS
 62
     2
 10
30.6375
 20
102.075
 30
0.0
 11
29.025
 21
102.075
 31
0.0
  0
LINE
  8
0
  6
CONTINUOUS
 62
     2
 10
30.1375
 20
103.0
 30
0.0
 11
29.025
 21
103.0
 31
0.0
  0
LINE
  8
0
  6
CONTINUOUS
 62
     2
 10
30.1375
 20
104.0
 30
0.0
 11
29.025
 21
104.0
 31
0.0
  0
LINE
  8
0
  6
CONTINUOUS
 62
     2
 10
30.1375
 20
105.0
 30
0.0
 11
29.025
 21
105.0
 31
0.0
  0
LINE
  8
0
  6
CONTINUOUS
 62
     2
 10
30.1375
 20
106.0
 30
0.0
 11
29.025
 21
106.0
 31
0.0
  0
LINE
  8
0
  6
CONTINUOUS
 62
     2
 10
30.6625
 20
106.95
 30
0.0
 11
30.6625
 21
107.05
 31
0.0
  0
LINE
  8
0
  6
CONTINUOUS
 62
     2
 10
30.6375
 20
106.925
 30
0.0
 11
29.025
 21
106.925
 31
0.0
  0
LINE
  8
0
  6
CONTINUOUS
 62
     2
 10
30.6375
 20
107.075
 30
0.0
 11
29.025
 21
107.075
 31
0.0
  0
LINE
  8
0
  6
CONTINUOUS
 62
     2
 10
30.1375
 20
108.0
 30
0.0
 11
29.025
 21
108.0
 31
0.0
  0
LINE
  8
0
  6
CONTINUOUS
 62
     2
 10
30.1375
 20
109.0
 30
0.0
 11
29.025
 21
109.0
 31
0.0
  0
LINE
  8
0
  6
CONTINUOUS
 62
     2
 10
30.1375
 20
110.0
 30
0.0
 11
29.025
 21
110.0
 31
0.0
  0
LINE
  8
0
  6
CONTINUOUS
 62
     2
 10
30.1375
 20
111.0
 30
0.0
 11
29.025
 21
111.0
 31
0.0
  0
LINE
  8
0
  6
CONTINUOUS
 62
     2
 10
30.6625
 20
111.95
 30
0.0
 11
30.6625
 21
112.05
 31
0.0
  0
LINE
  8
0
  6
CONTINUOUS
 62
     2
 10
30.6375
 20
111.925
 30
0.0
 11
29.025
 21
111.925
 31
0.0
  0
LINE
  8
0
  6
CONTINUOUS
 62
     2
 10
30.6375
 20
112.075
 30
0.0
 11
29.025
 21
112.075
 31
0.0
  0
LINE
  8
0
  6
CONTINUOUS
 62
     2
 10
31.3375
 20
61.95
 30
0.0
 11
31.3375
 21
62.05
 31
0.0
  0
LINE
  8
0
  6
CONTINUOUS
 62
     2
 10
31.3625
 20
61.925
 30
0.0
 11
32.975
 21
61.925
 31
0.0
  0
LINE
  8
0
  6
CONTINUOUS
 62
     2
 10
31.3625
 20
62.075
 30
0.0
 11
32.975
 21
62.075
 31
0.0
  0
LINE
  8
0
  6
CONTINUOUS
 62
     2
 10
31.8625
 20
63.0
 30
0.0
 11
32.975
 21
63.0
 31
0.0
  0
LINE
  8
0
  6
CONTINUOUS
 62
     2
 10
31.8625
 20
64.0
 30
0.0
 11
32.975
 21
64.0
 31
0.0
  0
LINE
  8
0
  6
CONTINUOUS
 62
     2
 10
31.8625
 20
65.0
 30
0.0
 11
32.975
 21
65.0
 31
0.0
  0
LINE
  8
0
  6
CONTINUOUS
 62
     2
 10
31.8625
 20
66.0
 30
0.0
 11
32.975
 21
66.0
 31
0.0
  0
LINE
  8
0
  6
CONTINUOUS
 62
     2
 10
31.3375
 20
66.95
 30
0.0
 11
31.3375
 21
67.05
 31
0.0
  0
LINE
  8
0
  6
CONTINUOUS
 62
     2
 10
31.3625
 20
66.925
 30
0.0
 11
32.975
 21
66.925
 31
0.0
  0
LINE
  8
0
  6
CONTINUOUS
 62
     2
 10
31.3625
 20
67.075
 30
0.0
 11
32.975
 21
67.075
 31
0.0
  0
LINE
  8
0
  6
CONTINUOUS
 62
     2
 10
31.8625
 20
68.0
 30
0.0
 11
32.975
 21
68.0
 31
0.0
  0
LINE
  8
0
  6
CONTINUOUS
 62
     2
 10
31.8625
 20
69.0
 30
0.0
 11
32.975
 21
69.0
 31
0.0
  0
LINE
  8
0
  6
CONTINUOUS
 62
     2
 10
31.8625
 20
70.0
 30
0.0
 11
32.975
 21
70.0
 31
0.0
  0
LINE
  8
0
  6
CONTINUOUS
 62
     2
 10
31.8625
 20
71.0
 30
0.0
 11
32.975
 21
71.0
 31
0.0
  0
LINE
  8
0
  6
CONTINUOUS
 62
     2
 10
31.3375
 20
71.95
 30
0.0
 11
31.3375
 21
72.05
 31
0.0
  0
LINE
  8
0
  6
CONTINUOUS
 62
     2
 10
31.3625
 20
71.925
 30
0.0
 11
32.975
 21
71.925
 31
0.0
  0
LINE
  8
0
  6
CONTINUOUS
 62
     2
 10
31.3625
 20
72.075
 30
0.0
 11
32.975
 21
72.075
 31
0.0
  0
LINE
  8
0
  6
CONTINUOUS
 62
     2
 10
31.8625
 20
73.0
 30
0.0
 11
32.975
 21
73.0
 31
0.0
  0
LINE
  8
0
  6
CONTINUOUS
 62
     2
 10
31.8625
 20
74.0
 30
0.0
 11
32.975
 21
74.0
 31
0.0
  0
LINE
  8
0
  6
CONTINUOUS
 62
     2
 10
31.8625
 20
75.0
 30
0.0
 11
32.975
 21
75.0
 31
0.0
  0
LINE
  8
0
  6
CONTINUOUS
 62
     2
 10
31.8625
 20
76.0
 30
0.0
 11
32.975
 21
76.0
 31
0.0
  0
LINE
  8
0
  6
CONTINUOUS
 62
     2
 10
31.3375
 20
76.95
 30
0.0
 11
31.3375
 21
77.05
 31
0.0
  0
LINE
  8
0
  6
CONTINUOUS
 62
     2
 10
31.3625
 20
76.925
 30
0.0
 11
32.975
 21
76.925
 31
0.0
  0
LINE
  8
0
  6
CONTINUOUS
 62
     2
 10
31.3625
 20
77.075
 30
0.0
 11
32.975
 21
77.075
 31
0.0
  0
LINE
  8
0
  6
CONTINUOUS
 62
     2
 10
31.8625
 20
78.0
 30
0.0
 11
32.975
 21
78.0
 31
0.0
  0
LINE
  8
0
  6
CONTINUOUS
 62
     2
 10
31.8625
 20
79.0
 30
0.0
 11
32.975
 21
79.0
 31
0.0
  0
LINE
  8
0
  6
CONTINUOUS
 62
     2
 10
31.8625
 20
80.0
 30
0.0
 11
32.975
 21
80.0
 31
0.0
  0
LINE
  8
0
  6
CONTINUOUS
 62
     2
 10
31.8625
 20
81.0
 30
0.0
 11
32.975
 21
81.0
 31
0.0
  0
LINE
  8
0
  6
CONTINUOUS
 62
     2
 10
31.3375
 20
81.95
 30
0.0
 11
31.3375
 21
82.05
 31
0.0
  0
LINE
  8
0
  6
CONTINUOUS
 62
     2
 10
31.3625
 20
81.925
 30
0.0
 11
32.975
 21
81.925
 31
0.0
  0
LINE
  8
0
  6
CONTINUOUS
 62
     2
 10
31.3625
 20
82.075
 30
0.0
 11
32.975
 21
82.075
 31
0.0
  0
LINE
  8
0
  6
CONTINUOUS
 62
     2
 10
31.8625
 20
83.0
 30
0.0
 11
32.975
 21
83.0
 31
0.0
  0
LINE
  8
0
  6
CONTINUOUS
 62
     2
 10
31.8625
 20
84.0
 30
0.0
 11
32.975
 21
84.0
 31
0.0
  0
LINE
  8
0
  6
CONTINUOUS
 62
     2
 10
31.8625
 20
85.0
 30
0.0
 11
32.975
 21
85.0
 31
0.0
  0
LINE
  8
0
  6
CONTINUOUS
 62
     2
 10
31.8625
 20
86.0
 30
0.0
 11
32.975
 21
86.0
 31
0.0
  0
LINE
  8
0
  6
CONTINUOUS
 62
     2
 10
31.3375
 20
86.95
 30
0.0
 11
31.3375
 21
87.05
 31
0.0
  0
LINE
  8
0
  6
CONTINUOUS
 62
     2
 10
31.3625
 20
86.925
 30
0.0
 11
32.975
 21
86.925
 31
0.0
  0
LINE
  8
0
  6
CONTINUOUS
 62
     2
 10
31.3625
 20
87.075
 30
0.0
 11
32.975
 21
87.075
 31
0.0
  0
LINE
  8
0
  6
CONTINUOUS
 62
     2
 10
31.8625
 20
88.0
 30
0.0
 11
32.975
 21
88.0
 31
0.0
  0
LINE
  8
0
  6
CONTINUOUS
 62
     2
 10
31.8625
 20
89.0
 30
0.0
 11
32.975
 21
89.0
 31
0.0
  0
LINE
  8
0
  6
CONTINUOUS
 62
     2
 10
31.8625
 20
90.0
 30
0.0
 11
32.975
 21
90.0
 31
0.0
  0
LINE
  8
0
  6
CONTINUOUS
 62
     2
 10
31.8625
 20
91.0
 30
0.0
 11
32.975
 21
91.0
 31
0.0
  0
LINE
  8
0
  6
CONTINUOUS
 62
     2
 10
31.3375
 20
91.95
 30
0.0
 11
31.3375
 21
92.05
 31
0.0
  0
LINE
  8
0
  6
CONTINUOUS
 62
     2
 10
31.3625
 20
91.925
 30
0.0
 11
32.975
 21
91.925
 31
0.0
  0
LINE
  8
0
  6
CONTINUOUS
 62
     2
 10
31.3625
 20
92.075
 30
0.0
 11
32.975
 21
92.075
 31
0.0
  0
LINE
  8
0
  6
CONTINUOUS
 62
     2
 10
31.8625
 20
93.0
 30
0.0
 11
32.975
 21
93.0
 31
0.0
  0
LINE
  8
0
  6
CONTINUOUS
 62
     2
 10
31.8625
 20
94.0
 30
0.0
 11
32.975
 21
94.0
 31
0.0
  0
LINE
  8
0
  6
CONTINUOUS
 62
     2
 10
31.8625
 20
95.0
 30
0.0
 11
32.975
 21
95.0
 31
0.0
  0
LINE
  8
0
  6
CONTINUOUS
 62
     2
 10
31.8625
 20
96.0
 30
0.0
 11
32.975
 21
96.0
 31
0.0
  0
LINE
  8
0
  6
CONTINUOUS
 62
     2
 10
31.3375
 20
96.95
 30
0.0
 11
31.3375
 21
97.05
 31
0.0
  0
LINE
  8
0
  6
CONTINUOUS
 62
     2
 10
31.3625
 20
96.925
 30
0.0
 11
32.975
 21
96.925
 31
0.0
  0
LINE
  8
0
  6
CONTINUOUS
 62
     2
 10
31.3625
 20
97.075
 30
0.0
 11
32.975
 21
97.075
 31
0.0
  0
LINE
  8
0
  6
CONTINUOUS
 62
     2
 10
31.8625
 20
98.0
 30
0.0
 11
32.975
 21
98.0
 31
0.0
  0
LINE
  8
0
  6
CONTINUOUS
 62
     2
 10
31.8625
 20
99.0
 30
0.0
 11
32.975
 21
99.0
 31
0.0
  0
LINE
  8
0
  6
CONTINUOUS
 62
     2
 10
31.8625
 20
100.0
 30
0.0
 11
32.975
 21
100.0
 31
0.0
  0
LINE
  8
0
  6
CONTINUOUS
 62
     2
 10
31.8625
 20
101.0
 30
0.0
 11
32.975
 21
101.0
 31
0.0
  0
LINE
  8
0
  6
CONTINUOUS
 62
     2
 10
31.3375
 20
101.95
 30
0.0
 11
31.3375
 21
102.05
 31
0.0
  0
LINE
  8
0
  6
CONTINUOUS
 62
     2
 10
31.3625
 20
101.925
 30
0.0
 11
32.975
 21
101.925
 31
0.0
  0
LINE
  8
0
  6
CONTINUOUS
 62
     2
 10
31.3625
 20
102.075
 30
0.0
 11
32.975
 21
102.075
 31
0.0
  0
LINE
  8
0
  6
CONTINUOUS
 62
     2
 10
31.8625
 20
103.0
 30
0.0
 11
32.975
 21
103.0
 31
0.0
  0
LINE
  8
0
  6
CONTINUOUS
 62
     2
 10
31.8625
 20
104.0
 30
0.0
 11
32.975
 21
104.0
 31
0.0
  0
LINE
  8
0
  6
CONTINUOUS
 62
     2
 10
31.8625
 20
105.0
 30
0.0
 11
32.975
 21
105.0
 31
0.0
  0
LINE
  8
0
  6
CONTINUOUS
 62
     2
 10
31.8625
 20
106.0
 30
0.0
 11
32.975
 21
106.0
 31
0.0
  0
LINE
  8
0
  6
CONTINUOUS
 62
     2
 10
31.3375
 20
106.95
 30
0.0
 11
31.3375
 21
107.05
 31
0.0
  0
LINE
  8
0
  6
CONTINUOUS
 62
     2
 10
31.3625
 20
106.925
 30
0.0
 11
32.975
 21
106.925
 31
0.0
  0
LINE
  8
0
  6
CONTINUOUS
 62
     2
 10
31.3625
 20
107.075
 30
0.0
 11
32.975
 21
107.075
 31
0.0
  0
LINE
  8
0
  6
CONTINUOUS
 62
     2
 10
31.8625
 20
108.0
 30
0.0
 11
32.975
 21
108.0
 31
0.0
  0
LINE
  8
0
  6
CONTINUOUS
 62
     2
 10
31.8625
 20
109.0
 30
0.0
 11
32.975
 21
109.0
 31
0.0
  0
LINE
  8
0
  6
CONTINUOUS
 62
     2
 10
31.8625
 20
110.0
 30
0.0
 11
32.975
 21
110.0
 31
0.0
  0
LINE
  8
0
  6
CONTINUOUS
 62
     2
 10
31.8625
 20
111.0
 30
0.0
 11
32.975
 21
111.0
 31
0.0
  0
LINE
  8
0
  6
CONTINUOUS
 62
     2
 10
31.3375
 20
111.95
 30
0.0
 11
31.3375
 21
112.05
 31
0.0
  0
LINE
  8
0
  6
CONTINUOUS
 62
     2
 10
31.3625
 20
111.925
 30
0.0
 11
32.975
 21
111.925
 31
0.0
  0
LINE
  8
0
  6
CONTINUOUS
 62
     2
 10
31.3625
 20
112.075
 30
0.0
 11
32.975
 21
112.075
 31
0.0
  0
ARC
  8
0
  6
CONTINUOUS
 62
     2
 10
25.89
 20
87.4
 30
0.0
 40
1.056
 50
337.467174552
 51
22.511176732
  0
ARC
  8
0
  6
CONTINUOUS
 62
     2
 10
25.89
 20
87.4
 30
0.0
 40
0.96
 50
337.452380695
 51
22.564315364
  0
ARC
  8
0
  6
CONTINUOUS
 62
     2
 10
27.33
 20
87.4
 30
0.0
 40
1.056
 50
157.488823268
 51
202.532825448
  0
ARC
  8
0
  6
CONTINUOUS
 62
     2
 10
27.33
 20
87.4
 30
0.0
 40
0.96
 50
157.435684636
 51
202.547619305
  0
ARC
  8
0
  6
CONTINUOUS
 62
     2
 10
26.61
 20
87.7
 30
0.0
 40
0.18
 50
22.323602445
 51
157.676397555
  0
ARC
  8
0
  6
CONTINUOUS
 62
     2
 10
26.61
 20
87.7
 30
0.0
 40
0.276
 50
22.204019072
 51
157.795980928
  0
ARC
  8
0
  6
CONTINUOUS
 62
     2
 10
26.61
 20
87.1
 30
0.0
 40
0.18
 50
202.234559129
 51
337.765440871
  0
ARC
  8
0
  6
CONTINUOUS
 62
     2
 10
26.61
 20
87.1
 30
0.0
 40
0.276
 50
202.286846658
 51
337.713153342
  0
ARC
  8
0
  6
CONTINUOUS
 62
     2
 10
27.17
 20
86.6
 30
0.0
 40
1.056
 50
337.467174552
 51
22.511176732
  0
ARC
  8
0
  6
CONTINUOUS
 62
     2
 10
27.17
 20
86.6
 30
0.0
 40
0.96
 50
337.452380695
 51
22.564315364
  0
ARC
  8
0
  6
CONTINUOUS
 62
     2
 10
28.61
 20
86.6
 30
0.0
 40
1.056
 50
157.488823268
 51
202.532825448
  0
ARC
  8
0
  6
CONTINUOUS
 62
     2
 10
28.61
 20
86.6
 30
0.0
 40
0.96
 50
157.435684636
 51
202.547619305
  0
ARC
  8
0
  6
CONTINUOUS
 62
     2
 10
27.89
 20
86.9
 30
0.0
 40
0.18
 50
22.323602445
 51
157.676397555
  0
ARC
  8
0
  6
CONTINUOUS
 62
     2
 10
27.89
 20
86.9
 30
0.0
 40
0.276
 50
22.204019072
 51
157.795980928
  0
ARC
  8
0
  6
CONTINUOUS
 62
     2
 10
27.89
 20
86.3
 30
0.0
 40
0.18
 50
202.234559129
 51
337.765440871
  0
ARC
  8
0
  6
CONTINUOUS
 62
     2
 10
27.89
 20
86.3
 30
0.0
 40
0.276
 50
202.286846658
 51
337.713153342
  0
LINE
  8
0
  6
CONTINUOUS
 62
     2
 10
28.065454591
 20
87.897146195
 30
0.0
 11
26.508085676
 21
86.041146195
 31
0.0
  0
LINE
  8
0
  6
CONTINUOUS
 62
     2
 10
27.991914324
 20
87.958853805
 30
0.0
 11
26.434545409
 21
86.102853805
 31
0.0
  0
ARC
  8
0
  6
CONTINUOUS
 62
     2
 10
26.471315542
 20
86.072
 30
0.0
 40
0.048
 50
140.0
 51
320.0
  0
ARC
  8
0
  6
CONTINUOUS
 62
     2
 10
28.028684458
 20
87.928
 30
0.0
 40
0.048
 50
320.0
 51
140.0
  0
ARC
  8
0
  6
CONTINUOUS
 62
     2
 10
33.39
 20
87.4
 30
0.0
 40
1.056
 50
337.467174552
 51
22.511176732
  0
ARC
  8
0
  6
CONTINUOUS
 62
     2
 10
33.39
 20
87.4
 30
0.0
 40
0.96
 50
337.452380695
 51
22.564315364
  0
ARC
  8
0
  6
CONTINUOUS
 62
     2
 10
34.83
 20
87.4
 30
0.0
 40
1.056
 50
157.488823268
 51
202.532825448
  0
ARC
  8
0
  6
CONTINUOUS
 62
     2
 10
34.83
 20
87.4
 30
0.0
 40
0.96
 50
157.435684636
 51
202.547619305
  0
ARC
  8
0
  6
CONTINUOUS
 62
     2
 10
34.11
 20
87.7
 30
0.0
 40
0.18
 50
22.323602445
 51
157.676397555
  0
ARC
  8
0
  6
CONTINUOUS
 62
     2
 10
34.11
 20
87.7
 30
0.0
 40
0.276
 50
22.204019072
 51
157.795980928
  0
ARC
  8
0
  6
CONTINUOUS
 62
     2
 10
34.11
 20
87.1
 30
0.0
 40
0.18
 50
202.234559129
 51
337.765440871
  0
ARC
  8
0
  6
CONTINUOUS
 62
     2
 10
34.11
 20
87.1
 30
0.0
 40
0.276
 50
202.286846658
 51
337.713153342
  0
ARC
  8
0
  6
CONTINUOUS
 62
     2
 10
34.67
 20
86.6
 30
0.0
 40
1.056
 50
337.467174552
 51
22.511176732
  0
ARC
  8
0
  6
CONTINUOUS
 62
     2
 10
34.67
 20
86.6
 30
0.0
 40
0.96
 50
337.452380695
 51
22.564315364
  0
ARC
  8
0
  6
CONTINUOUS
 62
     2
 10
36.11
 20
86.6
 30
0.0
 40
1.056
 50
157.488823268
 51
202.532825448
  0
ARC
  8
0
  6
CONTINUOUS
 62
     2
 10
36.11
 20
86.6
 30
0.0
 40
0.96
 50
157.435684636
 51
202.547619305
  0
ARC
  8
0
  6
CONTINUOUS
 62
     2
 10
35.39
 20
86.9
 30
0.0
 40
0.18
 50
22.323602445
 51
157.676397555
  0
ARC
  8
0
  6
CONTINUOUS
 62
     2
 10
35.39
 20
86.9
 30
0.0
 40
0.276
 50
22.204019072
 51
157.795980928
  0
ARC
  8
0
  6
CONTINUOUS
 62
     2
 10
35.39
 20
86.3
 30
0.0
 40
0.18
 50
202.234559129
 51
337.765440871
  0
ARC
  8
0
  6
CONTINUOUS
 62
     2
 10
35.39
 20
86.3
 30
0.0
 40
0.276
 50
202.286846658
 51
337.713153342
  0
LINE
  8
0
  6
CONTINUOUS
 62
     2
 10
35.565454591
 20
87.897146195
 30
0.0
 11
34.008085676
 21
86.041146195
 31
0.0
  0
LINE
  8
0
  6
CONTINUOUS
 62
     2
 10
35.491914324
 20
87.958853805
 30
0.0
 11
33.934545409
 21
86.102853805
 31
0.0
  0
ARC
  8
0
  6
CONTINUOUS
 62
     2
 10
33.971315542
 20
86.072
 30
0.0
 40
0.048
 50
140.0
 51
320.0
  0
ARC
  8
0
  6
CONTINUOUS
 62
     2
 10
35.528684458
 20
87.928
 30
0.0
 40
0.048
 50
320.0
 51
140.0
  0
LINE
  8
0
  6
CONTINUOUS
 62
     2
 10
15.5
 20
46.5
 30
0.0
 11
14.852952387
 21
44.085185434
 31
0.0
  0
LINE
  8
0
  6
CONTINUOUS
 62
     2
 10
15.5
 20
46.5
 30
0.0
 11
16.147047613
 21
44.085185434
 31
0.0
  0
LINE
  8
0
  6
CONTINUOUS
 62
     2
 10
15.5
 20
41.5
 30
0.0
 11
15.5
 21
56.0
 31
0.0
  0
LINE
  8
0
  6
CONTINUOUS
 62
     2
 10
15.5
 20
51.0
 30
0.0
 11
16.147047613
 21
53.414814566
 31
0.0
  0
LINE
  8
0
  6
CONTINUOUS
 62
     2
 10
15.5
 20
51.0
 30
0.0
 11
14.852952387
 21
53.414814566
 31
0.0
  0
TEXT
  8
0
  6
CONTINUOUS
 62
     2
 10
14.5
 20
47.85
 30
0.3
 40
3.0
  1
９
 50
90.0
 41
0.6
 51
0.0
  7
KANJI0
  0
LINE
  8
0
  6
CONTINUOUS
 62
     2
 10
15.5
 20
119.0
 30
0.0
 11
16.147047613
 21
121.414814566
 31
0.0
  0
LINE
  8
0
  6
CONTINUOUS
 62
     2
 10
15.5
 20
119.0
 30
0.0
 11
14.852952387
 21
121.414814566
 31
0.0
  0
LINE
  8
0
  6
CONTINUOUS
 62
     2
 10
15.5
 20
119.0
 30
0.0
 11
15.5
 21
128.5
 31
0.0
  0
LINE
  8
0
  6
CONTINUOUS
 62
     2
 10
15.5
 20
128.5
 30
0.0
 11
14.852952387
 21
126.085185434
 31
0.0
  0
LINE
  8
0
  6
CONTINUOUS
 62
     2
 10
15.5
 20
128.5
 30
0.0
 11
16.147047613
 21
126.085185434
 31
0.0
  0
TEXT
  8
0
  6
CONTINUOUS
 62
     2
 10
14.5
 20
121.8
 30
0.3
 40
3.0
  1
１９
 50
90.0
 41
0.6
 51
0.0
  7
KANJI0
  0
LINE
  8
0
  6
CONTINUOUS
 62
     2
 10
21.0
 20
128.5
 30
0.0
 11
13.5
 21
128.5
 31
0.0
  0
LINE
  8
0
  6
CONTINUOUS
 62
     2
 10
21.0
 20
119.0
 30
0.0
 11
13.5
 21
119.0
 31
0.0
  0
LINE
  8
0
  6
CONTINUOUS
 62
     2
 10
21.0
 20
46.5
 30
0.0
 11
13.5
 21
46.5
 31
0.0
  0
LINE
  8
0
  6
CONTINUOUS
 62
     2
 10
21.0
 20
51.0
 30
0.0
 11
13.5
 21
51.0
 31
0.0
  0
LINE
  8
0
  6
CONTINUOUS
 62
     2
 10
19.0
 20
130.5
 30
0.0
 11
19.0
 21
136.0
 31
0.0
  0
LINE
  8
0
  6
CONTINUOUS
 62
     2
 10
19.0
 20
134.0
 30
0.0
 11
16.585185434
 21
134.647047613
 31
0.0
  0
LINE
  8
0
  6
CONTINUOUS
 62
     2
 10
19.0
 20
134.0
 30
0.0
 11
16.585185434
 21
133.352952387
 31
0.0
  0
LINE
  8
0
  6
CONTINUOUS
 62
     2
 10
20.5
 20
131.0
 30
0.0
 11
20.5
 21
136.0
 31
0.0
  0
TEXT
  8
0
  6
CONTINUOUS
 62
     2
 10
18.85
 20
135.0
 30
0.3
 40
3.0
  1
３
 50
0.0
 41
0.6
 51
0.0
  7
KANJI0
  0
LINE
  8
0
  6
CONTINUOUS
 62
     2
 10
20.5
 20
134.0
 30
0.0
 11
22.914814566
 21
133.352952387
 31
0.0
  0
LINE
  8
0
  6
CONTINUOUS
 62
     2
 10
20.5
 20
134.0
 30
0.0
 11
22.914814566
 21
134.647047613
 31
0.0
  0
LINE
  8
0
  6
CONTINUOUS
 62
     2
 10
41.5
 20
134.0
 30
0.0
 11
39.085185434
 21
134.647047613
 31
0.0
  0
LINE
  8
0
  6
CONTINUOUS
 62
     2
 10
41.5
 20
134.0
 30
0.0
 11
39.085185434
 21
133.352952387
 31
0.0
  0
LINE
  8
0
  6
CONTINUOUS
 62
     2
 10
41.5
 20
131.0
 30
0.0
 11
41.5
 21
136.0
 31
0.0
  0
TEXT
  8
0
  6
CONTINUOUS
 62
     2
 10
29.05
 20
135.0
 30
0.3
 40
3.0
  1
４２
 50
0.0
 41
0.6
 51
0.0
  7
KANJI0
  0
LINE
  8
0
  6
CONTINUOUS
 62
     2
 10
14.585185434
 20
134.0
 30
0.0
 11
41.5
 21
134.0
 31
0.0
  0
TEXT
  8
0
  6
CONTINUOUS
 62
     2
 10
15.0
 20
24.0
 30
0.3
 40
3.0
  1
目盛長　１００ｍｍ
 50
0.0
 41
0.9
 51
0.0
  7
KANJI1
  0
LINE
  8
0
  6
CONTINUOUS
 62
     2
 10
22.0
 20
119.0
 30
0.0
 11
40.0
 21
119.0
 31
0.0
  0
LINE
  8
0
  6
CONTINUOUS
 62
     2
 10
40.0
 20
128.5
 30
0.0
 11
22.0
 21
128.5
 31
0.0
  0
LINE
  8
0
  6
CONTINUOUS
 62
     2
 10
40.0
 20
119.0
 30
0.0
 11
40.0
 21
128.5
 31
0.0
  0
LINE
  8
0
  6
CONTINUOUS
 62
     2
 10
22.0
 20
128.5
 30
0.0
 11
22.0
 21
119.0
 31
0.0
  0
LINE
  8
0
  6
CONTINUOUS
 62
     2
 10
40.0
 20
51.0
 30
0.0
 11
22.0
 21
51.0
 31
0.0
  0
LINE
  8
0
  6
CONTINUOUS
 62
     2
 10
22.0
 20
46.5
 30
0.0
 11
40.0
 21
46.5
 31
0.0
  0
LINE
  8
0
  6
CONTINUOUS
 62
     2
 10
22.0
 20
51.0
 30
0.0
 11
22.0
 21
46.5
 31
0.0
  0
LINE
  8
0
  6
CONTINUOUS
 62
     2
 10
40.0
 20
46.5
 30
0.0
 11
40.0
 21
51.0
 31
0.0
  0
LINE
  8
0
  6
CONTINUOUS
 62
     2
 10
22.0
 20
40.0
 30
0.0
 11
24.414814566
 21
39.352952387
 31
0.0
  0
LINE
  8
0
  6
CONTINUOUS
 62
     2
 10
22.0
 20
40.0
 30
0.0
 11
24.414814566
 21
40.647047613
 31
0.0
  0
LINE
  8
0
  6
CONTINUOUS
 62
     2
 10
22.0
 20
40.0
 30
0.0
 11
40.0
 21
40.0
 31
0.0
  0
LINE
  8
0
  6
CONTINUOUS
 62
     2
 10
40.0
 20
40.0
 30
0.0
 11
37.585185434
 21
40.647047613
 31
0.0
  0
LINE
  8
0
  6
CONTINUOUS
 62
     2
 10
40.0
 20
40.0
 30
0.0
 11
37.585185434
 21
39.352952387
 31
0.0
  0
TEXT
  8
0
  6
CONTINUOUS
 62
     2
 10
29.05
 20
41.0
 30
0.3
 40
3.0
  1
３６
 50
0.0
 41
0.6
 51
0.0
  7
KANJI0
  0
LINE
  8
0
  6
CONTINUOUS
 62
     2
 10
40.0
 20
45.5
 30
0.0
 11
40.0
 21
38.0
 31
0.0
  0
LINE
  8
0
  6
CONTINUOUS
 62
     2
 10
22.0
 20
45.5
 30
0.0
 11
22.0
 21
38.0
 31
0.0
  0
LINE
  8
0
  6
LTYPE1
 62
     2
 10
31.0
 20
133.0
 30
0.0
 11
31.0
 21
125.6
 31
0.0
  0
LINE
  8
0
  6
LTYPE1
 62
     2
 10
31.0
 20
47.1
 30
0.0
 11
31.0
 21
43.8
 31
0.0
  0
TEXT
  8
0
  6
CONTINUOUS
 62
     2
 10
23.95
 20
122.0
 30
0.3
 40
3.0
  1
（名称板）
 50
0.0
 41
0.9
 51
0.0
  7
KANJI1
  0
TEXT
  8
0
  6
CONTINUOUS
 62
     2
 10
24.45
 20
47.5
 30
0.3
 40
3.0
  1
（ＴＡＧ板）
 50
0.0
 41
0.9
 51
0.0
  7
KANJI1
  0
LINE
  8
0
  6
CONTINUOUS
 62
     2
 10
24.55
 20
60.5
 30
0.0
 11
24.55
 21
62.5
 31
0.0
  0
LINE
  8
0
  6
CONTINUOUS
 62
     2
 10
25.5
 20
60.5
 30
0.0
 11
24.55
 21
60.5
 31
0.0
  0
LINE
  8
0
  6
CONTINUOUS
 62
     2
 10
24.55
 20
62.5
 30
0.0
 11
25.5
 21
62.5
 31
0.0
  0
LINE
  8
0
  6
CONTINUOUS
 62
     2
 10
28.3
 20
61.4
 30
0.0
 11
26.4
 21
61.4
 31
0.0
  0
LINE
  8
0
  6
CONTINUOUS
 62
     2
 10
26.4
 20
61.4
 30
0.0
 11
25.5
 21
60.5
 31
0.0
  0
LINE
  8
0
  6
CONTINUOUS
 62
     2
 10
26.4
 20
61.6
 30
0.0
 11
25.5
 21
62.5
 31
0.0
  0
LINE
  8
0
  6
CONTINUOUS
 62
     2
 10
28.3
 20
61.6
 30
0.0
 11
26.4
 21
61.6
 31
0.0
  0
LINE
  8
0
  6
CONTINUOUS
 62
     2
 10
28.3
 20
61.6
 30
0.0
 11
28.3
 21
61.4
 31
0.0
  0
LINE
  8
0
  6
CONTINUOUS
 62
     2
 10
37.45
 20
60.5
 30
0.0
 11
37.45
 21
62.5
 31
0.0
  0
LINE
  8
0
  6
CONTINUOUS
 62
     2
 10
36.5
 20
60.5
 30
0.0
 11
37.45
 21
60.5
 31
0.0
  0
LINE
  8
0
  6
CONTINUOUS
 62
     2
 10
37.45
 20
62.5
 30
0.0
 11
36.5
 21
62.5
 31
0.0
  0
LINE
  8
0
  6
CONTINUOUS
 62
     2
 10
33.7
 20
61.4
 30
0.0
 11
35.6
 21
61.4
 31
0.0
  0
LINE
  8
0
  6
CONTINUOUS
 62
     2
 10
35.6
 20
61.4
 30
0.0
 11
36.5
 21
60.5
 31
0.0
  0
LINE
  8
0
  6
CONTINUOUS
 62
     2
 10
35.6
 20
61.6
 30
0.0
 11
36.5
 21
62.5
 31
0.0
  0
LINE
  8
0
  6
CONTINUOUS
 62
     2
 10
33.7
 20
61.6
 30
0.0
 11
35.6
 21
61.6
 31
0.0
  0
LINE
  8
0
  6
CONTINUOUS
 62
     2
 10
33.7
 20
61.6
 30
0.0
 11
33.7
 21
61.4
 31
0.0
  0
LINE
  8
0
  6
CONTINUOUS
 62
     2
 10
37.45
 20
61.609549882
 30
0.0
 11
39.217766953
 21
63.377316835
 31
0.0
  0
LINE
  8
0
  6
CONTINUOUS
 62
     2
 10
37.45
 20
61.609549882
 30
0.0
 11
38.097047613
 21
64.024364448
 31
0.0
  0
LINE
  8
0
  6
CONTINUOUS
 62
     2
 10
37.45
 20
61.609549882
 30
0.0
 11
44.5
 21
73.820508076
 31
0.0
  0
LINE
  8
0
  6
CONTINUOUS
 62
     2
 10
44.5
 20
73.820508076
 30
0.0
 11
50.2
 21
73.820508076
 31
0.0
  0
TEXT
  8
0
  6
CONTINUOUS
 62
     2
 10
44.5
 20
74.820508076
 30
0.3
 40
3.0
  1
指針
 50
0.0
 41
0.9
 51
0.0
  7
KANJI1
  0
LINE
  8
0
  6
CONTINUOUS
 62
     2
 10
24.55
 20
61.609549882
 30
0.0
 11
23.902952387
 21
64.024364448
 31
0.0
  0
LINE
  8
0
  6
CONTINUOUS
 62
     2
 10
24.55
 20
61.609549882
 30
0.0
 11
22.782233047
 21
63.377316835
 31
0.0
  0
LINE
  8
0
  6
CONTINUOUS
 62
     2
 10
24.55
 20
61.609549882
 30
0.0
 11
17.5
 21
73.820508076
 31
0.0
  0
LINE
  8
0
  6
CONTINUOUS
 62
     2
 10
17.5
 20
73.820508076
 30
0.0
 11
11.8
 21
73.820508076
 31
0.0
  0
TEXT
  8
0
  6
CONTINUOUS
 62
     2
 10
11.8
 20
74.820508076
 30
0.3
 40
3.0
  1
指針
 50
0.0
 41
0.9
 51
0.0
  7
KANJI1
  0
LINE
  8
0
  6
CONTINUOUS
 62
     2
 10
34.979444628
 20
53.669577545
 30
0.0
 11
35.626492241
 21
51.254762979
 31
0.0
  0
LINE
  8
0
  6
CONTINUOUS
 62
     2
 10
34.979444628
 20
53.669577545
 30
0.0
 11
36.747211581
 21
51.901810592
 31
0.0
  0
LINE
  8
0
  6
CONTINUOUS
 62
     2
 10
34.979444628
 20
53.669577545
 30
0.0
 11
44.5
 21
37.179491924
 31
0.0
  0
LINE
  8
0
  6
CONTINUOUS
 62
     2
 10
44.5
 20
37.179491924
 30
0.0
 11
59.2
 21
37.179491924
 31
0.0
  0
TEXT
  8
0
  6
CONTINUOUS
 62
     2
 10
44.5
 20
38.179491924
 30
0.3
 40
3.0
  1
零位調整器
 50
0.0
 41
0.9
 51
0.0
  7
KANJI1
  0
LINE
  8
0
  6
CONTINUOUS
 62
     1
 10
160.0
 20
152.5
 30
0.0
 11
160.0
 21
170.5
 31
0.0
  0
LINE
  8
0
  6
CONTINUOUS
 62
     1
 10
60.5
 20
171.875
 30
0.0
 11
60.5
 21
151.125
 31
0.0
  0
LINE
  8
0
  6
CONTINUOUS
 62
     1
 10
60.5
 20
151.125
 30
0.0
 11
64.75
 21
151.125
 31
0.0
  0
LINE
  8
0
  6
CONTINUOUS
 62
     1
 10
64.75
 20
155.0
 30
0.0
 11
64.75
 21
151.125
 31
0.0
  0
LINE
  8
0
  6
CONTINUOUS
 62
     1
 10
64.75
 20
168.0
 30
0.0
 11
64.75
 21
171.875
 31
0.0
  0
LINE
  8
0
  6
CONTINUOUS
 62
     1
 10
64.75
 20
171.875
 30
0.0
 11
60.5
 21
171.875
 31
0.0
  0
LINE
  8
0
  6
CONTINUOUS
 62
     1
 10
65.0
 20
155.0
 30
0.0
 11
65.0
 21
168.0
 31
0.0
  0
LINE
  8
0
  6
CONTINUOUS
 62
     1
 10
68.0
 20
155.0
 30
0.0
 11
68.0
 21
158.5
 31
0.0
  0
LINE
  8
0
  6
CONTINUOUS
 62
     1
 10
68.0
 20
158.5
 30
0.0
 11
70.5
 21
158.5
 31
0.0
  0
LINE
  8
0
  6
CONTINUOUS
 62
     1
 10
70.5
 20
158.5
 30
0.0
 11
70.5
 21
155.0
 31
0.0
  0
LINE
  8
0
  6
CONTINUOUS
 62
     1
 10
68.0
 20
168.0
 30
0.0
 11
68.0
 21
164.5
 31
0.0
  0
LINE
  8
0
  6
CONTINUOUS
 62
     1
 10
68.0
 20
164.5
 30
0.0
 11
70.5
 21
164.5
 31
0.0
  0
LINE
  8
0
  6
CONTINUOUS
 62
     1
 10
70.5
 20
164.5
 30
0.0
 11
70.5
 21
168.0
 31
0.0
  0
LINE
  8
0
  6
CONTINUOUS
 62
     1
 10
160.0
 20
170.5
 30
0.0
 11
78.0
 21
170.5
 31
0.0
  0
LINE
  8
0
  6
CONTINUOUS
 62
     1
 10
78.0
 20
152.5
 30
0.0
 11
160.0
 21
152.5
 31
0.0
  0
LINE
  8
0
  6
CONTINUOUS
 62
     1
 10
74.5
 20
168.0
 30
0.0
 11
64.75
 21
168.0
 31
0.0
  0
LINE
  8
0
  6
CONTINUOUS
 62
     1
 10
74.5
 20
155.0
 30
0.0
 11
64.75
 21
155.0
 31
0.0
  0
LINE
  8
0
  6
CONTINUOUS
 62
     1
 10
70.5
 20
155.25
 30
0.0
 11
69.7
 21
155.25
 31
0.0
  0
LINE
  8
0
  6
CONTINUOUS
 62
     1
 10
69.7
 20
155.25
 30
0.0
 11
69.7
 21
167.75
 31
0.0
  0
LINE
  8
0
  6
CONTINUOUS
 62
     1
 10
69.7
 20
167.75
 30
0.0
 11
70.5
 21
167.75
 31
0.0
  0
LINE
  8
0
  6
CONTINUOUS
 62
     1
 10
70.5
 20
167.75
 30
0.0
 11
70.5
 21
155.25
 31
0.0
  0
LINE
  8
0
  6
CONTINUOUS
 62
     1
 10
71.3
 20
157.25
 30
0.0
 11
71.3
 21
165.75
 31
0.0
  0
LINE
  8
0
  6
CONTINUOUS
 62
     1
 10
149.7
 20
157.25
 30
0.0
 11
149.7
 21
157.25
 31
0.0
  0
LINE
  8
0
  6
CONTINUOUS
 62
     1
 10
70.5
 20
157.25
 30
0.0
 11
149.7
 21
157.25
 31
0.0
  0
LINE
  8
0
  6
CONTINUOUS
 62
     1
 10
149.7
 20
157.25
 30
0.0
 11
149.7
 21
165.75
 31
0.0
  0
LINE
  8
0
  6
CONTINUOUS
 62
     1
 10
149.7
 20
165.75
 30
0.0
 11
70.5
 21
165.75
 31
0.0
  0
LINE
  8
0
  6
CONTINUOUS
 62
     1
 10
148.9
 20
165.75
 30
0.0
 11
148.9
 21
157.25
 31
0.0
  0
LINE
  8
0
  6
CONTINUOUS
 62
     1
 10
74.5
 20
165.75
 30
0.0
 11
74.5
 21
171.625
 31
0.0
  0
LINE
  8
0
  6
CONTINUOUS
 62
     1
 10
78.0
 20
165.75
 30
0.0
 11
78.0
 21
171.625
 31
0.0
  0
LINE
  8
0
  6
CONTINUOUS
 62
     1
 10
74.5
 20
151.375
 30
0.0
 11
74.5
 21
157.25
 31
0.0
  0
LINE
  8
0
  6
CONTINUOUS
 62
     1
 10
78.0
 20
151.375
 30
0.0
 11
78.0
 21
157.25
 31
0.0
  0
LINE
  8
0
  6
CONTINUOUS
 62
     1
 10
55.1
 20
170.5
 30
0.0
 11
60.5
 21
170.5
 31
0.0
  0
ARC
  8
0
  6
CONTINUOUS
 62
     1
 10
55.1
 20
170.4
 30
0.0
 40
0.1
 50
90.0
 51
180.0
  0
LINE
  8
0
  6
CONTINUOUS
 62
     1
 10
60.5
 20
152.5
 30
0.0
 11
55.1
 21
152.5
 31
0.0
  0
LINE
  8
0
  6
CONTINUOUS
 62
     1
 10
55.0
 20
152.6
 30
0.0
 11
55.0
 21
170.4
 31
0.0
  0
ARC
  8
0
  6
CONTINUOUS
 62
     1
 10
55.1
 20
152.6
 30
0.0
 40
0.1
 50
180.0
 51
270.0
  0
LINE
  8
0
  6
CONTINUOUS
 62
     1
 10
65.0
 20
171.625
 30
0.0
 11
78.0
 21
171.625
 31
0.0
  0
LINE
  8
0
  6
CONTINUOUS
 62
     1
 10
160.0
 20
52.5
 30
0.0
 11
160.0
 21
117.5
 31
0.0
  0
POINT
  8
0
  6
CONTINUOUS
 62
     1
 10
78.0
 20
58.0
 30
0.0
  0
LINE
  8
0
  6
CONTINUOUS
 62
     1
 10
60.5
 20
45.0
 30
0.0
 11
65.0
 21
45.0
 31
0.0
  0
LINE
  8
0
  6
CONTINUOUS
 62
     1
 10
65.0
 20
45.0
 30
0.0
 11
65.0
 21
130.0
 31
0.0
  0
LINE
  8
0
  6
CONTINUOUS
 62
     1
 10
65.0
 20
130.0
 30
0.0
 11
60.5
 21
130.0
 31
0.0
  0
LINE
  8
0
  6
CONTINUOUS
 62
     1
 10
60.5
 20
130.0
 30
0.0
 11
60.5
 21
45.0
 31
0.0
  0
LINE
  8
0
  6
CONTINUOUS
 62
     1
 10
78.0
 20
119.5
 30
0.0
 11
78.0
 21
50.5
 31
0.0
  0
LINE
  8
0
  6
CONTINUOUS
 62
     1
 10
78.0
 20
50.5
 30
0.0
 11
74.5
 21
50.5
 31
0.0
  0
LINE
  8
0
  6
CONTINUOUS
 62
     1
 10
74.5
 20
50.5
 30
0.0
 11
74.5
 21
46.75
 31
0.0
  0
LINE
  8
0
  6
CONTINUOUS
 62
     1
 10
74.5
 20
46.75
 30
0.0
 11
65.0
 21
46.75
 31
0.0
  0
LINE
  8
0
  6
CONTINUOUS
 62
     1
 10
78.0
 20
119.5
 30
0.0
 11
74.5
 21
119.5
 31
0.0
  0
LINE
  8
0
  6
CONTINUOUS
 62
     1
 10
74.5
 20
119.5
 30
0.0
 11
74.5
 21
128.25
 31
0.0
  0
LINE
  8
0
  6
CONTINUOUS
 62
     1
 10
74.5
 20
128.25
 30
0.0
 11
65.0
 21
128.25
 31
0.0
  0
LINE
  8
0
  6
CONTINUOUS
 62
     1
 10
60.156372261
 20
52.5
 30
0.0
 11
60.5
 21
52.5
 31
0.0
  0
LINE
  8
0
  6
CONTINUOUS
 62
     1
 10
60.156372261
 20
117.5
 30
0.0
 11
60.5
 21
117.5
 31
0.0
  0
ARC
  8
0
  6
CONTINUOUS
 62
     1
 10
160.0
 20
85.0
 30
0.0
 40
105.0
 50
161.969464607
 51
198.030535393
  0
LINE
  8
0
  6
CONTINUOUS
 62
     1
 10
69.7
 20
128.25
 30
0.0
 11
69.7
 21
133.25
 31
0.0
  0
LINE
  8
0
  6
CONTINUOUS
 62
     1
 10
69.7
 20
133.25
 30
0.0
 11
70.5
 21
133.25
 31
0.0
  0
LINE
  8
0
  6
CONTINUOUS
 62
     1
 10
70.5
 20
133.25
 30
0.0
 11
70.5
 21
128.25
 31
0.0
  0
LINE
  8
0
  6
CONTINUOUS
 62
     1
 10
70.5
 20
133.25
 30
0.0
 11
71.3
 21
133.25
 31
0.0
  0
LINE
  8
0
  6
CONTINUOUS
 62
     1
 10
71.3
 20
133.25
 30
0.0
 11
71.3
 21
129.05
 31
0.0
  0
LINE
  8
0
  6
CONTINUOUS
 62
     1
 10
71.3
 20
129.05
 30
0.0
 11
148.9
 21
129.05
 31
0.0
  0
LINE
  8
0
  6
CONTINUOUS
 62
     1
 10
148.9
 20
129.05
 30
0.0
 11
148.9
 21
134.05
 31
0.0
  0
LINE
  8
0
  6
CONTINUOUS
 62
     1
 10
148.9
 20
134.05
 30
0.0
 11
149.7
 21
134.05
 31
0.0
  0
LINE
  8
0
  6
CONTINUOUS
 62
     1
 10
149.7
 20
134.05
 30
0.0
 11
149.7
 21
128.25
 31
0.0
  0
LINE
  8
0
  6
CONTINUOUS
 62
     1
 10
149.7
 20
128.25
 30
0.0
 11
70.5
 21
128.25
 31
0.0
  0
LINE
  8
0
  6
CONTINUOUS
 62
     1
 10
71.3
 20
132.4
 30
0.0
 11
148.9
 21
132.4
 31
0.0
  0
LINE
  8
0
  6
CONTINUOUS
 62
     1
 10
71.3
 20
129.9
 30
0.0
 11
148.9
 21
129.9
 31
0.0
  0
LINE
  8
0
  6
CONTINUOUS
 62
     1
 10
78.0
 20
116.875
 30
0.0
 11
159.35
 21
116.875
 31
0.0
  0
LINE
  8
0
  6
CONTINUOUS
 62
     1
 10
159.35
 20
116.875
 30
0.0
 11
159.35
 21
53.125
 31
0.0
  0
LINE
  8
0
  6
CONTINUOUS
 62
     1
 10
159.35
 20
53.125
 30
0.0
 11
78.0
 21
53.125
 31
0.0
  0
LINE
  8
0
  6
CONTINUOUS
 62
     1
 10
78.0
 20
52.5
 30
0.0
 11
160.0
 21
52.5
 31
0.0
  0
LINE
  8
0
  6
CONTINUOUS
 62
     1
 10
160.0
 20
117.5
 30
0.0
 11
78.0
 21
117.5
 31
0.0
  0
LINE
  8
0
  6
CONTINUOUS
 62
     1
 10
69.7
 20
46.75
 30
0.0
 11
69.7
 21
41.75
 31
0.0
  0
LINE
  8
0
  6
CONTINUOUS
 62
     1
 10
69.7
 20
41.75
 30
0.0
 11
70.5
 21
41.75
 31
0.0
  0
LINE
  8
0
  6
CONTINUOUS
 62
     1
 10
70.5
 20
41.75
 30
0.0
 11
70.5
 21
46.75
 31
0.0
  0
LINE
  8
0
  6
CONTINUOUS
 62
     1
 10
70.5
 20
41.75
 30
0.0
 11
71.3
 21
41.75
 31
0.0
  0
LINE
  8
0
  6
CONTINUOUS
 62
     1
 10
71.3
 20
41.75
 30
0.0
 11
71.3
 21
45.95
 31
0.0
  0
LINE
  8
0
  6
CONTINUOUS
 62
     1
 10
71.3
 20
45.95
 30
0.0
 11
148.9
 21
45.95
 31
0.0
  0
LINE
  8
0
  6
CONTINUOUS
 62
     1
 10
148.9
 20
45.95
 30
0.0
 11
148.9
 21
40.95
 31
0.0
  0
LINE
  8
0
  6
CONTINUOUS
 62
     1
 10
148.9
 20
40.95
 30
0.0
 11
149.7
 21
40.95
 31
0.0
  0
LINE
  8
0
  6
CONTINUOUS
 62
     1
 10
149.7
 20
40.95
 30
0.0
 11
149.7
 21
46.75
 31
0.0
  0
LINE
  8
0
  6
CONTINUOUS
 62
     1
 10
149.7
 20
46.75
 30
0.0
 11
70.5
 21
46.75
 31
0.0
  0
LINE
  8
0
  6
CONTINUOUS
 62
     1
 10
71.3
 20
42.6
 30
0.0
 11
148.9
 21
42.6
 31
0.0
  0
LINE
  8
0
  6
CONTINUOUS
 62
     1
 10
71.3
 20
45.1
 30
0.0
 11
148.9
 21
45.1
 31
0.0
  0
LINE
  8
0
  6
CONTINUOUS
 62
     1
 10
68.0
 20
130.7
 30
0.0
 11
68.0
 21
131.8
 31
0.0
  0
LINE
  8
0
  6
CONTINUOUS
 62
     1
 10
68.0
 20
44.3
 30
0.0
 11
68.0
 21
43.2
 31
0.0
  0
LINE
  8
0
  6
CONTINUOUS
 62
     1
 10
68.0
 20
135.0
 30
0.0
 11
68.0
 21
128.75
 31
0.0
  0
LINE
  8
0
  6
CONTINUOUS
 62
     1
 10
68.0
 20
40.0
 30
0.0
 11
68.0
 21
46.25
 31
0.0
  0
LINE
  8
0
  6
CONTINUOUS
 62
     1
 10
68.0
 20
128.75
 30
0.0
 11
65.5
 21
128.75
 31
0.0
  0
LINE
  8
0
  6
CONTINUOUS
 62
     1
 10
68.0
 20
46.25
 30
0.0
 11
65.5
 21
46.25
 31
0.0
  0
POINT
  8
0
  6
CONTINUOUS
 62
     1
 10
68.0
 20
162.5
 30
0.0
  0
LINE
  8
0
  6
CONTINUOUS
 62
     1
 10
68.25
 20
162.75
 30
0.0
 11
69.7
 21
162.75
 31
0.0
  0
LINE
  8
0
  6
CONTINUOUS
 62
     1
 10
68.25
 20
162.75
 30
0.0
 11
68.0
 21
162.5
 31
0.0
  0
POINT
  8
0
  6
CONTINUOUS
 62
     1
 10
68.0
 20
160.5
 30
0.0
  0
LINE
  8
0
  6
CONTINUOUS
 62
     1
 10
68.25
 20
160.25
 30
0.0
 11
69.7
 21
160.25
 31
0.0
  0
LINE
  8
0
  6
CONTINUOUS
 62
     1
 10
68.0
 20
160.5
 30
0.0
 11
68.0
 21
162.5
 31
0.0
  0
LINE
  8
0
  6
CONTINUOUS
 62
     1
 10
68.25
 20
160.25
 30
0.0
 11
68.0
 21
160.5
 31
0.0
  0
LINE
  8
0
  6
CONTINUOUS
 62
     1
 10
71.3
 20
162.75
 30
0.0
 11
148.9
 21
162.75
 31
0.0
  0
LINE
  8
0
  6
CONTINUOUS
 62
     1
 10
71.3
 20
160.25
 30
0.0
 11
148.9
 21
160.25
 31
0.0
  0
LINE
  8
0
  6
CONTINUOUS
 62
     1
 10
157.75
 20
162.75
 30
0.0
 11
158.0
 21
162.5
 31
0.0
  0
LINE
  8
0
  6
CONTINUOUS
 62
     1
 10
158.0
 20
160.5
 30
0.0
 11
157.75
 21
160.25
 31
0.0
  0
LINE
  8
0
  6
CONTINUOUS
 62
     1
 10
158.0
 20
162.5
 30
0.0
 11
158.0
 21
160.5
 31
0.0
  0
LINE
  8
0
  6
CONTINUOUS
 62
     1
 10
157.75
 20
132.5
 30
0.0
 11
158.0
 21
132.25
 31
0.0
  0
LINE
  8
0
  6
CONTINUOUS
 62
     1
 10
158.0
 20
130.25
 30
0.0
 11
157.75
 21
130.0
 31
0.0
  0
LINE
  8
0
  6
CONTINUOUS
 62
     1
 10
158.0
 20
132.25
 30
0.0
 11
158.0
 21
130.25
 31
0.0
  0
POINT
  8
0
  6
CONTINUOUS
 62
     1
 10
68.0
 20
132.05
 30
0.0
  0
LINE
  8
0
  6
CONTINUOUS
 62
     1
 10
68.25
 20
132.3
 30
0.0
 11
69.7
 21
132.3
 31
0.0
  0
LINE
  8
0
  6
CONTINUOUS
 62
     1
 10
68.25
 20
132.3
 30
0.0
 11
68.0
 21
132.05
 31
0.0
  0
POINT
  8
0
  6
CONTINUOUS
 62
     1
 10
68.0
 20
130.05
 30
0.0
  0
LINE
  8
0
  6
CONTINUOUS
 62
     1
 10
68.25
 20
129.8
 30
0.0
 11
69.7
 21
129.8
 31
0.0
  0
LINE
  8
0
  6
CONTINUOUS
 62
     1
 10
68.0
 20
130.05
 30
0.0
 11
68.0
 21
132.05
 31
0.0
  0
LINE
  8
0
  6
CONTINUOUS
 62
     1
 10
68.25
 20
129.8
 30
0.0
 11
68.0
 21
130.05
 31
0.0
  0
LINE
  8
0
  6
CONTINUOUS
 62
     1
 10
65.5
 20
46.25
 30
0.0
 11
65.5
 21
39.5
 31
0.0
  0
LINE
  8
0
  6
CONTINUOUS
 62
     1
 10
68.0
 20
43.4
 30
0.0
 11
68.0
 21
44.5
 31
0.0
  0
POINT
  8
0
  6
CONTINUOUS
 62
     1
 10
68.0
 20
44.75
 30
0.0
  0
LINE
  8
0
  6
CONTINUOUS
 62
     1
 10
68.25
 20
45.0
 30
0.0
 11
69.7
 21
45.0
 31
0.0
  0
LINE
  8
0
  6
CONTINUOUS
 62
     1
 10
68.25
 20
45.0
 30
0.0
 11
68.0
 21
44.75
 31
0.0
  0
POINT
  8
0
  6
CONTINUOUS
 62
     1
 10
68.0
 20
42.75
 30
0.0
  0
LINE
  8
0
  6
CONTINUOUS
 62
     1
 10
68.25
 20
42.5
 30
0.0
 11
69.7
 21
42.5
 31
0.0
  0
LINE
  8
0
  6
CONTINUOUS
 62
     1
 10
68.0
 20
42.75
 30
0.0
 11
68.0
 21
44.75
 31
0.0
  0
LINE
  8
0
  6
CONTINUOUS
 62
     1
 10
68.25
 20
42.5
 30
0.0
 11
68.0
 21
42.75
 31
0.0
  0
LINE
  8
0
  6
CONTINUOUS
 62
     1
 10
65.5
 20
39.5
 30
0.0
 11
65.8
 21
39.9
 31
0.0
  0
LINE
  8
0
  6
CONTINUOUS
 62
     1
 10
65.8
 20
39.9
 30
0.0
 11
66.1
 21
40.1
 31
0.0
  0
LINE
  8
0
  6
CONTINUOUS
 62
     1
 10
66.1
 20
40.1
 30
0.0
 11
66.6
 21
39.9
 31
0.0
  0
LINE
  8
0
  6
CONTINUOUS
 62
     1
 10
66.6
 20
39.9
 30
0.0
 11
66.9
 21
39.7
 31
0.0
  0
LINE
  8
0
  6
CONTINUOUS
 62
     1
 10
66.9
 20
39.7
 30
0.0
 11
67.1
 21
40.0
 31
0.0
  0
LINE
  8
0
  6
CONTINUOUS
 62
     1
 10
67.1
 20
40.0
 30
0.0
 11
67.3
 21
40.2
 31
0.0
  0
LINE
  8
0
  6
CONTINUOUS
 62
     1
 10
67.3
 20
40.2
 30
0.0
 11
67.6
 21
39.9
 31
0.0
  0
LINE
  8
0
  6
CONTINUOUS
 62
     1
 10
67.6
 20
39.9
 30
0.0
 11
68.0
 21
40.0
 31
0.0
  0
LINE
  8
0
  6
CONTINUOUS
 62
     1
 10
65.5
 20
128.75
 30
0.0
 11
65.5
 21
135.5
 31
0.0
  0
LINE
  8
0
  6
CONTINUOUS
 62
     1
 10
68.0
 20
135.0
 30
0.0
 11
67.84375
 21
134.9
 31
0.0
  0
LINE
  8
0
  6
CONTINUOUS
 62
     1
 10
67.84375
 20
134.9
 30
0.0
 11
67.7
 21
134.8
 31
0.0
  0
LINE
  8
0
  6
CONTINUOUS
 62
     1
 10
67.7
 20
134.8
 30
0.0
 11
67.59375
 21
134.69375
 31
0.0
  0
LINE
  8
0
  6
CONTINUOUS
 62
     1
 10
67.59375
 20
134.69375
 30
0.0
 11
67.5
 21
134.6
 31
0.0
  0
LINE
  8
0
  6
CONTINUOUS
 62
     1
 10
67.5
 20
134.6
 30
0.0
 11
67.40625
 21
134.525
 31
0.0
  0
LINE
  8
0
  6
CONTINUOUS
 62
     1
 10
67.40625
 20
134.525
 30
0.0
 11
67.3
 21
134.5
 31
0.0
  0
LINE
  8
0
  6
CONTINUOUS
 62
     1
 10
67.3
 20
134.5
 30
0.0
 11
67.15625
 21
134.58125
 31
0.0
  0
LINE
  8
0
  6
CONTINUOUS
 62
     1
 10
67.15625
 20
134.58125
 30
0.0
 11
67.0
 21
134.7
 31
0.0
  0
LINE
  8
0
  6
CONTINUOUS
 62
     1
 10
67.0
 20
134.7
 30
0.0
 11
66.8375
 21
134.8
 31
0.0
  0
LINE
  8
0
  6
CONTINUOUS
 62
     1
 10
66.8375
 20
134.8
 30
0.0
 11
66.7
 21
134.9
 31
0.0
  0
LINE
  8
0
  6
CONTINUOUS
 62
     1
 10
66.7
 20
134.9
 30
0.0
 11
66.65625
 21
135.025
 31
0.0
  0
LINE
  8
0
  6
CONTINUOUS
 62
     1
 10
66.65625
 20
135.025
 30
0.0
 11
66.6
 21
135.1
 31
0.0
  0
LINE
  8
0
  6
CONTINUOUS
 62
     1
 10
66.6
 20
135.1
 30
0.0
 11
66.4
 21
135.01875
 31
0.0
  0
LINE
  8
0
  6
CONTINUOUS
 62
     1
 10
66.4
 20
135.01875
 30
0.0
 11
66.2
 21
134.9
 31
0.0
  0
LINE
  8
0
  6
CONTINUOUS
 62
     1
 10
66.2
 20
134.9
 30
0.0
 11
66.1375
 21
134.8375
 31
0.0
  0
LINE
  8
0
  6
CONTINUOUS
 62
     1
 10
66.1375
 20
134.8375
 30
0.0
 11
66.1
 21
134.8
 31
0.0
  0
LINE
  8
0
  6
CONTINUOUS
 62
     1
 10
66.1
 20
134.8
 30
0.0
 11
66.00625
 21
134.7625
 31
0.0
  0
LINE
  8
0
  6
CONTINUOUS
 62
     1
 10
66.00625
 20
134.7625
 30
0.0
 11
65.9
 21
134.8
 31
0.0
  0
LINE
  8
0
  6
CONTINUOUS
 62
     1
 10
65.9
 20
134.8
 30
0.0
 11
65.8
 21
135.0375
 31
0.0
  0
LINE
  8
0
  6
CONTINUOUS
 62
     1
 10
65.8
 20
135.0375
 30
0.0
 11
65.7
 21
135.3
 31
0.0
  0
LINE
  8
0
  6
CONTINUOUS
 62
     1
 10
65.7
 20
135.3
 30
0.0
 11
65.6
 21
135.41875
 31
0.0
  0
LINE
  8
0
  6
CONTINUOUS
 62
     1
 10
65.6
 20
135.41875
 30
0.0
 11
65.5
 21
135.5
 31
0.0
  0
LINE
  8
0
  6
CONTINUOUS
 62
     1
 10
157.75
 20
45.2
 30
0.0
 11
158.0
 21
44.95
 31
0.0
  0
LINE
  8
0
  6
CONTINUOUS
 62
     1
 10
158.0
 20
42.95
 30
0.0
 11
157.75
 21
42.7
 31
0.0
  0
LINE
  8
0
  6
CONTINUOUS
 62
     1
 10
158.0
 20
44.95
 30
0.0
 11
158.0
 21
42.95
 31
0.0
  0
LINE
  8
0
  6
CONTINUOUS
 62
     2
 10
66.607050808
 20
176.375
 30
0.0
 11
87.307050808
 21
176.375
 31
0.0
  0
TEXT
  8
0
  6
CONTINUOUS
 62
     2
 10
66.607050808
 20
177.375
 30
0.3
 40
3.0
  1
エスカッション
 50
0.0
 41
0.9
 51
0.0
  7
KANJI1
  0
LINE
  8
0
  6
CONTINUOUS
 62
     2
 10
59.924995005
 20
53.219607063
 30
0.0
 11
62.422385549
 21
53.333801946
 31
0.0
  0
LINE
  8
0
  6
CONTINUOUS
 62
     2
 10
59.924995005
 20
53.219607063
 30
0.0
 11
62.030701218
 21
54.567198004
 31
0.0
  0
LINE
  8
0
  6
CONTINUOUS
 62
     2
 10
59.924995005
 20
53.219607063
 30
0.0
 11
160.0
 21
85.0
 31
0.0
  0
LINE
  8
0
  6
CONTINUOUS
 62
     2
 10
65.0
 20
131.0
 30
0.0
 11
65.0
 21
141.0
 31
0.0
  0
LINE
  8
0
  6
CONTINUOUS
 62
     2
 10
65.0
 20
139.0
 30
0.0
 11
62.585185434
 21
139.647047613
 31
0.0
  0
LINE
  8
0
  6
CONTINUOUS
 62
     2
 10
65.0
 20
139.0
 30
0.0
 11
62.585185434
 21
138.352952387
 31
0.0
  0
LINE
  8
0
  6
CONTINUOUS
 62
     2
 10
65.0
 20
139.0
 30
0.0
 11
55.0
 21
139.0
 31
0.0
  0
LINE
  8
0
  6
CONTINUOUS
 62
     2
 10
55.0
 20
139.0
 30
0.0
 11
57.414814566
 21
138.352952387
 31
0.0
  0
LINE
  8
0
  6
CONTINUOUS
 62
     2
 10
55.0
 20
139.0
 30
0.0
 11
57.414814566
 21
139.647047613
 31
0.0
  0
LINE
  8
0
  6
CONTINUOUS
 62
     2
 10
55.0
 20
94.0
 30
0.0
 11
55.0
 21
141.0
 31
0.0
  0
TEXT
  8
0
  6
CONTINUOUS
 62
     2
 10
58.05
 20
140.0
 30
0.3
 40
3.0
  1
２０
 50
0.0
 41
0.6
 51
0.0
  7
KANJI0
  0
LINE
  8
0
  6
CONTINUOUS
 62
     2
 10
65.0
 20
139.0
 30
0.0
 11
67.414814566
 21
138.352952387
 31
0.0
  0
LINE
  8
0
  6
CONTINUOUS
 62
     2
 10
65.0
 20
139.0
 30
0.0
 11
67.414814566
 21
139.647047613
 31
0.0
  0
LINE
  8
0
  6
CONTINUOUS
 62
     2
 10
65.0
 20
139.0
 30
0.0
 11
160.0
 21
139.0
 31
0.0
  0
LINE
  8
0
  6
CONTINUOUS
 62
     2
 10
160.0
 20
139.0
 30
0.0
 11
157.585185434
 21
139.647047613
 31
0.0
  0
LINE
  8
0
  6
CONTINUOUS
 62
     2
 10
160.0
 20
139.0
 30
0.0
 11
157.585185434
 21
138.352952387
 31
0.0
  0
LINE
  8
0
  6
CONTINUOUS
 62
     2
 10
160.0
 20
118.5
 30
0.0
 11
160.0
 21
141.0
 31
0.0
  0
TEXT
  8
0
  6
CONTINUOUS
 62
     2
 10
109.5
 20
140.0
 30
0.3
 40
3.0
  1
１９０
 50
0.0
 41
0.6
 51
0.0
  7
KANJI0
  0
LINE
  8
0
  6
CONTINUOUS
 62
     2
 10
65.0
 20
44.0
 30
0.0
 11
65.0
 21
34.0
 31
0.0
  0
LINE
  8
0
  6
CONTINUOUS
 62
     2
 10
65.0
 20
36.0
 30
0.0
 11
62.585185434
 21
36.647047613
 31
0.0
  0
LINE
  8
0
  6
CONTINUOUS
 62
     2
 10
65.0
 20
36.0
 30
0.0
 11
62.585185434
 21
35.352952387
 31
0.0
  0
LINE
  8
0
  6
CONTINUOUS
 62
     2
 10
60.0
 20
36.0
 30
0.0
 11
73.0
 21
36.0
 31
0.0
  0
LINE
  8
0
  6
CONTINUOUS
 62
     2
 10
68.0
 20
36.0
 30
0.0
 11
70.414814566
 21
35.352952387
 31
0.0
  0
LINE
  8
0
  6
CONTINUOUS
 62
     2
 10
68.0
 20
36.0
 30
0.0
 11
70.414814566
 21
36.647047613
 31
0.0
  0
LINE
  8
0
  6
CONTINUOUS
 62
     2
 10
68.0
 20
39.0
 30
0.0
 11
68.0
 21
34.0
 31
0.0
  0
TEXT
  8
0
  6
CONTINUOUS
 62
     2
 10
70.6
 20
37.0
 30
0.3
 40
3.0
  1
６　ｍａｘ．
 50
0.0
 41
0.6
 51
0.0
  7
KANJI0
  0
LINE
  8
0
  6
CONTINUOUS
 62
     2
 10
95.0
 20
42.6
 30
0.0
 11
95.647047613
 21
40.185185434
 31
0.0
  0
LINE
  8
0
  6
CONTINUOUS
 62
     2
 10
95.0
 20
42.6
 30
0.0
 11
96.767766953
 21
40.832233047
 31
0.0
  0
LINE
  8
0
  6
CONTINUOUS
 62
     2
 10
95.0
 20
42.6
 30
0.0
 11
100.773502692
 21
32.6
 31
0.0
  0
LINE
  8
0
  6
CONTINUOUS
 62
     2
 10
100.773502692
 20
32.6
 30
0.0
 11
124.473502692
 21
32.6
 31
0.0
  0
TEXT
  8
0
  6
CONTINUOUS
 62
     2
 10
100.773502692
 20
33.6
 30
0.3
 40
3.0
  1
取付金具（Ｍ５）
 50
0.0
 41
0.9
 51
0.0
  7
KANJI1
  0
LINE
  8
0
  6
CONTINUOUS
 62
     2
 10
160.0
 20
139.0
 30
0.0
 11
157.585185434
 21
139.647047613
 31
0.0
  0
LINE
  8
0
  6
CONTINUOUS
 62
     2
 10
160.0
 20
139.0
 30
0.0
 11
157.585185434
 21
138.352952387
 31
0.0
  0
LINE
  8
0
  6
CONTINUOUS
 62
     2
 10
55.0
 20
141.0
 30
0.0
 11
55.0
 21
146.0
 31
0.0
  0
LINE
  8
0
  6
CONTINUOUS
 62
     2
 10
55.0
 20
144.0
 30
0.0
 11
57.414814566
 21
143.352952387
 31
0.0
  0
LINE
  8
0
  6
CONTINUOUS
 62
     2
 10
55.0
 20
144.0
 30
0.0
 11
57.414814566
 21
144.647047613
 31
0.0
  0
TEXT
  8
0
  6
CONTINUOUS
 62
     2
 10
163.0
 20
19.0
 30
0.25
 40
2.5
  1
４　　－
 50
0.0
 41
0.9
 51
0.0
  7
KANJI2
  0
TEXT
  8
0
  6
CONTINUOUS
 62
     2
 10
163.0
 20
26.0
 30
0.25
 40
2.5
  1
３　　＋
 50
0.0
 41
0.9
 51
0.0
  7
KANJI2
  0
TEXT
  8
0
  6
CONTINUOUS
 62
     2
 10
167.6
 20
21.5
 30
0.16
 40
2.0
  1
ＩＮＰＵＴ
 50
0.0
 41
0.8
 51
0.0
  7
KANJI3
  0
TEXT
  8
0
  6
CONTINUOUS
 62
     2
 10
167.6
 20
24.0
 30
0.16
 40
2.0
  1
ＲＩＧＨＴ
 50
0.0
 41
0.8
 51
0.0
  7
KANJI3
  0
ARC
  8
0
  6
CONTINUOUS
 62
     2
 10
177.0
 20
27.7
 30
0.0
 40
1.0
 50
0.0
 51
90.0
  0
ARC
  8
0
  6
CONTINUOUS
 62
     2
 10
177.0
 20
19.7
 30
0.0
 40
1.0
 50
270.0
 51
0.0
  0
ARC
  8
0
  6
CONTINUOUS
 62
     2
 10
179.0
 20
24.7
 30
0.0
 40
1.0
 50
180.0
 51
270.0
  0
ARC
  8
0
  6
CONTINUOUS
 62
     2
 10
179.0
 20
22.7
 30
0.0
 40
1.0
 50
90.0
 51
180.0
  0
LINE
  8
0
  6
CONTINUOUS
 62
     2
 10
178.0
 20
27.7
 30
0.0
 11
178.0
 21
24.7
 31
0.0
  0
LINE
  8
0
  6
CONTINUOUS
 62
     2
 10
178.0
 20
22.7
 30
0.0
 11
178.0
 21
19.7
 31
0.0
  0
TEXT
  8
0
  6
CONTINUOUS
 62
     2
 10
180.0
 20
22.2
 30
0.3
 40
3.0
  1
計器前面から見て右側指針
 50
0.0
 41
0.9
 51
0.0
  7
KANJI1
  0
TEXT
  8
0
  6
CONTINUOUS
 62
     2
 10
163.0
 20
38.0
 30
0.25
 40
2.5
  1
１　　＋
 50
0.0
 41
0.9
 51
0.0
  7
KANJI2
  0
TEXT
  8
0
  6
CONTINUOUS
 62
     2
 10
163.0
 20
31.0
 30
0.25
 40
2.5
  1
２　　－
 50
0.0
 41
0.9
 51
0.0
  7
KANJI2
  0
TEXT
  8
0
  6
CONTINUOUS
 62
     2
 10
168.6
 20
36.0
 30
0.16
 40
2.0
  1
ＬＥＦＴ
 50
0.0
 41
0.8
 51
0.0
  7
KANJI3
  0
TEXT
  8
0
  6
CONTINUOUS
 62
     2
 10
167.6
 20
33.5
 30
0.16
 40
2.0
  1
ＩＮＰＵＴ
 50
0.0
 41
0.8
 51
0.0
  7
KANJI3
  0
ARC
  8
0
  6
CONTINUOUS
 62
     2
 10
177.0
 20
39.7
 30
0.0
 40
1.0
 50
0.0
 51
90.0
  0
ARC
  8
0
  6
CONTINUOUS
 62
     2
 10
177.0
 20
31.7
 30
0.0
 40
1.0
 50
270.0
 51
0.0
  0
ARC
  8
0
  6
CONTINUOUS
 62
     2
 10
179.0
 20
36.7
 30
0.0
 40
1.0
 50
180.0
 51
270.0
  0
ARC
  8
0
  6
CONTINUOUS
 62
     2
 10
179.0
 20
34.7
 30
0.0
 40
1.0
 50
90.0
 51
180.0
  0
LINE
  8
0
  6
CONTINUOUS
 62
     2
 10
178.0
 20
39.7
 30
0.0
 11
178.0
 21
36.7
 31
0.0
  0
LINE
  8
0
  6
CONTINUOUS
 62
     2
 10
178.0
 20
34.7
 30
0.0
 11
178.0
 21
31.7
 31
0.0
  0
TEXT
  8
0
  6
CONTINUOUS
 62
     2
 10
180.0
 20
34.2
 30
0.3
 40
3.0
  1
計器前面から見て左側指針
 50
0.0
 41
0.9
 51
0.0
  7
KANJI1
  0
TEXT
  8
0
  6
CONTINUOUS
 62
     2
 10
51.0
 20
24.0
 30
0.3
 40
3.0
  1
重量　１．１ｋｇ
 50
0.0
 41
0.9
 51
0.0
  7
KANJI1
  0
LINE
  8
0
  6
CONTINUOUS
 62
     2
 10
77.0
 20
132.4
 30
0.0
 11
77.0
 21
129.9
 31
0.0
  0
LINE
  8
0
  6
CONTINUOUS
 62
     2
 10
137.0
 20
132.4
 30
0.0
 11
137.0
 21
129.9
 31
0.0
  0
LINE
  8
0
  6
CONTINUOUS
 62
     2
 10
137.0
 20
42.6
 30
0.0
 11
137.0
 21
45.1
 31
0.0
  0
LINE
  8
0
  6
CONTINUOUS
 62
     2
 10
77.0
 20
42.6
 30
0.0
 11
77.0
 21
45.1
 31
0.0
  0
CIRCLE
  8
0
  6
CONTINUOUS
 62
     2
 10
75.5
 20
55.0
 30
0.0
 40
1.5
  0
LINE
  8
0
  6
CONTINUOUS
 62
     2
 10
75.022702923
 20
55.76013979
 30
0.0
 11
75.358578644
 21
55.424264069
 31
0.0
  0
ARC
  8
0
  6
CONTINUOUS
 62
     2
 10
75.5
 20
55.565685425
 30
0.0
 40
0.2
 50
225.0
 51
315.0
  0
LINE
  8
0
  6
CONTINUOUS
 62
     2
 10
75.641421356
 20
55.424264069
 30
0.0
 11
75.977297077
 21
55.76013979
 31
0.0
  0
LINE
  8
0
  6
CONTINUOUS
 62
     2
 10
75.977297077
 20
55.76013979
 30
0.0
 11
76.26013979
 21
55.477297077
 31
0.0
  0
LINE
  8
0
  6
CONTINUOUS
 62
     2
 10
76.26013979
 20
55.477297077
 30
0.0
 11
75.924264069
 21
55.141421356
 31
0.0
  0
ARC
  8
0
  6
CONTINUOUS
 62
     2
 10
76.065685425
 20
55.0
 30
0.0
 40
0.2
 50
135.0
 51
225.0
  0
LINE
  8
0
  6
CONTINUOUS
 62
     2
 10
75.924264069
 20
54.858578644
 30
0.0
 11
76.26013979
 21
54.522702923
 31
0.0
  0
LINE
  8
0
  6
CONTINUOUS
 62
     2
 10
76.26013979
 20
54.522702923
 30
0.0
 11
75.977297077
 21
54.23986021
 31
0.0
  0
LINE
  8
0
  6
CONTINUOUS
 62
     2
 10
75.977297077
 20
54.23986021
 30
0.0
 11
75.641421356
 21
54.575735931
 31
0.0
  0
ARC
  8
0
  6
CONTINUOUS
 62
     2
 10
75.5
 20
54.434314575
 30
0.0
 40
0.2
 50
45.0
 51
135.0
  0
LINE
  8
0
  6
CONTINUOUS
 62
     2
 10
75.358578644
 20
54.575735931
 30
0.0
 11
75.022702923
 21
54.23986021
 31
0.0
  0
LINE
  8
0
  6
CONTINUOUS
 62
     2
 10
75.022702923
 20
54.23986021
 30
0.0
 11
74.73986021
 21
54.522702923
 31
0.0
  0
LINE
  8
0
  6
CONTINUOUS
 62
     2
 10
74.73986021
 20
54.522702923
 30
0.0
 11
75.075735931
 21
54.858578644
 31
0.0
  0
ARC
  8
0
  6
CONTINUOUS
 62
     2
 10
74.934314575
 20
55.0
 30
0.0
 40
0.2
 50
315.0
 51
45.0
  0
LINE
  8
0
  6
CONTINUOUS
 62
     2
 10
75.075735931
 20
55.141421356
 30
0.0
 11
74.73986021
 21
55.477297077
 31
0.0
  0
LINE
  8
0
  6
CONTINUOUS
 62
     2
 10
74.73986021
 20
55.477297077
 30
0.0
 11
75.022702923
 21
55.76013979
 31
0.0
  0
CIRCLE
  8
0
  6
CONTINUOUS
 62
     2
 10
75.5
 20
115.0
 30
0.0
 40
1.5
  0
LINE
  8
0
  6
CONTINUOUS
 62
     2
 10
75.022702923
 20
115.76013979
 30
0.0
 11
75.358578644
 21
115.424264069
 31
0.0
  0
ARC
  8
0
  6
CONTINUOUS
 62
     2
 10
75.5
 20
115.565685425
 30
0.0
 40
0.2
 50
225.0
 51
315.0
  0
LINE
  8
0
  6
CONTINUOUS
 62
     2
 10
75.641421356
 20
115.424264069
 30
0.0
 11
75.977297077
 21
115.76013979
 31
0.0
  0
LINE
  8
0
  6
CONTINUOUS
 62
     2
 10
75.977297077
 20
115.76013979
 30
0.0
 11
76.26013979
 21
115.477297077
 31
0.0
  0
LINE
  8
0
  6
CONTINUOUS
 62
     2
 10
76.26013979
 20
115.477297077
 30
0.0
 11
75.924264069
 21
115.141421356
 31
0.0
  0
ARC
  8
0
  6
CONTINUOUS
 62
     2
 10
76.065685425
 20
115.0
 30
0.0
 40
0.2
 50
135.0
 51
225.0
  0
LINE
  8
0
  6
CONTINUOUS
 62
     2
 10
75.924264069
 20
114.858578644
 30
0.0
 11
76.26013979
 21
114.522702923
 31
0.0
  0
LINE
  8
0
  6
CONTINUOUS
 62
     2
 10
76.26013979
 20
114.522702923
 30
0.0
 11
75.977297077
 21
114.23986021
 31
0.0
  0
LINE
  8
0
  6
CONTINUOUS
 62
     2
 10
75.977297077
 20
114.23986021
 30
0.0
 11
75.641421356
 21
114.575735931
 31
0.0
  0
ARC
  8
0
  6
CONTINUOUS
 62
     2
 10
75.5
 20
114.434314575
 30
0.0
 40
0.2
 50
45.0
 51
135.0
  0
LINE
  8
0
  6
CONTINUOUS
 62
     2
 10
75.358578644
 20
114.575735931
 30
0.0
 11
75.022702923
 21
114.23986021
 31
0.0
  0
LINE
  8
0
  6
CONTINUOUS
 62
     2
 10
75.022702923
 20
114.23986021
 30
0.0
 11
74.73986021
 21
114.522702923
 31
0.0
  0
LINE
  8
0
  6
CONTINUOUS
 62
     2
 10
74.73986021
 20
114.522702923
 30
0.0
 11
75.075735931
 21
114.858578644
 31
0.0
  0
ARC
  8
0
  6
CONTINUOUS
 62
     2
 10
74.934314575
 20
115.0
 30
0.0
 40
0.2
 50
315.0
 51
45.0
  0
LINE
  8
0
  6
CONTINUOUS
 62
     2
 10
75.075735931
 20
115.141421356
 30
0.0
 11
74.73986021
 21
115.477297077
 31
0.0
  0
LINE
  8
0
  6
CONTINUOUS
 62
     2
 10
74.73986021
 20
115.477297077
 30
0.0
 11
75.022702923
 21
115.76013979
 31
0.0
  0
CIRCLE
  8
0
  6
CONTINUOUS
 62
     2
 10
85.0
 20
115.0
 30
0.0
 40
0.99999
  0
LINE
  8
0
  6
CONTINUOUS
 62
     2
 10
84.68180513
 20
115.506754792
 30
0.0
 11
84.905720039
 21
115.282839884
 31
0.0
  0
ARC
  8
0
  6
CONTINUOUS
 62
     2
 10
85.0
 20
115.377119845
 30
0.0
 40
0.133332
 50
225.0
 51
315.0
  0
LINE
  8
0
  6
CONTINUOUS
 62
     2
 10
85.094279961
 20
115.282839884
 30
0.0
 11
85.31819487
 21
115.506754792
 31
0.0
  0
LINE
  8
0
  6
CONTINUOUS
 62
     2
 10
85.31819487
 20
115.506754792
 30
0.0
 11
85.506754792
 21
115.31819487
 31
0.0
  0
LINE
  8
0
  6
CONTINUOUS
 62
     2
 10
85.506754792
 20
115.31819487
 30
0.0
 11
85.282839884
 21
115.094279961
 31
0.0
  0
ARC
  8
0
  6
CONTINUOUS
 62
     2
 10
85.377119845
 20
115.0
 30
0.0
 40
0.133332
 50
135.0
 51
225.0
  0
LINE
  8
0
  6
CONTINUOUS
 62
     2
 10
85.282839884
 20
114.905720039
 30
0.0
 11
85.506754792
 21
114.68180513
 31
0.0
  0
LINE
  8
0
  6
CONTINUOUS
 62
     2
 10
85.506754792
 20
114.68180513
 30
0.0
 11
85.31819487
 21
114.493245208
 31
0.0
  0
LINE
  8
0
  6
CONTINUOUS
 62
     2
 10
85.31819487
 20
114.493245208
 30
0.0
 11
85.094279961
 21
114.717160116
 31
0.0
  0
ARC
  8
0
  6
CONTINUOUS
 62
     2
 10
85.0
 20
114.622880155
 30
0.0
 40
0.133332
 50
45.0
 51
135.0
  0
LINE
  8
0
  6
CONTINUOUS
 62
     2
 10
84.905720039
 20
114.717160116
 30
0.0
 11
84.68180513
 21
114.493245208
 31
0.0
  0
LINE
  8
0
  6
CONTINUOUS
 62
     2
 10
84.68180513
 20
114.493245208
 30
0.0
 11
84.493245208
 21
114.68180513
 31
0.0
  0
LINE
  8
0
  6
CONTINUOUS
 62
     2
 10
84.493245208
 20
114.68180513
 30
0.0
 11
84.717160116
 21
114.905720039
 31
0.0
  0
ARC
  8
0
  6
CONTINUOUS
 62
     2
 10
84.622880155
 20
115.0
 30
0.0
 40
0.133332
 50
315.0
 51
45.0
  0
LINE
  8
0
  6
CONTINUOUS
 62
     2
 10
84.717160116
 20
115.094279961
 30
0.0
 11
84.493245208
 21
115.31819487
 31
0.0
  0
LINE
  8
0
  6
CONTINUOUS
 62
     2
 10
84.493245208
 20
115.31819487
 30
0.0
 11
84.68180513
 21
115.506754792
 31
0.0
  0
CIRCLE
  8
0
  6
CONTINUOUS
 62
     2
 10
85.0
 20
55.0
 30
0.0
 40
0.99999
  0
LINE
  8
0
  6
CONTINUOUS
 62
     2
 10
84.68180513
 20
55.506754792
 30
0.0
 11
84.905720039
 21
55.282839884
 31
0.0
  0
ARC
  8
0
  6
CONTINUOUS
 62
     2
 10
85.0
 20
55.377119845
 30
0.0
 40
0.133332
 50
225.0
 51
315.0
  0
LINE
  8
0
  6
CONTINUOUS
 62
     2
 10
85.094279961
 20
55.282839884
 30
0.0
 11
85.31819487
 21
55.506754792
 31
0.0
  0
LINE
  8
0
  6
CONTINUOUS
 62
     2
 10
85.31819487
 20
55.506754792
 30
0.0
 11
85.506754792
 21
55.31819487
 31
0.0
  0
LINE
  8
0
  6
CONTINUOUS
 62
     2
 10
85.506754792
 20
55.31819487
 30
0.0
 11
85.282839884
 21
55.094279961
 31
0.0
  0
ARC
  8
0
  6
CONTINUOUS
 62
     2
 10
85.377119845
 20
55.0
 30
0.0
 40
0.133332
 50
135.0
 51
225.0
  0
LINE
  8
0
  6
CONTINUOUS
 62
     2
 10
85.282839884
 20
54.905720039
 30
0.0
 11
85.506754792
 21
54.68180513
 31
0.0
  0
LINE
  8
0
  6
CONTINUOUS
 62
     2
 10
85.506754792
 20
54.68180513
 30
0.0
 11
85.31819487
 21
54.493245208
 31
0.0
  0
LINE
  8
0
  6
CONTINUOUS
 62
     2
 10
85.31819487
 20
54.493245208
 30
0.0
 11
85.094279961
 21
54.717160116
 31
0.0
  0
ARC
  8
0
  6
CONTINUOUS
 62
     2
 10
85.0
 20
54.622880155
 30
0.0
 40
0.133332
 50
45.0
 51
135.0
  0
LINE
  8
0
  6
CONTINUOUS
 62
     2
 10
84.905720039
 20
54.717160116
 30
0.0
 11
84.68180513
 21
54.493245208
 31
0.0
  0
LINE
  8
0
  6
CONTINUOUS
 62
     2
 10
84.68180513
 20
54.493245208
 30
0.0
 11
84.493245208
 21
54.68180513
 31
0.0
  0
LINE
  8
0
  6
CONTINUOUS
 62
     2
 10
84.493245208
 20
54.68180513
 30
0.0
 11
84.717160116
 21
54.905720039
 31
0.0
  0
ARC
  8
0
  6
CONTINUOUS
 62
     2
 10
84.622880155
 20
55.0
 30
0.0
 40
0.133332
 50
315.0
 51
45.0
  0
LINE
  8
0
  6
CONTINUOUS
 62
     2
 10
84.717160116
 20
55.094279961
 30
0.0
 11
84.493245208
 21
55.31819487
 31
0.0
  0
LINE
  8
0
  6
CONTINUOUS
 62
     2
 10
84.493245208
 20
55.31819487
 30
0.0
 11
84.68180513
 21
55.506754792
 31
0.0
  0
CIRCLE
  8
0
  6
CONTINUOUS
 62
     2
 10
155.0
 20
55.0
 30
0.0
 40
0.99999
  0
LINE
  8
0
  6
CONTINUOUS
 62
     2
 10
154.68180513
 20
55.506754792
 30
0.0
 11
154.905720039
 21
55.282839884
 31
0.0
  0
ARC
  8
0
  6
CONTINUOUS
 62
     2
 10
155.0
 20
55.377119845
 30
0.0
 40
0.133332
 50
225.0
 51
315.0
  0
LINE
  8
0
  6
CONTINUOUS
 62
     2
 10
155.094279961
 20
55.282839884
 30
0.0
 11
155.31819487
 21
55.506754792
 31
0.0
  0
LINE
  8
0
  6
CONTINUOUS
 62
     2
 10
155.31819487
 20
55.506754792
 30
0.0
 11
155.506754792
 21
55.31819487
 31
0.0
  0
LINE
  8
0
  6
CONTINUOUS
 62
     2
 10
155.506754792
 20
55.31819487
 30
0.0
 11
155.282839884
 21
55.094279961
 31
0.0
  0
ARC
  8
0
  6
CONTINUOUS
 62
     2
 10
155.377119845
 20
55.0
 30
0.0
 40
0.133332
 50
135.0
 51
225.0
  0
LINE
  8
0
  6
CONTINUOUS
 62
     2
 10
155.282839884
 20
54.905720039
 30
0.0
 11
155.506754792
 21
54.68180513
 31
0.0
  0
LINE
  8
0
  6
CONTINUOUS
 62
     2
 10
155.506754792
 20
54.68180513
 30
0.0
 11
155.31819487
 21
54.493245208
 31
0.0
  0
LINE
  8
0
  6
CONTINUOUS
 62
     2
 10
155.31819487
 20
54.493245208
 30
0.0
 11
155.094279961
 21
54.717160116
 31
0.0
  0
ARC
  8
0
  6
CONTINUOUS
 62
     2
 10
155.0
 20
54.622880155
 30
0.0
 40
0.133332
 50
45.0
 51
135.0
  0
LINE
  8
0
  6
CONTINUOUS
 62
     2
 10
154.905720039
 20
54.717160116
 30
0.0
 11
154.68180513
 21
54.493245208
 31
0.0
  0
LINE
  8
0
  6
CONTINUOUS
 62
     2
 10
154.68180513
 20
54.493245208
 30
0.0
 11
154.493245208
 21
54.68180513
 31
0.0
  0
LINE
  8
0
  6
CONTINUOUS
 62
     2
 10
154.493245208
 20
54.68180513
 30
0.0
 11
154.717160116
 21
54.905720039
 31
0.0
  0
ARC
  8
0
  6
CONTINUOUS
 62
     2
 10
154.622880155
 20
55.0
 30
0.0
 40
0.133332
 50
315.0
 51
45.0
  0
LINE
  8
0
  6
CONTINUOUS
 62
     2
 10
154.717160116
 20
55.094279961
 30
0.0
 11
154.493245208
 21
55.31819487
 31
0.0
  0
LINE
  8
0
  6
CONTINUOUS
 62
     2
 10
154.493245208
 20
55.31819487
 30
0.0
 11
154.68180513
 21
55.506754792
 31
0.0
  0
CIRCLE
  8
0
  6
CONTINUOUS
 62
     2
 10
155.0
 20
115.0
 30
0.0
 40
0.99999
  0
LINE
  8
0
  6
CONTINUOUS
 62
     2
 10
154.68180513
 20
115.506754792
 30
0.0
 11
154.905720039
 21
115.282839884
 31
0.0
  0
ARC
  8
0
  6
CONTINUOUS
 62
     2
 10
155.0
 20
115.377119845
 30
0.0
 40
0.133332
 50
225.0
 51
315.0
  0
LINE
  8
0
  6
CONTINUOUS
 62
     2
 10
155.094279961
 20
115.282839884
 30
0.0
 11
155.31819487
 21
115.506754792
 31
0.0
  0
LINE
  8
0
  6
CONTINUOUS
 62
     2
 10
155.31819487
 20
115.506754792
 30
0.0
 11
155.506754792
 21
115.31819487
 31
0.0
  0
LINE
  8
0
  6
CONTINUOUS
 62
     2
 10
155.506754792
 20
115.31819487
 30
0.0
 11
155.282839884
 21
115.094279961
 31
0.0
  0
ARC
  8
0
  6
CONTINUOUS
 62
     2
 10
155.377119845
 20
115.0
 30
0.0
 40
0.133332
 50
135.0
 51
225.0
  0
LINE
  8
0
  6
CONTINUOUS
 62
     2
 10
155.282839884
 20
114.905720039
 30
0.0
 11
155.506754792
 21
114.68180513
 31
0.0
  0
LINE
  8
0
  6
CONTINUOUS
 62
     2
 10
155.506754792
 20
114.68180513
 30
0.0
 11
155.31819487
 21
114.493245208
 31
0.0
  0
LINE
  8
0
  6
CONTINUOUS
 62
     2
 10
155.31819487
 20
114.493245208
 30
0.0
 11
155.094279961
 21
114.717160116
 31
0.0
  0
ARC
  8
0
  6
CONTINUOUS
 62
     2
 10
155.0
 20
114.622880155
 30
0.0
 40
0.133332
 50
45.0
 51
135.0
  0
LINE
  8
0
  6
CONTINUOUS
 62
     2
 10
154.905720039
 20
114.717160116
 30
0.0
 11
154.68180513
 21
114.493245208
 31
0.0
  0
LINE
  8
0
  6
CONTINUOUS
 62
     2
 10
154.68180513
 20
114.493245208
 30
0.0
 11
154.493245208
 21
114.68180513
 31
0.0
  0
LINE
  8
0
  6
CONTINUOUS
 62
     2
 10
154.493245208
 20
114.68180513
 30
0.0
 11
154.717160116
 21
114.905720039
 31
0.0
  0
ARC
  8
0
  6
CONTINUOUS
 62
     2
 10
154.622880155
 20
115.0
 30
0.0
 40
0.133332
 50
315.0
 51
45.0
  0
LINE
  8
0
  6
CONTINUOUS
 62
     2
 10
154.717160116
 20
115.094279961
 30
0.0
 11
154.493245208
 21
115.31819487
 31
0.0
  0
LINE
  8
0
  6
CONTINUOUS
 62
     2
 10
154.493245208
 20
115.31819487
 30
0.0
 11
154.68180513
 21
115.506754792
 31
0.0
  0
TEXT
  8
0
  6
CONTINUOUS
 62
     2
 10
102.159400688
 20
67.862072189
 30
0.3
 40
3.0
  1
Ｒ２１０（カバー面）
 50
17.61806489
 41
0.6
 51
0.0
  7
KANJI0
  0
LINE
  8
0
  6
CONTINUOUS
 62
     2
 10
71.3
 20
162.5
 30
0.0
 11
77.0
 21
162.5
 31
0.0
  0
LINE
  8
0
  6
CONTINUOUS
 62
     2
 10
68.0
 20
162.5
 30
0.0
 11
69.675
 21
162.5
 31
0.0
  0
LINE
  8
0
  6
CONTINUOUS
 62
     2
 10
68.0
 20
160.5
 30
0.0
 11
69.675
 21
160.5
 31
0.0
  0
LINE
  8
0
  6
CONTINUOUS
 62
     2
 10
77.0
 20
160.25
 30
0.0
 11
77.0
 21
162.75
 31
0.0
  0
LINE
  8
0
  6
CONTINUOUS
 62
     2
 10
71.3
 20
160.5
 30
0.0
 11
77.0
 21
160.5
 31
0.0
  0
LINE
  8
0
  6
CONTINUOUS
 62
     2
 10
68.25
 20
162.75
 30
0.0
 11
68.25
 21
160.25
 31
0.0
  0
LINE
  8
0
  6
CONTINUOUS
 62
     2
 10
157.75
 20
160.25
 30
0.0
 11
157.75
 21
162.75
 31
0.0
  0
LINE
  8
0
  6
CONTINUOUS
 62
     2
 10
137.0
 20
160.25
 30
0.0
 11
137.0
 21
162.75
 31
0.0
  0
LINE
  8
0
  6
CONTINUOUS
 62
     2
 10
148.9
 20
160.5
 30
0.0
 11
137.0
 21
160.5
 31
0.0
  0
LINE
  8
0
  6
CONTINUOUS
 62
     2
 10
137.0
 20
162.5
 30
0.0
 11
148.9
 21
162.5
 31
0.0
  0
LINE
  8
0
  6
CONTINUOUS
 62
     2
 10
157.75
 20
130.0
 30
0.0
 11
157.75
 21
132.5
 31
0.0
  0
LINE
  8
0
  6
CONTINUOUS
 62
     2
 10
137.0
 20
132.15
 30
0.0
 11
148.9
 21
132.15
 31
0.0
  0
LINE
  8
0
  6
CONTINUOUS
 62
     2
 10
148.9
 20
130.15
 30
0.0
 11
136.9875
 21
130.15
 31
0.0
  0
LINE
  8
0
  6
CONTINUOUS
 62
     2
 10
68.0
 20
132.05
 30
0.0
 11
69.675
 21
132.05
 31
0.0
  0
LINE
  8
0
  6
CONTINUOUS
 62
     2
 10
68.0
 20
130.05
 30
0.0
 11
69.675
 21
130.05
 31
0.0
  0
LINE
  8
0
  6
CONTINUOUS
 62
     2
 10
68.25
 20
132.3
 30
0.0
 11
68.25
 21
129.8
 31
0.0
  0
LINE
  8
0
  6
CONTINUOUS
 62
     2
 10
77.0
 20
132.15
 30
0.0
 11
71.3
 21
132.15
 31
0.0
  0
LINE
  8
0
  6
CONTINUOUS
 62
     2
 10
71.3
 20
130.15
 30
0.0
 11
77.0
 21
130.15
 31
0.0
  0
LINE
  8
0
  6
CONTINUOUS
 62
     2
 10
68.0
 20
44.75
 30
0.0
 11
69.675
 21
44.75
 31
0.0
  0
LINE
  8
0
  6
CONTINUOUS
 62
     2
 10
68.0
 20
42.75
 30
0.0
 11
69.675
 21
42.75
 31
0.0
  0
LINE
  8
0
  6
CONTINUOUS
 62
     2
 10
68.25
 20
45.0
 30
0.0
 11
68.25
 21
42.5
 31
0.0
  0
LINE
  8
0
  6
CONTINUOUS
 62
     2
 10
77.0
 20
44.85
 30
0.0
 11
71.3
 21
44.85
 31
0.0
  0
LINE
  8
0
  6
CONTINUOUS
 62
     2
 10
71.3
 20
42.85
 30
0.0
 11
77.0
 21
42.85
 31
0.0
  0
LINE
  8
0
  6
CONTINUOUS
 62
     2
 10
157.75
 20
42.7
 30
0.0
 11
157.75
 21
45.2
 31
0.0
  0
LINE
  8
0
  6
CONTINUOUS
 62
     2
 10
137.0
 20
44.85
 30
0.0
 11
148.9
 21
44.85
 31
0.0
  0
LINE
  8
0
  6
CONTINUOUS
 62
     2
 10
148.9
 20
42.85
 30
0.0
 11
137.0
 21
42.85
 31
0.0
  0
LINE
  8
0
  6
LTYPE1
 62
     2
 10
75.5
 20
57.0
 30
0.0
 11
75.5
 21
53.0
 31
0.0
  0
LINE
  8
0
  6
LTYPE1
 62
     2
 10
73.5
 20
55.0
 30
0.0
 11
77.5
 21
55.0
 31
0.0
  0
LINE
  8
0
  6
LTYPE1
 62
     2
 10
83.00001
 20
55.0
 30
0.0
 11
87.00001
 21
55.0
 31
0.0
  0
LINE
  8
0
  6
LTYPE1
 62
     2
 10
85.00001
 20
57.0
 30
0.0
 11
85.00001
 21
53.0
 31
0.0
  0
LINE
  8
0
  6
LTYPE1
 62
     2
 10
85.00001
 20
113.0
 30
0.0
 11
85.00001
 21
117.0
 31
0.0
  0
LINE
  8
0
  6
LTYPE1
 62
     2
 10
83.00001
 20
115.0
 30
0.0
 11
87.00001
 21
115.0
 31
0.0
  0
LINE
  8
0
  6
LTYPE1
 62
     2
 10
73.5
 20
115.0
 30
0.0
 11
77.5
 21
115.0
 31
0.0
  0
LINE
  8
0
  6
LTYPE1
 62
     2
 10
75.5
 20
117.0
 30
0.0
 11
75.5
 21
113.0
 31
0.0
  0
LINE
  8
0
  6
LTYPE1
 62
     2
 10
155.0
 20
57.0
 30
0.0
 11
155.0
 21
53.0
 31
0.0
  0
LINE
  8
0
  6
LTYPE1
 62
     2
 10
153.0
 20
55.0
 30
0.0
 11
157.0
 21
55.0
 31
0.0
  0
LINE
  8
0
  6
LTYPE1
 62
     2
 10
155.0
 20
117.0
 30
0.0
 11
155.0
 21
113.0
 31
0.0
  0
LINE
  8
0
  6
LTYPE1
 62
     2
 10
153.0
 20
115.0
 30
0.0
 11
157.0
 21
115.0
 31
0.0
  0
LINE
  8
0
  6
CONTINUOUS
 62
     2
 10
65.810588186
 20
112.0
 30
0.0
 11
67.753853548
 21
110.427193676
 31
0.0
  0
LINE
  8
0
  6
CONTINUOUS
 62
     2
 10
65.810588186
 20
112.0
 30
0.0
 11
68.279908518
 21
111.609542449
 31
0.0
  0
LINE
  8
0
  6
CONTINUOUS
 62
     2
 10
65.810588186
 20
112.0
 30
0.0
 11
122.0
 21
87.0
 31
0.0
  0
LINE
  8
0
  6
CONTINUOUS
 62
     2
 10
65.810588186
 20
62.0
 30
0.0
 11
68.279908518
 21
62.390457551
 31
0.0
  0
LINE
  8
0
  6
CONTINUOUS
 62
     2
 10
65.810588186
 20
62.0
 30
0.0
 11
67.753853548
 21
63.572806324
 31
0.0
  0
LINE
  8
0
  6
CONTINUOUS
 62
     2
 10
65.810588186
 20
62.0
 30
0.0
 11
122.0
 21
87.0
 31
0.0
  0
ARC
  8
0
  6
CONTINUOUS
 62
     2
 10
122.0
 20
87.0
 30
0.0
 40
61.5
 50
156.014586012
 51
203.985413988
  0
TEXT
  8
0
  6
CONTINUOUS
 62
     2
 10
87.017092251
 20
103.613648973
 30
0.3
 40
3.0
  1
Ｒ１２３（指針）
 50
336.014586012
 41
0.6
 51
0.0
  7
KANJI0
  0
LINE
  8
0
  6
CONTINUOUS
 62
     2
 10
87.0
 20
73.035898385
 30
0.0
 11
87.647047613
 21
70.621083819
 31
0.0
  0
LINE
  8
0
  6
CONTINUOUS
 62
     2
 10
87.0
 20
73.035898385
 30
0.0
 11
88.767766953
 21
71.268131432
 31
0.0
  0
LINE
  8
0
  6
CONTINUOUS
 62
     2
 10
107.458925471
 20
37.6
 30
0.0
 11
130.581575202
 21
37.6
 31
0.0
  0
LINE
  8
0
  6
CONTINUOUS
 62
     2
 10
87.0
 20
73.035898385
 30
0.0
 11
107.458925471
 21
37.6
 31
0.0
  0
TEXT
  8
0
  6
CONTINUOUS
 62
     2
 10
107.881575202
 20
38.6
 30
0.3
 40
3.0
  1
感度調整用抵抗器
 50
0.0
 41
0.9
 51
0.0
  7
KANJI1
  0
LINE
  8
0
  6
CONTINUOUS
 62
     1
 10
162.75
 20
99.55
 30
0.0
 11
162.75
 21
95.45
 31
0.0
  0
LINE
  8
0
  6
CONTINUOUS
 62
     1
 10
162.75
 20
95.45
 30
0.0
 11
169.25
 21
95.45
 31
0.0
  0
LINE
  8
0
  6
CONTINUOUS
 62
     1
 10
169.25
 20
95.45
 30
0.0
 11
169.25
 21
94.55
 31
0.0
  0
LINE
  8
0
  6
CONTINUOUS
 62
     1
 10
169.25
 20
94.55
 30
0.0
 11
162.75
 21
94.55
 31
0.0
  0
LINE
  8
0
  6
CONTINUOUS
 62
     1
 10
162.75
 20
94.55
 30
0.0
 11
162.75
 21
90.45
 31
0.0
  0
LINE
  8
0
  6
CONTINUOUS
 62
     1
 10
162.75
 20
90.45
 30
0.0
 11
169.25
 21
90.45
 31
0.0
  0
LINE
  8
0
  6
CONTINUOUS
 62
     1
 10
169.25
 20
90.45
 30
0.0
 11
169.25
 21
89.55
 31
0.0
  0
LINE
  8
0
  6
CONTINUOUS
 62
     1
 10
169.25
 20
89.55
 30
0.0
 11
162.75
 21
89.55
 31
0.0
  0
LINE
  8
0
  6
CONTINUOUS
 62
     1
 10
162.75
 20
89.55
 30
0.0
 11
162.75
 21
85.45
 31
0.0
  0
LINE
  8
0
  6
CONTINUOUS
 62
     1
 10
162.75
 20
85.45
 30
0.0
 11
169.25
 21
85.45
 31
0.0
  0
LINE
  8
0
  6
CONTINUOUS
 62
     1
 10
169.25
 20
85.45
 30
0.0
 11
169.25
 21
84.55
 31
0.0
  0
LINE
  8
0
  6
CONTINUOUS
 62
     1
 10
169.25
 20
84.55
 30
0.0
 11
162.75
 21
84.55
 31
0.0
  0
LINE
  8
0
  6
CONTINUOUS
 62
     1
 10
162.75
 20
84.55
 30
0.0
 11
162.75
 21
80.45
 31
0.0
  0
LINE
  8
0
  6
CONTINUOUS
 62
     1
 10
162.75
 20
80.45
 30
0.0
 11
169.25
 21
80.45
 31
0.0
  0
LINE
  8
0
  6
CONTINUOUS
 62
     1
 10
169.25
 20
80.45
 30
0.0
 11
169.25
 21
79.55
 31
0.0
  0
LINE
  8
0
  6
CONTINUOUS
 62
     1
 10
169.25
 20
79.55
 30
0.0
 11
162.75
 21
79.55
 31
0.0
  0
LINE
  8
0
  6
CONTINUOUS
 62
     1
 10
162.75
 20
79.55
 30
0.0
 11
162.75
 21
75.45
 31
0.0
  0
LINE
  8
0
  6
CONTINUOUS
 62
     1
 10
162.75
 20
75.45
 30
0.0
 11
169.25
 21
75.45
 31
0.0
  0
LINE
  8
0
  6
CONTINUOUS
 62
     1
 10
169.25
 20
75.45
 30
0.0
 11
169.25
 21
74.55
 31
0.0
  0
LINE
  8
0
  6
CONTINUOUS
 62
     1
 10
169.25
 20
74.55
 30
0.0
 11
162.75
 21
74.55
 31
0.0
  0
LINE
  8
0
  6
CONTINUOUS
 62
     1
 10
162.75
 20
74.55
 30
0.0
 11
162.75
 21
70.45
 31
0.0
  0
LINE
  8
0
  6
CONTINUOUS
 62
     2
 10
164.75
 20
99.55
 30
0.0
 11
164.75
 21
95.45
 31
0.0
  0
LINE
  8
0
  6
CONTINUOUS
 62
     2
 10
165.15
 20
95.45
 30
0.0
 11
165.15
 21
99.55
 31
0.0
  0
LINE
  8
0
  6
CONTINUOUS
 62
     2
 10
165.15
 20
99.55
 30
0.0
 11
164.75
 21
99.55
 31
0.0
  0
LINE
  8
0
  6
CONTINUOUS
 62
     2
 10
164.75
 20
98.75
 30
0.0
 11
165.15
 21
98.75
 31
0.0
  0
LINE
  8
0
  6
CONTINUOUS
 62
     2
 10
164.75
 20
96.25
 30
0.0
 11
165.15
 21
96.25
 31
0.0
  0
LINE
  8
0
  6
CONTINUOUS
 62
     2
 10
164.75
 20
94.55
 30
0.0
 11
164.75
 21
90.45
 31
0.0
  0
LINE
  8
0
  6
CONTINUOUS
 62
     2
 10
165.15
 20
90.45
 30
0.0
 11
165.15
 21
94.55
 31
0.0
  0
LINE
  8
0
  6
CONTINUOUS
 62
     2
 10
164.75
 20
93.75
 30
0.0
 11
165.15
 21
93.75
 31
0.0
  0
LINE
  8
0
  6
CONTINUOUS
 62
     2
 10
164.75
 20
91.25
 30
0.0
 11
165.15
 21
91.25
 31
0.0
  0
LINE
  8
0
  6
CONTINUOUS
 62
     2
 10
164.75
 20
89.55
 30
0.0
 11
164.75
 21
85.45
 31
0.0
  0
LINE
  8
0
  6
CONTINUOUS
 62
     2
 10
165.15
 20
85.45
 30
0.0
 11
165.15
 21
89.55
 31
0.0
  0
LINE
  8
0
  6
CONTINUOUS
 62
     2
 10
164.75
 20
88.75
 30
0.0
 11
165.15
 21
88.75
 31
0.0
  0
LINE
  8
0
  6
CONTINUOUS
 62
     2
 10
164.75
 20
86.25
 30
0.0
 11
165.15
 21
86.25
 31
0.0
  0
LINE
  8
0
  6
CONTINUOUS
 62
     2
 10
164.75
 20
84.55
 30
0.0
 11
164.75
 21
80.45
 31
0.0
  0
LINE
  8
0
  6
CONTINUOUS
 62
     2
 10
164.75
 20
83.75
 30
0.0
 11
165.15
 21
83.75
 31
0.0
  0
LINE
  8
0
  6
CONTINUOUS
 62
     2
 10
164.75
 20
81.25
 30
0.0
 11
165.15
 21
81.25
 31
0.0
  0
LINE
  8
0
  6
CONTINUOUS
 62
     2
 10
164.75
 20
79.55
 30
0.0
 11
164.75
 21
75.45
 31
0.0
  0
LINE
  8
0
  6
CONTINUOUS
 62
     2
 10
164.75
 20
78.75
 30
0.0
 11
165.15
 21
78.75
 31
0.0
  0
LINE
  8
0
  6
CONTINUOUS
 62
     2
 10
164.75
 20
76.25
 30
0.0
 11
165.15
 21
76.25
 31
0.0
  0
LINE
  8
0
  6
CONTINUOUS
 62
     2
 10
164.75
 20
74.55
 30
0.0
 11
164.75
 21
70.45
 31
0.0
  0
LINE
  8
0
  6
CONTINUOUS
 62
     2
 10
165.15
 20
70.45
 30
0.0
 11
165.15
 21
74.55
 31
0.0
  0
LINE
  8
0
  6
CONTINUOUS
 62
     2
 10
164.75
 20
73.75
 30
0.0
 11
165.15
 21
73.75
 31
0.0
  0
LINE
  8
0
  6
CONTINUOUS
 62
     2
 10
164.75
 20
71.25
 30
0.0
 11
165.15
 21
71.25
 31
0.0
  0
LINE
  8
0
  6
CONTINUOUS
 62
     2
 10
167.85
 20
95.45
 30
0.0
 11
167.85
 21
94.55
 31
0.0
  0
LINE
  8
0
  6
CONTINUOUS
 62
     2
 10
168.35
 20
94.55
 30
0.0
 11
168.35
 21
95.45
 31
0.0
  0
LINE
  8
0
  6
CONTINUOUS
 62
     2
 10
167.25
 20
95.45
 30
0.0
 11
167.25
 21
94.55
 31
0.0
  0
LINE
  8
0
  6
CONTINUOUS
 62
     2
 10
167.85
 20
90.45
 30
0.0
 11
167.85
 21
89.55
 31
0.0
  0
LINE
  8
0
  6
CONTINUOUS
 62
     2
 10
168.35
 20
89.55
 30
0.0
 11
168.35
 21
90.45
 31
0.0
  0
LINE
  8
0
  6
CONTINUOUS
 62
     2
 10
167.25
 20
90.45
 30
0.0
 11
167.25
 21
89.55
 31
0.0
  0
LINE
  8
0
  6
CONTINUOUS
 62
     2
 10
167.85
 20
85.45
 30
0.0
 11
167.85
 21
84.55
 31
0.0
  0
LINE
  8
0
  6
CONTINUOUS
 62
     2
 10
168.35
 20
84.55
 30
0.0
 11
168.35
 21
85.45
 31
0.0
  0
LINE
  8
0
  6
CONTINUOUS
 62
     2
 10
167.25
 20
85.45
 30
0.0
 11
167.25
 21
84.55
 31
0.0
  0
LINE
  8
0
  6
CONTINUOUS
 62
     2
 10
167.85
 20
80.45
 30
0.0
 11
167.85
 21
79.55
 31
0.0
  0
LINE
  8
0
  6
CONTINUOUS
 62
     2
 10
168.35
 20
79.55
 30
0.0
 11
168.35
 21
80.45
 31
0.0
  0
LINE
  8
0
  6
CONTINUOUS
 62
     2
 10
167.25
 20
80.45
 30
0.0
 11
167.25
 21
79.55
 31
0.0
  0
LINE
  8
0
  6
CONTINUOUS
 62
     2
 10
167.85
 20
75.45
 30
0.0
 11
167.85
 21
74.55
 31
0.0
  0
LINE
  8
0
  6
CONTINUOUS
 62
     2
 10
168.35
 20
74.55
 30
0.0
 11
168.35
 21
75.45
 31
0.0
  0
LINE
  8
0
  6
CONTINUOUS
 62
     2
 10
167.25
 20
75.45
 30
0.0
 11
167.25
 21
74.55
 31
0.0
  0
LINE
  8
0
  6
CONTINUOUS
 62
     2
 10
165.54
 20
98.83
 30
0.0
 11
165.54
 21
96.17
 31
0.0
  0
LINE
  8
0
  6
CONTINUOUS
 62
     2
 10
165.85
 20
96.19
 30
0.0
 11
165.54
 21
96.17
 31
0.0
  0
LINE
  8
0
  6
CONTINUOUS
 62
     2
 10
165.54
 20
98.83
 30
0.0
 11
165.85
 21
98.83
 31
0.0
  0
LINE
  8
0
  6
CONTINUOUS
 62
     2
 10
166.59
 20
98.08
 30
0.0
 11
166.59
 21
96.92
 31
0.0
  0
ARC
  8
0
  6
CONTINUOUS
 62
     2
 10
165.84
 20
98.08
 30
0.0
 40
0.75
 50
0.0
 51
90.0
  0
ARC
  8
0
  6
CONTINUOUS
 62
     2
 10
165.84
 20
96.92
 30
0.0
 40
0.75
 50
268.472474559
 51
0.0
  0
LINE
  8
0
  6
CONTINUOUS
 62
     2
 10
165.53
 20
98.85
 30
0.0
 11
165.15
 21
98.85
 31
0.0
  0
LINE
  8
0
  6
CONTINUOUS
 62
     2
 10
165.15
 20
98.85
 30
0.0
 11
165.15
 21
96.17
 31
0.0
  0
LINE
  8
0
  6
CONTINUOUS
 62
     2
 10
165.15
 20
96.17
 30
0.0
 11
165.53
 21
96.17
 31
0.0
  0
LINE
  8
0
  6
CONTINUOUS
 62
     2
 10
165.15
 20
97.38
 30
0.0
 11
165.53
 21
97.69
 31
0.0
  0
LINE
  8
0
  6
CONTINUOUS
 62
     2
 10
165.15
 20
97.14
 30
0.0
 11
165.54
 21
97.43
 31
0.0
  0
LINE
  8
0
  6
CONTINUOUS
 62
     2
 10
166.59
 20
97.71
 30
0.0
 11
166.52
 21
97.71
 31
0.0
  0
LINE
  8
0
  6
CONTINUOUS
 62
     2
 10
166.52
 20
97.72
 30
0.0
 11
166.52
 21
97.34
 31
0.0
  0
LINE
  8
0
  6
CONTINUOUS
 62
     2
 10
166.52
 20
97.34
 30
0.0
 11
166.58
 21
97.34
 31
0.0
  0
LINE
  8
0
  6
CONTINUOUS
 62
     2
 10
165.54
 20
93.83
 30
0.0
 11
165.54
 21
91.17
 31
0.0
  0
LINE
  8
0
  6
CONTINUOUS
 62
     2
 10
165.85
 20
91.19
 30
0.0
 11
165.54
 21
91.17
 31
0.0
  0
LINE
  8
0
  6
CONTINUOUS
 62
     2
 10
165.54
 20
93.83
 30
0.0
 11
165.85
 21
93.83
 31
0.0
  0
LINE
  8
0
  6
CONTINUOUS
 62
     2
 10
166.59
 20
93.08
 30
0.0
 11
166.59
 21
91.92
 31
0.0
  0
ARC
  8
0
  6
CONTINUOUS
 62
     2
 10
165.84
 20
93.08
 30
0.0
 40
0.75
 50
0.0
 51
90.0
  0
ARC
  8
0
  6
CONTINUOUS
 62
     2
 10
165.84
 20
91.92
 30
0.0
 40
0.75
 50
268.472474559
 51
0.0
  0
LINE
  8
0
  6
CONTINUOUS
 62
     2
 10
165.53
 20
93.85
 30
0.0
 11
165.15
 21
93.85
 31
0.0
  0
LINE
  8
0
  6
CONTINUOUS
 62
     2
 10
165.15
 20
93.85
 30
0.0
 11
165.15
 21
91.17
 31
0.0
  0
LINE
  8
0
  6
CONTINUOUS
 62
     2
 10
165.15
 20
91.17
 30
0.0
 11
165.53
 21
91.17
 31
0.0
  0
LINE
  8
0
  6
CONTINUOUS
 62
     2
 10
165.15
 20
92.38
 30
0.0
 11
165.53
 21
92.69
 31
0.0
  0
LINE
  8
0
  6
CONTINUOUS
 62
     2
 10
165.15
 20
92.14
 30
0.0
 11
165.54
 21
92.43
 31
0.0
  0
LINE
  8
0
  6
CONTINUOUS
 62
     2
 10
166.59
 20
92.71
 30
0.0
 11
166.52
 21
92.71
 31
0.0
  0
LINE
  8
0
  6
CONTINUOUS
 62
     2
 10
166.52
 20
92.72
 30
0.0
 11
166.52
 21
92.34
 31
0.0
  0
LINE
  8
0
  6
CONTINUOUS
 62
     2
 10
166.52
 20
92.34
 30
0.0
 11
166.58
 21
92.34
 31
0.0
  0
LINE
  8
0
  6
CONTINUOUS
 62
     2
 10
165.54
 20
88.83
 30
0.0
 11
165.54
 21
86.17
 31
0.0
  0
LINE
  8
0
  6
CONTINUOUS
 62
     2
 10
165.85
 20
86.19
 30
0.0
 11
165.54
 21
86.17
 31
0.0
  0
LINE
  8
0
  6
CONTINUOUS
 62
     2
 10
165.54
 20
88.83
 30
0.0
 11
165.85
 21
88.83
 31
0.0
  0
LINE
  8
0
  6
CONTINUOUS
 62
     2
 10
166.59
 20
88.08
 30
0.0
 11
166.59
 21
86.92
 31
0.0
  0
ARC
  8
0
  6
CONTINUOUS
 62
     2
 10
165.84
 20
88.08
 30
0.0
 40
0.75
 50
0.0
 51
90.0
  0
ARC
  8
0
  6
CONTINUOUS
 62
     2
 10
165.84
 20
86.92
 30
0.0
 40
0.75
 50
268.472474559
 51
0.0
  0
LINE
  8
0
  6
CONTINUOUS
 62
     2
 10
165.53
 20
88.85
 30
0.0
 11
165.15
 21
88.85
 31
0.0
  0
LINE
  8
0
  6
CONTINUOUS
 62
     2
 10
165.15
 20
88.85
 30
0.0
 11
165.15
 21
86.17
 31
0.0
  0
LINE
  8
0
  6
CONTINUOUS
 62
     2
 10
165.15
 20
86.17
 30
0.0
 11
165.53
 21
86.17
 31
0.0
  0
LINE
  8
0
  6
CONTINUOUS
 62
     2
 10
165.15
 20
87.38
 30
0.0
 11
165.53
 21
87.69
 31
0.0
  0
LINE
  8
0
  6
CONTINUOUS
 62
     2
 10
165.15
 20
87.14
 30
0.0
 11
165.54
 21
87.43
 31
0.0
  0
LINE
  8
0
  6
CONTINUOUS
 62
     2
 10
166.59
 20
87.71
 30
0.0
 11
166.52
 21
87.71
 31
0.0
  0
LINE
  8
0
  6
CONTINUOUS
 62
     2
 10
166.52
 20
87.72
 30
0.0
 11
166.52
 21
87.34
 31
0.0
  0
LINE
  8
0
  6
CONTINUOUS
 62
     2
 10
166.52
 20
87.34
 30
0.0
 11
166.58
 21
87.34
 31
0.0
  0
LINE
  8
0
  6
CONTINUOUS
 62
     2
 10
165.54
 20
83.83
 30
0.0
 11
165.54
 21
81.17
 31
0.0
  0
LINE
  8
0
  6
CONTINUOUS
 62
     2
 10
165.85
 20
81.19
 30
0.0
 11
165.54
 21
81.17
 31
0.0
  0
LINE
  8
0
  6
CONTINUOUS
 62
     2
 10
165.54
 20
83.83
 30
0.0
 11
165.85
 21
83.83
 31
0.0
  0
LINE
  8
0
  6
CONTINUOUS
 62
     2
 10
166.59
 20
83.08
 30
0.0
 11
166.59
 21
81.92
 31
0.0
  0
ARC
  8
0
  6
CONTINUOUS
 62
     2
 10
165.84
 20
83.08
 30
0.0
 40
0.75
 50
0.0
 51
90.0
  0
ARC
  8
0
  6
CONTINUOUS
 62
     2
 10
165.84
 20
81.92
 30
0.0
 40
0.75
 50
268.472474559
 51
0.0
  0
LINE
  8
0
  6
CONTINUOUS
 62
     2
 10
165.53
 20
83.85
 30
0.0
 11
165.15
 21
83.85
 31
0.0
  0
LINE
  8
0
  6
CONTINUOUS
 62
     2
 10
165.15
 20
83.85
 30
0.0
 11
165.15
 21
81.17
 31
0.0
  0
LINE
  8
0
  6
CONTINUOUS
 62
     2
 10
165.15
 20
81.17
 30
0.0
 11
165.53
 21
81.17
 31
0.0
  0
LINE
  8
0
  6
CONTINUOUS
 62
     2
 10
165.15
 20
82.38
 30
0.0
 11
165.53
 21
82.69
 31
0.0
  0
LINE
  8
0
  6
CONTINUOUS
 62
     2
 10
165.15
 20
82.14
 30
0.0
 11
165.54
 21
82.43
 31
0.0
  0
LINE
  8
0
  6
CONTINUOUS
 62
     2
 10
166.59
 20
82.71
 30
0.0
 11
166.52
 21
82.71
 31
0.0
  0
LINE
  8
0
  6
CONTINUOUS
 62
     2
 10
166.52
 20
82.72
 30
0.0
 11
166.52
 21
82.34
 31
0.0
  0
LINE
  8
0
  6
CONTINUOUS
 62
     2
 10
166.52
 20
82.34
 30
0.0
 11
166.58
 21
82.34
 31
0.0
  0
LINE
  8
0
  6
CONTINUOUS
 62
     2
 10
165.54
 20
78.83
 30
0.0
 11
165.54
 21
76.17
 31
0.0
  0
LINE
  8
0
  6
CONTINUOUS
 62
     2
 10
165.85
 20
76.19
 30
0.0
 11
165.54
 21
76.17
 31
0.0
  0
LINE
  8
0
  6
CONTINUOUS
 62
     2
 10
165.54
 20
78.83
 30
0.0
 11
165.85
 21
78.83
 31
0.0
  0
LINE
  8
0
  6
CONTINUOUS
 62
     2
 10
166.59
 20
78.08
 30
0.0
 11
166.59
 21
76.92
 31
0.0
  0
ARC
  8
0
  6
CONTINUOUS
 62
     2
 10
165.84
 20
78.08
 30
0.0
 40
0.75
 50
0.0
 51
90.0
  0
ARC
  8
0
  6
CONTINUOUS
 62
     2
 10
165.84
 20
76.92
 30
0.0
 40
0.75
 50
268.472474559
 51
0.0
  0
LINE
  8
0
  6
CONTINUOUS
 62
     2
 10
165.53
 20
78.85
 30
0.0
 11
165.15
 21
78.85
 31
0.0
  0
LINE
  8
0
  6
CONTINUOUS
 62
     2
 10
165.15
 20
78.85
 30
0.0
 11
165.15
 21
76.17
 31
0.0
  0
LINE
  8
0
  6
CONTINUOUS
 62
     2
 10
165.15
 20
76.17
 30
0.0
 11
165.53
 21
76.17
 31
0.0
  0
LINE
  8
0
  6
CONTINUOUS
 62
     2
 10
165.15
 20
77.38
 30
0.0
 11
165.53
 21
77.69
 31
0.0
  0
LINE
  8
0
  6
CONTINUOUS
 62
     2
 10
165.15
 20
77.14
 30
0.0
 11
165.54
 21
77.43
 31
0.0
  0
LINE
  8
0
  6
CONTINUOUS
 62
     2
 10
166.59
 20
77.71
 30
0.0
 11
166.52
 21
77.71
 31
0.0
  0
LINE
  8
0
  6
CONTINUOUS
 62
     2
 10
166.52
 20
77.72
 30
0.0
 11
166.52
 21
77.34
 31
0.0
  0
LINE
  8
0
  6
CONTINUOUS
 62
     2
 10
166.52
 20
77.34
 30
0.0
 11
166.58
 21
77.34
 31
0.0
  0
LINE
  8
0
  6
CONTINUOUS
 62
     2
 10
165.54
 20
73.83
 30
0.0
 11
165.54
 21
71.17
 31
0.0
  0
LINE
  8
0
  6
CONTINUOUS
 62
     2
 10
165.85
 20
71.19
 30
0.0
 11
165.54
 21
71.17
 31
0.0
  0
LINE
  8
0
  6
CONTINUOUS
 62
     2
 10
165.54
 20
73.83
 30
0.0
 11
165.85
 21
73.83
 31
0.0
  0
LINE
  8
0
  6
CONTINUOUS
 62
     2
 10
166.59
 20
73.08
 30
0.0
 11
166.59
 21
71.92
 31
0.0
  0
ARC
  8
0
  6
CONTINUOUS
 62
     2
 10
165.84
 20
73.08
 30
0.0
 40
0.75
 50
0.0
 51
90.0
  0
ARC
  8
0
  6
CONTINUOUS
 62
     2
 10
165.84
 20
71.92
 30
0.0
 40
0.75
 50
268.472474559
 51
0.0
  0
LINE
  8
0
  6
CONTINUOUS
 62
     2
 10
165.53
 20
73.85
 30
0.0
 11
165.15
 21
73.85
 31
0.0
  0
LINE
  8
0
  6
CONTINUOUS
 62
     2
 10
165.15
 20
73.85
 30
0.0
 11
165.15
 21
71.17
 31
0.0
  0
LINE
  8
0
  6
CONTINUOUS
 62
     2
 10
165.15
 20
71.17
 30
0.0
 11
165.53
 21
71.17
 31
0.0
  0
LINE
  8
0
  6
CONTINUOUS
 62
     2
 10
165.15
 20
72.38
 30
0.0
 11
165.53
 21
72.69
 31
0.0
  0
LINE
  8
0
  6
CONTINUOUS
 62
     2
 10
165.15
 20
72.14
 30
0.0
 11
165.54
 21
72.43
 31
0.0
  0
LINE
  8
0
  6
CONTINUOUS
 62
     2
 10
166.59
 20
72.71
 30
0.0
 11
166.52
 21
72.71
 31
0.0
  0
LINE
  8
0
  6
CONTINUOUS
 62
     2
 10
166.52
 20
72.72
 30
0.0
 11
166.52
 21
72.34
 31
0.0
  0
LINE
  8
0
  6
CONTINUOUS
 62
     2
 10
166.52
 20
72.34
 30
0.0
 11
166.58
 21
72.34
 31
0.0
  0
LINE
  8
0
  6
CONTINUOUS
 62
     2
 10
164.75
 20
70.45
 30
0.0
 11
165.15
 21
70.45
 31
0.0
  0
LINE
  8
0
  6
CONTINUOUS
 62
     1
 10
162.75
 20
70.45
 30
0.0
 11
160.0
 21
70.45
 31
0.0
  0
LINE
  8
0
  6
CONTINUOUS
 62
     1
 10
160.0
 20
70.45
 30
0.0
 11
160.0
 21
99.55
 31
0.0
  0
LINE
  8
0
  6
CONTINUOUS
 62
     1
 10
160.0
 20
99.55
 30
0.0
 11
162.75
 21
99.55
 31
0.0
  0
LINE
  8
0
  6
CONTINUOUS
 62
     2
 10
162.75
 20
99.55
 30
0.0
 11
164.75
 21
99.55
 31
0.0
  0
LINE
  8
0
  6
CONTINUOUS
 62
     2
 10
162.75
 20
70.45
 30
0.0
 11
164.75
 21
70.45
 31
0.0
  0
LINE
  8
0
  6
CONTINUOUS
 62
     2
 10
169.7
 20
74.4
 30
0.0
 11
168.0
 21
74.4
 31
0.0
  0
LINE
  8
0
  6
CONTINUOUS
 62
     2
 10
169.7
 20
95.6
 30
0.0
 11
169.7
 21
74.4
 31
0.0
  0
LINE
  8
0
  6
CONTINUOUS
 62
     2
 10
168.0
 20
74.4
 30
0.0
 11
168.0
 21
95.6
 31
0.0
  0
LINE
  8
0
  6
CONTINUOUS
 62
     2
 10
168.0
 20
95.6
 30
0.0
 11
169.7
 21
95.6
 31
0.0
  0
LINE
  8
0
  6
CONTINUOUS
 62
     2
 10
170.25
 20
94.55
 30
0.0
 11
176.25
 21
94.55
 31
0.0
  0
LINE
  8
0
  6
CONTINUOUS
 62
     2
 10
174.25
 20
94.55
 30
0.0
 11
174.897047613
 21
96.964814566
 31
0.0
  0
LINE
  8
0
  6
CONTINUOUS
 62
     2
 10
174.25
 20
94.55
 30
0.0
 11
173.602952387
 21
96.964814566
 31
0.0
  0
LINE
  8
0
  6
CONTINUOUS
 62
     2
 10
174.25
 20
98.3
 30
0.0
 11
174.25
 21
94.55
 31
0.0
  0
LINE
  8
0
  6
CONTINUOUS
 62
     2
 10
174.25
 20
94.55
 30
0.0
 11
174.25
 21
90.45
 31
0.0
  0
LINE
  8
0
  6
CONTINUOUS
 62
     2
 10
174.25
 20
90.45
 30
0.0
 11
174.25
 21
86.7
 31
0.0
  0
LINE
  8
0
  6
CONTINUOUS
 62
     2
 10
174.25
 20
90.45
 30
0.0
 11
173.602952387
 21
88.035185434
 31
0.0
  0
LINE
  8
0
  6
CONTINUOUS
 62
     2
 10
174.25
 20
90.45
 30
0.0
 11
174.897047613
 21
88.035185434
 31
0.0
  0
LINE
  8
0
  6
CONTINUOUS
 62
     2
 10
170.25
 20
90.45
 30
0.0
 11
176.25
 21
90.45
 31
0.0
  0
TEXT
  8
0
  6
CONTINUOUS
 62
     2
 10
173.25
 20
90.5
 30
0.2
 40
3.0
  1
８．２
 50
90.0
 41
0.5
 51
0.0
  7
KANJI4
  0
LINE
  8
0
  6
CONTINUOUS
 62
     2
 10
166.59
 20
87.568282402
 30
0.0
 11
167.237047613
 21
85.153467837
 31
0.0
  0
LINE
  8
0
  6
CONTINUOUS
 62
     2
 10
166.59
 20
87.568282402
 30
0.0
 11
168.357766953
 21
85.800515449
 31
0.0
  0
LINE
  8
0
  6
CONTINUOUS
 62
     2
 10
166.59
 20
87.568282402
 30
0.0
 11
170.631451884
 21
80.568282402
 31
0.0
  0
TEXT
  8
0
  6
CONTINUOUS
 62
     2
 10
170.631451884
 20
81.568282402
 30
0.3
 40
3.0
  1
Ｍ３ネジ
 50
0.0
 41
0.6
 51
0.0
  7
KANJI0
  0
LINE
  8
0
  6
CONTINUOUS
 62
     2
 10
170.631451884
 20
80.568282402
 30
0.0
 11
178.631451884
 21
80.568282402
 31
0.0
  0
LINE
  8
0
  6
CONTINUOUS
 62
     2
 10
50.5
 20
130.0
 30
0.0
 11
50.5
 21
45.0
 31
0.0
  0
LINE
  8
0
  6
CONTINUOUS
 62
     2
 10
50.5
 20
45.0
 30
0.0
 11
51.147047613
 21
47.414814566
 31
0.0
  0
LINE
  8
0
  6
CONTINUOUS
 62
     2
 10
50.5
 20
45.0
 30
0.0
 11
49.852952387
 21
47.414814566
 31
0.0
  0
LINE
  8
0
  6
CONTINUOUS
 62
     2
 10
50.5
 20
130.0
 30
0.0
 11
49.852952387
 21
127.585185434
 31
0.0
  0
LINE
  8
0
  6
CONTINUOUS
 62
     2
 10
50.5
 20
130.0
 30
0.0
 11
51.147047613
 21
127.585185434
 31
0.0
  0
LINE
  8
0
  6
CONTINUOUS
 62
     2
 10
42.0
 20
130.0
 30
0.0
 11
52.5
 21
130.0
 31
0.0
  0
LINE
  8
0
  6
CONTINUOUS
 62
     2
 10
169.7
 20
76.650961894
 30
0.0
 11
170.347047613
 21
74.236147329
 31
0.0
  0
LINE
  8
0
  6
CONTINUOUS
 62
     2
 10
169.7
 20
76.650961894
 30
0.0
 11
171.467766953
 21
74.883194941
 31
0.0
  0
TEXT
  8
0
  6
CONTINUOUS
 62
     2
 10
172.586751346
 20
72.650961894
 30
0.3
 40
3.0
  1
端子カバー
 50
0.0
 41
0.666666667
 51
0.0
  7
KANJI5
  0
LINE
  8
0
  6
CONTINUOUS
 62
     2
 10
172.586751346
 20
71.650961894
 30
0.0
 11
183.786751346
 21
71.650961894
 31
0.0
  0
LINE
  8
0
  6
CONTINUOUS
 62
     2
 10
169.7
 20
76.650961894
 30
0.0
 11
172.586751346
 21
71.650961894
 31
0.0
  0
LINE
  8
0
  6
CONTINUOUS
 62
     2
 10
184.281803249
 20
52.5
 30
0.0
 11
184.928850862
 21
54.914814566
 31
0.0
  0
LINE
  8
0
  6
CONTINUOUS
 62
     2
 10
184.281803249
 20
52.5
 30
0.0
 11
183.634755636
 21
54.914814566
 31
0.0
  0
LINE
  8
0
  6
CONTINUOUS
 62
     2
 10
184.281803249
 20
52.5
 30
0.0
 11
184.281803249
 21
117.5
 31
0.0
  0
LINE
  8
0
  6
CONTINUOUS
 62
     2
 10
161.0
 20
52.5
 30
0.0
 11
186.281803249
 21
52.5
 31
0.0
  0
LINE
  8
0
  6
CONTINUOUS
 62
     2
 10
184.281803249
 20
117.5
 30
0.0
 11
183.634755636
 21
115.085185434
 31
0.0
  0
LINE
  8
0
  6
CONTINUOUS
 62
     2
 10
184.281803249
 20
117.5
 30
0.0
 11
184.928850862
 21
115.085185434
 31
0.0
  0
LINE
  8
0
  6
CONTINUOUS
 62
     2
 10
161.0
 20
117.5
 30
0.0
 11
186.281803249
 21
117.5
 31
0.0
  0
TEXT
  8
0
  6
CONTINUOUS
 62
     2
 10
183.281803249
 20
89.0
 30
0.3
 40
3.0
  1
１３０
 50
90.0
 41
0.6
 51
0.0
  7
KANJI0
  0
LINE
  8
0
  6
CONTINUOUS
 62
     2
 10
158.7
 20
139.0
 30
0.0
 11
174.7
 21
139.0
 31
0.0
  0
LINE
  8
0
  6
CONTINUOUS
 62
     2
 10
169.7
 20
139.0
 30
0.0
 11
172.114814566
 21
138.352952387
 31
0.0
  0
LINE
  8
0
  6
CONTINUOUS
 62
     2
 10
169.7
 20
139.0
 30
0.0
 11
172.114814566
 21
139.647047613
 31
0.0
  0
LINE
  8
0
  6
CONTINUOUS
 62
     2
 10
169.7
 20
96.5
 30
0.0
 11
169.7
 21
141.0
 31
0.0
  0
LINE
  8
0
  6
CONTINUOUS
 62
     2
 10
169.7
 20
141.0
 30
0.0
 11
169.7
 21
146.0
 31
0.0
  0
LINE
  8
0
  6
CONTINUOUS
 62
     2
 10
169.7
 20
144.0
 30
0.0
 11
167.285185434
 21
144.647047613
 31
0.0
  0
LINE
  8
0
  6
CONTINUOUS
 62
     2
 10
169.7
 20
144.0
 30
0.0
 11
167.285185434
 21
143.352952387
 31
0.0
  0
LINE
  8
0
  6
CONTINUOUS
 62
     2
 10
55.0
 20
144.0
 30
0.0
 11
169.7
 21
144.0
 31
0.0
  0
TEXT
  8
0
  6
CONTINUOUS
 62
     2
 10
161.75
 20
140.0
 30
0.3
 40
3.0
  1
１９．５
 50
0.0
 41
0.6
 51
0.0
  7
KANJI0
  0
LINE
  8
0
  6
CONTINUOUS
 62
     1
 10
160.0
 20
165.75
 30
0.0
 11
160.0
 21
157.25
 31
0.0
  0
LINE
  8
0
  6
CONTINUOUS
 62
     1
 10
160.0
 20
165.75
 30
0.0
 11
162.75
 21
165.75
 31
0.0
  0
LINE
  8
0
  6
CONTINUOUS
 62
     1
 10
164.654993762
 20
164.504750312
 30
0.0
 11
162.75
 21
164.6
 31
0.0
  0
ARC
  8
0
  6
CONTINUOUS
 62
     1
 10
164.65
 20
164.404875078
 30
0.0
 40
0.1
 50
360.0
 51
87.137594774
  0
LINE
  8
0
  6
CONTINUOUS
 62
     1
 10
164.654993762
 20
158.495249688
 30
0.0
 11
162.75
 21
158.4
 31
0.0
  0
LINE
  8
0
  6
CONTINUOUS
 62
     1
 10
164.75
 20
164.404875078
 30
0.0
 11
164.75
 21
158.595124922
 31
0.0
  0
ARC
  8
0
  6
CONTINUOUS
 62
     1
 10
164.65
 20
158.595124922
 30
0.0
 40
0.1
 50
272.862405226
 51
0.0
  0
LINE
  8
0
  6
CONTINUOUS
 62
     1
 10
162.75
 20
165.75
 30
0.0
 11
162.75
 21
164.6
 31
0.0
  0
LINE
  8
0
  6
CONTINUOUS
 62
     1
 10
162.75
 20
158.4
 30
0.0
 11
162.75
 21
157.25
 31
0.0
  0
LINE
  8
0
  6
CONTINUOUS
 62
     1
 10
162.75
 20
157.25
 30
0.0
 11
160.0
 21
157.25
 31
0.0
  0
LINE
  8
0
  6
CONTINUOUS
 62
     1
 10
162.75
 20
165.75
 30
0.0
 11
167.201937515
 21
165.75
 31
0.0
  0
ARC
  8
0
  6
CONTINUOUS
 62
     1
 10
167.201937515
 20
165.65
 30
0.0
 40
0.1
 50
38.659808254
 51
90.0
  0
LINE
  8
0
  6
CONTINUOUS
 62
     1
 10
167.819975604
 20
165.037530495
 30
0.0
 11
167.280024396
 21
165.712469505
 31
0.0
  0
ARC
  8
0
  6
CONTINUOUS
 62
     1
 10
167.898062485
 20
165.1
 30
0.0
 40
0.1
 50
218.659808254
 51
270.0
  0
LINE
  8
0
  6
CONTINUOUS
 62
     1
 10
168.25
 20
165.0
 30
0.0
 11
167.898062485
 21
165.0
 31
0.0
  0
ARC
  8
0
  6
CONTINUOUS
 62
     1
 10
168.25
 20
165.1
 30
0.0
 40
0.1
 50
270.0
 51
0.0
  0
LINE
  8
0
  6
CONTINUOUS
 62
     1
 10
168.35
 20
165.65
 30
0.0
 11
168.35
 21
165.1
 31
0.0
  0
ARC
  8
0
  6
CONTINUOUS
 62
     1
 10
168.45
 20
165.65
 30
0.0
 40
0.1
 50
90.0
 51
180.0
  0
LINE
  8
0
  6
CONTINUOUS
 62
     1
 10
168.45
 20
165.75
 30
0.0
 11
169.15
 21
165.75
 31
0.0
  0
ARC
  8
0
  6
CONTINUOUS
 62
     1
 10
169.15
 20
165.65
 30
0.0
 40
0.1
 50
0.0
 51
90.0
  0
LINE
  8
0
  6
CONTINUOUS
 62
     1
 10
162.75
 20
157.25
 30
0.0
 11
167.201937515
 21
157.25
 31
0.0
  0
ARC
  8
0
  6
CONTINUOUS
 62
     1
 10
167.201937515
 20
157.35
 30
0.0
 40
0.1
 50
270.0
 51
321.340191746
  0
LINE
  8
0
  6
CONTINUOUS
 62
     1
 10
167.819975604
 20
157.962469505
 30
0.0
 11
167.280024396
 21
157.287530495
 31
0.0
  0
ARC
  8
0
  6
CONTINUOUS
 62
     1
 10
167.898062485
 20
157.9
 30
0.0
 40
0.1
 50
90.0
 51
141.340191746
  0
LINE
  8
0
  6
CONTINUOUS
 62
     1
 10
168.25
 20
158.0
 30
0.0
 11
167.898062485
 21
158.0
 31
0.0
  0
ARC
  8
0
  6
CONTINUOUS
 62
     1
 10
168.25
 20
157.9
 30
0.0
 40
0.1
 50
0.0
 51
90.0
  0
LINE
  8
0
  6
CONTINUOUS
 62
     1
 10
168.35
 20
157.35
 30
0.0
 11
168.35
 21
157.9
 31
0.0
  0
ARC
  8
0
  6
CONTINUOUS
 62
     1
 10
168.45
 20
157.35
 30
0.0
 40
0.1
 50
180.0
 51
270.0
  0
LINE
  8
0
  6
CONTINUOUS
 62
     1
 10
169.25
 20
165.65
 30
0.0
 11
169.25
 21
157.35
 31
0.0
  0
LINE
  8
0
  6
CONTINUOUS
 62
     1
 10
168.45
 20
157.25
 30
0.0
 11
169.15
 21
157.25
 31
0.0
  0
ARC
  8
0
  6
CONTINUOUS
 62
     1
 10
169.15
 20
157.35
 30
0.0
 40
0.1
 50
270.0
 51
0.0
  0
LINE
  8
0
  6
CONTINUOUS
 62
     2
 10
164.75
 20
163.65
 30
0.0
 11
164.8
 21
163.65
 31
0.0
  0
ARC
  8
0
  6
CONTINUOUS
 62
     2
 10
164.8
 20
163.3
 30
0.0
 40
0.35
 50
0.0
 51
90.0
  0
LINE
  8
0
  6
CONTINUOUS
 62
     2
 10
164.8
 20
159.35
 30
0.0
 11
164.75
 21
159.35
 31
0.0
  0
LINE
  8
0
  6
CONTINUOUS
 62
     2
 10
165.15
 20
163.3
 30
0.0
 11
165.15
 21
159.7
 31
0.0
  0
ARC
  8
0
  6
CONTINUOUS
 62
     2
 10
164.8
 20
159.7
 30
0.0
 40
0.35
 50
270.0
 51
0.0
  0
LINE
  8
0
  6
CONTINUOUS
 62
     2
 10
168.150003081
 20
157.4
 30
0.0
 11
168.250003081
 21
157.45
 31
0.0
  0
LINE
  8
0
  6
CONTINUOUS
 62
     2
 10
168.250003081
 20
157.45
 30
0.0
 11
168.35
 21
157.35
 31
0.0
  0
LINE
  8
0
  6
CONTINUOUS
 62
     2
 10
168.450003081
 20
156.8
 30
0.0
 11
169.15
 21
156.8
 31
0.0
  0
ARC
  8
0
  6
CONTINUOUS
 62
     2
 10
169.15
 20
157.35
 30
0.0
 40
0.55
 50
270.0
 51
0.0
  0
ARC
  8
0
  6
CONTINUOUS
 62
     2
 10
168.600003081
 20
157.25
 30
0.0
 40
0.474341649
 50
161.565051177
 51
251.565051177
  0
LINE
  8
0
  6
CONTINUOUS
 62
     2
 10
169.7
 20
157.35
 30
0.0
 11
169.7
 21
165.65
 31
0.0
  0
LINE
  8
0
  6
CONTINUOUS
 62
     2
 10
168.450003081
 20
166.2
 30
0.0
 11
169.15
 21
166.2
 31
0.0
  0
ARC
  8
0
  6
CONTINUOUS
 62
     2
 10
169.15
 20
165.65
 30
0.0
 40
0.55
 50
360.0
 51
90.0
  0
LINE
  8
0
  6
CONTINUOUS
 62
     2
 10
168.150003081
 20
165.6
 30
0.0
 11
168.250003081
 21
165.55
 31
0.0
  0
LINE
  8
0
  6
CONTINUOUS
 62
     2
 10
168.250003081
 20
165.55
 30
0.0
 11
168.35
 21
165.65
 31
0.0
  0
ARC
  8
0
  6
CONTINUOUS
 62
     2
 10
168.600003081
 20
165.75
 30
0.0
 40
0.474341649
 50
108.434948823
 51
198.434948823
  0
LINE
  8
0
  6
CONTINUOUS
 62
     2
 10
165.54
 20
162.83
 30
0.0
 11
165.54
 21
160.17
 31
0.0
  0
LINE
  8
0
  6
CONTINUOUS
 62
     2
 10
165.85
 20
160.19
 30
0.0
 11
165.54
 21
160.17
 31
0.0
  0
LINE
  8
0
  6
CONTINUOUS
 62
     2
 10
165.54
 20
162.83
 30
0.0
 11
165.85
 21
162.83
 31
0.0
  0
LINE
  8
0
  6
CONTINUOUS
 62
     2
 10
166.59
 20
162.08
 30
0.0
 11
166.59
 21
160.92
 31
0.0
  0
ARC
  8
0
  6
CONTINUOUS
 62
     2
 10
165.84
 20
162.08
 30
0.0
 40
0.75
 50
0.0
 51
90.0
  0
ARC
  8
0
  6
CONTINUOUS
 62
     2
 10
165.84
 20
160.92
 30
0.0
 40
0.75
 50
268.472474559
 51
0.0
  0
LINE
  8
0
  6
CONTINUOUS
 62
     2
 10
165.53
 20
162.85
 30
0.0
 11
165.15
 21
162.85
 31
0.0
  0
LINE
  8
0
  6
CONTINUOUS
 62
     2
 10
165.15
 20
162.85
 30
0.0
 11
165.15
 21
160.17
 31
0.0
  0
LINE
  8
0
  6
CONTINUOUS
 62
     2
 10
165.15
 20
160.17
 30
0.0
 11
165.53
 21
160.17
 31
0.0
  0
LINE
  8
0
  6
CONTINUOUS
 62
     2
 10
165.15
 20
161.38
 30
0.0
 11
165.53
 21
161.69
 31
0.0
  0
LINE
  8
0
  6
CONTINUOUS
 62
     2
 10
165.15
 20
161.14
 30
0.0
 11
165.54
 21
161.43
 31
0.0
  0
LINE
  8
0
  6
CONTINUOUS
 62
     2
 10
166.59
 20
161.71
 30
0.0
 11
166.52
 21
161.71
 31
0.0
  0
LINE
  8
0
  6
CONTINUOUS
 62
     2
 10
166.52
 20
161.72
 30
0.0
 11
166.52
 21
161.34
 31
0.0
  0
LINE
  8
0
  6
CONTINUOUS
 62
     2
 10
166.52
 20
161.34
 30
0.0
 11
166.58
 21
161.34
 31
0.0
  0
LINE
  8
0
  6
CONTINUOUS
 62
     2
 10
174.0
 20
152.5
 30
0.0
 11
174.647047613
 21
154.914814566
 31
0.0
  0
LINE
  8
0
  6
CONTINUOUS
 62
     2
 10
174.0
 20
152.5
 30
0.0
 11
173.352952387
 21
154.914814566
 31
0.0
  0
LINE
  8
0
  6
CONTINUOUS
 62
     2
 10
174.0
 20
170.5
 30
0.0
 11
173.352952387
 21
168.085185434
 31
0.0
  0
LINE
  8
0
  6
CONTINUOUS
 62
     2
 10
174.0
 20
170.5
 30
0.0
 11
174.647047613
 21
168.085185434
 31
0.0
  0
LINE
  8
0
  6
CONTINUOUS
 62
     2
 10
174.0
 20
170.5
 30
0.0
 11
174.0
 21
152.5
 31
0.0
  0
LINE
  8
0
  6
CONTINUOUS
 62
     2
 10
161.0
 20
170.5
 30
0.0
 11
176.0
 21
170.5
 31
0.0
  0
LINE
  8
0
  6
CONTINUOUS
 62
     2
 10
161.0
 20
152.5
 30
0.0
 11
176.0
 21
152.5
 31
0.0
  0
TEXT
  8
0
  6
CONTINUOUS
 62
     2
 10
173.5
 20
159.55
 30
0.3
 40
3.0
  1
３６
 50
90.0
 41
0.6
 51
0.0
  7
KANJI0
  0
TEXT
  8
0
  6
CONTINUOUS
 62
     2
 10
161.0
 20
42.0
 30
0.3
 40
3.0
  1
端子記号
 50
0.0
 41
0.9
 51
0.0
  7
KANJI6
  0
TEXT
  8
0
  6
CONTINUOUS
 62
     2
 10
49.5
 20
82.6
 30
0.3
 40
3.0
  1
１７０
 50
90.0
 41
0.6
 51
0.0
  7
KANJI0
  0
LINE
  8
0
  6
LTYPE2
 62
     2
 10
122.0
 20
175.5
 30
0.0
 11
122.0
 21
147.5
 31
0.0
  0
LINE
  8
0
  6
LTYPE2
 62
     2
 10
50.0
 20
161.5
 30
0.0
 11
170.4
 21
161.5
 31
0.0
  0
LINE
  8
0
  6
LTYPE2
 62
     2
 10
31.0
 20
121.7
 30
0.0
 11
31.0
 21
50.6
 31
0.0
  0
LINE
  8
0
  6
LTYPE2
 62
     2
 10
44.8
 20
85.0
 30
0.0
 11
14.0
 21
85.0
 31
0.0
  0
LINE
  8
0
  6
LTYPE2
 62
     2
 10
122.0
 20
122.5
 30
0.0
 11
122.0
 21
47.5
 31
0.0
  0
LINE
  8
0
  6
LTYPE2
 62
     2
 10
127.0
 20
87.0
 30
0.0
 11
117.0
 21
87.0
 31
0.0
  0
LINE
  8
0
  6
LTYPE2
 62
     2
 10
175.1
 20
85.0
 30
0.0
 11
50.0
 21
85.0
 31
0.0
  0
LINE
  8
0
  6
CONTINUOUS
 62
     1
 10
189.75
 20
119.5
 30
0.0
 11
210.25
 21
119.5
 31
0.0
  0
LINE
  8
0
  6
CONTINUOUS
 62
     1
 10
191.0
 20
52.5
 30
0.0
 11
209.0
 21
52.5
 31
0.0
  0
LINE
  8
0
  6
CONTINUOUS
 62
     1
 10
209.0
 20
52.5
 30
0.0
 11
209.0
 21
117.5
 31
0.0
  0
LINE
  8
0
  6
CONTINUOUS
 62
     1
 10
209.0
 20
117.5
 30
0.0
 11
191.0
 21
117.5
 31
0.0
  0
LINE
  8
0
  6
CONTINUOUS
 62
     1
 10
191.0
 20
117.5
 30
0.0
 11
191.0
 21
52.5
 31
0.0
  0
LINE
  8
0
  6
CONTINUOUS
 62
     1
 10
193.5
 20
128.25
 30
0.0
 11
206.5
 21
128.25
 31
0.0
  0
LINE
  8
0
  6
CONTINUOUS
 62
     1
 10
206.5
 20
128.25
 30
0.0
 11
206.5
 21
128.0
 31
0.0
  0
LINE
  8
0
  6
CONTINUOUS
 62
     1
 10
206.5
 20
128.0
 30
0.0
 11
209.5
 21
128.0
 31
0.0
  0
LINE
  8
0
  6
CONTINUOUS
 62
     1
 10
209.5
 20
128.0
 30
0.0
 11
209.5
 21
128.25
 31
0.0
  0
LINE
  8
0
  6
CONTINUOUS
 62
     1
 10
209.5
 20
128.25
 30
0.0
 11
210.25
 21
128.25
 31
0.0
  0
LINE
  8
0
  6
CONTINUOUS
 62
     1
 10
193.5
 20
128.25
 30
0.0
 11
193.5
 21
128.0
 31
0.0
  0
LINE
  8
0
  6
CONTINUOUS
 62
     1
 10
193.5
 20
128.0
 30
0.0
 11
190.5
 21
128.0
 31
0.0
  0
LINE
  8
0
  6
CONTINUOUS
 62
     1
 10
190.5
 20
128.0
 30
0.0
 11
190.5
 21
128.25
 31
0.0
  0
LINE
  8
0
  6
CONTINUOUS
 62
     1
 10
190.5
 20
128.25
 30
0.0
 11
189.75
 21
128.25
 31
0.0
  0
LINE
  8
0
  6
CONTINUOUS
 62
     1
 10
193.5
 20
46.75
 30
0.0
 11
206.5
 21
46.75
 31
0.0
  0
LINE
  8
0
  6
CONTINUOUS
 62
     1
 10
206.5
 20
46.75
 30
0.0
 11
206.5
 21
47.0
 31
0.0
  0
LINE
  8
0
  6
CONTINUOUS
 62
     1
 10
206.5
 20
47.0
 30
0.0
 11
209.5
 21
47.0
 31
0.0
  0
LINE
  8
0
  6
CONTINUOUS
 62
     1
 10
209.5
 20
47.0
 30
0.0
 11
209.5
 21
46.75
 31
0.0
  0
LINE
  8
0
  6
CONTINUOUS
 62
     1
 10
209.5
 20
46.75
 30
0.0
 11
210.25
 21
46.75
 31
0.0
  0
LINE
  8
0
  6
CONTINUOUS
 62
     1
 10
193.5
 20
46.75
 30
0.0
 11
193.5
 21
47.0
 31
0.0
  0
LINE
  8
0
  6
CONTINUOUS
 62
     1
 10
193.5
 20
47.0
 30
0.0
 11
190.5
 21
47.0
 31
0.0
  0
LINE
  8
0
  6
CONTINUOUS
 62
     1
 10
190.5
 20
47.0
 30
0.0
 11
190.5
 21
46.75
 31
0.0
  0
LINE
  8
0
  6
CONTINUOUS
 62
     1
 10
189.75
 20
128.25
 30
0.0
 11
189.75
 21
46.75
 31
0.0
  0
LINE
  8
0
  6
CONTINUOUS
 62
     1
 10
190.5
 20
46.75
 30
0.0
 11
189.75
 21
46.75
 31
0.0
  0
LINE
  8
0
  6
CONTINUOUS
 62
     1
 10
210.25
 20
128.25
 30
0.0
 11
210.25
 21
46.75
 31
0.0
  0
ARC
  8
0
  6
CONTINUOUS
 62
     1
 10
210.0
 20
45.5
 30
0.0
 40
0.5
 50
270.0
 51
0.0
  0
ARC
  8
0
  6
CONTINUOUS
 62
     1
 10
190.0
 20
45.5
 30
0.0
 40
0.5
 50
180.0
 51
270.0
  0
LINE
  8
0
  6
CONTINUOUS
 62
     1
 10
189.5
 20
129.5
 30
0.0
 11
189.5
 21
45.5
 31
0.0
  0
ARC
  8
0
  6
CONTINUOUS
 62
     1
 10
190.0
 20
129.5
 30
0.0
 40
0.5
 50
90.0
 51
180.0
  0
LINE
  8
0
  6
CONTINUOUS
 62
     1
 10
210.5
 20
129.5
 30
0.0
 11
210.5
 21
45.5
 31
0.0
  0
ARC
  8
0
  6
CONTINUOUS
 62
     1
 10
210.0
 20
129.5
 30
0.0
 40
0.5
 50
0.0
 51
90.0
  0
LINE
  8
0
  6
CONTINUOUS
 62
     1
 10
189.75
 20
50.5
 30
0.0
 11
210.25
 21
50.5
 31
0.0
  0
LINE
  8
0
  6
CONTINUOUS
 62
     2
 10
191.75
 20
50.0
 30
0.0
 11
191.75
 21
48.0
 31
0.0
  0
LINE
  8
0
  6
CONTINUOUS
 62
     2
 10
208.25
 20
48.0
 30
0.0
 11
208.25
 21
50.0
 31
0.0
  0
LINE
  8
0
  6
CONTINUOUS
 62
     2
 10
208.25
 20
50.0
 30
0.0
 11
191.75
 21
50.0
 31
0.0
  0
LINE
  8
0
  6
CONTINUOUS
 62
     2
 10
191.75
 20
127.0
 30
0.0
 11
191.75
 21
120.0
 31
0.0
  0
LINE
  8
0
  6
CONTINUOUS
 62
     2
 10
208.25
 20
120.0
 30
0.0
 11
208.25
 21
127.0
 31
0.0
  0
LINE
  8
0
  6
CONTINUOUS
 62
     2
 10
191.75
 20
120.0
 30
0.0
 11
208.25
 21
120.0
 31
0.0
  0
LINE
  8
0
  6
CONTINUOUS
 62
     2
 10
198.78653389
 20
127.0
 30
0.0
 11
191.75
 21
127.0
 31
0.0
  0
LINE
  8
0
  6
CONTINUOUS
 62
     2
 10
208.25
 20
127.0
 30
0.0
 11
201.21346611
 21
127.0
 31
0.0
  0
ARC
  8
0
  6
CONTINUOUS
 62
     2
 10
200.0
 20
126.7
 30
0.0
 40
1.25
 50
166.113459637
 51
13.886540363
  0
LINE
  8
0
  6
CONTINUOUS
 62
     2
 10
201.233896268
 20
48.0
 30
0.0
 11
208.25
 21
48.0
 31
0.0
  0
LINE
  8
0
  6
CONTINUOUS
 62
     2
 10
191.75
 20
48.0
 30
0.0
 11
198.766103732
 21
48.0
 31
0.0
  0
ARC
  8
0
  6
CONTINUOUS
 62
     2
 10
200.0
 20
48.2
 30
0.0
 40
1.25
 50
350.793103779
 51
189.206896221
  0
LINE
  8
0
  6
CONTINUOUS
 62
     2
 10
192.0
 20
117.0
 30
0.0
 11
208.0
 21
117.0
 31
0.0
  0
LINE
  8
0
  6
CONTINUOUS
 62
     2
 10
192.0
 20
117.0
 30
0.0
 11
192.0
 21
103.5
 31
0.0
  0
LINE
  8
0
  6
CONTINUOUS
 62
     2
 10
192.0
 20
103.5
 30
0.0
 11
208.0
 21
103.5
 31
0.0
  0
LINE
  8
0
  6
CONTINUOUS
 62
     2
 10
208.0
 20
103.5
 30
0.0
 11
208.0
 21
117.0
 31
0.0
  0
TEXT
  8
0
  6
CONTINUOUS
 62
     2
 10
194.0
 20
111.0
 30
0.3
 40
3.0
  1
貼　銘　板
 50
0.0
 41
0.9
 51
0.0
  7
KANJI1
  0
TEXT
  8
0
  6
CONTINUOUS
 62
     2
 10
191.4
 20
107.0
 30
0.3
 40
3.0
  1
（表示事項）
 50
0.0
 41
0.9
 51
0.0
  7
KANJI1
  0
LINE
  8
0
  6
CONTINUOUS
 62
     1
 10
197.0
 20
70.45
 30
0.0
 11
197.0
 21
74.55
 31
0.0
  0
LINE
  8
0
  6
CONTINUOUS
 62
     1
 10
203.0
 20
74.55
 30
0.0
 11
203.0
 21
70.45
 31
0.0
  0
LINE
  8
0
  6
CONTINUOUS
 62
     1
 10
204.25
 20
74.55
 30
0.0
 11
195.75
 21
74.55
 31
0.0
  0
LINE
  8
0
  6
CONTINUOUS
 62
     1
 10
195.75
 20
75.45
 30
0.0
 11
204.25
 21
75.45
 31
0.0
  0
LINE
  8
0
  6
CONTINUOUS
 62
     1
 10
204.25
 20
75.45
 30
0.0
 11
204.25
 21
74.55
 31
0.0
  0
LINE
  8
0
  6
CONTINUOUS
 62
     1
 10
195.75
 20
75.45
 30
0.0
 11
195.75
 21
74.55
 31
0.0
  0
LINE
  8
0
  6
CONTINUOUS
 62
     1
 10
195.75
 20
74.55
 30
0.0
 11
195.75
 21
70.45
 31
0.0
  0
LINE
  8
0
  6
CONTINUOUS
 62
     1
 10
204.25
 20
70.45
 30
0.0
 11
204.25
 21
74.55
 31
0.0
  0
LINE
  8
0
  6
CONTINUOUS
 62
     1
 10
197.0
 20
75.45
 30
0.0
 11
197.0
 21
79.55
 31
0.0
  0
LINE
  8
0
  6
CONTINUOUS
 62
     1
 10
203.0
 20
79.55
 30
0.0
 11
203.0
 21
75.45
 31
0.0
  0
LINE
  8
0
  6
CONTINUOUS
 62
     1
 10
204.25
 20
79.55
 30
0.0
 11
195.75
 21
79.55
 31
0.0
  0
LINE
  8
0
  6
CONTINUOUS
 62
     1
 10
195.75
 20
80.45
 30
0.0
 11
204.25
 21
80.45
 31
0.0
  0
LINE
  8
0
  6
CONTINUOUS
 62
     1
 10
204.25
 20
80.45
 30
0.0
 11
204.25
 21
79.55
 31
0.0
  0
LINE
  8
0
  6
CONTINUOUS
 62
     1
 10
195.75
 20
80.45
 30
0.0
 11
195.75
 21
79.55
 31
0.0
  0
LINE
  8
0
  6
CONTINUOUS
 62
     1
 10
195.75
 20
79.55
 30
0.0
 11
195.75
 21
75.45
 31
0.0
  0
LINE
  8
0
  6
CONTINUOUS
 62
     1
 10
204.25
 20
75.45
 30
0.0
 11
204.25
 21
79.55
 31
0.0
  0
LINE
  8
0
  6
CONTINUOUS
 62
     1
 10
197.0
 20
80.45
 30
0.0
 11
197.0
 21
84.55
 31
0.0
  0
LINE
  8
0
  6
CONTINUOUS
 62
     1
 10
203.0
 20
84.55
 30
0.0
 11
203.0
 21
80.45
 31
0.0
  0
LINE
  8
0
  6
CONTINUOUS
 62
     1
 10
204.25
 20
84.55
 30
0.0
 11
195.75
 21
84.55
 31
0.0
  0
LINE
  8
0
  6
CONTINUOUS
 62
     1
 10
195.75
 20
85.45
 30
0.0
 11
204.25
 21
85.45
 31
0.0
  0
LINE
  8
0
  6
CONTINUOUS
 62
     1
 10
204.25
 20
85.45
 30
0.0
 11
204.25
 21
84.55
 31
0.0
  0
LINE
  8
0
  6
CONTINUOUS
 62
     1
 10
195.75
 20
85.45
 30
0.0
 11
195.75
 21
84.55
 31
0.0
  0
LINE
  8
0
  6
CONTINUOUS
 62
     1
 10
195.75
 20
84.55
 30
0.0
 11
195.75
 21
80.45
 31
0.0
  0
LINE
  8
0
  6
CONTINUOUS
 62
     1
 10
204.25
 20
80.45
 30
0.0
 11
204.25
 21
84.55
 31
0.0
  0
LINE
  8
0
  6
CONTINUOUS
 62
     1
 10
197.0
 20
85.45
 30
0.0
 11
197.0
 21
89.55
 31
0.0
  0
LINE
  8
0
  6
CONTINUOUS
 62
     1
 10
203.0
 20
89.55
 30
0.0
 11
203.0
 21
85.45
 31
0.0
  0
LINE
  8
0
  6
CONTINUOUS
 62
     1
 10
204.25
 20
89.55
 30
0.0
 11
195.75
 21
89.55
 31
0.0
  0
LINE
  8
0
  6
CONTINUOUS
 62
     1
 10
195.75
 20
90.45
 30
0.0
 11
204.25
 21
90.45
 31
0.0
  0
LINE
  8
0
  6
CONTINUOUS
 62
     1
 10
204.25
 20
90.45
 30
0.0
 11
204.25
 21
89.55
 31
0.0
  0
LINE
  8
0
  6
CONTINUOUS
 62
     1
 10
195.75
 20
90.45
 30
0.0
 11
195.75
 21
89.55
 31
0.0
  0
LINE
  8
0
  6
CONTINUOUS
 62
     1
 10
195.75
 20
89.55
 30
0.0
 11
195.75
 21
85.45
 31
0.0
  0
LINE
  8
0
  6
CONTINUOUS
 62
     1
 10
204.25
 20
85.45
 30
0.0
 11
204.25
 21
89.55
 31
0.0
  0
LINE
  8
0
  6
CONTINUOUS
 62
     1
 10
197.0
 20
90.45
 30
0.0
 11
197.0
 21
94.55
 31
0.0
  0
LINE
  8
0
  6
CONTINUOUS
 62
     1
 10
203.0
 20
94.55
 30
0.0
 11
203.0
 21
90.45
 31
0.0
  0
LINE
  8
0
  6
CONTINUOUS
 62
     1
 10
204.25
 20
94.55
 30
0.0
 11
195.75
 21
94.55
 31
0.0
  0
LINE
  8
0
  6
CONTINUOUS
 62
     1
 10
195.75
 20
95.45
 30
0.0
 11
204.25
 21
95.45
 31
0.0
  0
LINE
  8
0
  6
CONTINUOUS
 62
     1
 10
204.25
 20
95.45
 30
0.0
 11
204.25
 21
94.55
 31
0.0
  0
LINE
  8
0
  6
CONTINUOUS
 62
     1
 10
195.75
 20
95.45
 30
0.0
 11
195.75
 21
94.55
 31
0.0
  0
LINE
  8
0
  6
CONTINUOUS
 62
     1
 10
195.75
 20
94.55
 30
0.0
 11
195.75
 21
90.45
 31
0.0
  0
LINE
  8
0
  6
CONTINUOUS
 62
     1
 10
204.25
 20
90.45
 30
0.0
 11
204.25
 21
94.55
 31
0.0
  0
LINE
  8
0
  6
CONTINUOUS
 62
     1
 10
197.0
 20
95.45
 30
0.0
 11
197.0
 21
99.55
 31
0.0
  0
LINE
  8
0
  6
CONTINUOUS
 62
     1
 10
203.0
 20
99.55
 30
0.0
 11
203.0
 21
95.45
 31
0.0
  0
LINE
  8
0
  6
CONTINUOUS
 62
     1
 10
204.25
 20
99.55
 30
0.0
 11
195.75
 21
99.55
 31
0.0
  0
LINE
  8
0
  6
CONTINUOUS
 62
     1
 10
195.75
 20
99.55
 30
0.0
 11
195.75
 21
95.45
 31
0.0
  0
LINE
  8
0
  6
CONTINUOUS
 62
     1
 10
204.25
 20
95.45
 30
0.0
 11
204.25
 21
99.55
 31
0.0
  0
LINE
  8
0
  6
CONTINUOUS
 62
     1
 10
195.75
 20
70.45
 30
0.0
 11
204.25
 21
70.45
 31
0.0
  0
LINE
  8
0
  6
CONTINUOUS
 62
     2
 10
198.25
 20
70.7
 30
0.0
 11
198.25
 21
71.25
 31
0.0
  0
LINE
  8
0
  6
CONTINUOUS
 62
     2
 10
198.25
 20
70.7
 30
0.0
 11
198.5
 21
70.45
 31
0.0
  0
LINE
  8
0
  6
CONTINUOUS
 62
     2
 10
198.25
 20
73.75
 30
0.0
 11
198.25
 21
74.3
 31
0.0
  0
LINE
  8
0
  6
CONTINUOUS
 62
     2
 10
198.25
 20
74.3
 30
0.0
 11
198.5
 21
74.55
 31
0.0
  0
LINE
  8
0
  6
CONTINUOUS
 62
     2
 10
201.5
 20
74.55
 30
0.0
 11
198.5
 21
74.55
 31
0.0
  0
LINE
  8
0
  6
CONTINUOUS
 62
     2
 10
201.75
 20
73.75
 30
0.0
 11
201.75
 21
74.3
 31
0.0
  0
LINE
  8
0
  6
CONTINUOUS
 62
     2
 10
201.5
 20
74.55
 30
0.0
 11
201.75
 21
74.3
 31
0.0
  0
LINE
  8
0
  6
CONTINUOUS
 62
     2
 10
201.75
 20
70.7
 30
0.0
 11
201.75
 21
71.25
 31
0.0
  0
LINE
  8
0
  6
CONTINUOUS
 62
     2
 10
198.5
 20
70.45
 30
0.0
 11
201.5
 21
70.45
 31
0.0
  0
LINE
  8
0
  6
CONTINUOUS
 62
     2
 10
201.75
 20
70.7
 30
0.0
 11
201.5
 21
70.45
 31
0.0
  0
LINE
  8
0
  6
CONTINUOUS
 62
     2
 10
197.85
 20
71.25
 30
0.0
 11
198.25
 21
71.25
 31
0.0
  0
LINE
  8
0
  6
CONTINUOUS
 62
     2
 10
197.85
 20
71.25
 30
0.0
 11
197.85
 21
73.75
 31
0.0
  0
LINE
  8
0
  6
CONTINUOUS
 62
     2
 10
197.85
 20
73.75
 30
0.0
 11
198.25
 21
73.75
 31
0.0
  0
LINE
  8
0
  6
CONTINUOUS
 62
     2
 10
202.15
 20
71.25
 30
0.0
 11
201.75
 21
71.25
 31
0.0
  0
LINE
  8
0
  6
CONTINUOUS
 62
     2
 10
202.15
 20
71.25
 30
0.0
 11
202.15
 21
73.75
 31
0.0
  0
LINE
  8
0
  6
CONTINUOUS
 62
     2
 10
202.15
 20
73.75
 30
0.0
 11
201.75
 21
73.75
 31
0.0
  0
LINE
  8
0
  6
CONTINUOUS
 62
     2
 10
202.15
 20
73.85
 30
0.0
 11
201.75
 21
73.85
 31
0.0
  0
ARC
  8
0
  6
CONTINUOUS
 62
     2
 10
202.15
 20
73.75
 30
0.0
 40
0.1
 50
0.0
 51
90.0
  0
LINE
  8
0
  6
CONTINUOUS
 62
     2
 10
201.75
 20
71.15
 30
0.0
 11
202.15
 21
71.15
 31
0.0
  0
LINE
  8
0
  6
CONTINUOUS
 62
     2
 10
202.25
 20
71.25
 30
0.0
 11
202.25
 21
73.75
 31
0.0
  0
ARC
  8
0
  6
CONTINUOUS
 62
     2
 10
202.15
 20
71.25
 30
0.0
 40
0.1
 50
270.0
 51
0.0
  0
LINE
  8
0
  6
CONTINUOUS
 62
     2
 10
197.85
 20
73.85
 30
0.0
 11
198.25
 21
73.85
 31
0.0
  0
ARC
  8
0
  6
CONTINUOUS
 62
     2
 10
197.85
 20
73.75
 30
0.0
 40
0.1
 50
90.0
 51
180.0
  0
LINE
  8
0
  6
CONTINUOUS
 62
     2
 10
198.25
 20
71.15
 30
0.0
 11
197.85
 21
71.15
 31
0.0
  0
ARC
  8
0
  6
CONTINUOUS
 62
     2
 10
197.85
 20
71.25
 30
0.0
 40
0.1
 50
180.0
 51
270.0
  0
LINE
  8
0
  6
CONTINUOUS
 62
     2
 10
197.75
 20
71.25
 30
0.0
 11
197.75
 21
73.75
 31
0.0
  0
LINE
  8
0
  6
CONTINUOUS
 62
     2
 10
198.25
 20
75.7
 30
0.0
 11
198.25
 21
76.25
 31
0.0
  0
LINE
  8
0
  6
CONTINUOUS
 62
     2
 10
198.25
 20
75.7
 30
0.0
 11
198.5
 21
75.45
 31
0.0
  0
LINE
  8
0
  6
CONTINUOUS
 62
     2
 10
198.25
 20
78.75
 30
0.0
 11
198.25
 21
79.3
 31
0.0
  0
LINE
  8
0
  6
CONTINUOUS
 62
     2
 10
198.25
 20
79.3
 30
0.0
 11
198.5
 21
79.55
 31
0.0
  0
LINE
  8
0
  6
CONTINUOUS
 62
     2
 10
201.5
 20
79.55
 30
0.0
 11
198.5
 21
79.55
 31
0.0
  0
LINE
  8
0
  6
CONTINUOUS
 62
     2
 10
201.75
 20
78.75
 30
0.0
 11
201.75
 21
79.3
 31
0.0
  0
LINE
  8
0
  6
CONTINUOUS
 62
     2
 10
201.5
 20
79.55
 30
0.0
 11
201.75
 21
79.3
 31
0.0
  0
LINE
  8
0
  6
CONTINUOUS
 62
     2
 10
201.75
 20
75.7
 30
0.0
 11
201.75
 21
76.25
 31
0.0
  0
LINE
  8
0
  6
CONTINUOUS
 62
     2
 10
198.5
 20
75.45
 30
0.0
 11
201.5
 21
75.45
 31
0.0
  0
LINE
  8
0
  6
CONTINUOUS
 62
     2
 10
201.75
 20
75.7
 30
0.0
 11
201.5
 21
75.45
 31
0.0
  0
LINE
  8
0
  6
CONTINUOUS
 62
     2
 10
197.85
 20
76.25
 30
0.0
 11
198.25
 21
76.25
 31
0.0
  0
LINE
  8
0
  6
CONTINUOUS
 62
     2
 10
197.85
 20
76.25
 30
0.0
 11
197.85
 21
78.75
 31
0.0
  0
LINE
  8
0
  6
CONTINUOUS
 62
     2
 10
197.85
 20
78.75
 30
0.0
 11
198.25
 21
78.75
 31
0.0
  0
LINE
  8
0
  6
CONTINUOUS
 62
     2
 10
202.15
 20
76.25
 30
0.0
 11
201.75
 21
76.25
 31
0.0
  0
LINE
  8
0
  6
CONTINUOUS
 62
     2
 10
202.15
 20
76.25
 30
0.0
 11
202.15
 21
78.75
 31
0.0
  0
LINE
  8
0
  6
CONTINUOUS
 62
     2
 10
202.15
 20
78.75
 30
0.0
 11
201.75
 21
78.75
 31
0.0
  0
LINE
  8
0
  6
CONTINUOUS
 62
     2
 10
202.15
 20
78.85
 30
0.0
 11
201.75
 21
78.85
 31
0.0
  0
ARC
  8
0
  6
CONTINUOUS
 62
     2
 10
202.15
 20
78.75
 30
0.0
 40
0.1
 50
0.0
 51
90.0
  0
LINE
  8
0
  6
CONTINUOUS
 62
     2
 10
201.75
 20
76.15
 30
0.0
 11
202.15
 21
76.15
 31
0.0
  0
LINE
  8
0
  6
CONTINUOUS
 62
     2
 10
202.25
 20
76.25
 30
0.0
 11
202.25
 21
78.75
 31
0.0
  0
ARC
  8
0
  6
CONTINUOUS
 62
     2
 10
202.15
 20
76.25
 30
0.0
 40
0.1
 50
270.0
 51
0.0
  0
LINE
  8
0
  6
CONTINUOUS
 62
     2
 10
197.85
 20
78.85
 30
0.0
 11
198.25
 21
78.85
 31
0.0
  0
ARC
  8
0
  6
CONTINUOUS
 62
     2
 10
197.85
 20
78.75
 30
0.0
 40
0.1
 50
90.0
 51
180.0
  0
LINE
  8
0
  6
CONTINUOUS
 62
     2
 10
198.25
 20
76.15
 30
0.0
 11
197.85
 21
76.15
 31
0.0
  0
ARC
  8
0
  6
CONTINUOUS
 62
     2
 10
197.85
 20
76.25
 30
0.0
 40
0.1
 50
180.0
 51
270.0
  0
LINE
  8
0
  6
CONTINUOUS
 62
     2
 10
197.75
 20
76.25
 30
0.0
 11
197.75
 21
78.75
 31
0.0
  0
LINE
  8
0
  6
CONTINUOUS
 62
     2
 10
198.25
 20
80.7
 30
0.0
 11
198.25
 21
81.25
 31
0.0
  0
LINE
  8
0
  6
CONTINUOUS
 62
     2
 10
198.25
 20
80.7
 30
0.0
 11
198.5
 21
80.45
 31
0.0
  0
LINE
  8
0
  6
CONTINUOUS
 62
     2
 10
198.25
 20
83.75
 30
0.0
 11
198.25
 21
84.3
 31
0.0
  0
LINE
  8
0
  6
CONTINUOUS
 62
     2
 10
198.25
 20
84.3
 30
0.0
 11
198.5
 21
84.55
 31
0.0
  0
LINE
  8
0
  6
CONTINUOUS
 62
     2
 10
201.5
 20
84.55
 30
0.0
 11
198.5
 21
84.55
 31
0.0
  0
LINE
  8
0
  6
CONTINUOUS
 62
     2
 10
201.75
 20
83.75
 30
0.0
 11
201.75
 21
84.3
 31
0.0
  0
LINE
  8
0
  6
CONTINUOUS
 62
     2
 10
201.5
 20
84.55
 30
0.0
 11
201.75
 21
84.3
 31
0.0
  0
LINE
  8
0
  6
CONTINUOUS
 62
     2
 10
201.75
 20
80.7
 30
0.0
 11
201.75
 21
81.25
 31
0.0
  0
LINE
  8
0
  6
CONTINUOUS
 62
     2
 10
198.5
 20
80.45
 30
0.0
 11
201.5
 21
80.45
 31
0.0
  0
LINE
  8
0
  6
CONTINUOUS
 62
     2
 10
201.75
 20
80.7
 30
0.0
 11
201.5
 21
80.45
 31
0.0
  0
LINE
  8
0
  6
CONTINUOUS
 62
     2
 10
197.85
 20
81.25
 30
0.0
 11
198.25
 21
81.25
 31
0.0
  0
LINE
  8
0
  6
CONTINUOUS
 62
     2
 10
197.85
 20
81.25
 30
0.0
 11
197.85
 21
83.75
 31
0.0
  0
LINE
  8
0
  6
CONTINUOUS
 62
     2
 10
197.85
 20
83.75
 30
0.0
 11
198.25
 21
83.75
 31
0.0
  0
LINE
  8
0
  6
CONTINUOUS
 62
     2
 10
202.15
 20
81.25
 30
0.0
 11
201.75
 21
81.25
 31
0.0
  0
LINE
  8
0
  6
CONTINUOUS
 62
     2
 10
202.15
 20
81.25
 30
0.0
 11
202.15
 21
83.75
 31
0.0
  0
LINE
  8
0
  6
CONTINUOUS
 62
     2
 10
202.15
 20
83.75
 30
0.0
 11
201.75
 21
83.75
 31
0.0
  0
LINE
  8
0
  6
CONTINUOUS
 62
     2
 10
202.15
 20
83.85
 30
0.0
 11
201.75
 21
83.85
 31
0.0
  0
ARC
  8
0
  6
CONTINUOUS
 62
     2
 10
202.15
 20
83.75
 30
0.0
 40
0.1
 50
0.0
 51
90.0
  0
LINE
  8
0
  6
CONTINUOUS
 62
     2
 10
201.75
 20
81.15
 30
0.0
 11
202.15
 21
81.15
 31
0.0
  0
LINE
  8
0
  6
CONTINUOUS
 62
     2
 10
202.25
 20
81.25
 30
0.0
 11
202.25
 21
83.75
 31
0.0
  0
ARC
  8
0
  6
CONTINUOUS
 62
     2
 10
202.15
 20
81.25
 30
0.0
 40
0.1
 50
270.0
 51
0.0
  0
LINE
  8
0
  6
CONTINUOUS
 62
     2
 10
197.85
 20
83.85
 30
0.0
 11
198.25
 21
83.85
 31
0.0
  0
ARC
  8
0
  6
CONTINUOUS
 62
     2
 10
197.85
 20
83.75
 30
0.0
 40
0.1
 50
90.0
 51
180.0
  0
LINE
  8
0
  6
CONTINUOUS
 62
     2
 10
198.25
 20
81.15
 30
0.0
 11
197.85
 21
81.15
 31
0.0
  0
ARC
  8
0
  6
CONTINUOUS
 62
     2
 10
197.85
 20
81.25
 30
0.0
 40
0.1
 50
180.0
 51
270.0
  0
LINE
  8
0
  6
CONTINUOUS
 62
     2
 10
197.75
 20
81.25
 30
0.0
 11
197.75
 21
83.75
 31
0.0
  0
LINE
  8
0
  6
CONTINUOUS
 62
     2
 10
198.25
 20
85.7
 30
0.0
 11
198.25
 21
86.25
 31
0.0
  0
LINE
  8
0
  6
CONTINUOUS
 62
     2
 10
198.25
 20
85.7
 30
0.0
 11
198.5
 21
85.45
 31
0.0
  0
LINE
  8
0
  6
CONTINUOUS
 62
     2
 10
198.25
 20
88.75
 30
0.0
 11
198.25
 21
89.3
 31
0.0
  0
LINE
  8
0
  6
CONTINUOUS
 62
     2
 10
198.25
 20
89.3
 30
0.0
 11
198.5
 21
89.55
 31
0.0
  0
LINE
  8
0
  6
CONTINUOUS
 62
     2
 10
201.5
 20
89.55
 30
0.0
 11
198.5
 21
89.55
 31
0.0
  0
LINE
  8
0
  6
CONTINUOUS
 62
     2
 10
201.75
 20
88.75
 30
0.0
 11
201.75
 21
89.3
 31
0.0
  0
LINE
  8
0
  6
CONTINUOUS
 62
     2
 10
201.5
 20
89.55
 30
0.0
 11
201.75
 21
89.3
 31
0.0
  0
LINE
  8
0
  6
CONTINUOUS
 62
     2
 10
201.75
 20
85.7
 30
0.0
 11
201.75
 21
86.25
 31
0.0
  0
LINE
  8
0
  6
CONTINUOUS
 62
     2
 10
198.5
 20
85.45
 30
0.0
 11
201.5
 21
85.45
 31
0.0
  0
LINE
  8
0
  6
CONTINUOUS
 62
     2
 10
201.75
 20
85.7
 30
0.0
 11
201.5
 21
85.45
 31
0.0
  0
LINE
  8
0
  6
CONTINUOUS
 62
     2
 10
197.85
 20
86.25
 30
0.0
 11
198.25
 21
86.25
 31
0.0
  0
LINE
  8
0
  6
CONTINUOUS
 62
     2
 10
197.85
 20
86.25
 30
0.0
 11
197.85
 21
88.75
 31
0.0
  0
LINE
  8
0
  6
CONTINUOUS
 62
     2
 10
197.85
 20
88.75
 30
0.0
 11
198.25
 21
88.75
 31
0.0
  0
LINE
  8
0
  6
CONTINUOUS
 62
     2
 10
202.15
 20
86.25
 30
0.0
 11
201.75
 21
86.25
 31
0.0
  0
LINE
  8
0
  6
CONTINUOUS
 62
     2
 10
202.15
 20
86.25
 30
0.0
 11
202.15
 21
88.75
 31
0.0
  0
LINE
  8
0
  6
CONTINUOUS
 62
     2
 10
202.15
 20
88.75
 30
0.0
 11
201.75
 21
88.75
 31
0.0
  0
LINE
  8
0
  6
CONTINUOUS
 62
     2
 10
202.15
 20
88.85
 30
0.0
 11
201.75
 21
88.85
 31
0.0
  0
ARC
  8
0
  6
CONTINUOUS
 62
     2
 10
202.15
 20
88.75
 30
0.0
 40
0.1
 50
0.0
 51
90.0
  0
LINE
  8
0
  6
CONTINUOUS
 62
     2
 10
201.75
 20
86.15
 30
0.0
 11
202.15
 21
86.15
 31
0.0
  0
LINE
  8
0
  6
CONTINUOUS
 62
     2
 10
202.25
 20
86.25
 30
0.0
 11
202.25
 21
88.75
 31
0.0
  0
ARC
  8
0
  6
CONTINUOUS
 62
     2
 10
202.15
 20
86.25
 30
0.0
 40
0.1
 50
270.0
 51
0.0
  0
LINE
  8
0
  6
CONTINUOUS
 62
     2
 10
197.85
 20
88.85
 30
0.0
 11
198.25
 21
88.85
 31
0.0
  0
ARC
  8
0
  6
CONTINUOUS
 62
     2
 10
197.85
 20
88.75
 30
0.0
 40
0.1
 50
90.0
 51
180.0
  0
LINE
  8
0
  6
CONTINUOUS
 62
     2
 10
198.25
 20
86.15
 30
0.0
 11
197.85
 21
86.15
 31
0.0
  0
ARC
  8
0
  6
CONTINUOUS
 62
     2
 10
197.85
 20
86.25
 30
0.0
 40
0.1
 50
180.0
 51
270.0
  0
LINE
  8
0
  6
CONTINUOUS
 62
     2
 10
197.75
 20
86.25
 30
0.0
 11
197.75
 21
88.75
 31
0.0
  0
LINE
  8
0
  6
CONTINUOUS
 62
     2
 10
198.25
 20
90.7
 30
0.0
 11
198.25
 21
91.25
 31
0.0
  0
LINE
  8
0
  6
CONTINUOUS
 62
     2
 10
198.25
 20
90.7
 30
0.0
 11
198.5
 21
90.45
 31
0.0
  0
LINE
  8
0
  6
CONTINUOUS
 62
     2
 10
198.25
 20
93.75
 30
0.0
 11
198.25
 21
94.3
 31
0.0
  0
LINE
  8
0
  6
CONTINUOUS
 62
     2
 10
198.25
 20
94.3
 30
0.0
 11
198.5
 21
94.55
 31
0.0
  0
LINE
  8
0
  6
CONTINUOUS
 62
     2
 10
201.5
 20
94.55
 30
0.0
 11
198.5
 21
94.55
 31
0.0
  0
LINE
  8
0
  6
CONTINUOUS
 62
     2
 10
201.75
 20
93.75
 30
0.0
 11
201.75
 21
94.3
 31
0.0
  0
LINE
  8
0
  6
CONTINUOUS
 62
     2
 10
201.5
 20
94.55
 30
0.0
 11
201.75
 21
94.3
 31
0.0
  0
LINE
  8
0
  6
CONTINUOUS
 62
     2
 10
201.75
 20
90.7
 30
0.0
 11
201.75
 21
91.25
 31
0.0
  0
LINE
  8
0
  6
CONTINUOUS
 62
     2
 10
198.5
 20
90.45
 30
0.0
 11
201.5
 21
90.45
 31
0.0
  0
LINE
  8
0
  6
CONTINUOUS
 62
     2
 10
201.75
 20
90.7
 30
0.0
 11
201.5
 21
90.45
 31
0.0
  0
LINE
  8
0
  6
CONTINUOUS
 62
     2
 10
197.85
 20
91.25
 30
0.0
 11
198.25
 21
91.25
 31
0.0
  0
LINE
  8
0
  6
CONTINUOUS
 62
     2
 10
197.85
 20
91.25
 30
0.0
 11
197.85
 21
93.75
 31
0.0
  0
LINE
  8
0
  6
CONTINUOUS
 62
     2
 10
197.85
 20
93.75
 30
0.0
 11
198.25
 21
93.75
 31
0.0
  0
LINE
  8
0
  6
CONTINUOUS
 62
     2
 10
202.15
 20
91.25
 30
0.0
 11
201.75
 21
91.25
 31
0.0
  0
LINE
  8
0
  6
CONTINUOUS
 62
     2
 10
202.15
 20
91.25
 30
0.0
 11
202.15
 21
93.75
 31
0.0
  0
LINE
  8
0
  6
CONTINUOUS
 62
     2
 10
202.15
 20
93.75
 30
0.0
 11
201.75
 21
93.75
 31
0.0
  0
LINE
  8
0
  6
CONTINUOUS
 62
     2
 10
202.15
 20
93.85
 30
0.0
 11
201.75
 21
93.85
 31
0.0
  0
ARC
  8
0
  6
CONTINUOUS
 62
     2
 10
202.15
 20
93.75
 30
0.0
 40
0.1
 50
0.0
 51
90.0
  0
LINE
  8
0
  6
CONTINUOUS
 62
     2
 10
201.75
 20
91.15
 30
0.0
 11
202.15
 21
91.15
 31
0.0
  0
LINE
  8
0
  6
CONTINUOUS
 62
     2
 10
202.25
 20
91.25
 30
0.0
 11
202.25
 21
93.75
 31
0.0
  0
ARC
  8
0
  6
CONTINUOUS
 62
     2
 10
202.15
 20
91.25
 30
0.0
 40
0.1
 50
270.0
 51
0.0
  0
LINE
  8
0
  6
CONTINUOUS
 62
     2
 10
197.85
 20
93.85
 30
0.0
 11
198.25
 21
93.85
 31
0.0
  0
ARC
  8
0
  6
CONTINUOUS
 62
     2
 10
197.85
 20
93.75
 30
0.0
 40
0.1
 50
90.0
 51
180.0
  0
LINE
  8
0
  6
CONTINUOUS
 62
     2
 10
198.25
 20
91.15
 30
0.0
 11
197.85
 21
91.15
 31
0.0
  0
ARC
  8
0
  6
CONTINUOUS
 62
     2
 10
197.85
 20
91.25
 30
0.0
 40
0.1
 50
180.0
 51
270.0
  0
LINE
  8
0
  6
CONTINUOUS
 62
     2
 10
197.75
 20
91.25
 30
0.0
 11
197.75
 21
93.75
 31
0.0
  0
LINE
  8
0
  6
CONTINUOUS
 62
     2
 10
198.25
 20
95.7
 30
0.0
 11
198.25
 21
96.25
 31
0.0
  0
LINE
  8
0
  6
CONTINUOUS
 62
     2
 10
198.25
 20
95.7
 30
0.0
 11
198.5
 21
95.45
 31
0.0
  0
LINE
  8
0
  6
CONTINUOUS
 62
     2
 10
198.25
 20
98.75
 30
0.0
 11
198.25
 21
99.3
 31
0.0
  0
LINE
  8
0
  6
CONTINUOUS
 62
     2
 10
198.25
 20
99.3
 30
0.0
 11
198.5
 21
99.55
 31
0.0
  0
LINE
  8
0
  6
CONTINUOUS
 62
     2
 10
201.5
 20
99.55
 30
0.0
 11
198.5
 21
99.55
 31
0.0
  0
LINE
  8
0
  6
CONTINUOUS
 62
     2
 10
201.75
 20
98.75
 30
0.0
 11
201.75
 21
99.3
 31
0.0
  0
LINE
  8
0
  6
CONTINUOUS
 62
     2
 10
201.5
 20
99.55
 30
0.0
 11
201.75
 21
99.3
 31
0.0
  0
LINE
  8
0
  6
CONTINUOUS
 62
     2
 10
201.75
 20
95.7
 30
0.0
 11
201.75
 21
96.25
 31
0.0
  0
LINE
  8
0
  6
CONTINUOUS
 62
     2
 10
198.5
 20
95.45
 30
0.0
 11
201.5
 21
95.45
 31
0.0
  0
LINE
  8
0
  6
CONTINUOUS
 62
     2
 10
201.75
 20
95.7
 30
0.0
 11
201.5
 21
95.45
 31
0.0
  0
LINE
  8
0
  6
CONTINUOUS
 62
     2
 10
197.85
 20
96.25
 30
0.0
 11
198.25
 21
96.25
 31
0.0
  0
LINE
  8
0
  6
CONTINUOUS
 62
     2
 10
197.85
 20
96.25
 30
0.0
 11
197.85
 21
98.75
 31
0.0
  0
LINE
  8
0
  6
CONTINUOUS
 62
     2
 10
197.85
 20
98.75
 30
0.0
 11
198.25
 21
98.75
 31
0.0
  0
LINE
  8
0
  6
CONTINUOUS
 62
     2
 10
202.15
 20
96.25
 30
0.0
 11
201.75
 21
96.25
 31
0.0
  0
LINE
  8
0
  6
CONTINUOUS
 62
     2
 10
202.15
 20
96.25
 30
0.0
 11
202.15
 21
98.75
 31
0.0
  0
LINE
  8
0
  6
CONTINUOUS
 62
     2
 10
202.15
 20
98.75
 30
0.0
 11
201.75
 21
98.75
 31
0.0
  0
LINE
  8
0
  6
CONTINUOUS
 62
     2
 10
202.15
 20
98.85
 30
0.0
 11
201.75
 21
98.85
 31
0.0
  0
ARC
  8
0
  6
CONTINUOUS
 62
     2
 10
202.15
 20
98.75
 30
0.0
 40
0.1
 50
0.0
 51
90.0
  0
LINE
  8
0
  6
CONTINUOUS
 62
     2
 10
201.75
 20
96.15
 30
0.0
 11
202.15
 21
96.15
 31
0.0
  0
LINE
  8
0
  6
CONTINUOUS
 62
     2
 10
202.25
 20
96.25
 30
0.0
 11
202.25
 21
98.75
 31
0.0
  0
ARC
  8
0
  6
CONTINUOUS
 62
     2
 10
202.15
 20
96.25
 30
0.0
 40
0.1
 50
270.0
 51
0.0
  0
LINE
  8
0
  6
CONTINUOUS
 62
     2
 10
197.85
 20
98.85
 30
0.0
 11
198.25
 21
98.85
 31
0.0
  0
ARC
  8
0
  6
CONTINUOUS
 62
     2
 10
197.85
 20
98.75
 30
0.0
 40
0.1
 50
90.0
 51
180.0
  0
LINE
  8
0
  6
CONTINUOUS
 62
     2
 10
198.25
 20
96.15
 30
0.0
 11
197.85
 21
96.15
 31
0.0
  0
ARC
  8
0
  6
CONTINUOUS
 62
     2
 10
197.85
 20
96.25
 30
0.0
 40
0.1
 50
180.0
 51
270.0
  0
LINE
  8
0
  6
CONTINUOUS
 62
     2
 10
197.75
 20
96.25
 30
0.0
 11
197.75
 21
98.75
 31
0.0
  0
CIRCLE
  8
0
  6
CONTINUOUS
 62
     2
 10
200.0
 20
72.5
 30
0.0
 40
1.5
  0
LINE
  8
0
  6
CONTINUOUS
 62
     2
 10
200.875
 20
72.3
 30
0.0
 11
200.4
 21
72.3
 31
0.0
  0
ARC
  8
0
  6
CONTINUOUS
 62
     2
 10
200.4
 20
72.1
 30
0.0
 40
0.2
 50
90.0
 51
180.0
  0
LINE
  8
0
  6
CONTINUOUS
 62
     2
 10
200.2
 20
72.1
 30
0.0
 11
200.2
 21
71.625
 31
0.0
  0
LINE
  8
0
  6
CONTINUOUS
 62
     2
 10
200.2
 20
71.625
 30
0.0
 11
199.8
 21
71.625
 31
0.0
  0
LINE
  8
0
  6
CONTINUOUS
 62
     2
 10
199.8
 20
71.625
 30
0.0
 11
199.8
 21
72.1
 31
0.0
  0
ARC
  8
0
  6
CONTINUOUS
 62
     2
 10
199.6
 20
72.1
 30
0.0
 40
0.2
 50
0.0
 51
90.0
  0
LINE
  8
0
  6
CONTINUOUS
 62
     2
 10
199.6
 20
72.3
 30
0.0
 11
199.125
 21
72.3
 31
0.0
  0
LINE
  8
0
  6
CONTINUOUS
 62
     2
 10
199.125
 20
72.3
 30
0.0
 11
199.125
 21
72.7
 31
0.0
  0
LINE
  8
0
  6
CONTINUOUS
 62
     2
 10
199.125
 20
72.7
 30
0.0
 11
199.6
 21
72.7
 31
0.0
  0
ARC
  8
0
  6
CONTINUOUS
 62
     2
 10
199.6
 20
72.9
 30
0.0
 40
0.2
 50
270.0
 51
0.0
  0
LINE
  8
0
  6
CONTINUOUS
 62
     2
 10
199.8
 20
72.9
 30
0.0
 11
199.8
 21
73.375
 31
0.0
  0
LINE
  8
0
  6
CONTINUOUS
 62
     2
 10
199.8
 20
73.375
 30
0.0
 11
200.2
 21
73.375
 31
0.0
  0
LINE
  8
0
  6
CONTINUOUS
 62
     2
 10
200.2
 20
73.375
 30
0.0
 11
200.2
 21
72.9
 31
0.0
  0
ARC
  8
0
  6
CONTINUOUS
 62
     2
 10
200.4
 20
72.9
 30
0.0
 40
0.2
 50
180.0
 51
270.0
  0
LINE
  8
0
  6
CONTINUOUS
 62
     2
 10
200.4
 20
72.7
 30
0.0
 11
200.875
 21
72.7
 31
0.0
  0
LINE
  8
0
  6
CONTINUOUS
 62
     2
 10
200.875
 20
72.7
 30
0.0
 11
200.875
 21
72.3
 31
0.0
  0
LINE
  8
0
  6
LTYPE1
 62
     2
 10
202.0
 20
72.5
 30
0.0
 11
198.0
 21
72.5
 31
0.0
  0
LINE
  8
0
  6
LTYPE1
 62
     2
 10
200.0
 20
70.5
 30
0.0
 11
200.0
 21
74.5
 31
0.0
  0
CIRCLE
  8
0
  6
CONTINUOUS
 62
     2
 10
200.0
 20
77.5
 30
0.0
 40
1.5
  0
LINE
  8
0
  6
CONTINUOUS
 62
     2
 10
200.875
 20
77.3
 30
0.0
 11
200.4
 21
77.3
 31
0.0
  0
ARC
  8
0
  6
CONTINUOUS
 62
     2
 10
200.4
 20
77.1
 30
0.0
 40
0.2
 50
90.0
 51
180.0
  0
LINE
  8
0
  6
CONTINUOUS
 62
     2
 10
200.2
 20
77.1
 30
0.0
 11
200.2
 21
76.625
 31
0.0
  0
LINE
  8
0
  6
CONTINUOUS
 62
     2
 10
200.2
 20
76.625
 30
0.0
 11
199.8
 21
76.625
 31
0.0
  0
LINE
  8
0
  6
CONTINUOUS
 62
     2
 10
199.8
 20
76.625
 30
0.0
 11
199.8
 21
77.1
 31
0.0
  0
ARC
  8
0
  6
CONTINUOUS
 62
     2
 10
199.6
 20
77.1
 30
0.0
 40
0.2
 50
0.0
 51
90.0
  0
LINE
  8
0
  6
CONTINUOUS
 62
     2
 10
199.6
 20
77.3
 30
0.0
 11
199.125
 21
77.3
 31
0.0
  0
LINE
  8
0
  6
CONTINUOUS
 62
     2
 10
199.125
 20
77.3
 30
0.0
 11
199.125
 21
77.7
 31
0.0
  0
LINE
  8
0
  6
CONTINUOUS
 62
     2
 10
199.125
 20
77.7
 30
0.0
 11
199.6
 21
77.7
 31
0.0
  0
ARC
  8
0
  6
CONTINUOUS
 62
     2
 10
199.6
 20
77.9
 30
0.0
 40
0.2
 50
270.0
 51
0.0
  0
LINE
  8
0
  6
CONTINUOUS
 62
     2
 10
199.8
 20
77.9
 30
0.0
 11
199.8
 21
78.375
 31
0.0
  0
LINE
  8
0
  6
CONTINUOUS
 62
     2
 10
199.8
 20
78.375
 30
0.0
 11
200.2
 21
78.375
 31
0.0
  0
LINE
  8
0
  6
CONTINUOUS
 62
     2
 10
200.2
 20
78.375
 30
0.0
 11
200.2
 21
77.9
 31
0.0
  0
ARC
  8
0
  6
CONTINUOUS
 62
     2
 10
200.4
 20
77.9
 30
0.0
 40
0.2
 50
180.0
 51
270.0
  0
LINE
  8
0
  6
CONTINUOUS
 62
     2
 10
200.4
 20
77.7
 30
0.0
 11
200.875
 21
77.7
 31
0.0
  0
LINE
  8
0
  6
CONTINUOUS
 62
     2
 10
200.875
 20
77.7
 30
0.0
 11
200.875
 21
77.3
 31
0.0
  0
LINE
  8
0
  6
LTYPE1
 62
     2
 10
202.0
 20
77.5
 30
0.0
 11
198.0
 21
77.5
 31
0.0
  0
LINE
  8
0
  6
LTYPE1
 62
     2
 10
200.0
 20
75.5
 30
0.0
 11
200.0
 21
79.5
 31
0.0
  0
CIRCLE
  8
0
  6
CONTINUOUS
 62
     2
 10
200.0
 20
82.5
 30
0.0
 40
1.5
  0
LINE
  8
0
  6
CONTINUOUS
 62
     2
 10
200.875
 20
82.3
 30
0.0
 11
200.4
 21
82.3
 31
0.0
  0
ARC
  8
0
  6
CONTINUOUS
 62
     2
 10
200.4
 20
82.1
 30
0.0
 40
0.2
 50
90.0
 51
180.0
  0
LINE
  8
0
  6
CONTINUOUS
 62
     2
 10
200.2
 20
82.1
 30
0.0
 11
200.2
 21
81.625
 31
0.0
  0
LINE
  8
0
  6
CONTINUOUS
 62
     2
 10
200.2
 20
81.625
 30
0.0
 11
199.8
 21
81.625
 31
0.0
  0
LINE
  8
0
  6
CONTINUOUS
 62
     2
 10
199.8
 20
81.625
 30
0.0
 11
199.8
 21
82.1
 31
0.0
  0
ARC
  8
0
  6
CONTINUOUS
 62
     2
 10
199.6
 20
82.1
 30
0.0
 40
0.2
 50
0.0
 51
90.0
  0
LINE
  8
0
  6
CONTINUOUS
 62
     2
 10
199.6
 20
82.3
 30
0.0
 11
199.125
 21
82.3
 31
0.0
  0
LINE
  8
0
  6
CONTINUOUS
 62
     2
 10
199.125
 20
82.3
 30
0.0
 11
199.125
 21
82.7
 31
0.0
  0
LINE
  8
0
  6
CONTINUOUS
 62
     2
 10
199.125
 20
82.7
 30
0.0
 11
199.6
 21
82.7
 31
0.0
  0
ARC
  8
0
  6
CONTINUOUS
 62
     2
 10
199.6
 20
82.9
 30
0.0
 40
0.2
 50
270.0
 51
0.0
  0
LINE
  8
0
  6
CONTINUOUS
 62
     2
 10
199.8
 20
82.9
 30
0.0
 11
199.8
 21
83.375
 31
0.0
  0
LINE
  8
0
  6
CONTINUOUS
 62
     2
 10
199.8
 20
83.375
 30
0.0
 11
200.2
 21
83.375
 31
0.0
  0
LINE
  8
0
  6
CONTINUOUS
 62
     2
 10
200.2
 20
83.375
 30
0.0
 11
200.2
 21
82.9
 31
0.0
  0
ARC
  8
0
  6
CONTINUOUS
 62
     2
 10
200.4
 20
82.9
 30
0.0
 40
0.2
 50
180.0
 51
270.0
  0
LINE
  8
0
  6
CONTINUOUS
 62
     2
 10
200.4
 20
82.7
 30
0.0
 11
200.875
 21
82.7
 31
0.0
  0
LINE
  8
0
  6
CONTINUOUS
 62
     2
 10
200.875
 20
82.7
 30
0.0
 11
200.875
 21
82.3
 31
0.0
  0
LINE
  8
0
  6
LTYPE1
 62
     2
 10
202.0
 20
82.5
 30
0.0
 11
198.0
 21
82.5
 31
0.0
  0
LINE
  8
0
  6
LTYPE1
 62
     2
 10
200.0
 20
80.5
 30
0.0
 11
200.0
 21
84.5
 31
0.0
  0
CIRCLE
  8
0
  6
CONTINUOUS
 62
     2
 10
200.0
 20
87.5
 30
0.0
 40
1.5
  0
LINE
  8
0
  6
CONTINUOUS
 62
     2
 10
200.875
 20
87.3
 30
0.0
 11
200.4
 21
87.3
 31
0.0
  0
ARC
  8
0
  6
CONTINUOUS
 62
     2
 10
200.4
 20
87.1
 30
0.0
 40
0.2
 50
90.0
 51
180.0
  0
LINE
  8
0
  6
CONTINUOUS
 62
     2
 10
200.2
 20
87.1
 30
0.0
 11
200.2
 21
86.625
 31
0.0
  0
LINE
  8
0
  6
CONTINUOUS
 62
     2
 10
200.2
 20
86.625
 30
0.0
 11
199.8
 21
86.625
 31
0.0
  0
LINE
  8
0
  6
CONTINUOUS
 62
     2
 10
199.8
 20
86.625
 30
0.0
 11
199.8
 21
87.1
 31
0.0
  0
ARC
  8
0
  6
CONTINUOUS
 62
     2
 10
199.6
 20
87.1
 30
0.0
 40
0.2
 50
0.0
 51
90.0
  0
LINE
  8
0
  6
CONTINUOUS
 62
     2
 10
199.6
 20
87.3
 30
0.0
 11
199.125
 21
87.3
 31
0.0
  0
LINE
  8
0
  6
CONTINUOUS
 62
     2
 10
199.125
 20
87.3
 30
0.0
 11
199.125
 21
87.7
 31
0.0
  0
LINE
  8
0
  6
CONTINUOUS
 62
     2
 10
199.125
 20
87.7
 30
0.0
 11
199.6
 21
87.7
 31
0.0
  0
ARC
  8
0
  6
CONTINUOUS
 62
     2
 10
199.6
 20
87.9
 30
0.0
 40
0.2
 50
270.0
 51
0.0
  0
LINE
  8
0
  6
CONTINUOUS
 62
     2
 10
199.8
 20
87.9
 30
0.0
 11
199.8
 21
88.375
 31
0.0
  0
LINE
  8
0
  6
CONTINUOUS
 62
     2
 10
199.8
 20
88.375
 30
0.0
 11
200.2
 21
88.375
 31
0.0
  0
LINE
  8
0
  6
CONTINUOUS
 62
     2
 10
200.2
 20
88.375
 30
0.0
 11
200.2
 21
87.9
 31
0.0
  0
ARC
  8
0
  6
CONTINUOUS
 62
     2
 10
200.4
 20
87.9
 30
0.0
 40
0.2
 50
180.0
 51
270.0
  0
LINE
  8
0
  6
CONTINUOUS
 62
     2
 10
200.4
 20
87.7
 30
0.0
 11
200.875
 21
87.7
 31
0.0
  0
LINE
  8
0
  6
CONTINUOUS
 62
     2
 10
200.875
 20
87.7
 30
0.0
 11
200.875
 21
87.3
 31
0.0
  0
LINE
  8
0
  6
LTYPE1
 62
     2
 10
202.0
 20
87.5
 30
0.0
 11
198.0
 21
87.5
 31
0.0
  0
LINE
  8
0
  6
LTYPE1
 62
     2
 10
200.0
 20
85.5
 30
0.0
 11
200.0
 21
89.5
 31
0.0
  0
CIRCLE
  8
0
  6
CONTINUOUS
 62
     2
 10
200.0
 20
92.5
 30
0.0
 40
1.5
  0
LINE
  8
0
  6
CONTINUOUS
 62
     2
 10
200.875
 20
92.3
 30
0.0
 11
200.4
 21
92.3
 31
0.0
  0
ARC
  8
0
  6
CONTINUOUS
 62
     2
 10
200.4
 20
92.1
 30
0.0
 40
0.2
 50
90.0
 51
180.0
  0
LINE
  8
0
  6
CONTINUOUS
 62
     2
 10
200.2
 20
92.1
 30
0.0
 11
200.2
 21
91.625
 31
0.0
  0
LINE
  8
0
  6
CONTINUOUS
 62
     2
 10
200.2
 20
91.625
 30
0.0
 11
199.8
 21
91.625
 31
0.0
  0
LINE
  8
0
  6
CONTINUOUS
 62
     2
 10
199.8
 20
91.625
 30
0.0
 11
199.8
 21
92.1
 31
0.0
  0
ARC
  8
0
  6
CONTINUOUS
 62
     2
 10
199.6
 20
92.1
 30
0.0
 40
0.2
 50
0.0
 51
90.0
  0
LINE
  8
0
  6
CONTINUOUS
 62
     2
 10
199.6
 20
92.3
 30
0.0
 11
199.125
 21
92.3
 31
0.0
  0
LINE
  8
0
  6
CONTINUOUS
 62
     2
 10
199.125
 20
92.3
 30
0.0
 11
199.125
 21
92.7
 31
0.0
  0
LINE
  8
0
  6
CONTINUOUS
 62
     2
 10
199.125
 20
92.7
 30
0.0
 11
199.6
 21
92.7
 31
0.0
  0
ARC
  8
0
  6
CONTINUOUS
 62
     2
 10
199.6
 20
92.9
 30
0.0
 40
0.2
 50
270.0
 51
0.0
  0
LINE
  8
0
  6
CONTINUOUS
 62
     2
 10
199.8
 20
92.9
 30
0.0
 11
199.8
 21
93.375
 31
0.0
  0
LINE
  8
0
  6
CONTINUOUS
 62
     2
 10
199.8
 20
93.375
 30
0.0
 11
200.2
 21
93.375
 31
0.0
  0
LINE
  8
0
  6
CONTINUOUS
 62
     2
 10
200.2
 20
93.375
 30
0.0
 11
200.2
 21
92.9
 31
0.0
  0
ARC
  8
0
  6
CONTINUOUS
 62
     2
 10
200.4
 20
92.9
 30
0.0
 40
0.2
 50
180.0
 51
270.0
  0
LINE
  8
0
  6
CONTINUOUS
 62
     2
 10
200.4
 20
92.7
 30
0.0
 11
200.875
 21
92.7
 31
0.0
  0
LINE
  8
0
  6
CONTINUOUS
 62
     2
 10
200.875
 20
92.7
 30
0.0
 11
200.875
 21
92.3
 31
0.0
  0
LINE
  8
0
  6
LTYPE1
 62
     2
 10
202.0
 20
92.5
 30
0.0
 11
198.0
 21
92.5
 31
0.0
  0
LINE
  8
0
  6
LTYPE1
 62
     2
 10
200.0
 20
90.5
 30
0.0
 11
200.0
 21
94.5
 31
0.0
  0
CIRCLE
  8
0
  6
CONTINUOUS
 62
     2
 10
200.0
 20
97.5
 30
0.0
 40
1.5
  0
LINE
  8
0
  6
CONTINUOUS
 62
     2
 10
200.875
 20
97.3
 30
0.0
 11
200.4
 21
97.3
 31
0.0
  0
ARC
  8
0
  6
CONTINUOUS
 62
     2
 10
200.4
 20
97.1
 30
0.0
 40
0.2
 50
90.0
 51
180.0
  0
LINE
  8
0
  6
CONTINUOUS
 62
     2
 10
200.2
 20
97.1
 30
0.0
 11
200.2
 21
96.625
 31
0.0
  0
LINE
  8
0
  6
CONTINUOUS
 62
     2
 10
200.2
 20
96.625
 30
0.0
 11
199.8
 21
96.625
 31
0.0
  0
LINE
  8
0
  6
CONTINUOUS
 62
     2
 10
199.8
 20
96.625
 30
0.0
 11
199.8
 21
97.1
 31
0.0
  0
ARC
  8
0
  6
CONTINUOUS
 62
     2
 10
199.6
 20
97.1
 30
0.0
 40
0.2
 50
0.0
 51
90.0
  0
LINE
  8
0
  6
CONTINUOUS
 62
     2
 10
199.6
 20
97.3
 30
0.0
 11
199.125
 21
97.3
 31
0.0
  0
LINE
  8
0
  6
CONTINUOUS
 62
     2
 10
199.125
 20
97.3
 30
0.0
 11
199.125
 21
97.7
 31
0.0
  0
LINE
  8
0
  6
CONTINUOUS
 62
     2
 10
199.125
 20
97.7
 30
0.0
 11
199.6
 21
97.7
 31
0.0
  0
ARC
  8
0
  6
CONTINUOUS
 62
     2
 10
199.6
 20
97.9
 30
0.0
 40
0.2
 50
270.0
 51
0.0
  0
LINE
  8
0
  6
CONTINUOUS
 62
     2
 10
199.8
 20
97.9
 30
0.0
 11
199.8
 21
98.375
 31
0.0
  0
LINE
  8
0
  6
CONTINUOUS
 62
     2
 10
199.8
 20
98.375
 30
0.0
 11
200.2
 21
98.375
 31
0.0
  0
LINE
  8
0
  6
CONTINUOUS
 62
     2
 10
200.2
 20
98.375
 30
0.0
 11
200.2
 21
97.9
 31
0.0
  0
ARC
  8
0
  6
CONTINUOUS
 62
     2
 10
200.4
 20
97.9
 30
0.0
 40
0.2
 50
180.0
 51
270.0
  0
LINE
  8
0
  6
CONTINUOUS
 62
     2
 10
200.4
 20
97.7
 30
0.0
 11
200.875
 21
97.7
 31
0.0
  0
LINE
  8
0
  6
CONTINUOUS
 62
     2
 10
200.875
 20
97.7
 30
0.0
 11
200.875
 21
97.3
 31
0.0
  0
LINE
  8
0
  6
LTYPE1
 62
     2
 10
202.0
 20
97.5
 30
0.0
 11
198.0
 21
97.5
 31
0.0
  0
LINE
  8
0
  6
LTYPE1
 62
     2
 10
200.0
 20
95.5
 30
0.0
 11
200.0
 21
99.5
 31
0.0
  0
LINE
  8
0
  6
CONTINUOUS
 62
     2
 10
204.7
 20
74.4
 30
0.0
 11
204.7
 21
95.6
 31
0.0
  0
LINE
  8
0
  6
CONTINUOUS
 62
     2
 10
204.7
 20
95.6
 30
0.0
 11
195.3
 21
95.6
 31
0.0
  0
LINE
  8
0
  6
CONTINUOUS
 62
     2
 10
195.3
 20
95.6
 30
0.0
 11
195.3
 21
74.4
 31
0.0
  0
LINE
  8
0
  6
CONTINUOUS
 62
     2
 10
195.3
 20
74.4
 30
0.0
 11
204.7
 21
74.4
 31
0.0
  0
LINE
  8
0
  6
CONTINUOUS
 62
     1
 10
193.75
 20
133.25
 30
0.0
 11
193.75
 21
128.25
 31
0.0
  0
LINE
  8
0
  6
CONTINUOUS
 62
     1
 10
206.25
 20
133.25
 30
0.0
 11
206.25
 21
128.25
 31
0.0
  0
CIRCLE
  8
0
  6
CONTINUOUS
 62
     1
 10
200.0
 20
131.25
 30
0.0
 40
1.275
  0
LINE
  8
0
  6
CONTINUOUS
 62
     1
 10
195.75
 20
133.25
 30
0.0
 11
195.75
 21
128.25
 31
0.0
  0
LINE
  8
0
  6
CONTINUOUS
 62
     1
 10
204.25
 20
133.25
 30
0.0
 11
204.25
 21
128.25
 31
0.0
  0
LINE
  8
0
  6
CONTINUOUS
 62
     1
 10
200.0
 20
133.500000962
 30
0.0
 11
198.051442841
 21
132.375000962
 31
0.0
  0
LINE
  8
0
  6
CONTINUOUS
 62
     1
 10
198.051442841
 20
132.375000962
 30
0.0
 11
198.051442841
 21
130.125000962
 31
0.0
  0
LINE
  8
0
  6
CONTINUOUS
 62
     1
 10
198.051442841
 20
130.125000962
 30
0.0
 11
200.0
 21
129.000000962
 31
0.0
  0
LINE
  8
0
  6
CONTINUOUS
 62
     1
 10
200.0
 20
129.000000962
 30
0.0
 11
201.948557159
 21
130.125000962
 31
0.0
  0
LINE
  8
0
  6
CONTINUOUS
 62
     1
 10
201.948557159
 20
130.125000962
 30
0.0
 11
201.948557159
 21
132.375000962
 31
0.0
  0
LINE
  8
0
  6
CONTINUOUS
 62
     1
 10
201.948557159
 20
132.375000962
 30
0.0
 11
200.0
 21
133.500000962
 31
0.0
  0
LINE
  8
0
  6
CONTINUOUS
 62
     1
 10
200.433014368
 20
133.25
 30
0.0
 11
206.25
 21
133.25
 31
0.0
  0
LINE
  8
0
  6
CONTINUOUS
 62
     1
 10
193.75
 20
133.25
 30
0.0
 11
199.566985632
 21
133.25
 31
0.0
  0
ARC
  8
0
  6
CONTINUOUS
 62
     2
 10
200.0
 20
131.25
 30
0.0
 40
1.02
 50
23.088831181
 51
156.911168819
  0
ARC
  8
0
  6
CONTINUOUS
 62
     2
 10
200.0
 20
131.25
 30
0.0
 40
1.02
 50
203.088731761
 51
336.911268239
  0
LINE
  8
0
  6
CONTINUOUS
 62
     2
 10
198.789370317
 20
131.650000962
 30
0.0
 11
201.210629683
 21
131.650000962
 31
0.0
  0
LINE
  8
0
  6
CONTINUOUS
 62
     2
 10
198.789369681
 20
130.850000962
 30
0.0
 11
201.210630319
 21
130.850000962
 31
0.0
  0
LINE
  8
0
  6
CONTINUOUS
 62
     1
 10
206.25
 20
130.0
 30
0.0
 11
210.0
 21
130.0
 31
0.0
  0
LINE
  8
0
  6
CONTINUOUS
 62
     1
 10
190.0
 20
130.0
 30
0.0
 11
193.75
 21
130.0
 31
0.0
  0
LINE
  8
0
  6
CONTINUOUS
 62
     1
 10
193.75
 20
41.75
 30
0.0
 11
193.75
 21
46.75
 31
0.0
  0
LINE
  8
0
  6
CONTINUOUS
 62
     1
 10
206.25
 20
41.75
 30
0.0
 11
206.25
 21
46.75
 31
0.0
  0
CIRCLE
  8
0
  6
CONTINUOUS
 62
     1
 10
200.0
 20
43.75
 30
0.0
 40
1.275
  0
LINE
  8
0
  6
CONTINUOUS
 62
     1
 10
195.75
 20
41.75
 30
0.0
 11
195.75
 21
46.75
 31
0.0
  0
LINE
  8
0
  6
CONTINUOUS
 62
     1
 10
204.25
 20
41.75
 30
0.0
 11
204.25
 21
46.75
 31
0.0
  0
LINE
  8
0
  6
CONTINUOUS
 62
     1
 10
200.0
 20
41.499999038
 30
0.0
 11
198.051442841
 21
42.624999038
 31
0.0
  0
LINE
  8
0
  6
CONTINUOUS
 62
     1
 10
198.051442841
 20
42.624999038
 30
0.0
 11
198.051442841
 21
44.874999038
 31
0.0
  0
LINE
  8
0
  6
CONTINUOUS
 62
     1
 10
198.051442841
 20
44.874999038
 30
0.0
 11
200.0
 21
45.999999038
 31
0.0
  0
LINE
  8
0
  6
CONTINUOUS
 62
     1
 10
200.0
 20
45.999999038
 30
0.0
 11
201.948557159
 21
44.874999038
 31
0.0
  0
LINE
  8
0
  6
CONTINUOUS
 62
     1
 10
201.948557159
 20
44.874999038
 30
0.0
 11
201.948557159
 21
42.624999038
 31
0.0
  0
LINE
  8
0
  6
CONTINUOUS
 62
     1
 10
201.948557159
 20
42.624999038
 30
0.0
 11
200.0
 21
41.499999038
 31
0.0
  0
LINE
  8
0
  6
CONTINUOUS
 62
     1
 10
200.433014368
 20
41.75
 30
0.0
 11
206.25
 21
41.75
 31
0.0
  0
LINE
  8
0
  6
CONTINUOUS
 62
     1
 10
193.75
 20
41.75
 30
0.0
 11
199.566985632
 21
41.75
 31
0.0
  0
ARC
  8
0
  6
CONTINUOUS
 62
     2
 10
200.0
 20
43.75
 30
0.0
 40
1.02
 50
203.088831181
 51
336.911168819
  0
ARC
  8
0
  6
CONTINUOUS
 62
     2
 10
200.0
 20
43.75
 30
0.0
 40
1.02
 50
23.088731761
 51
156.911268239
  0
LINE
  8
0
  6
CONTINUOUS
 62
     2
 10
198.789370317
 20
43.349999038
 30
0.0
 11
201.210629683
 21
43.349999038
 31
0.0
  0
LINE
  8
0
  6
CONTINUOUS
 62
     2
 10
198.789369681
 20
44.149999038
 30
0.0
 11
201.210630319
 21
44.149999038
 31
0.0
  0
LINE
  8
0
  6
CONTINUOUS
 62
     1
 10
206.25
 20
45.0
 30
0.0
 11
210.0
 21
45.0
 31
0.0
  0
LINE
  8
0
  6
CONTINUOUS
 62
     1
 10
190.0
 20
45.0
 30
0.0
 11
193.75
 21
45.0
 31
0.0
  0
LINE
  8
0
  6
CONTINUOUS
 62
     2
 10
189.75
 20
135.05
 30
0.0
 11
192.164814566
 21
134.402952387
 31
0.0
  0
LINE
  8
0
  6
CONTINUOUS
 62
     2
 10
189.75
 20
135.05
 30
0.0
 11
192.164814566
 21
135.697047613
 31
0.0
  0
LINE
  8
0
  6
CONTINUOUS
 62
     2
 10
189.75
 20
135.05
 30
0.0
 11
210.25
 21
135.05
 31
0.0
  0
LINE
  8
0
  6
CONTINUOUS
 62
     2
 10
210.25
 20
135.05
 30
0.0
 11
207.835185434
 21
135.697047613
 31
0.0
  0
LINE
  8
0
  6
CONTINUOUS
 62
     2
 10
210.25
 20
135.05
 30
0.0
 11
207.835185434
 21
134.402952387
 31
0.0
  0
LINE
  8
0
  6
CONTINUOUS
 62
     2
 10
189.75
 20
130.5
 30
0.0
 11
189.75
 21
137.05
 31
0.0
  0
LINE
  8
0
  6
CONTINUOUS
 62
     2
 10
210.25
 20
130.5
 30
0.0
 11
210.25
 21
137.05
 31
0.0
  0
LINE
  8
0
  6
CONTINUOUS
 62
     5
 10
195.25
 20
95.0
 30
0.0
 11
191.25
 21
95.0
 31
0.0
  0
LINE
  8
0
  6
CONTINUOUS
 62
     5
 10
191.5
 20
91.9
 30
0.0
 11
191.5
 21
87.9
 31
0.0
  0
LINE
  8
0
  6
CONTINUOUS
 62
     5
 10
191.5
 20
91.9
 30
0.0
 11
192.25
 21
92.5
 31
0.0
  0
LINE
  8
0
  6
CONTINUOUS
 62
     5
 10
191.5
 20
87.9
 30
0.0
 11
192.25
 21
87.3
 31
0.0
  0
TEXT
  8
0
  6
CONTINUOUS
 62
     5
 10
192.5
 20
91.75
 30
0.1
 40
1.5
  1
１＋
 50
0.0
 41
0.666666667
 51
0.0
  7
KANJI7
  0
TEXT
  8
0
  6
CONTINUOUS
 62
     5
 10
192.5
 20
86.5
 30
0.1
 40
1.5
  1
２－
 50
0.0
 41
0.666666667
 51
0.0
  7
KANJI7
  0
TEXT
  8
0
  6
CONTINUOUS
 62
     5
 10
191.35
 20
88.8
 30
0.05
 40
1.0
  1
ＩＮＰＵＴ
 50
0.0
 41
0.75
 51
0.0
  7
KANJI8
  0
TEXT
  8
0
  6
CONTINUOUS
 62
     5
 10
191.65
 20
90.2
 30
0.05
 40
1.0
  1
ＬＥＦＴ
 50
0.0
 41
0.75
 51
0.0
  7
KANJI8
  0
TEXT
  8
0
  6
CONTINUOUS
 62
     5
 10
191.35
 20
78.5
 30
0.05
 40
1.0
  1
ＩＮＰＵＴ
 50
0.0
 41
0.75
 51
0.0
  7
KANJI8
  0
TEXT
  8
0
  6
CONTINUOUS
 62
     5
 10
191.45
 20
79.9
 30
0.05
 40
1.0
  1
ＲＩＧＨＴ
 50
0.0
 41
0.75
 51
0.0
  7
KANJI8
  0
LINE
  8
0
  6
CONTINUOUS
 62
     5
 10
191.5
 20
81.9
 30
0.0
 11
191.5
 21
77.9
 31
0.0
  0
LINE
  8
0
  6
CONTINUOUS
 62
     5
 10
191.5
 20
81.9
 30
0.0
 11
192.25
 21
82.5
 31
0.0
  0
LINE
  8
0
  6
CONTINUOUS
 62
     5
 10
191.5
 20
77.9
 30
0.0
 11
192.25
 21
77.3
 31
0.0
  0
TEXT
  8
0
  6
CONTINUOUS
 62
     5
 10
192.5
 20
81.75
 30
0.1
 40
1.5
  1
３＋
 50
0.0
 41
0.666666667
 51
0.0
  7
KANJI7
  0
TEXT
  8
0
  6
CONTINUOUS
 62
     5
 10
192.5
 20
76.5
 30
0.1
 40
1.5
  1
４－
 50
0.0
 41
0.666666667
 51
0.0
  7
KANJI7
  0
LINE
  8
0
  6
CONTINUOUS
 62
     5
 10
191.25
 20
75.0
 30
0.0
 11
191.25
 21
95.0
 31
0.0
  0
LINE
  8
0
  6
CONTINUOUS
 62
     5
 10
191.25
 20
75.0
 30
0.0
 11
195.25
 21
75.0
 31
0.0
  0
LINE
  8
0
  6
CONTINUOUS
 62
     5
 10
195.25
 20
95.0
 30
0.0
 11
195.25
 21
75.0
 31
0.0
  0
LINE
  8
0
  6
LTYPE2
 62
     2
 10
200.0
 20
135.0
 30
0.0
 11
200.0
 21
40.0
 31
0.0
  0
LINE
  8
0
  6
CONTINUOUS
 62
     2
 10
211.25
 20
46.75
 30
0.0
 11
222.5
 21
46.75
 31
0.0
  0
LINE
  8
0
  6
CONTINUOUS
 62
     2
 10
211.5
 20
128.25
 30
0.0
 11
222.5
 21
128.25
 31
0.0
  0
TEXT
  8
0
  6
CONTINUOUS
 62
     2
 10
198.05
 20
135.45
 30
0.3
 40
3.0
  1
４１
 50
0.0
 41
0.6
 51
0.0
  7
KANJI0
  0
LINE
  8
0
  6
CONTINUOUS
 62
     2
 10
187.0
 20
179.5
 30
0.0
 11
189.414814566
 21
178.852952387
 31
0.0
  0
LINE
  8
0
  6
CONTINUOUS
 62
     2
 10
187.0
 20
179.5
 30
0.0
 11
189.414814566
 21
180.147047613
 31
0.0
  0
LINE
  8
0
  6
CONTINUOUS
 62
     2
 10
187.0
 20
179.5
 30
0.0
 11
194.0
 21
179.5
 31
0.0
  0
LINE
  8
0
  6
CONTINUOUS
 62
     2
 10
194.0
 20
179.5
 30
0.0
 11
191.585185434
 21
180.147047613
 31
0.0
  0
LINE
  8
0
  6
CONTINUOUS
 62
     2
 10
194.0
 20
179.5
 30
0.0
 11
191.585185434
 21
178.852952387
 31
0.0
  0
TEXT
  8
0
  6
CONTINUOUS
 62
     2
 10
195.29
 20
180.61
 30
0.3
 40
3.0
  1
４１．５
 50
0.0
 41
0.6
 51
0.0
  7
KANJI0
  0
LINE
  8
0
  6
CONTINUOUS
 62
     2
 10
190.032
 20
180.924
 30
0.0
 11
190.332
 21
181.224
 31
0.0
  0
LINE
  8
0
  6
CONTINUOUS
 62
     2
 10
190.332
 20
181.224
 30
0.0
 11
190.596
 21
181.572
 31
0.0
  0
LINE
  8
0
  6
CONTINUOUS
 62
     2
 10
190.596
 20
181.572
 30
0.0
 11
190.8
 21
182.028
 31
0.0
  0
LINE
  8
0
  6
CONTINUOUS
 62
     2
 10
190.8
 20
182.028
 30
0.0
 11
190.932
 21
182.352
 31
0.0
  0
LINE
  8
0
  6
CONTINUOUS
 62
     2
 10
190.932
 20
182.352
 30
0.0
 11
190.992
 21
182.7
 31
0.0
  0
LINE
  8
0
  6
CONTINUOUS
 62
     2
 10
190.992
 20
182.7
 30
0.0
 11
190.992
 21
183.156
 31
0.0
  0
LINE
  8
0
  6
CONTINUOUS
 62
     2
 10
190.992
 20
183.156
 30
0.0
 11
190.992
 21
183.384
 31
0.0
  0
LINE
  8
0
  6
CONTINUOUS
 62
     2
 10
190.992
 20
183.384
 30
0.0
 11
190.896
 21
183.588
 31
0.0
  0
LINE
  8
0
  6
CONTINUOUS
 62
     2
 10
190.896
 20
183.588
 30
0.0
 11
190.704
 21
183.612
 31
0.0
  0
LINE
  8
0
  6
CONTINUOUS
 62
     2
 10
190.704
 20
183.612
 30
0.0
 11
190.524
 21
183.456
 31
0.0
  0
LINE
  8
0
  6
CONTINUOUS
 62
     2
 10
190.524
 20
183.456
 30
0.0
 11
190.488
 21
182.976
 31
0.0
  0
LINE
  8
0
  6
CONTINUOUS
 62
     2
 10
190.488
 20
182.976
 30
0.0
 11
190.44
 21
182.532
 31
0.0
  0
LINE
  8
0
  6
CONTINUOUS
 62
     2
 10
190.44
 20
182.532
 30
0.0
 11
190.416
 21
182.112
 31
0.0
  0
LINE
  8
0
  6
CONTINUOUS
 62
     2
 10
190.416
 20
182.112
 30
0.0
 11
190.404
 21
181.8
 31
0.0
  0
LINE
  8
0
  6
CONTINUOUS
 62
     2
 10
190.404
 20
181.8
 30
0.0
 11
190.404
 21
181.5
 31
0.0
  0
LINE
  8
0
  6
CONTINUOUS
 62
     2
 10
190.404
 20
181.5
 30
0.0
 11
190.512
 21
181.188
 31
0.0
  0
LINE
  8
0
  6
CONTINUOUS
 62
     2
 10
190.512
 20
181.188
 30
0.0
 11
190.668
 21
180.948
 31
0.0
  0
LINE
  8
0
  6
CONTINUOUS
 62
     2
 10
190.668
 20
180.948
 30
0.0
 11
190.92
 21
180.888
 31
0.0
  0
TEXT
  8
0
  6
CONTINUOUS
 62
     2
 10
202.79
 20
180.61
 30
0.18
 40
1.8
  1
－０
 50
0.0
 41
0.6
 51
0.0
  7
KANJI9
  0
LINE
  8
0
  6
CONTINUOUS
 62
     1
 10
187.0
 20
171.5
 30
0.0
 11
187.0
 21
143.0
 31
0.0
  0
LINE
  8
0
  6
CONTINUOUS
 62
     1
 10
194.0
 20
171.5
 30
0.0
 11
187.0
 21
171.5
 31
0.0
  0
LINE
  8
0
  6
CONTINUOUS
 62
     1
 10
194.0
 20
143.0
 30
0.0
 11
194.0
 21
171.5
 31
0.0
  0
LINE
  8
0
  6
CONTINUOUS
 62
     1
 10
187.0
 20
143.0
 30
0.0
 11
194.0
 21
143.0
 31
0.0
  0
TEXT
  8
0
  6
CONTINUOUS
 62
     2
 10
190.35
 20
170.5
 30
0.3
 40
3.0
  1
パネルカット寸法
 50
0.0
 41
0.9
 51
0.0
  7
KANJI10
  0
LINE
  8
0
  6
CONTINUOUS
 62
     2
 10
186.0
 20
143.0
 30
0.0
 11
180.0
 21
143.0
 31
0.0
  0
LINE
  8
0
  6
CONTINUOUS
 62
     2
 10
182.0
 20
143.0
 30
0.0
 11
182.647047613
 21
145.414814566
 31
0.0
  0
LINE
  8
0
  6
CONTINUOUS
 62
     2
 10
182.0
 20
143.0
 30
0.0
 11
181.352952387
 21
145.414814566
 31
0.0
  0
LINE
  8
0
  6
CONTINUOUS
 62
     2
 10
182.0
 20
143.0
 30
0.0
 11
182.0
 21
171.5
 31
0.0
  0
LINE
  8
0
  6
CONTINUOUS
 62
     2
 10
182.0
 20
171.5
 30
0.0
 11
181.352952387
 21
169.085185434
 31
0.0
  0
LINE
  8
0
  6
CONTINUOUS
 62
     2
 10
182.0
 20
171.5
 30
0.0
 11
182.647047613
 21
169.085185434
 31
0.0
  0
LINE
  8
0
  6
CONTINUOUS
 62
     2
 10
186.0
 20
171.5
 30
0.0
 11
180.0
 21
171.5
 31
0.0
  0
TEXT
  8
0
  6
CONTINUOUS
 62
     2
 10
181.0
 20
153.7
 30
0.3
 40
3.0
  1
１６４
 50
90.0
 41
0.6
 51
0.0
  7
KANJI0
  0
LINE
  8
0
  6
LTYPE3
 62
     2
 10
194.0
 20
174.5
 30
0.0
 11
187.0
 21
174.5
 31
0.0
  0
LINE
  8
0
  6
LTYPE3
 62
     2
 10
187.0
 20
143.0
 30
0.0
 11
187.0
 21
140.0
 31
0.0
  0
LINE
  8
0
  6
LTYPE3
 62
     2
 10
187.0
 20
140.0
 30
0.0
 11
194.0
 21
140.0
 31
0.0
  0
LINE
  8
0
  6
LTYPE3
 62
     2
 10
194.0
 20
140.0
 30
0.0
 11
194.0
 21
143.0
 31
0.0
  0
LINE
  8
0
  6
CONTINUOUS
 62
     2
 10
187.0
 20
175.5
 30
0.0
 11
187.0
 21
181.5
 31
0.0
  0
LINE
  8
0
  6
CONTINUOUS
 62
     2
 10
194.0
 20
175.5
 30
0.0
 11
194.0
 21
181.5
 31
0.0
  0
LINE
  8
0
  6
LTYPE3
 62
     2
 10
194.0
 20
174.5
 30
0.0
 11
194.0
 21
171.5
 31
0.0
  0
LINE
  8
0
  6
LTYPE3
 62
     2
 10
187.0
 20
171.5
 30
0.0
 11
187.0
 21
174.5
 31
0.0
  0
LINE
  8
0
  6
CONTINUOUS
 62
     2
 10
195.0
 20
140.0
 30
0.0
 11
202.0
 21
140.0
 31
0.0
  0
LINE
  8
0
  6
CONTINUOUS
 62
     2
 10
200.0
 20
140.0
 30
0.0
 11
200.647047613
 21
142.414814566
 31
0.0
  0
LINE
  8
0
  6
CONTINUOUS
 62
     2
 10
200.0
 20
140.0
 30
0.0
 11
199.352952387
 21
142.414814566
 31
0.0
  0
LINE
  8
0
  6
CONTINUOUS
 62
     2
 10
200.0
 20
140.0
 30
0.0
 11
200.0
 21
174.5
 31
0.0
  0
LINE
  8
0
  6
CONTINUOUS
 62
     2
 10
200.0
 20
174.5
 30
0.0
 11
199.352952387
 21
172.085185434
 31
0.0
  0
LINE
  8
0
  6
CONTINUOUS
 62
     2
 10
200.0
 20
174.5
 30
0.0
 11
200.647047613
 21
172.085185434
 31
0.0
  0
LINE
  8
0
  6
CONTINUOUS
 62
     2
 10
195.0
 20
174.5
 30
0.0
 11
202.0
 21
174.5
 31
0.0
  0
TEXT
  8
0
  6
CONTINUOUS
 62
     2
 10
205.0
 20
142.65
 30
0.3
 40
3.0
  1
（裏面取付スペース）
 50
90.0
 41
0.9
 51
0.0
  7
KANJI1
  0
TEXT
  8
0
  6
CONTINUOUS
 62
     2
 10
181.29
 20
160.09
 30
0.18
 40
1.8
  1
－０
 50
90.0
 41
0.6
 51
0.0
  7
KANJI9
  0
TEXT
  8
0
  6
CONTINUOUS
 62
     2
 10
179.49
 20
160.09
 30
0.18
 40
1.8
  1
＋１
 50
90.0
 41
0.6
 51
0.0
  7
KANJI9
  0
TEXT
  8
0
  6
CONTINUOUS
 62
     2
 10
202.79
 20
182.41
 30
0.18
 40
1.8
  1
＋１．５
 50
0.0
 41
0.6
 51
0.0
  7
KANJI9
  0
TEXT
  8
0
  6
CONTINUOUS
 62
     2
 10
216.8
 20
171.179491924
 30
0.3
 40
3.0
  1
ｎは連結台数
 50
0.0
 41
0.9
 51
0.0
  7
KANJI1
  0
TEXT
  8
0
  6
CONTINUOUS
 62
     2
 10
205.82
 20
175.72
 30
0.3
 40
3.0
  1
連結時：　＝４２．２×ｎ＋１．５
 50
0.0
 41
0.9
 51
0.0
  7
KANJI1
  0
LINE
  8
0
  6
LTYPE2
 62
     2
 10
213.3
 20
85.0
 30
0.0
 11
186.931451884
 21
85.0
 31
0.0
  0
LINE
  8
0
  6
CONTINUOUS
 62
     1
 10
151.7
 20
129.0
 30
0.0
 11
149.7
 21
129.0
 31
0.0
  0
LINE
  8
0
  6
CONTINUOUS
 62
     1
 10
151.7
 20
133.5
 30
0.0
 11
151.7
 21
129.0
 31
0.0
  0
LINE
  8
0
  6
CONTINUOUS
 62
     1
 10
149.7
 20
133.5
 30
0.0
 11
151.7
 21
133.5
 31
0.0
  0
LINE
  8
0
  6
CONTINUOUS
 62
     1
 10
149.7
 20
130.125
 30
0.0
 11
151.3
 21
130.125
 31
0.0
  0
LINE
  8
0
  6
CONTINUOUS
 62
     1
 10
151.3
 20
132.375
 30
0.0
 11
149.7
 21
132.375
 31
0.0
  0
ARC
  8
0
  6
CONTINUOUS
 62
     2
 10
149.91796875
 20
131.25
 30
0.0
 40
1.78203125
 50
320.853748339
 51
39.146251661
  0
ARC
  8
0
  6
CONTINUOUS
 62
     2
 10
149.91796875
 20
133.5
 30
0.0
 40
1.78203125
 50
320.853748339
 51
360.0
  0
ARC
  8
0
  6
CONTINUOUS
 62
     2
 10
149.91796875
 20
129.0
 30
0.0
 40
1.78203125
 50
0.0
 51
39.146251661
  0
LINE
  8
0
  6
CONTINUOUS
 62
     1
 10
157.75
 20
130.0
 30
0.0
 11
151.7
 21
130.0
 31
0.0
  0
LINE
  8
0
  6
CONTINUOUS
 62
     1
 10
151.7
 20
132.5
 30
0.0
 11
157.75
 21
132.5
 31
0.0
  0
LINE
  8
0
  6
CONTINUOUS
 62
     2
 10
151.7
 20
132.25
 30
0.0
 11
158.0
 21
132.25
 31
0.0
  0
LINE
  8
0
  6
CONTINUOUS
 62
     2
 10
158.0
 20
130.25
 30
0.0
 11
151.7
 21
130.25
 31
0.0
  0
LINE
  8
0
  6
CONTINUOUS
 62
     1
 10
149.7
 20
163.448557159
 30
0.0
 11
151.7
 21
163.448557159
 31
0.0
  0
LINE
  8
0
  6
CONTINUOUS
 62
     1
 10
151.7
 20
163.448557159
 30
0.0
 11
151.7
 21
159.551442841
 31
0.0
  0
LINE
  8
0
  6
CONTINUOUS
 62
     1
 10
151.7
 20
159.551442841
 30
0.0
 11
149.7
 21
159.551442841
 31
0.0
  0
LINE
  8
0
  6
CONTINUOUS
 62
     1
 10
149.7
 20
161.5
 30
0.0
 11
151.3
 21
161.5
 31
0.0
  0
ARC
  8
0
  6
CONTINUOUS
 62
     2
 10
149.91796875
 20
160.375
 30
0.0
 40
1.78203125
 50
332.474380886
 51
39.146251661
  0
ARC
  8
0
  6
CONTINUOUS
 62
     2
 10
149.91796875
 20
162.625
 30
0.0
 40
1.78203125
 50
320.853748339
 51
27.525619114
  0
LINE
  8
0
  6
CONTINUOUS
 62
     1
 10
151.7
 20
162.75
 30
0.0
 11
157.75
 21
162.75
 31
0.0
  0
LINE
  8
0
  6
CONTINUOUS
 62
     2
 10
151.7
 20
162.5
 30
0.0
 11
158.0
 21
162.5
 31
0.0
  0
LINE
  8
0
  6
CONTINUOUS
 62
     1
 10
157.75
 20
160.25
 30
0.0
 11
151.7
 21
160.25
 31
0.0
  0
LINE
  8
0
  6
CONTINUOUS
 62
     2
 10
158.0
 20
160.5
 30
0.0
 11
151.7
 21
160.5
 31
0.0
  0
LINE
  8
0
  6
CONTINUOUS
 62
     1
 10
151.7
 20
41.7
 30
0.0
 11
149.7
 21
41.7
 31
0.0
  0
LINE
  8
0
  6
CONTINUOUS
 62
     1
 10
151.7
 20
46.2
 30
0.0
 11
151.7
 21
41.7
 31
0.0
  0
LINE
  8
0
  6
CONTINUOUS
 62
     1
 10
149.7
 20
46.2
 30
0.0
 11
151.7
 21
46.2
 31
0.0
  0
LINE
  8
0
  6
CONTINUOUS
 62
     1
 10
149.7
 20
42.825
 30
0.0
 11
151.3
 21
42.825
 31
0.0
  0
LINE
  8
0
  6
CONTINUOUS
 62
     1
 10
151.3
 20
45.075
 30
0.0
 11
149.7
 21
45.075
 31
0.0
  0
ARC
  8
0
  6
CONTINUOUS
 62
     2
 10
149.91796875
 20
43.95
 30
0.0
 40
1.78203125
 50
320.853748339
 51
39.146251661
  0
ARC
  8
0
  6
CONTINUOUS
 62
     2
 10
149.91796875
 20
46.2
 30
0.0
 40
1.78203125
 50
320.853748339
 51
360.0
  0
ARC
  8
0
  6
CONTINUOUS
 62
     2
 10
149.91796875
 20
41.7
 30
0.0
 40
1.78203125
 50
0.0
 51
39.146251661
  0
LINE
  8
0
  6
CONTINUOUS
 62
     1
 10
157.75
 20
42.7
 30
0.0
 11
151.7
 21
42.7
 31
0.0
  0
LINE
  8
0
  6
CONTINUOUS
 62
     1
 10
151.7
 20
45.2
 30
0.0
 11
157.75
 21
45.2
 31
0.0
  0
LINE
  8
0
  6
CONTINUOUS
 62
     2
 10
151.7
 20
44.95
 30
0.0
 11
158.0
 21
44.95
 31
0.0
  0
LINE
  8
0
  6
CONTINUOUS
 62
     2
 10
158.0
 20
42.95
 30
0.0
 11
151.7
 21
42.95
 31
0.0
  0
LINE
  8
0
  6
CONTINUOUS
 62
     2
 10
218.232
 20
175.624
 30
0.0
 11
218.532
 21
175.924
 31
0.0
  0
LINE
  8
0
  6
CONTINUOUS
 62
     2
 10
218.532
 20
175.924
 30
0.0
 11
218.796
 21
176.272
 31
0.0
  0
LINE
  8
0
  6
CONTINUOUS
 62
     2
 10
218.796
 20
176.272
 30
0.0
 11
219.0
 21
176.728
 31
0.0
  0
LINE
  8
0
  6
CONTINUOUS
 62
     2
 10
219.0
 20
176.728
 30
0.0
 11
219.132
 21
177.052
 31
0.0
  0
LINE
  8
0
  6
CONTINUOUS
 62
     2
 10
219.132
 20
177.052
 30
0.0
 11
219.192
 21
177.4
 31
0.0
  0
LINE
  8
0
  6
CONTINUOUS
 62
     2
 10
219.192
 20
177.4
 30
0.0
 11
219.192
 21
177.856
 31
0.0
  0
LINE
  8
0
  6
CONTINUOUS
 62
     2
 10
219.192
 20
177.856
 30
0.0
 11
219.192
 21
178.084
 31
0.0
  0
LINE
  8
0
  6
CONTINUOUS
 62
     2
 10
219.192
 20
178.084
 30
0.0
 11
219.096
 21
178.288
 31
0.0
  0
LINE
  8
0
  6
CONTINUOUS
 62
     2
 10
219.096
 20
178.288
 30
0.0
 11
218.904
 21
178.312
 31
0.0
  0
LINE
  8
0
  6
CONTINUOUS
 62
     2
 10
218.904
 20
178.312
 30
0.0
 11
218.724
 21
178.156
 31
0.0
  0
LINE
  8
0
  6
CONTINUOUS
 62
     2
 10
218.724
 20
178.156
 30
0.0
 11
218.688
 21
177.676
 31
0.0
  0
LINE
  8
0
  6
CONTINUOUS
 62
     2
 10
218.688
 20
177.676
 30
0.0
 11
218.64
 21
177.232
 31
0.0
  0
LINE
  8
0
  6
CONTINUOUS
 62
     2
 10
218.64
 20
177.232
 30
0.0
 11
218.616
 21
176.812
 31
0.0
  0
LINE
  8
0
  6
CONTINUOUS
 62
     2
 10
218.616
 20
176.812
 30
0.0
 11
218.604
 21
176.5
 31
0.0
  0
LINE
  8
0
  6
CONTINUOUS
 62
     2
 10
218.604
 20
176.5
 30
0.0
 11
218.604
 21
176.2
 31
0.0
  0
LINE
  8
0
  6
CONTINUOUS
 62
     2
 10
218.604
 20
176.2
 30
0.0
 11
218.712
 21
175.888
 31
0.0
  0
LINE
  8
0
  6
CONTINUOUS
 62
     2
 10
218.712
 20
175.888
 30
0.0
 11
218.868
 21
175.648
 31
0.0
  0
LINE
  8
0
  6
CONTINUOUS
 62
     2
 10
218.868
 20
175.648
 30
0.0
 11
219.12
 21
175.588
 31
0.0
  0
LINE
  8
0
  6
LTYPE2
 62
     5
 10
80.0
 20
76.5
 30
0.0
 11
90.0
 21
76.5
 31
0.0
  0
LINE
  8
0
  6
LTYPE2
 62
     5
 10
85.0
 20
81.5
 30
0.0
 11
85.0
 21
71.5
 31
0.0
  0
CIRCLE
  8
0
  6
CONTINUOUS
 62
     5
 10
85.0
 20
76.5
 30
0.0
 40
4.0
  0
LINE
  8
0
  6
CONTINUOUS
 62
     1
 10
162.75
 20
99.55
 30
0.0
 11
162.75
 21
95.45
 31
0.0
  0
LINE
  8
0
  6
CONTINUOUS
 62
     1
 10
162.75
 20
95.45
 30
0.0
 11
169.25
 21
95.45
 31
0.0
  0
LINE
  8
0
  6
CONTINUOUS
 62
     1
 10
169.25
 20
95.45
 30
0.0
 11
169.25
 21
94.55
 31
0.0
  0
LINE
  8
0
  6
CONTINUOUS
 62
     1
 10
169.25
 20
94.55
 30
0.0
 11
162.75
 21
94.55
 31
0.0
  0
LINE
  8
0
  6
CONTINUOUS
 62
     1
 10
162.75
 20
94.55
 30
0.0
 11
162.75
 21
90.45
 31
0.0
  0
LINE
  8
0
  6
CONTINUOUS
 62
     1
 10
162.75
 20
90.45
 30
0.0
 11
169.25
 21
90.45
 31
0.0
  0
LINE
  8
0
  6
CONTINUOUS
 62
     1
 10
169.25
 20
90.45
 30
0.0
 11
169.25
 21
89.55
 31
0.0
  0
LINE
  8
0
  6
CONTINUOUS
 62
     1
 10
169.25
 20
89.55
 30
0.0
 11
162.75
 21
89.55
 31
0.0
  0
LINE
  8
0
  6
CONTINUOUS
 62
     1
 10
162.75
 20
89.55
 30
0.0
 11
162.75
 21
85.45
 31
0.0
  0
LINE
  8
0
  6
CONTINUOUS
 62
     1
 10
162.75
 20
85.45
 30
0.0
 11
169.25
 21
85.45
 31
0.0
  0
LINE
  8
0
  6
CONTINUOUS
 62
     1
 10
169.25
 20
85.45
 30
0.0
 11
169.25
 21
84.55
 31
0.0
  0
LINE
  8
0
  6
CONTINUOUS
 62
     1
 10
169.25
 20
84.55
 30
0.0
 11
162.75
 21
84.55
 31
0.0
  0
LINE
  8
0
  6
CONTINUOUS
 62
     1
 10
162.75
 20
84.55
 30
0.0
 11
162.75
 21
80.45
 31
0.0
  0
LINE
  8
0
  6
CONTINUOUS
 62
     1
 10
162.75
 20
80.45
 30
0.0
 11
169.25
 21
80.45
 31
0.0
  0
LINE
  8
0
  6
CONTINUOUS
 62
     1
 10
169.25
 20
80.45
 30
0.0
 11
169.25
 21
79.55
 31
0.0
  0
LINE
  8
0
  6
CONTINUOUS
 62
     1
 10
169.25
 20
79.55
 30
0.0
 11
162.75
 21
79.55
 31
0.0
  0
LINE
  8
0
  6
CONTINUOUS
 62
     1
 10
162.75
 20
79.55
 30
0.0
 11
162.75
 21
75.45
 31
0.0
  0
LINE
  8
0
  6
CONTINUOUS
 62
     1
 10
162.75
 20
75.45
 30
0.0
 11
169.25
 21
75.45
 31
0.0
  0
LINE
  8
0
  6
CONTINUOUS
 62
     1
 10
169.25
 20
75.45
 30
0.0
 11
169.25
 21
74.55
 31
0.0
  0
LINE
  8
0
  6
CONTINUOUS
 62
     1
 10
169.25
 20
74.55
 30
0.0
 11
162.75
 21
74.55
 31
0.0
  0
LINE
  8
0
  6
CONTINUOUS
 62
     1
 10
162.75
 20
74.55
 30
0.0
 11
162.75
 21
70.45
 31
0.0
  0
LINE
  8
0
  6
CONTINUOUS
 62
     2
 10
164.75
 20
99.55
 30
0.0
 11
164.75
 21
95.45
 31
0.0
  0
LINE
  8
0
  6
CONTINUOUS
 62
     2
 10
165.15
 20
95.45
 30
0.0
 11
165.15
 21
99.55
 31
0.0
  0
LINE
  8
0
  6
CONTINUOUS
 62
     2
 10
165.15
 20
99.55
 30
0.0
 11
164.75
 21
99.55
 31
0.0
  0
LINE
  8
0
  6
CONTINUOUS
 62
     2
 10
164.75
 20
98.75
 30
0.0
 11
165.15
 21
98.75
 31
0.0
  0
LINE
  8
0
  6
CONTINUOUS
 62
     2
 10
164.75
 20
96.25
 30
0.0
 11
165.15
 21
96.25
 31
0.0
  0
LINE
  8
0
  6
CONTINUOUS
 62
     2
 10
164.75
 20
94.55
 30
0.0
 11
164.75
 21
90.45
 31
0.0
  0
LINE
  8
0
  6
CONTINUOUS
 62
     2
 10
165.15
 20
90.45
 30
0.0
 11
165.15
 21
94.55
 31
0.0
  0
LINE
  8
0
  6
CONTINUOUS
 62
     2
 10
164.75
 20
93.75
 30
0.0
 11
165.15
 21
93.75
 31
0.0
  0
LINE
  8
0
  6
CONTINUOUS
 62
     2
 10
164.75
 20
91.25
 30
0.0
 11
165.15
 21
91.25
 31
0.0
  0
LINE
  8
0
  6
CONTINUOUS
 62
     2
 10
164.75
 20
89.55
 30
0.0
 11
164.75
 21
85.45
 31
0.0
  0
LINE
  8
0
  6
CONTINUOUS
 62
     2
 10
165.15
 20
85.45
 30
0.0
 11
165.15
 21
89.55
 31
0.0
  0
LINE
  8
0
  6
CONTINUOUS
 62
     2
 10
164.75
 20
88.75
 30
0.0
 11
165.15
 21
88.75
 31
0.0
  0
LINE
  8
0
  6
CONTINUOUS
 62
     2
 10
164.75
 20
86.25
 30
0.0
 11
165.15
 21
86.25
 31
0.0
  0
LINE
  8
0
  6
CONTINUOUS
 62
     2
 10
164.75
 20
84.55
 30
0.0
 11
164.75
 21
80.45
 31
0.0
  0
LINE
  8
0
  6
CONTINUOUS
 62
     2
 10
164.75
 20
83.75
 30
0.0
 11
165.15
 21
83.75
 31
0.0
  0
LINE
  8
0
  6
CONTINUOUS
 62
     2
 10
164.75
 20
81.25
 30
0.0
 11
165.15
 21
81.25
 31
0.0
  0
LINE
  8
0
  6
CONTINUOUS
 62
     2
 10
164.75
 20
79.55
 30
0.0
 11
164.75
 21
75.45
 31
0.0
  0
LINE
  8
0
  6
CONTINUOUS
 62
     2
 10
164.75
 20
78.75
 30
0.0
 11
165.15
 21
78.75
 31
0.0
  0
LINE
  8
0
  6
CONTINUOUS
 62
     2
 10
164.75
 20
76.25
 30
0.0
 11
165.15
 21
76.25
 31
0.0
  0
LINE
  8
0
  6
CONTINUOUS
 62
     2
 10
164.75
 20
74.55
 30
0.0
 11
164.75
 21
70.45
 31
0.0
  0
LINE
  8
0
  6
CONTINUOUS
 62
     2
 10
165.15
 20
70.45
 30
0.0
 11
165.15
 21
74.55
 31
0.0
  0
LINE
  8
0
  6
CONTINUOUS
 62
     2
 10
164.75
 20
73.75
 30
0.0
 11
165.15
 21
73.75
 31
0.0
  0
LINE
  8
0
  6
CONTINUOUS
 62
     2
 10
164.75
 20
71.25
 30
0.0
 11
165.15
 21
71.25
 31
0.0
  0
LINE
  8
0
  6
CONTINUOUS
 62
     2
 10
167.85
 20
95.45
 30
0.0
 11
167.85
 21
94.55
 31
0.0
  0
LINE
  8
0
  6
CONTINUOUS
 62
     2
 10
168.35
 20
94.55
 30
0.0
 11
168.35
 21
95.45
 31
0.0
  0
LINE
  8
0
  6
CONTINUOUS
 62
     2
 10
167.25
 20
95.45
 30
0.0
 11
167.25
 21
94.55
 31
0.0
  0
LINE
  8
0
  6
CONTINUOUS
 62
     2
 10
167.85
 20
90.45
 30
0.0
 11
167.85
 21
89.55
 31
0.0
  0
LINE
  8
0
  6
CONTINUOUS
 62
     2
 10
168.35
 20
89.55
 30
0.0
 11
168.35
 21
90.45
 31
0.0
  0
LINE
  8
0
  6
CONTINUOUS
 62
     2
 10
167.25
 20
90.45
 30
0.0
 11
167.25
 21
89.55
 31
0.0
  0
LINE
  8
0
  6
CONTINUOUS
 62
     2
 10
167.85
 20
85.45
 30
0.0
 11
167.85
 21
84.55
 31
0.0
  0
LINE
  8
0
  6
CONTINUOUS
 62
     2
 10
168.35
 20
84.55
 30
0.0
 11
168.35
 21
85.45
 31
0.0
  0
LINE
  8
0
  6
CONTINUOUS
 62
     2
 10
167.25
 20
85.45
 30
0.0
 11
167.25
 21
84.55
 31
0.0
  0
LINE
  8
0
  6
CONTINUOUS
 62
     2
 10
167.85
 20
80.45
 30
0.0
 11
167.85
 21
79.55
 31
0.0
  0
LINE
  8
0
  6
CONTINUOUS
 62
     2
 10
168.35
 20
79.55
 30
0.0
 11
168.35
 21
80.45
 31
0.0
  0
LINE
  8
0
  6
CONTINUOUS
 62
     2
 10
167.25
 20
80.45
 30
0.0
 11
167.25
 21
79.55
 31
0.0
  0
LINE
  8
0
  6
CONTINUOUS
 62
     2
 10
167.85
 20
75.45
 30
0.0
 11
167.85
 21
74.55
 31
0.0
  0
LINE
  8
0
  6
CONTINUOUS
 62
     2
 10
168.35
 20
74.55
 30
0.0
 11
168.35
 21
75.45
 31
0.0
  0
LINE
  8
0
  6
CONTINUOUS
 62
     2
 10
167.25
 20
75.45
 30
0.0
 11
167.25
 21
74.55
 31
0.0
  0
LINE
  8
0
  6
CONTINUOUS
 62
     2
 10
165.54
 20
98.83
 30
0.0
 11
165.54
 21
96.17
 31
0.0
  0
LINE
  8
0
  6
CONTINUOUS
 62
     2
 10
165.85
 20
96.19
 30
0.0
 11
165.54
 21
96.17
 31
0.0
  0
LINE
  8
0
  6
CONTINUOUS
 62
     2
 10
165.54
 20
98.83
 30
0.0
 11
165.85
 21
98.83
 31
0.0
  0
LINE
  8
0
  6
CONTINUOUS
 62
     2
 10
166.59
 20
98.08
 30
0.0
 11
166.59
 21
96.92
 31
0.0
  0
ARC
  8
0
  6
CONTINUOUS
 62
     2
 10
165.84
 20
98.08
 30
0.0
 40
0.75
 50
0.0
 51
90.0
  0
ARC
  8
0
  6
CONTINUOUS
 62
     2
 10
165.84
 20
96.92
 30
0.0
 40
0.75
 50
268.472474559
 51
0.0
  0
LINE
  8
0
  6
CONTINUOUS
 62
     2
 10
165.53
 20
98.85
 30
0.0
 11
165.15
 21
98.85
 31
0.0
  0
LINE
  8
0
  6
CONTINUOUS
 62
     2
 10
165.15
 20
98.85
 30
0.0
 11
165.15
 21
96.17
 31
0.0
  0
LINE
  8
0
  6
CONTINUOUS
 62
     2
 10
165.15
 20
96.17
 30
0.0
 11
165.53
 21
96.17
 31
0.0
  0
LINE
  8
0
  6
CONTINUOUS
 62
     2
 10
165.15
 20
97.38
 30
0.0
 11
165.53
 21
97.69
 31
0.0
  0
LINE
  8
0
  6
CONTINUOUS
 62
     2
 10
165.15
 20
97.14
 30
0.0
 11
165.54
 21
97.43
 31
0.0
  0
LINE
  8
0
  6
CONTINUOUS
 62
     2
 10
166.59
 20
97.71
 30
0.0
 11
166.52
 21
97.71
 31
0.0
  0
LINE
  8
0
  6
CONTINUOUS
 62
     2
 10
166.52
 20
97.72
 30
0.0
 11
166.52
 21
97.34
 31
0.0
  0
LINE
  8
0
  6
CONTINUOUS
 62
     2
 10
166.52
 20
97.34
 30
0.0
 11
166.58
 21
97.34
 31
0.0
  0
LINE
  8
0
  6
CONTINUOUS
 62
     2
 10
165.54
 20
93.83
 30
0.0
 11
165.54
 21
91.17
 31
0.0
  0
LINE
  8
0
  6
CONTINUOUS
 62
     2
 10
165.85
 20
91.19
 30
0.0
 11
165.54
 21
91.17
 31
0.0
  0
LINE
  8
0
  6
CONTINUOUS
 62
     2
 10
165.54
 20
93.83
 30
0.0
 11
165.85
 21
93.83
 31
0.0
  0
LINE
  8
0
  6
CONTINUOUS
 62
     2
 10
166.59
 20
93.08
 30
0.0
 11
166.59
 21
91.92
 31
0.0
  0
ARC
  8
0
  6
CONTINUOUS
 62
     2
 10
165.84
 20
93.08
 30
0.0
 40
0.75
 50
0.0
 51
90.0
  0
ARC
  8
0
  6
CONTINUOUS
 62
     2
 10
165.84
 20
91.92
 30
0.0
 40
0.75
 50
268.472474559
 51
0.0
  0
LINE
  8
0
  6
CONTINUOUS
 62
     2
 10
165.53
 20
93.85
 30
0.0
 11
165.15
 21
93.85
 31
0.0
  0
LINE
  8
0
  6
CONTINUOUS
 62
     2
 10
165.15
 20
93.85
 30
0.0
 11
165.15
 21
91.17
 31
0.0
  0
LINE
  8
0
  6
CONTINUOUS
 62
     2
 10
165.15
 20
91.17
 30
0.0
 11
165.53
 21
91.17
 31
0.0
  0
LINE
  8
0
  6
CONTINUOUS
 62
     2
 10
165.15
 20
92.38
 30
0.0
 11
165.53
 21
92.69
 31
0.0
  0
LINE
  8
0
  6
CONTINUOUS
 62
     2
 10
165.15
 20
92.14
 30
0.0
 11
165.54
 21
92.43
 31
0.0
  0
LINE
  8
0
  6
CONTINUOUS
 62
     2
 10
166.59
 20
92.71
 30
0.0
 11
166.52
 21
92.71
 31
0.0
  0
LINE
  8
0
  6
CONTINUOUS
 62
     2
 10
166.52
 20
92.72
 30
0.0
 11
166.52
 21
92.34
 31
0.0
  0
LINE
  8
0
  6
CONTINUOUS
 62
     2
 10
166.52
 20
92.34
 30
0.0
 11
166.58
 21
92.34
 31
0.0
  0
LINE
  8
0
  6
CONTINUOUS
 62
     2
 10
165.54
 20
88.83
 30
0.0
 11
165.54
 21
86.17
 31
0.0
  0
LINE
  8
0
  6
CONTINUOUS
 62
     2
 10
165.85
 20
86.19
 30
0.0
 11
165.54
 21
86.17
 31
0.0
  0
LINE
  8
0
  6
CONTINUOUS
 62
     2
 10
165.54
 20
88.83
 30
0.0
 11
165.85
 21
88.83
 31
0.0
  0
LINE
  8
0
  6
CONTINUOUS
 62
     2
 10
166.59
 20
88.08
 30
0.0
 11
166.59
 21
86.92
 31
0.0
  0
ARC
  8
0
  6
CONTINUOUS
 62
     2
 10
165.84
 20
88.08
 30
0.0
 40
0.75
 50
0.0
 51
90.0
  0
ARC
  8
0
  6
CONTINUOUS
 62
     2
 10
165.84
 20
86.92
 30
0.0
 40
0.75
 50
268.472474559
 51
0.0
  0
LINE
  8
0
  6
CONTINUOUS
 62
     2
 10
165.53
 20
88.85
 30
0.0
 11
165.15
 21
88.85
 31
0.0
  0
LINE
  8
0
  6
CONTINUOUS
 62
     2
 10
165.15
 20
88.85
 30
0.0
 11
165.15
 21
86.17
 31
0.0
  0
LINE
  8
0
  6
CONTINUOUS
 62
     2
 10
165.15
 20
86.17
 30
0.0
 11
165.53
 21
86.17
 31
0.0
  0
LINE
  8
0
  6
CONTINUOUS
 62
     2
 10
165.15
 20
87.38
 30
0.0
 11
165.53
 21
87.69
 31
0.0
  0
LINE
  8
0
  6
CONTINUOUS
 62
     2
 10
165.15
 20
87.14
 30
0.0
 11
165.54
 21
87.43
 31
0.0
  0
LINE
  8
0
  6
CONTINUOUS
 62
     2
 10
166.59
 20
87.71
 30
0.0
 11
166.52
 21
87.71
 31
0.0
  0
LINE
  8
0
  6
CONTINUOUS
 62
     2
 10
166.52
 20
87.72
 30
0.0
 11
166.52
 21
87.34
 31
0.0
  0
LINE
  8
0
  6
CONTINUOUS
 62
     2
 10
166.52
 20
87.34
 30
0.0
 11
166.58
 21
87.34
 31
0.0
  0
LINE
  8
0
  6
CONTINUOUS
 62
     2
 10
165.54
 20
83.83
 30
0.0
 11
165.54
 21
81.17
 31
0.0
  0
LINE
  8
0
  6
CONTINUOUS
 62
     2
 10
165.85
 20
81.19
 30
0.0
 11
165.54
 21
81.17
 31
0.0
  0
LINE
  8
0
  6
CONTINUOUS
 62
     2
 10
165.54
 20
83.83
 30
0.0
 11
165.85
 21
83.83
 31
0.0
  0
LINE
  8
0
  6
CONTINUOUS
 62
     2
 10
166.59
 20
83.08
 30
0.0
 11
166.59
 21
81.92
 31
0.0
  0
ARC
  8
0
  6
CONTINUOUS
 62
     2
 10
165.84
 20
83.08
 30
0.0
 40
0.75
 50
0.0
 51
90.0
  0
ARC
  8
0
  6
CONTINUOUS
 62
     2
 10
165.84
 20
81.92
 30
0.0
 40
0.75
 50
268.472474559
 51
0.0
  0
LINE
  8
0
  6
CONTINUOUS
 62
     2
 10
165.53
 20
83.85
 30
0.0
 11
165.15
 21
83.85
 31
0.0
  0
LINE
  8
0
  6
CONTINUOUS
 62
     2
 10
165.15
 20
83.85
 30
0.0
 11
165.15
 21
81.17
 31
0.0
  0
LINE
  8
0
  6
CONTINUOUS
 62
     2
 10
165.15
 20
81.17
 30
0.0
 11
165.53
 21
81.17
 31
0.0
  0
LINE
  8
0
  6
CONTINUOUS
 62
     2
 10
165.15
 20
82.38
 30
0.0
 11
165.53
 21
82.69
 31
0.0
  0
LINE
  8
0
  6
CONTINUOUS
 62
     2
 10
165.15
 20
82.14
 30
0.0
 11
165.54
 21
82.43
 31
0.0
  0
LINE
  8
0
  6
CONTINUOUS
 62
     2
 10
166.59
 20
82.71
 30
0.0
 11
166.52
 21
82.71
 31
0.0
  0
LINE
  8
0
  6
CONTINUOUS
 62
     2
 10
166.52
 20
82.72
 30
0.0
 11
166.52
 21
82.34
 31
0.0
  0
LINE
  8
0
  6
CONTINUOUS
 62
     2
 10
166.52
 20
82.34
 30
0.0
 11
166.58
 21
82.34
 31
0.0
  0
LINE
  8
0
  6
CONTINUOUS
 62
     2
 10
165.54
 20
78.83
 30
0.0
 11
165.54
 21
76.17
 31
0.0
  0
LINE
  8
0
  6
CONTINUOUS
 62
     2
 10
165.85
 20
76.19
 30
0.0
 11
165.54
 21
76.17
 31
0.0
  0
LINE
  8
0
  6
CONTINUOUS
 62
     2
 10
165.54
 20
78.83
 30
0.0
 11
165.85
 21
78.83
 31
0.0
  0
LINE
  8
0
  6
CONTINUOUS
 62
     2
 10
166.59
 20
78.08
 30
0.0
 11
166.59
 21
76.92
 31
0.0
  0
ARC
  8
0
  6
CONTINUOUS
 62
     2
 10
165.84
 20
78.08
 30
0.0
 40
0.75
 50
0.0
 51
90.0
  0
ARC
  8
0
  6
CONTINUOUS
 62
     2
 10
165.84
 20
76.92
 30
0.0
 40
0.75
 50
268.472474559
 51
0.0
  0
LINE
  8
0
  6
CONTINUOUS
 62
     2
 10
165.53
 20
78.85
 30
0.0
 11
165.15
 21
78.85
 31
0.0
  0
LINE
  8
0
  6
CONTINUOUS
 62
     2
 10
165.15
 20
78.85
 30
0.0
 11
165.15
 21
76.17
 31
0.0
  0
LINE
  8
0
  6
CONTINUOUS
 62
     2
 10
165.15
 20
76.17
 30
0.0
 11
165.53
 21
76.17
 31
0.0
  0
LINE
  8
0
  6
CONTINUOUS
 62
     2
 10
165.15
 20
77.38
 30
0.0
 11
165.53
 21
77.69
 31
0.0
  0
LINE
  8
0
  6
CONTINUOUS
 62
     2
 10
165.15
 20
77.14
 30
0.0
 11
165.54
 21
77.43
 31
0.0
  0
LINE
  8
0
  6
CONTINUOUS
 62
     2
 10
166.59
 20
77.71
 30
0.0
 11
166.52
 21
77.71
 31
0.0
  0
LINE
  8
0
  6
CONTINUOUS
 62
     2
 10
166.52
 20
77.72
 30
0.0
 11
166.52
 21
77.34
 31
0.0
  0
LINE
  8
0
  6
CONTINUOUS
 62
     2
 10
166.52
 20
77.34
 30
0.0
 11
166.58
 21
77.34
 31
0.0
  0
LINE
  8
0
  6
CONTINUOUS
 62
     2
 10
165.54
 20
73.83
 30
0.0
 11
165.54
 21
71.17
 31
0.0
  0
LINE
  8
0
  6
CONTINUOUS
 62
     2
 10
165.85
 20
71.19
 30
0.0
 11
165.54
 21
71.17
 31
0.0
  0
LINE
  8
0
  6
CONTINUOUS
 62
     2
 10
165.54
 20
73.83
 30
0.0
 11
165.85
 21
73.83
 31
0.0
  0
LINE
  8
0
  6
CONTINUOUS
 62
     2
 10
166.59
 20
73.08
 30
0.0
 11
166.59
 21
71.92
 31
0.0
  0
ARC
  8
0
  6
CONTINUOUS
 62
     2
 10
165.84
 20
73.08
 30
0.0
 40
0.75
 50
0.0
 51
90.0
  0
ARC
  8
0
  6
CONTINUOUS
 62
     2
 10
165.84
 20
71.92
 30
0.0
 40
0.75
 50
268.472474559
 51
0.0
  0
LINE
  8
0
  6
CONTINUOUS
 62
     2
 10
165.53
 20
73.85
 30
0.0
 11
165.15
 21
73.85
 31
0.0
  0
LINE
  8
0
  6
CONTINUOUS
 62
     2
 10
165.15
 20
73.85
 30
0.0
 11
165.15
 21
71.17
 31
0.0
  0
LINE
  8
0
  6
CONTINUOUS
 62
     2
 10
165.15
 20
71.17
 30
0.0
 11
165.53
 21
71.17
 31
0.0
  0
LINE
  8
0
  6
CONTINUOUS
 62
     2
 10
165.15
 20
72.38
 30
0.0
 11
165.53
 21
72.69
 31
0.0
  0
LINE
  8
0
  6
CONTINUOUS
 62
     2
 10
165.15
 20
72.14
 30
0.0
 11
165.54
 21
72.43
 31
0.0
  0
LINE
  8
0
  6
CONTINUOUS
 62
     2
 10
166.59
 20
72.71
 30
0.0
 11
166.52
 21
72.71
 31
0.0
  0
LINE
  8
0
  6
CONTINUOUS
 62
     2
 10
166.52
 20
72.72
 30
0.0
 11
166.52
 21
72.34
 31
0.0
  0
LINE
  8
0
  6
CONTINUOUS
 62
     2
 10
166.52
 20
72.34
 30
0.0
 11
166.58
 21
72.34
 31
0.0
  0
LINE
  8
0
  6
CONTINUOUS
 62
     2
 10
164.75
 20
70.45
 30
0.0
 11
165.15
 21
70.45
 31
0.0
  0
LINE
  8
0
  6
CONTINUOUS
 62
     1
 10
162.75
 20
70.45
 30
0.0
 11
160.0
 21
70.45
 31
0.0
  0
LINE
  8
0
  6
CONTINUOUS
 62
     1
 10
160.0
 20
70.45
 30
0.0
 11
160.0
 21
99.55
 31
0.0
  0
LINE
  8
0
  6
CONTINUOUS
 62
     1
 10
160.0
 20
99.55
 30
0.0
 11
162.75
 21
99.55
 31
0.0
  0
LINE
  8
0
  6
CONTINUOUS
 62
     2
 10
162.75
 20
99.55
 30
0.0
 11
164.75
 21
99.55
 31
0.0
  0
LINE
  8
0
  6
CONTINUOUS
 62
     2
 10
162.75
 20
70.45
 30
0.0
 11
164.75
 21
70.45
 31
0.0
  0
LINE
  8
0
  6
CONTINUOUS
 62
     2
 10
169.7
 20
74.4
 30
0.0
 11
168.0
 21
74.4
 31
0.0
  0
LINE
  8
0
  6
CONTINUOUS
 62
     2
 10
169.7
 20
95.6
 30
0.0
 11
169.7
 21
74.4
 31
0.0
  0
LINE
  8
0
  6
CONTINUOUS
 62
     2
 10
168.0
 20
74.4
 30
0.0
 11
168.0
 21
95.6
 31
0.0
  0
LINE
  8
0
  6
CONTINUOUS
 62
     2
 10
168.0
 20
95.6
 30
0.0
 11
169.7
 21
95.6
 31
0.0
  0
LINE
  8
0
  6
CONTINUOUS
 62
     2
 10
170.25
 20
94.55
 30
0.0
 11
176.25
 21
94.55
 31
0.0
  0
LINE
  8
0
  6
CONTINUOUS
 62
     2
 10
174.25
 20
94.55
 30
0.0
 11
174.897047613
 21
96.964814566
 31
0.0
  0
LINE
  8
0
  6
CONTINUOUS
 62
     2
 10
174.25
 20
94.55
 30
0.0
 11
173.602952387
 21
96.964814566
 31
0.0
  0
LINE
  8
0
  6
CONTINUOUS
 62
     2
 10
174.25
 20
98.3
 30
0.0
 11
174.25
 21
94.55
 31
0.0
  0
LINE
  8
0
  6
CONTINUOUS
 62
     2
 10
174.25
 20
94.55
 30
0.0
 11
174.25
 21
90.45
 31
0.0
  0
LINE
  8
0
  6
CONTINUOUS
 62
     2
 10
174.25
 20
90.45
 30
0.0
 11
174.25
 21
86.7
 31
0.0
  0
LINE
  8
0
  6
CONTINUOUS
 62
     2
 10
174.25
 20
90.45
 30
0.0
 11
173.602952387
 21
88.035185434
 31
0.0
  0
LINE
  8
0
  6
CONTINUOUS
 62
     2
 10
174.25
 20
90.45
 30
0.0
 11
174.897047613
 21
88.035185434
 31
0.0
  0
LINE
  8
0
  6
CONTINUOUS
 62
     2
 10
170.25
 20
90.45
 30
0.0
 11
176.25
 21
90.45
 31
0.0
  0
TEXT
  8
0
  6
CONTINUOUS
 62
     2
 10
173.25
 20
90.5
 30
0.2
 40
3.0
  1
８．２
 50
90.0
 41
0.5
 51
0.0
  7
KANJI4
  0
LINE
  8
0
  6
CONTINUOUS
 62
     2
 10
166.59
 20
87.568282402
 30
0.0
 11
167.237047613
 21
85.153467837
 31
0.0
  0
LINE
  8
0
  6
CONTINUOUS
 62
     2
 10
166.59
 20
87.568282402
 30
0.0
 11
168.357766953
 21
85.800515449
 31
0.0
  0
LINE
  8
0
  6
CONTINUOUS
 62
     2
 10
166.59
 20
87.568282402
 30
0.0
 11
170.631451884
 21
80.568282402
 31
0.0
  0
TEXT
  8
0
  6
CONTINUOUS
 62
     2
 10
170.631451884
 20
81.568282402
 30
0.3
 40
3.0
  1
Ｍ３ネジ
 50
0.0
 41
0.6
 51
0.0
  7
KANJI0
  0
LINE
  8
0
  6
CONTINUOUS
 62
     2
 10
170.631451884
 20
80.568282402
 30
0.0
 11
178.631451884
 21
80.568282402
 31
0.0
  0
LINE
  8
0
  6
CONTINUOUS
 62
     2
 10
169.7
 20
76.650961894
 30
0.0
 11
170.347047613
 21
74.236147329
 31
0.0
  0
LINE
  8
0
  6
CONTINUOUS
 62
     2
 10
169.7
 20
76.650961894
 30
0.0
 11
171.467766953
 21
74.883194941
 31
0.0
  0
TEXT
  8
0
  6
CONTINUOUS
 62
     2
 10
172.586751346
 20
72.650961894
 30
0.3
 40
3.0
  1
端子カバー
 50
0.0
 41
0.666666667
 51
0.0
  7
KANJI5
  0
LINE
  8
0
  6
CONTINUOUS
 62
     2
 10
172.586751346
 20
71.650961894
 30
0.0
 11
183.786751346
 21
71.650961894
 31
0.0
  0
LINE
  8
0
  6
CONTINUOUS
 62
     2
 10
169.7
 20
76.650961894
 30
0.0
 11
172.586751346
 21
71.650961894
 31
0.0
  0
TEXT
  8
0
  6
CONTINUOUS
 62
     2
 10
183.281803249
 20
89.0
 30
0.3
 40
3.0
  1
１３０
 50
90.0
 41
0.6
 51
0.0
  7
KANJI0
  0
LINE
  8
0
  6
LTYPE2
 62
     2
 10
163.25
 20
72.5
 30
0.0
 11
167.75
 21
72.5
 31
0.0
  0
LINE
  8
0
  6
LTYPE2
 62
     2
 10
163.25
 20
77.5
 30
0.0
 11
167.75
 21
77.5
 31
0.0
  0
LINE
  8
0
  6
LTYPE2
 62
     2
 10
163.25
 20
82.5
 30
0.0
 11
167.75
 21
82.5
 31
0.0
  0
LINE
  8
0
  6
LTYPE2
 62
     2
 10
163.25
 20
87.5
 30
0.0
 11
167.75
 21
87.5
 31
0.0
  0
LINE
  8
0
  6
LTYPE2
 62
     2
 10
163.25
 20
92.5
 30
0.0
 11
167.75
 21
92.5
 31
0.0
  0
LINE
  8
0
  6
LTYPE2
 62
     2
 10
163.25
 20
97.5
 30
0.0
 11
167.75
 21
97.5
 31
0.0
  0
LINE
  8
0
  6
CONTINUOUS
 62
     2
 10
68.75
 20
168.125
 30
0.0
 11
64.75
 21
168.125
 31
0.0
  0
LINE
  8
0
  6
CONTINUOUS
 62
     2
 10
68.75
 20
168.125
 30
0.0
 11
68.75
 21
170.875
 31
0.0
  0
LINE
  8
0
  6
CONTINUOUS
 62
     2
 10
68.75
 20
170.875
 30
0.0
 11
65.0
 21
170.875
 31
0.0
  0
LINE
  8
0
  6
CONTINUOUS
 62
     2
 10
64.75
 20
171.875
 30
0.0
 11
64.75
 21
173.375
 31
0.0
  0
LINE
  8
0
  6
CONTINUOUS
 62
     2
 10
64.75
 20
173.375
 30
0.0
 11
65.0
 21
173.375
 31
0.0
  0
LINE
  8
0
  6
CONTINUOUS
 62
     2
 10
64.875
 20
173.375
 30
0.0
 11
66.642766953
 21
175.142766953
 31
0.0
  0
LINE
  8
0
  6
CONTINUOUS
 62
     2
 10
64.875
 20
173.375
 30
0.0
 11
65.522047613
 21
175.789814566
 31
0.0
  0
LINE
  8
0
  6
CONTINUOUS
 62
     2
 10
64.875
 20
173.375
 30
0.0
 11
66.607050808
 21
176.375
 31
0.0
  0
LINE
  8
0
  6
CONTINUOUS
 62
     2
 10
65.0
 20
173.375
 30
0.0
 11
65.0
 21
168.125
 31
0.0
  0
LINE
  8
0
  6
CONTINUOUS
 62
     2
 10
68.75
 20
154.875
 30
0.0
 11
64.75
 21
154.875
 31
0.0
  0
LINE
  8
0
  6
CONTINUOUS
 62
     2
 10
68.75
 20
154.875
 30
0.0
 11
68.75
 21
152.125
 31
0.0
  0
LINE
  8
0
  6
CONTINUOUS
 62
     2
 10
68.75
 20
152.125
 30
0.0
 11
65.0
 21
152.125
 31
0.0
  0
LINE
  8
0
  6
CONTINUOUS
 62
     2
 10
64.75
 20
151.125
 30
0.0
 11
64.75
 21
149.625
 31
0.0
  0
LINE
  8
0
  6
CONTINUOUS
 62
     2
 10
64.75
 20
149.625
 30
0.0
 11
65.0
 21
149.625
 31
0.0
  0
LINE
  8
0
  6
CONTINUOUS
 62
     2
 10
65.0
 20
149.625
 30
0.0
 11
65.0
 21
154.875
 31
0.0
  0
LINE
  8
0
  6
CONTINUOUS
 62
     1
 10
65.0
 20
151.375
 30
0.0
 11
78.0
 21
151.375
 31
0.0
  0
LINE
  8
0
  6
CONTINUOUS
 62
     1
 10
41.0
 20
130.0
 30
0.0
 11
42.5
 21
130.0
 31
0.0
  0
ARC
  8
0
  6
CONTINUOUS
 62
     1
 10
42.5
 20
129.5
 30
0.0
 40
0.5
 50
0.0
 51
90.0
  0
LINE
  8
0
  6
CONTINUOUS
 62
     1
 10
43.0
 20
129.5
 30
0.0
 11
43.0
 21
45.5
 31
0.0
  0
LINE
  8
0
  6
CONTINUOUS
 62
     1
 10
42.5
 20
45.0
 30
0.0
 11
41.0
 21
45.0
 31
0.0
  0
ARC
  8
0
  6
CONTINUOUS
 62
     1
 10
42.5
 20
45.5
 30
0.0
 40
0.5
 50
270.0
 51
360.0
  0
LINE
  8
0
  6
CONTINUOUS
 62
     2
 10
43.1
 20
45.0
 30
0.0
 11
52.5
 21
45.0
 31
0.0
  0
LINE
  8
0
  6
CONTINUOUS
 62
     1
 10
190.0
 20
130.0
 30
0.0
 11
188.5
 21
130.0
 31
0.0
  0
ARC
  8
0
  6
CONTINUOUS
 62
     1
 10
188.5
 20
129.5
 30
0.0
 40
0.5
 50
90.0
 51
180.0
  0
LINE
  8
0
  6
CONTINUOUS
 62
     1
 10
188.0
 20
129.5
 30
0.0
 11
188.0
 21
45.5
 31
0.0
  0
LINE
  8
0
  6
CONTINUOUS
 62
     1
 10
190.0
 20
45.0
 30
0.0
 11
188.5
 21
45.0
 31
0.0
  0
ARC
  8
0
  6
CONTINUOUS
 62
     1
 10
188.5
 20
45.5
 30
0.0
 40
0.5
 50
180.0
 51
270.0
  0
LINE
  8
0
  6
CONTINUOUS
 62
     1
 10
212.0
 20
129.5
 30
0.0
 11
212.0
 21
45.5
 31
0.0
  0
LINE
  8
0
  6
CONTINUOUS
 62
     1
 10
210.0
 20
45.0
 30
0.0
 11
211.5
 21
45.0
 31
0.0
  0
ARC
  8
0
  6
CONTINUOUS
 62
     1
 10
211.5
 20
45.5
 30
0.0
 40
0.5
 50
270.0
 51
360.0
  0
LINE
  8
0
  6
CONTINUOUS
 62
     1
 10
210.0
 20
130.0
 30
0.0
 11
211.5
 21
130.0
 31
0.0
  0
ARC
  8
0
  6
CONTINUOUS
 62
     1
 10
211.5
 20
129.5
 30
0.0
 40
0.5
 50
0.0
 51
90.0
  0
TEXT
  8
0
  6
CONTINUOUS
 62
     5
 10
81.8
 20
77.2
 30
0.05
 40
1.5
  1
ＦＵＬＬ　ＳＣＡＬＥ
 50
0.0
 41
0.4
 51
0.0
  7
KANJI11
  0
TEXT
  8
0
  6
CONTINUOUS
 62
     5
 10
82.0
 20
74.2
 30
0.1
 40
1.5
  1
ＡＤＪＵＳＴＥＲ
 50
0.0
 41
0.466666667
 51
0.0
  7
KANJI12
  0
LINE
  8
0
  6
CONTINUOUS
 62
     2
 10
43.0
 20
130.5
 30
0.0
 11
43.0
 21
136.0
 31
0.0
  0
LINE
  8
0
  6
CONTINUOUS
 62
     2
 10
43.0
 20
134.0
 30
0.0
 11
45.414814566
 21
134.647047613
 31
0.0
  0
LINE
  8
0
  6
CONTINUOUS
 62
     2
 10
43.0
 20
134.0
 30
0.0
 11
45.414814566
 21
133.352952387
 31
0.0
  0
TEXT
  8
0
  6
CONTINUOUS
 62
     2
 10
41.35
 20
135.0
 30
0.3
 40
3.0
  1
３
 50
0.0
 41
0.6
 51
0.0
  7
KANJI0
  0
LINE
  8
0
  6
CONTINUOUS
 62
     2
 10
47.414814566
 20
134.0
 30
0.0
 11
20.5
 21
134.0
 31
0.0
  0
TEXT
  8
0
  6
CONTINUOUS
 62
     2
 10
107.5
 20
145.0
 30
0.3
 40
3.0
  1
２２９．５
 50
0.0
 41
0.6
 51
0.0
  7
KANJI0
  0
LINE
  8
0
  6
CONTINUOUS
 62
     2
 10
216.5
 20
82.5
 30
0.0
 11
217.147047613
 21
84.914814566
 31
0.0
  0
LINE
  8
0
  6
CONTINUOUS
 62
     2
 10
216.5
 20
82.5
 30
0.0
 11
215.852952387
 21
84.914814566
 31
0.0
  0
LINE
  8
0
  6
CONTINUOUS
 62
     2
 10
216.5
 20
86.25
 30
0.0
 11
216.5
 21
82.5
 31
0.0
  0
LINE
  8
0
  6
CONTINUOUS
 62
     2
 10
216.5
 20
82.5
 30
0.0
 11
216.5
 21
77.5
 31
0.0
  0
LINE
  8
0
  6
CONTINUOUS
 62
     2
 10
216.5
 20
77.5
 30
0.0
 11
216.5
 21
73.75
 31
0.0
  0
LINE
  8
0
  6
CONTINUOUS
 62
     2
 10
216.5
 20
77.5
 30
0.0
 11
215.852952387
 21
75.085185434
 31
0.0
  0
LINE
  8
0
  6
CONTINUOUS
 62
     2
 10
216.5
 20
77.5
 30
0.0
 11
217.147047613
 21
75.085185434
 31
0.0
  0
TEXT
  8
0
  6
CONTINUOUS
 62
     2
 10
215.5
 20
78.05
 30
0.3
 40
3.0
  1
１０
 50
90.0
 41
0.6
 51
0.0
  7
KANJI0
  0
LINE
  8
0
  6
CONTINUOUS
 62
     2
 10
202.9
 20
82.5
 30
0.0
 11
218.5
 21
82.5
 31
0.0
  0
LINE
  8
0
  6
CONTINUOUS
 62
     2
 10
202.9
 20
77.5
 30
0.0
 11
218.5
 21
77.5
 31
0.0
  0
LINE
  8
0
  6
CONTINUOUS
 62
     2
 10
224.18
 20
133.25
 30
0.0
 11
223.532952387
 21
130.835185434
 31
0.0
  0
LINE
  8
0
  6
CONTINUOUS
 62
     2
 10
224.18
 20
133.25
 30
0.0
 11
224.827047613
 21
130.835185434
 31
0.0
  0
LINE
  8
0
  6
CONTINUOUS
 62
     2
 10
224.18
 20
133.25
 30
0.0
 11
224.18
 21
41.75
 31
0.0
  0
LINE
  8
0
  6
CONTINUOUS
 62
     2
 10
224.18
 20
41.75
 30
0.0
 11
224.827047613
 21
44.164814566
 31
0.0
  0
LINE
  8
0
  6
CONTINUOUS
 62
     2
 10
224.18
 20
41.75
 30
0.0
 11
223.532952387
 21
44.164814566
 31
0.0
  0
LINE
  8
0
  6
CONTINUOUS
 62
     2
 10
207.25
 20
41.75
 30
0.0
 11
226.18
 21
41.75
 31
0.0
  0
TEXT
  8
0
  6
CONTINUOUS
 62
     2
 10
223.18
 20
84.5
 30
0.3
 40
3.0
  1
１８３
 50
90.0
 41
0.6
 51
0.0
  7
KANJI0
  0
LINE
  8
0
  6
CONTINUOUS
 62
     2
 10
219.945
 20
46.75
 30
0.0
 11
219.945
 21
128.25
 31
0.0
  0
TEXT
  8
0
  6
CONTINUOUS
 62
     2
 10
218.945
 20
85.5
 30
0.3
 40
3.0
  1
１６３
 50
90.0
 41
0.6
 51
0.0
  7
KANJI0
  0
LINE
  8
0
  6
CONTINUOUS
 62
     2
 10
219.945
 20
46.75
 30
0.0
 11
220.592047613
 21
49.164814566
 31
0.0
  0
LINE
  8
0
  6
CONTINUOUS
 62
     2
 10
219.945
 20
46.75
 30
0.0
 11
219.297952387
 21
49.164814566
 31
0.0
  0
LINE
  8
0
  6
CONTINUOUS
 62
     2
 10
219.945
 20
128.25
 30
0.0
 11
219.297952387
 21
125.835185434
 31
0.0
  0
LINE
  8
0
  6
CONTINUOUS
 62
     2
 10
219.945
 20
128.25
 30
0.0
 11
220.592047613
 21
125.835185434
 31
0.0
  0
LINE
  8
0
  6
CONTINUOUS
 62
     2
 10
207.25
 20
133.25
 30
0.0
 11
226.0
 21
133.25
 31
0.0
  0
TEXT
  8
0
  6
CONTINUOUS
 62
     3
 10
235.0
 20
12.0
 30
0.2
 40
5.8
  1
ＭＳ－１２２３１
 50
0.0
 41
0.827586207
 51
0.0
  7
KANJI13
  0
TEXT
  8
0
  6
CONTINUOUS
 62
     2
 10
199.0
 20
152.15
 30
0.3
 40
3.0
  1
（１８５）
 50
90.0
 41
0.6
 51
0.0
  7
KANJI0
  0
TEXT
  8
0
  6
CONTINUOUS
 62
     1
 10
237.15
 20
21.0
 30
0.4
 40
4.0
  1
縁　形　計　器
 50
0.0
 41
0.9
 51
0.0
  7
KANJI14
  0
TEXT
  8
0
  6
CONTINUOUS
 62
     2
 10
237.15
 20
26.0
 30
0.3
 40
3.0
  1
端子カバー付
 50
0.0
 41
0.9
 51
0.0
  7
KANJI1
  0
TEXT
  8
0
  6
CONTINUOUS
 62
     6
 10
235.95
 20
35.45
 30
0.6
 40
6.0
  1
□ＥＦ－１７Ｗ
 50
0.0
 41
0.9
 51
0.0
  7
KANJI15
  0
ENDSEC
  0
EOF
