  0
SECTION
  2
HEADER
  9
$ACADVER
  1
AC1009
  9
$DWGCODEPAGE
  3
dos932
  9
$EXTMIN
 10
0.0
 20
0.0
 30
0.0
  9
$EXTMAX
 10
297.0
 20
210.0
 30
0.0
  9
$LIMMIN
 10
0.0
 20
0.0
  9
$LIMMAX
 10
297.0
 20
210.0
  9
$LTSCALE
 40
1.0
  9
$PDMODE
 70
     0
  0
ENDSEC
  0
SECTION
  2
TABLES
  0
TABLE
  2
VPORT
 70
     1
  0
VPORT
  2
*ACTIVE
 70
     0
 10
0.0
 20
0.0
 11
1.0
 21
1.0
 12
148.5
 22
105.0
 13
0.0
 23
0.0
 14
10.0
 24
10.0
 15
10.0
 25
10.0
 16
0.0
 26
0.0
 36
1.0
 17
0.0
 27
0.0
 37
0.0
 40
297.0
 41
1.414285714
 42
50.0
 43
0.0
 44
0.0
 50
0.0
 51
0.0
 71
     0
 72
  1000
 73
     1
 74
     3
 75
     0
 76
     0
 77
     0
 78
     0
  0
ENDTAB
  0
TABLE
  2
LTYPE
 70
     4
  0
LTYPE
  2
CONTINUOUS
 70
    64
  3
Solid line
 72
    65
 73
     0
 40
0.0
  0
LTYPE
  2
LTYPE1
 70
    64
  3
CENTER
 72
    65
 73
     4
 40
8.0
 49
5.6
 49
-0.8
 49
0.8
 49
-0.8
  0
LTYPE
  2
LTYPE2
 70
    64
  3
HIDDEN
 72
    65
 73
     2
 40
2.0
 49
1.2
 49
-0.8
  0
LTYPE
  2
LTYPE3
 70
    64
  3
PHANTOM
 72
    65
 73
     6
 40
8.0
 49
6.0
 49
-0.4
 49
0.4
 49
-0.4
 49
0.4
 49
-0.4
  0
ENDTAB
  0
TABLE
  2
LAYER
 70
   128
  0
LAYER
  2
0
 70
     0
 62
     7
  6
CONTINUOUS
  0
LAYER
  2
2
 70
     0
 62
     7
  6
CONTINUOUS
  0
LAYER
  2
3
 70
     0
 62
     7
  6
CONTINUOUS
  0
LAYER
  2
4
 70
     0
 62
     7
  6
CONTINUOUS
  0
LAYER
  2
5
 70
     0
 62
     7
  6
CONTINUOUS
  0
LAYER
  2
6
 70
     0
 62
     7
  6
CONTINUOUS
  0
LAYER
  2
7
 70
     0
 62
     7
  6
CONTINUOUS
  0
LAYER
  2
8
 70
     0
 62
     7
  6
CONTINUOUS
  0
LAYER
  2
9
 70
     0
 62
     7
  6
CONTINUOUS
  0
LAYER
  2
10
 70
     0
 62
     7
  6
CONTINUOUS
  0
LAYER
  2
11
 70
     0
 62
     7
  6
CONTINUOUS
  0
LAYER
  2
12
 70
     0
 62
     7
  6
CONTINUOUS
  0
LAYER
  2
13
 70
     0
 62
     7
  6
CONTINUOUS
  0
LAYER
  2
14
 70
     0
 62
     7
  6
CONTINUOUS
  0
LAYER
  2
15
 70
     0
 62
     7
  6
CONTINUOUS
  0
LAYER
  2
16
 70
     0
 62
     7
  6
CONTINUOUS
  0
LAYER
  2
17
 70
     0
 62
     7
  6
CONTINUOUS
  0
LAYER
  2
18
 70
     0
 62
     7
  6
CONTINUOUS
  0
LAYER
  2
19
 70
     0
 62
     7
  6
CONTINUOUS
  0
LAYER
  2
20
 70
     0
 62
     7
  6
CONTINUOUS
  0
LAYER
  2
21
 70
     0
 62
     7
  6
CONTINUOUS
  0
LAYER
  2
22
 70
     0
 62
     7
  6
CONTINUOUS
  0
LAYER
  2
23
 70
     0
 62
     7
  6
CONTINUOUS
  0
LAYER
  2
24
 70
     0
 62
     7
  6
CONTINUOUS
  0
LAYER
  2
25
 70
     0
 62
     7
  6
CONTINUOUS
  0
LAYER
  2
26
 70
     0
 62
     7
  6
CONTINUOUS
  0
LAYER
  2
27
 70
     0
 62
     7
  6
CONTINUOUS
  0
LAYER
  2
28
 70
     0
 62
     7
  6
CONTINUOUS
  0
LAYER
  2
29
 70
     0
 62
     7
  6
CONTINUOUS
  0
LAYER
  2
30
 70
     0
 62
     7
  6
CONTINUOUS
  0
LAYER
  2
31
 70
     0
 62
     7
  6
CONTINUOUS
  0
LAYER
  2
32
 70
     0
 62
     7
  6
CONTINUOUS
  0
LAYER
  2
33
 70
     0
 62
     7
  6
CONTINUOUS
  0
LAYER
  2
34
 70
     0
 62
     7
  6
CONTINUOUS
  0
LAYER
  2
35
 70
     0
 62
     7
  6
CONTINUOUS
  0
LAYER
  2
36
 70
     0
 62
     7
  6
CONTINUOUS
  0
LAYER
  2
37
 70
     0
 62
     7
  6
CONTINUOUS
  0
LAYER
  2
38
 70
     0
 62
     7
  6
CONTINUOUS
  0
LAYER
  2
39
 70
     0
 62
     7
  6
CONTINUOUS
  0
LAYER
  2
40
 70
     0
 62
     7
  6
CONTINUOUS
  0
LAYER
  2
41
 70
     0
 62
     7
  6
CONTINUOUS
  0
LAYER
  2
42
 70
     0
 62
     7
  6
CONTINUOUS
  0
LAYER
  2
43
 70
     0
 62
     7
  6
CONTINUOUS
  0
LAYER
  2
44
 70
     0
 62
     7
  6
CONTINUOUS
  0
LAYER
  2
45
 70
     0
 62
     7
  6
CONTINUOUS
  0
LAYER
  2
46
 70
     0
 62
     7
  6
CONTINUOUS
  0
LAYER
  2
47
 70
     0
 62
     7
  6
CONTINUOUS
  0
LAYER
  2
48
 70
     0
 62
     7
  6
CONTINUOUS
  0
LAYER
  2
49
 70
     0
 62
     7
  6
CONTINUOUS
  0
LAYER
  2
50
 70
     0
 62
     7
  6
CONTINUOUS
  0
LAYER
  2
51
 70
     0
 62
     7
  6
CONTINUOUS
  0
LAYER
  2
52
 70
     0
 62
     7
  6
CONTINUOUS
  0
LAYER
  2
53
 70
     0
 62
     7
  6
CONTINUOUS
  0
LAYER
  2
54
 70
     0
 62
     7
  6
CONTINUOUS
  0
LAYER
  2
55
 70
     0
 62
     7
  6
CONTINUOUS
  0
LAYER
  2
56
 70
     0
 62
     7
  6
CONTINUOUS
  0
LAYER
  2
57
 70
     0
 62
     7
  6
CONTINUOUS
  0
LAYER
  2
58
 70
     0
 62
     7
  6
CONTINUOUS
  0
LAYER
  2
59
 70
     0
 62
     7
  6
CONTINUOUS
  0
LAYER
  2
60
 70
     0
 62
     7
  6
CONTINUOUS
  0
LAYER
  2
61
 70
     0
 62
     7
  6
CONTINUOUS
  0
LAYER
  2
62
 70
     0
 62
     7
  6
CONTINUOUS
  0
LAYER
  2
63
 70
     0
 62
     7
  6
CONTINUOUS
  0
LAYER
  2
64
 70
     0
 62
     7
  6
CONTINUOUS
  0
LAYER
  2
65
 70
     0
 62
     7
  6
CONTINUOUS
  0
LAYER
  2
66
 70
     0
 62
     7
  6
CONTINUOUS
  0
LAYER
  2
67
 70
     0
 62
     7
  6
CONTINUOUS
  0
LAYER
  2
68
 70
     0
 62
     7
  6
CONTINUOUS
  0
LAYER
  2
69
 70
     0
 62
     7
  6
CONTINUOUS
  0
LAYER
  2
70
 70
     0
 62
     7
  6
CONTINUOUS
  0
LAYER
  2
71
 70
     0
 62
     7
  6
CONTINUOUS
  0
LAYER
  2
72
 70
     0
 62
     7
  6
CONTINUOUS
  0
LAYER
  2
73
 70
     0
 62
     7
  6
CONTINUOUS
  0
LAYER
  2
74
 70
     0
 62
     7
  6
CONTINUOUS
  0
LAYER
  2
75
 70
     0
 62
     7
  6
CONTINUOUS
  0
LAYER
  2
76
 70
     0
 62
     7
  6
CONTINUOUS
  0
LAYER
  2
77
 70
     0
 62
     7
  6
CONTINUOUS
  0
LAYER
  2
78
 70
     0
 62
     7
  6
CONTINUOUS
  0
LAYER
  2
79
 70
     0
 62
     7
  6
CONTINUOUS
  0
LAYER
  2
80
 70
     0
 62
     7
  6
CONTINUOUS
  0
LAYER
  2
81
 70
     0
 62
     7
  6
CONTINUOUS
  0
LAYER
  2
82
 70
     0
 62
     7
  6
CONTINUOUS
  0
LAYER
  2
83
 70
     0
 62
     7
  6
CONTINUOUS
  0
LAYER
  2
84
 70
     0
 62
     7
  6
CONTINUOUS
  0
LAYER
  2
85
 70
     0
 62
     7
  6
CONTINUOUS
  0
LAYER
  2
86
 70
     0
 62
     7
  6
CONTINUOUS
  0
LAYER
  2
87
 70
     0
 62
     7
  6
CONTINUOUS
  0
LAYER
  2
88
 70
     0
 62
     7
  6
CONTINUOUS
  0
LAYER
  2
89
 70
     0
 62
     7
  6
CONTINUOUS
  0
LAYER
  2
90
 70
     0
 62
     7
  6
CONTINUOUS
  0
LAYER
  2
91
 70
     0
 62
     7
  6
CONTINUOUS
  0
LAYER
  2
92
 70
     0
 62
     7
  6
CONTINUOUS
  0
LAYER
  2
93
 70
     0
 62
     7
  6
CONTINUOUS
  0
LAYER
  2
94
 70
     0
 62
     7
  6
CONTINUOUS
  0
LAYER
  2
95
 70
     0
 62
     7
  6
CONTINUOUS
  0
LAYER
  2
96
 70
     0
 62
     7
  6
CONTINUOUS
  0
LAYER
  2
97
 70
     0
 62
     7
  6
CONTINUOUS
  0
LAYER
  2
98
 70
     0
 62
     7
  6
CONTINUOUS
  0
LAYER
  2
99
 70
     0
 62
     7
  6
CONTINUOUS
  0
LAYER
  2
100
 70
     0
 62
     7
  6
CONTINUOUS
  0
LAYER
  2
101
 70
     0
 62
     7
  6
CONTINUOUS
  0
LAYER
  2
102
 70
     0
 62
     7
  6
CONTINUOUS
  0
LAYER
  2
103
 70
     0
 62
     7
  6
CONTINUOUS
  0
LAYER
  2
104
 70
     0
 62
     7
  6
CONTINUOUS
  0
LAYER
  2
105
 70
     0
 62
     7
  6
CONTINUOUS
  0
LAYER
  2
106
 70
     0
 62
     7
  6
CONTINUOUS
  0
LAYER
  2
107
 70
     0
 62
     7
  6
CONTINUOUS
  0
LAYER
  2
108
 70
     0
 62
     7
  6
CONTINUOUS
  0
LAYER
  2
109
 70
     0
 62
     7
  6
CONTINUOUS
  0
LAYER
  2
110
 70
     0
 62
     7
  6
CONTINUOUS
  0
LAYER
  2
111
 70
     0
 62
     7
  6
CONTINUOUS
  0
LAYER
  2
112
 70
     0
 62
     7
  6
CONTINUOUS
  0
LAYER
  2
113
 70
     0
 62
     7
  6
CONTINUOUS
  0
LAYER
  2
114
 70
     0
 62
     7
  6
CONTINUOUS
  0
LAYER
  2
115
 70
     0
 62
     7
  6
CONTINUOUS
  0
LAYER
  2
116
 70
     0
 62
     7
  6
CONTINUOUS
  0
LAYER
  2
117
 70
     0
 62
     7
  6
CONTINUOUS
  0
LAYER
  2
118
 70
     0
 62
     7
  6
CONTINUOUS
  0
LAYER
  2
119
 70
     0
 62
     7
  6
CONTINUOUS
  0
LAYER
  2
120
 70
     0
 62
     7
  6
CONTINUOUS
  0
LAYER
  2
121
 70
     0
 62
     7
  6
CONTINUOUS
  0
LAYER
  2
122
 70
     0
 62
     7
  6
CONTINUOUS
  0
LAYER
  2
123
 70
     0
 62
     7
  6
CONTINUOUS
  0
LAYER
  2
124
 70
     0
 62
     7
  6
CONTINUOUS
  0
LAYER
  2
125
 70
     0
 62
     7
  6
CONTINUOUS
  0
LAYER
  2
126
 70
     0
 62
     7
  6
CONTINUOUS
  0
LAYER
  2
127
 70
     0
 62
     7
  6
CONTINUOUS
  0
LAYER
  2
128
 70
     0
 62
     7
  6
CONTINUOUS
  0
ENDTAB
  0
TABLE
  2
STYLE
 70
    16
  0
STYLE
  2
STANDARD
 70
     0
 40
0.0
 41
1.0
 50
0.0
 71
     0
 42
0.2
  3
txt.shx
  4
extfont.shx
  0
STYLE
  2
KANJI0
 70
     0
 40
3.0
 41
0.6
 50
0.0
 71
     0
 42
3.0
  3
txt.shx
  4
extfont.shx
  0
STYLE
  2
KANJI1
 70
     0
 40
3.0
 41
0.9
 50
0.0
 71
     0
 42
3.0
  3
txt.shx
  4
extfont.shx
  0
STYLE
  2
KANJI2
 70
     0
 40
2.5
 41
0.9
 50
0.0
 71
     0
 42
2.5
  3
txt.shx
  4
extfont.shx
  0
STYLE
  2
KANJI3
 70
     0
 40
2.0
 41
0.8
 50
0.0
 71
     0
 42
2.0
  3
txt.shx
  4
extfont.shx
  0
STYLE
  2
KANJI4
 70
     0
 40
3.0
 41
0.9
 50
0.0
 71
     0
 42
3.0
  3
txt.shx
  4
extfont.shx
  0
STYLE
  2
KANJI5
 70
     0
 40
3.0
 41
0.8
 50
0.0
 71
     0
 42
3.0
  3
txt.shx
  4
extfont.shx
  0
STYLE
  2
KANJI6
 70
     0
 40
3.0
 41
0.5
 50
0.0
 71
     0
 42
3.0
  3
txt.shx
  4
extfont.shx
  0
STYLE
  2
KANJI7
 70
     0
 40
1.5
 41
0.666666667
 50
0.0
 71
     0
 42
1.5
  3
txt.shx
  4
extfont.shx
  0
STYLE
  2
KANJI8
 70
     0
 40
1.0
 41
0.75
 50
0.0
 71
     0
 42
1.0
  3
txt.shx
  4
extfont.shx
  0
STYLE
  2
KANJI9
 70
     0
 40
1.0
 41
0.75
 50
0.0
 71
     0
 42
1.0
  3
txt.shx
  4
extfont.shx
  0
STYLE
  2
KANJI10
 70
     0
 40
5.8
 41
0.827586207
 50
0.0
 71
     0
 42
5.8
  3
txt.shx
  4
extfont.shx
  0
STYLE
  2
KANJI11
 70
     0
 40
5.0
 41
0.9
 50
0.0
 71
     0
 42
5.0
  3
txt.shx
  4
extfont.shx
  0
STYLE
  2
KANJI12
 70
     0
 40
6.0
 41
0.9
 50
0.0
 71
     0
 42
6.0
  3
txt.shx
  4
extfont.shx
  0
STYLE
  2
KANJI13
 70
     0
 40
1.8
 41
0.6
 50
0.0
 71
     0
 42
1.8
  3
txt.shx
  4
extfont.shx
  0
STYLE
  2
KANJI14
 70
     4
 40
3.0
 41
0.9
 50
0.0
 71
     0
 42
3.0
  3
txt.shx
  4
extfont.shx
  0
ENDTAB
  0
TABLE
  2
VIEW
 70
     0
  0
ENDTAB
  0
ENDSEC
  0
SECTION
  2
BLOCKS
  0
ENDSEC
  0
SECTION
  2
ENTITIES
  0
LINE
  8
0
  6
CONTINUOUS
 62
     2
 10
-11.865334795
 20
-5.0
 30
0.0
 11
-11.218287182
 21
-7.414814566
 31
0.0
  0
LINE
  8
0
  6
CONTINUOUS
 62
     2
 10
-11.865334795
 20
-5.0
 30
0.0
 11
-10.097567842
 21
-6.767766953
 31
0.0
  0
LINE
  8
0
  6
CONTINUOUS
 62
     2
 10
-11.865334795
 20
-5.0
 30
0.0
 11
-12.512382407
 21
-2.585185434
 31
0.0
  0
LINE
  8
0
  6
CONTINUOUS
 62
     2
 10
-11.865334795
 20
-5.0
 30
0.0
 11
-13.633101748
 21
-3.232233047
 31
0.0
  0
LINE
  8
0
  6
CONTINUOUS
 62
     2
 10
-7.535207776
 20
-2.5
 30
0.0
 11
-13.597385602
 21
-6.0
 31
0.0
  0
LINE
  8
0
  6
CONTINUOUS
 62
     2
 10
-7.535207776
 20
-2.5
 30
0.0
 11
-13.597385602
 21
-6.0
 31
0.0
  0
TEXT
  8
0
  6
CONTINUOUS
 62
     2
 10
-11.756360199
 20
-7.188749537
 30
0.3
 40
3.0
  1
０゜
 50
120.0
 41
0.6
 51
0.0
  7
KANJI0
  0
LINE
  8
0
  6
CONTINUOUS
 62
     1
 10
164.0
 20
174.425
 30
0.0
 11
164.0
 21
156.575
 31
0.0
  0
LINE
  8
0
  6
CONTINUOUS
 62
     1
 10
65.0
 20
175.5
 30
0.0
 11
65.0
 21
155.5
 31
0.0
  0
ARC
  8
0
  6
CONTINUOUS
 62
     1
 10
165.0
 20
175.0
 30
0.0
 40
0.5
 50
0.0
 51
90.0
  0
ARC
  8
0
  6
CONTINUOUS
 62
     1
 10
165.0
 20
156.0
 30
0.0
 40
0.5
 50
270.0
 51
0.0
  0
LINE
  8
0
  6
CONTINUOUS
 62
     1
 10
164.5
 20
165.75
 30
0.0
 11
165.5
 21
165.75
 31
0.0
  0
LINE
  8
0
  6
CONTINUOUS
 62
     1
 10
165.5
 20
165.75
 30
0.0
 11
165.5
 21
175.0
 31
0.0
  0
LINE
  8
0
  6
CONTINUOUS
 62
     1
 10
165.5
 20
165.25
 30
0.0
 11
164.5
 21
165.25
 31
0.0
  0
LINE
  8
0
  6
CONTINUOUS
 62
     1
 10
165.5
 20
156.0
 30
0.0
 11
165.5
 21
165.25
 31
0.0
  0
LINE
  8
0
  6
CONTINUOUS
 62
     1
 10
164.5
 20
165.25
 30
0.0
 11
164.5
 21
156.5
 31
0.0
  0
LINE
  8
0
  6
CONTINUOUS
 62
     1
 10
164.5
 20
174.5
 30
0.0
 11
164.5
 21
165.75
 31
0.0
  0
LINE
  8
0
  6
CONTINUOUS
 62
     1
 10
67.5
 20
160.25
 30
0.0
 11
67.5
 21
170.75
 31
0.0
  0
LINE
  8
0
  6
CONTINUOUS
 62
     1
 10
69.75
 20
160.25
 30
0.0
 11
69.75
 21
156.75
 31
0.0
  0
LINE
  8
0
  6
CONTINUOUS
 62
     1
 10
67.5
 20
160.25
 30
0.0
 11
69.75
 21
160.25
 31
0.0
  0
LINE
  8
0
  6
CONTINUOUS
 62
     1
 10
69.75
 20
156.75
 30
0.0
 11
65.0
 21
156.75
 31
0.0
  0
LINE
  8
0
  6
CONTINUOUS
 62
     1
 10
65.0
 20
155.5
 30
0.0
 11
69.75
 21
155.5
 31
0.0
  0
LINE
  8
0
  6
CONTINUOUS
 62
     1
 10
65.0
 20
156.5
 30
0.0
 11
69.75
 21
156.5
 31
0.0
  0
LINE
  8
0
  6
CONTINUOUS
 62
     1
 10
69.75
 20
170.75
 30
0.0
 11
69.75
 21
174.25
 31
0.0
  0
LINE
  8
0
  6
CONTINUOUS
 62
     1
 10
69.75
 20
170.5
 30
0.0
 11
70.0
 21
170.5
 31
0.0
  0
LINE
  8
0
  6
CONTINUOUS
 62
     1
 10
67.5
 20
170.75
 30
0.0
 11
69.75
 21
170.75
 31
0.0
  0
LINE
  8
0
  6
CONTINUOUS
 62
     1
 10
69.75
 20
174.25
 30
0.0
 11
65.0
 21
174.25
 31
0.0
  0
LINE
  8
0
  6
CONTINUOUS
 62
     1
 10
69.75
 20
174.5
 30
0.0
 11
65.0
 21
174.5
 31
0.0
  0
LINE
  8
0
  6
CONTINUOUS
 62
     1
 10
69.75
 20
175.5
 30
0.0
 11
65.0
 21
175.5
 31
0.0
  0
LINE
  8
0
  6
CONTINUOUS
 62
     1
 10
164.5
 20
174.5
 30
0.0
 11
70.0
 21
174.5
 31
0.0
  0
LINE
  8
0
  6
CONTINUOUS
 62
     1
 10
165.0
 20
175.5
 30
0.0
 11
70.0
 21
175.5
 31
0.0
  0
LINE
  8
0
  6
CONTINUOUS
 62
     1
 10
74.75
 20
156.5
 30
0.0
 11
74.75
 21
160.5
 31
0.0
  0
LINE
  8
0
  6
CONTINUOUS
 62
     1
 10
78.3
 20
161.25
 30
0.0
 11
78.3
 21
169.75
 31
0.0
  0
LINE
  8
0
  6
CONTINUOUS
 62
     1
 10
156.7
 20
161.25
 30
0.0
 11
156.7
 21
161.25
 31
0.0
  0
LINE
  8
0
  6
CONTINUOUS
 62
     1
 10
77.5
 20
161.25
 30
0.0
 11
156.7
 21
161.25
 31
0.0
  0
LINE
  8
0
  6
CONTINUOUS
 62
     1
 10
156.7
 20
161.25
 30
0.0
 11
156.7
 21
169.75
 31
0.0
  0
LINE
  8
0
  6
CONTINUOUS
 62
     1
 10
156.7
 20
169.75
 30
0.0
 11
77.5
 21
169.75
 31
0.0
  0
LINE
  8
0
  6
CONTINUOUS
 62
     1
 10
155.9
 20
169.75
 30
0.0
 11
155.9
 21
161.25
 31
0.0
  0
LINE
  8
0
  6
CONTINUOUS
 62
     1
 10
75.0
 20
158.5
 30
0.0
 11
75.0
 21
162.0
 31
0.0
  0
LINE
  8
0
  6
CONTINUOUS
 62
     1
 10
75.0
 20
162.0
 30
0.0
 11
76.7
 21
162.0
 31
0.0
  0
LINE
  8
0
  6
CONTINUOUS
 62
     1
 10
75.0
 20
158.5
 30
0.0
 11
77.5
 21
158.5
 31
0.0
  0
LINE
  8
0
  6
CONTINUOUS
 62
     1
 10
77.5
 20
158.5
 30
0.0
 11
77.5
 21
159.25
 31
0.0
  0
LINE
  8
0
  6
CONTINUOUS
 62
     1
 10
77.5
 20
159.25
 30
0.0
 11
76.7
 21
159.25
 31
0.0
  0
LINE
  8
0
  6
CONTINUOUS
 62
     1
 10
76.7
 20
159.25
 30
0.0
 11
77.5
 21
159.25
 31
0.0
  0
LINE
  8
0
  6
CONTINUOUS
 62
     1
 10
76.7
 20
159.25
 30
0.0
 11
76.7
 21
171.75
 31
0.0
  0
LINE
  8
0
  6
CONTINUOUS
 62
     1
 10
77.5
 20
169.75
 30
0.0
 11
156.7
 21
169.75
 31
0.0
  0
LINE
  8
0
  6
CONTINUOUS
 62
     1
 10
75.0
 20
172.5
 30
0.0
 11
75.0
 21
169.0
 31
0.0
  0
LINE
  8
0
  6
CONTINUOUS
 62
     1
 10
75.0
 20
169.0
 30
0.0
 11
76.7
 21
169.0
 31
0.0
  0
LINE
  8
0
  6
CONTINUOUS
 62
     1
 10
75.0
 20
172.5
 30
0.0
 11
77.5
 21
172.5
 31
0.0
  0
LINE
  8
0
  6
CONTINUOUS
 62
     1
 10
77.5
 20
172.5
 30
0.0
 11
77.5
 21
171.75
 31
0.0
  0
LINE
  8
0
  6
CONTINUOUS
 62
     1
 10
77.5
 20
171.75
 30
0.0
 11
76.7
 21
171.75
 31
0.0
  0
LINE
  8
0
  6
CONTINUOUS
 62
     1
 10
76.7
 20
171.75
 30
0.0
 11
77.5
 21
171.75
 31
0.0
  0
LINE
  8
0
  6
CONTINUOUS
 62
     1
 10
76.7
 20
171.75
 30
0.0
 11
76.7
 21
159.25
 31
0.0
  0
LINE
  8
0
  6
CONTINUOUS
 62
     1
 10
77.5
 20
159.25
 30
0.0
 11
77.5
 21
171.75
 31
0.0
  0
LINE
  8
0
  6
CONTINUOUS
 62
     1
 10
74.75
 20
174.5
 30
0.0
 11
74.75
 21
170.5
 31
0.0
  0
LINE
  8
0
  6
CONTINUOUS
 62
     1
 10
74.75
 20
170.5
 30
0.0
 11
70.0
 21
170.5
 31
0.0
  0
POINT
  8
0
  6
CONTINUOUS
 62
     1
 10
72.5
 20
166.5
 30
0.0
  0
LINE
  8
0
  6
CONTINUOUS
 62
     1
 10
72.75
 20
166.75
 30
0.0
 11
72.5
 21
166.5
 31
0.0
  0
POINT
  8
0
  6
CONTINUOUS
 62
     1
 10
72.5
 20
164.5
 30
0.0
  0
LINE
  8
0
  6
CONTINUOUS
 62
     1
 10
72.5
 20
164.5
 30
0.0
 11
72.5
 21
166.5
 31
0.0
  0
LINE
  8
0
  6
CONTINUOUS
 62
     1
 10
72.75
 20
164.25
 30
0.0
 11
72.5
 21
164.5
 31
0.0
  0
LINE
  8
0
  6
CONTINUOUS
 62
     1
 10
162.25
 20
166.75
 30
0.0
 11
162.5
 21
166.5
 31
0.0
  0
LINE
  8
0
  6
CONTINUOUS
 62
     1
 10
162.5
 20
164.5
 30
0.0
 11
162.25
 21
164.25
 31
0.0
  0
LINE
  8
0
  6
CONTINUOUS
 62
     1
 10
162.5
 20
166.5
 30
0.0
 11
162.5
 21
164.5
 31
0.0
  0
LINE
  8
0
  6
CONTINUOUS
 62
     1
 10
72.75
 20
166.75
 30
0.0
 11
76.7
 21
166.75
 31
0.0
  0
LINE
  8
0
  6
CONTINUOUS
 62
     1
 10
72.75
 20
164.25
 30
0.0
 11
76.7
 21
164.25
 31
0.0
  0
LINE
  8
0
  6
CONTINUOUS
 62
     1
 10
78.3
 20
166.75
 30
0.0
 11
155.9
 21
166.75
 31
0.0
  0
LINE
  8
0
  6
CONTINUOUS
 62
     1
 10
78.3
 20
164.25
 30
0.0
 11
155.9
 21
164.25
 31
0.0
  0
LINE
  8
0
  6
CONTINUOUS
 62
     1
 10
69.75
 20
156.5
 30
0.0
 11
69.75
 21
156.5
 31
0.0
  0
LINE
  8
0
  6
CONTINUOUS
 62
     1
 10
27.25
 20
132.5
 30
0.0
 11
44.75
 21
132.5
 31
0.0
  0
LINE
  8
0
  6
CONTINUOUS
 62
     1
 10
44.75
 20
122.25
 30
0.0
 11
27.25
 21
122.25
 31
0.0
  0
LINE
  8
0
  6
CONTINUOUS
 62
     1
 10
44.75
 20
63.75
 30
0.0
 11
27.25
 21
63.75
 31
0.0
  0
LINE
  8
0
  6
CONTINUOUS
 62
     1
 10
44.75
 20
57.5
 30
0.0
 11
44.75
 21
132.5
 31
0.0
  0
LINE
  8
0
  6
CONTINUOUS
 62
     1
 10
44.75
 20
132.5
 30
0.0
 11
46.0
 21
132.5
 31
0.0
  0
LINE
  8
0
  6
CONTINUOUS
 62
     1
 10
26.0
 20
132.5
 30
0.0
 11
27.25
 21
132.5
 31
0.0
  0
LINE
  8
0
  6
CONTINUOUS
 62
     1
 10
27.25
 20
132.5
 30
0.0
 11
27.25
 21
57.5
 31
0.0
  0
LINE
  8
0
  6
CONTINUOUS
 62
     1
 10
26.0
 20
57.5
 30
0.0
 11
26.0
 21
132.5
 31
0.0
  0
LINE
  8
0
  6
CONTINUOUS
 62
     1
 10
26.0
 20
57.5
 30
0.0
 11
46.0
 21
57.5
 31
0.0
  0
LINE
  8
0
  6
CONTINUOUS
 62
     1
 10
25.5
 20
57.5
 30
0.0
 11
26.0
 21
57.5
 31
0.0
  0
ARC
  8
0
  6
CONTINUOUS
 62
     1
 10
25.5
 20
58.5
 30
0.0
 40
1.0
 50
180.0
 51
270.0
  0
LINE
  8
0
  6
CONTINUOUS
 62
     1
 10
26.0
 20
132.5
 30
0.0
 11
25.5
 21
132.5
 31
0.0
  0
LINE
  8
0
  6
CONTINUOUS
 62
     1
 10
24.5
 20
131.5
 30
0.0
 11
24.5
 21
58.5
 31
0.0
  0
ARC
  8
0
  6
CONTINUOUS
 62
     1
 10
25.5
 20
131.5
 30
0.0
 40
1.0
 50
90.0
 51
180.0
  0
LINE
  8
0
  6
CONTINUOUS
 62
     1
 10
46.0
 20
57.5
 30
0.0
 11
46.0
 21
132.5
 31
0.0
  0
ARC
  8
0
  6
CONTINUOUS
 62
     1
 10
65.75
 20
131.75
 30
0.0
 40
0.75
 50
90.0
 51
180.0
  0
LINE
  8
0
  6
CONTINUOUS
 62
     1
 10
69.75
 20
132.5
 30
0.0
 11
65.75
 21
132.5
 31
0.0
  0
LINE
  8
0
  6
CONTINUOUS
 62
     1
 10
164.0
 20
130.75
 30
0.0
 11
164.0
 21
131.25
 31
0.0
  0
LINE
  8
0
  6
CONTINUOUS
 62
     1
 10
70.0
 20
132.5
 30
0.0
 11
69.75
 21
132.5
 31
0.0
  0
ARC
  8
0
  6
CONTINUOUS
 62
     1
 10
65.75
 20
58.25
 30
0.0
 40
0.75
 50
180.0
 51
270.0
  0
LINE
  8
0
  6
CONTINUOUS
 62
     1
 10
69.75
 20
57.5
 30
0.0
 11
65.75
 21
57.5
 31
0.0
  0
LINE
  8
0
  6
CONTINUOUS
 62
     1
 10
164.0
 20
59.25
 30
0.0
 11
164.0
 21
58.75
 31
0.0
  0
LINE
  8
0
  6
CONTINUOUS
 62
     1
 10
155.0
 20
58.75
 30
0.0
 11
75.8
 21
58.75
 31
0.0
  0
LINE
  8
0
  6
CONTINUOUS
 62
     1
 10
70.0
 20
57.5
 30
0.0
 11
69.75
 21
57.5
 31
0.0
  0
LINE
  8
0
  6
CONTINUOUS
 62
     1
 10
165.5
 20
59.25
 30
0.0
 11
165.5
 21
130.75
 31
0.0
  0
LINE
  8
0
  6
CONTINUOUS
 62
     1
 10
76.7
 20
131.25
 30
0.0
 11
76.7
 21
136.25
 31
0.0
  0
LINE
  8
0
  6
CONTINUOUS
 62
     1
 10
76.7
 20
136.25
 30
0.0
 11
77.5
 21
136.25
 31
0.0
  0
LINE
  8
0
  6
CONTINUOUS
 62
     1
 10
77.5
 20
136.25
 30
0.0
 11
77.5
 21
131.25
 31
0.0
  0
LINE
  8
0
  6
CONTINUOUS
 62
     1
 10
77.5
 20
136.25
 30
0.0
 11
78.3
 21
136.25
 31
0.0
  0
LINE
  8
0
  6
CONTINUOUS
 62
     1
 10
78.3
 20
136.25
 30
0.0
 11
78.3
 21
132.05
 31
0.0
  0
LINE
  8
0
  6
CONTINUOUS
 62
     1
 10
78.3
 20
132.05
 30
0.0
 11
155.9
 21
132.05
 31
0.0
  0
LINE
  8
0
  6
CONTINUOUS
 62
     1
 10
156.7
 20
131.25
 30
0.0
 11
77.5
 21
131.25
 31
0.0
  0
LINE
  8
0
  6
CONTINUOUS
 62
     1
 10
72.5
 20
138.0
 30
0.0
 11
72.5
 21
131.75
 31
0.0
  0
LINE
  8
0
  6
CONTINUOUS
 62
     1
 10
72.5
 20
131.75
 30
0.0
 11
70.0
 21
131.75
 31
0.0
  0
LINE
  8
0
  6
CONTINUOUS
 62
     1
 10
70.0
 20
131.75
 30
0.0
 11
70.0
 21
138.5
 31
0.0
  0
LINE
  8
0
  6
CONTINUOUS
 62
     1
 10
72.5
 20
138.0
 30
0.0
 11
72.34375
 21
137.9
 31
0.0
  0
LINE
  8
0
  6
CONTINUOUS
 62
     1
 10
72.34375
 20
137.9
 30
0.0
 11
72.2
 21
137.8
 31
0.0
  0
LINE
  8
0
  6
CONTINUOUS
 62
     1
 10
72.2
 20
137.8
 30
0.0
 11
72.09375
 21
137.69375
 31
0.0
  0
LINE
  8
0
  6
CONTINUOUS
 62
     1
 10
72.09375
 20
137.69375
 30
0.0
 11
72.0
 21
137.6
 31
0.0
  0
LINE
  8
0
  6
CONTINUOUS
 62
     1
 10
72.0
 20
137.6
 30
0.0
 11
71.90625
 21
137.525
 31
0.0
  0
LINE
  8
0
  6
CONTINUOUS
 62
     1
 10
71.90625
 20
137.525
 30
0.0
 11
71.8
 21
137.5
 31
0.0
  0
LINE
  8
0
  6
CONTINUOUS
 62
     1
 10
71.8
 20
137.5
 30
0.0
 11
71.65625
 21
137.58125
 31
0.0
  0
LINE
  8
0
  6
CONTINUOUS
 62
     1
 10
71.65625
 20
137.58125
 30
0.0
 11
71.5
 21
137.7
 31
0.0
  0
LINE
  8
0
  6
CONTINUOUS
 62
     1
 10
71.5
 20
137.7
 30
0.0
 11
71.3375
 21
137.8
 31
0.0
  0
LINE
  8
0
  6
CONTINUOUS
 62
     1
 10
71.3375
 20
137.8
 30
0.0
 11
71.2
 21
137.9
 31
0.0
  0
LINE
  8
0
  6
CONTINUOUS
 62
     1
 10
71.2
 20
137.9
 30
0.0
 11
71.15625
 21
138.025
 31
0.0
  0
LINE
  8
0
  6
CONTINUOUS
 62
     1
 10
71.15625
 20
138.025
 30
0.0
 11
71.1
 21
138.1
 31
0.0
  0
LINE
  8
0
  6
CONTINUOUS
 62
     1
 10
71.1
 20
138.1
 30
0.0
 11
70.9
 21
138.01875
 31
0.0
  0
LINE
  8
0
  6
CONTINUOUS
 62
     1
 10
70.9
 20
138.01875
 30
0.0
 11
70.7
 21
137.9
 31
0.0
  0
LINE
  8
0
  6
CONTINUOUS
 62
     1
 10
70.7
 20
137.9
 30
0.0
 11
70.6375
 21
137.8375
 31
0.0
  0
LINE
  8
0
  6
CONTINUOUS
 62
     1
 10
70.6375
 20
137.8375
 30
0.0
 11
70.6
 21
137.8
 31
0.0
  0
LINE
  8
0
  6
CONTINUOUS
 62
     1
 10
70.6
 20
137.8
 30
0.0
 11
70.50625
 21
137.7625
 31
0.0
  0
LINE
  8
0
  6
CONTINUOUS
 62
     1
 10
70.50625
 20
137.7625
 30
0.0
 11
70.4
 21
137.8
 31
0.0
  0
LINE
  8
0
  6
CONTINUOUS
 62
     1
 10
70.4
 20
137.8
 30
0.0
 11
70.3
 21
138.0375
 31
0.0
  0
LINE
  8
0
  6
CONTINUOUS
 62
     1
 10
70.3
 20
138.0375
 30
0.0
 11
70.2
 21
138.3
 31
0.0
  0
LINE
  8
0
  6
CONTINUOUS
 62
     1
 10
70.2
 20
138.3
 30
0.0
 11
70.1
 21
138.41875
 31
0.0
  0
LINE
  8
0
  6
CONTINUOUS
 62
     1
 10
70.1
 20
138.41875
 30
0.0
 11
70.0
 21
138.5
 31
0.0
  0
LINE
  8
0
  6
CONTINUOUS
 62
     1
 10
72.5
 20
133.8
 30
0.0
 11
72.5
 21
134.9
 31
0.0
  0
POINT
  8
0
  6
CONTINUOUS
 62
     1
 10
72.5
 20
135.15
 30
0.0
  0
LINE
  8
0
  6
CONTINUOUS
 62
     1
 10
72.75
 20
135.4
 30
0.0
 11
72.5
 21
135.15
 31
0.0
  0
POINT
  8
0
  6
CONTINUOUS
 62
     1
 10
72.5
 20
133.15
 30
0.0
  0
LINE
  8
0
  6
CONTINUOUS
 62
     1
 10
72.5
 20
133.15
 30
0.0
 11
72.5
 21
135.15
 31
0.0
  0
LINE
  8
0
  6
CONTINUOUS
 62
     1
 10
72.75
 20
132.9
 30
0.0
 11
72.5
 21
133.15
 31
0.0
  0
LINE
  8
0
  6
CONTINUOUS
 62
     1
 10
162.25
 20
135.5
 30
0.0
 11
162.5
 21
135.25
 31
0.0
  0
LINE
  8
0
  6
CONTINUOUS
 62
     1
 10
162.5
 20
133.25
 30
0.0
 11
162.25
 21
133.0
 31
0.0
  0
LINE
  8
0
  6
CONTINUOUS
 62
     1
 10
162.5
 20
135.25
 30
0.0
 11
162.5
 21
133.25
 31
0.0
  0
LINE
  8
0
  6
CONTINUOUS
 62
     1
 10
78.3
 20
135.4
 30
0.0
 11
155.9
 21
135.4
 31
0.0
  0
LINE
  8
0
  6
CONTINUOUS
 62
     1
 10
78.3
 20
132.9
 30
0.0
 11
155.9
 21
132.9
 31
0.0
  0
LINE
  8
0
  6
CONTINUOUS
 62
     1
 10
72.75
 20
135.4
 30
0.0
 11
76.7
 21
135.4
 31
0.0
  0
LINE
  8
0
  6
CONTINUOUS
 62
     1
 10
72.75
 20
132.9
 30
0.0
 11
76.7
 21
132.9
 31
0.0
  0
LINE
  8
0
  6
CONTINUOUS
 62
     1
 10
164.0
 20
131.25
 30
0.0
 11
70.0
 21
131.25
 31
0.0
  0
LINE
  8
0
  6
CONTINUOUS
 62
     1
 10
69.75
 20
59.25
 30
0.0
 11
69.75
 21
59.25
 31
0.0
  0
LINE
  8
0
  6
CONTINUOUS
 62
     1
 10
165.5
 20
59.25
 30
0.0
 11
70.0
 21
59.25
 31
0.0
  0
LINE
  8
0
  6
CONTINUOUS
 62
     1
 10
164.0
 20
58.75
 30
0.0
 11
70.0
 21
58.75
 31
0.0
  0
LINE
  8
0
  6
CONTINUOUS
 62
     1
 10
69.75
 20
130.75
 30
0.0
 11
69.75
 21
130.75
 31
0.0
  0
LINE
  8
0
  6
CONTINUOUS
 62
     1
 10
165.5
 20
130.75
 30
0.0
 11
70.0
 21
130.75
 31
0.0
  0
LINE
  8
0
  6
CONTINUOUS
 62
     1
 10
65.0
 20
131.75
 30
0.0
 11
65.0
 21
58.25
 31
0.0
  0
ARC
  8
0
  6
CONTINUOUS
 62
     1
 10
180.0
 20
93.0
 30
0.0
 40
119.0
 50
165.102334344
 51
194.897665656
  0
LINE
  8
0
  6
CONTINUOUS
 62
     1
 10
155.9
 20
136.25
 30
0.0
 11
156.7
 21
136.25
 31
0.0
  0
LINE
  8
0
  6
CONTINUOUS
 62
     1
 10
155.9
 20
132.05
 30
0.0
 11
155.9
 21
136.25
 31
0.0
  0
LINE
  8
0
  6
CONTINUOUS
 62
     1
 10
158.7
 20
136.5
 30
0.0
 11
156.7
 21
136.5
 31
0.0
  0
LINE
  8
0
  6
CONTINUOUS
 62
     1
 10
158.7
 20
132.0
 30
0.0
 11
158.7
 21
136.5
 31
0.0
  0
LINE
  8
0
  6
CONTINUOUS
 62
     1
 10
156.7
 20
132.0
 30
0.0
 11
158.7
 21
132.0
 31
0.0
  0
LINE
  8
0
  6
CONTINUOUS
 62
     1
 10
156.7
 20
135.375
 30
0.0
 11
158.3
 21
135.375
 31
0.0
  0
LINE
  8
0
  6
CONTINUOUS
 62
     1
 10
158.3
 20
133.125
 30
0.0
 11
156.7
 21
133.125
 31
0.0
  0
LINE
  8
0
  6
CONTINUOUS
 62
     1
 10
158.7
 20
135.5
 30
0.0
 11
162.25
 21
135.5
 31
0.0
  0
LINE
  8
0
  6
CONTINUOUS
 62
     1
 10
162.25
 20
133.0
 30
0.0
 11
158.7
 21
133.0
 31
0.0
  0
LINE
  8
0
  6
CONTINUOUS
 62
     1
 10
156.7
 20
136.5
 30
0.0
 11
156.7
 21
131.25
 31
0.0
  0
LINE
  8
0
  6
CONTINUOUS
 62
     1
 10
70.0
 20
57.5
 30
0.0
 11
69.75
 21
57.5
 31
0.0
  0
LINE
  8
0
  6
CONTINUOUS
 62
     1
 10
76.7
 20
58.75
 30
0.0
 11
76.7
 21
53.75
 31
0.0
  0
LINE
  8
0
  6
CONTINUOUS
 62
     1
 10
76.7
 20
53.75
 30
0.0
 11
77.5
 21
53.75
 31
0.0
  0
LINE
  8
0
  6
CONTINUOUS
 62
     1
 10
77.5
 20
53.75
 30
0.0
 11
77.5
 21
58.75
 31
0.0
  0
LINE
  8
0
  6
CONTINUOUS
 62
     1
 10
77.5
 20
53.75
 30
0.0
 11
78.3
 21
53.75
 31
0.0
  0
LINE
  8
0
  6
CONTINUOUS
 62
     1
 10
78.3
 20
53.75
 30
0.0
 11
78.3
 21
57.95
 31
0.0
  0
LINE
  8
0
  6
CONTINUOUS
 62
     1
 10
78.3
 20
57.95
 30
0.0
 11
155.9
 21
57.95
 31
0.0
  0
LINE
  8
0
  6
CONTINUOUS
 62
     1
 10
156.7
 20
58.75
 30
0.0
 11
77.5
 21
58.75
 31
0.0
  0
LINE
  8
0
  6
CONTINUOUS
 62
     1
 10
72.5
 20
52.0
 30
0.0
 11
72.5
 21
58.25
 31
0.0
  0
LINE
  8
0
  6
CONTINUOUS
 62
     1
 10
72.5
 20
58.25
 30
0.0
 11
70.0
 21
58.25
 31
0.0
  0
LINE
  8
0
  6
CONTINUOUS
 62
     1
 10
70.0
 20
58.25
 30
0.0
 11
70.0
 21
51.5
 31
0.0
  0
LINE
  8
0
  6
CONTINUOUS
 62
     1
 10
72.5
 20
52.0
 30
0.0
 11
72.34375
 21
52.1
 31
0.0
  0
LINE
  8
0
  6
CONTINUOUS
 62
     1
 10
72.34375
 20
52.1
 30
0.0
 11
72.2
 21
52.2
 31
0.0
  0
LINE
  8
0
  6
CONTINUOUS
 62
     1
 10
72.2
 20
52.2
 30
0.0
 11
72.09375
 21
52.30625
 31
0.0
  0
LINE
  8
0
  6
CONTINUOUS
 62
     1
 10
72.09375
 20
52.30625
 30
0.0
 11
72.0
 21
52.4
 31
0.0
  0
LINE
  8
0
  6
CONTINUOUS
 62
     1
 10
72.0
 20
52.4
 30
0.0
 11
71.90625
 21
52.475
 31
0.0
  0
LINE
  8
0
  6
CONTINUOUS
 62
     1
 10
71.90625
 20
52.475
 30
0.0
 11
71.8
 21
52.5
 31
0.0
  0
LINE
  8
0
  6
CONTINUOUS
 62
     1
 10
71.8
 20
52.5
 30
0.0
 11
71.65625
 21
52.41875
 31
0.0
  0
LINE
  8
0
  6
CONTINUOUS
 62
     1
 10
71.65625
 20
52.41875
 30
0.0
 11
71.5
 21
52.3
 31
0.0
  0
LINE
  8
0
  6
CONTINUOUS
 62
     1
 10
71.5
 20
52.3
 30
0.0
 11
71.3375
 21
52.2
 31
0.0
  0
LINE
  8
0
  6
CONTINUOUS
 62
     1
 10
71.3375
 20
52.2
 30
0.0
 11
71.2
 21
52.1
 31
0.0
  0
LINE
  8
0
  6
CONTINUOUS
 62
     1
 10
71.2
 20
52.1
 30
0.0
 11
71.15625
 21
51.975
 31
0.0
  0
LINE
  8
0
  6
CONTINUOUS
 62
     1
 10
71.15625
 20
51.975
 30
0.0
 11
71.1
 21
51.9
 31
0.0
  0
LINE
  8
0
  6
CONTINUOUS
 62
     1
 10
71.1
 20
51.9
 30
0.0
 11
70.9
 21
51.98125
 31
0.0
  0
LINE
  8
0
  6
CONTINUOUS
 62
     1
 10
70.9
 20
51.98125
 30
0.0
 11
70.7
 21
52.1
 31
0.0
  0
LINE
  8
0
  6
CONTINUOUS
 62
     1
 10
70.7
 20
52.1
 30
0.0
 11
70.6375
 21
52.1625
 31
0.0
  0
LINE
  8
0
  6
CONTINUOUS
 62
     1
 10
70.6375
 20
52.1625
 30
0.0
 11
70.6
 21
52.2
 31
0.0
  0
LINE
  8
0
  6
CONTINUOUS
 62
     1
 10
70.6
 20
52.2
 30
0.0
 11
70.50625
 21
52.2375
 31
0.0
  0
LINE
  8
0
  6
CONTINUOUS
 62
     1
 10
70.50625
 20
52.2375
 30
0.0
 11
70.4
 21
52.2
 31
0.0
  0
LINE
  8
0
  6
CONTINUOUS
 62
     1
 10
70.4
 20
52.2
 30
0.0
 11
70.3
 21
51.9625
 31
0.0
  0
LINE
  8
0
  6
CONTINUOUS
 62
     1
 10
70.3
 20
51.9625
 30
0.0
 11
70.2
 21
51.7
 31
0.0
  0
LINE
  8
0
  6
CONTINUOUS
 62
     1
 10
70.2
 20
51.7
 30
0.0
 11
70.1
 21
51.58125
 31
0.0
  0
LINE
  8
0
  6
CONTINUOUS
 62
     1
 10
70.1
 20
51.58125
 30
0.0
 11
70.0
 21
51.5
 31
0.0
  0
LINE
  8
0
  6
CONTINUOUS
 62
     1
 10
72.5
 20
56.2
 30
0.0
 11
72.5
 21
55.1
 31
0.0
  0
POINT
  8
0
  6
CONTINUOUS
 62
     1
 10
72.5
 20
54.85
 30
0.0
  0
LINE
  8
0
  6
CONTINUOUS
 62
     1
 10
72.75
 20
54.6
 30
0.0
 11
72.5
 21
54.85
 31
0.0
  0
POINT
  8
0
  6
CONTINUOUS
 62
     1
 10
72.5
 20
56.85
 30
0.0
  0
LINE
  8
0
  6
CONTINUOUS
 62
     1
 10
72.5
 20
56.85
 30
0.0
 11
72.5
 21
54.85
 31
0.0
  0
LINE
  8
0
  6
CONTINUOUS
 62
     1
 10
72.75
 20
57.1
 30
0.0
 11
72.5
 21
56.85
 31
0.0
  0
LINE
  8
0
  6
CONTINUOUS
 62
     1
 10
162.25
 20
54.5
 30
0.0
 11
162.5
 21
54.75
 31
0.0
  0
LINE
  8
0
  6
CONTINUOUS
 62
     1
 10
162.5
 20
56.75
 30
0.0
 11
162.25
 21
57.0
 31
0.0
  0
LINE
  8
0
  6
CONTINUOUS
 62
     1
 10
162.5
 20
54.75
 30
0.0
 11
162.5
 21
56.75
 31
0.0
  0
LINE
  8
0
  6
CONTINUOUS
 62
     1
 10
78.3
 20
54.6
 30
0.0
 11
155.9
 21
54.6
 31
0.0
  0
LINE
  8
0
  6
CONTINUOUS
 62
     1
 10
78.3
 20
57.1
 30
0.0
 11
155.9
 21
57.1
 31
0.0
  0
LINE
  8
0
  6
CONTINUOUS
 62
     1
 10
72.75
 20
54.6
 30
0.0
 11
76.7
 21
54.6
 31
0.0
  0
LINE
  8
0
  6
CONTINUOUS
 62
     1
 10
72.75
 20
57.1
 30
0.0
 11
76.7
 21
57.1
 31
0.0
  0
LINE
  8
0
  6
CONTINUOUS
 62
     1
 10
164.0
 20
58.75
 30
0.0
 11
70.0
 21
58.75
 31
0.0
  0
LINE
  8
0
  6
CONTINUOUS
 62
     1
 10
155.9
 20
53.75
 30
0.0
 11
156.7
 21
53.75
 31
0.0
  0
LINE
  8
0
  6
CONTINUOUS
 62
     1
 10
155.9
 20
57.95
 30
0.0
 11
155.9
 21
53.75
 31
0.0
  0
LINE
  8
0
  6
CONTINUOUS
 62
     1
 10
158.7
 20
53.5
 30
0.0
 11
156.7
 21
53.5
 31
0.0
  0
LINE
  8
0
  6
CONTINUOUS
 62
     1
 10
158.7
 20
58.0
 30
0.0
 11
158.7
 21
53.5
 31
0.0
  0
LINE
  8
0
  6
CONTINUOUS
 62
     1
 10
156.7
 20
58.0
 30
0.0
 11
158.7
 21
58.0
 31
0.0
  0
LINE
  8
0
  6
CONTINUOUS
 62
     1
 10
156.7
 20
54.625
 30
0.0
 11
158.3
 21
54.625
 31
0.0
  0
LINE
  8
0
  6
CONTINUOUS
 62
     1
 10
158.3
 20
56.875
 30
0.0
 11
156.7
 21
56.875
 31
0.0
  0
LINE
  8
0
  6
CONTINUOUS
 62
     1
 10
158.7
 20
54.5
 30
0.0
 11
162.25
 21
54.5
 31
0.0
  0
LINE
  8
0
  6
CONTINUOUS
 62
     1
 10
162.25
 20
57.0
 30
0.0
 11
158.7
 21
57.0
 31
0.0
  0
LINE
  8
0
  6
CONTINUOUS
 62
     1
 10
156.7
 20
53.5
 30
0.0
 11
156.7
 21
58.75
 31
0.0
  0
LINE
  8
0
  6
CONTINUOUS
 62
     1
 10
156.7
 20
167.448557159
 30
0.0
 11
158.7
 21
167.448557159
 31
0.0
  0
LINE
  8
0
  6
CONTINUOUS
 62
     1
 10
158.7
 20
167.448557159
 30
0.0
 11
158.7
 21
163.551442841
 31
0.0
  0
LINE
  8
0
  6
CONTINUOUS
 62
     1
 10
158.7
 20
163.551442841
 30
0.0
 11
156.7
 21
163.551442841
 31
0.0
  0
LINE
  8
0
  6
CONTINUOUS
 62
     1
 10
162.25
 20
164.25
 30
0.0
 11
158.7
 21
164.25
 31
0.0
  0
LINE
  8
0
  6
CONTINUOUS
 62
     1
 10
158.7
 20
166.75
 30
0.0
 11
162.25
 21
166.75
 31
0.0
  0
LINE
  8
0
  6
CONTINUOUS
 62
     1
 10
156.7
 20
165.5
 30
0.0
 11
158.3
 21
165.5
 31
0.0
  0
LINE
  8
0
  6
CONTINUOUS
 62
     1
 10
65.0
 20
174.25
 30
0.0
 11
61.0
 21
174.25
 31
0.0
  0
LINE
  8
0
  6
CONTINUOUS
 62
     1
 10
61.0
 20
174.25
 30
0.0
 11
61.0
 21
156.75
 31
0.0
  0
LINE
  8
0
  6
CONTINUOUS
 62
     1
 10
61.0
 20
156.75
 30
0.0
 11
65.0
 21
156.75
 31
0.0
  0
LINE
  8
0
  6
CONTINUOUS
 62
     1
 10
37.75
 20
118.88
 30
0.0
 11
37.75
 21
118.73
 31
0.0
  0
LINE
  8
0
  6
CONTINUOUS
 62
     1
 10
37.75
 20
118.73
 30
0.0
 11
37.75
 21
118.58
 31
0.0
  0
LINE
  8
0
  6
CONTINUOUS
 62
     1
 10
37.75
 20
118.58
 30
0.0
 11
37.75
 21
118.43
 31
0.0
  0
LINE
  8
0
  6
CONTINUOUS
 62
     1
 10
37.75
 20
118.43
 30
0.0
 11
37.75
 21
118.28
 31
0.0
  0
LINE
  8
0
  6
CONTINUOUS
 62
     1
 10
37.75
 20
118.28
 30
0.0
 11
37.75
 21
118.13
 31
0.0
  0
LINE
  8
0
  6
CONTINUOUS
 62
     1
 10
37.75
 20
118.13
 30
0.0
 11
37.75
 21
117.98
 31
0.0
  0
LINE
  8
0
  6
CONTINUOUS
 62
     1
 10
37.75
 20
117.98
 30
0.0
 11
37.75
 21
117.83
 31
0.0
  0
LINE
  8
0
  6
CONTINUOUS
 62
     1
 10
37.75
 20
117.83
 30
0.0
 11
37.75
 21
117.68
 31
0.0
  0
LINE
  8
0
  6
CONTINUOUS
 62
     1
 10
37.75
 20
117.68
 30
0.0
 11
37.75
 21
117.53
 31
0.0
  0
LINE
  8
0
  6
CONTINUOUS
 62
     1
 10
37.75
 20
117.53
 30
0.0
 11
37.75
 21
117.38
 31
0.0
  0
LINE
  8
0
  6
CONTINUOUS
 62
     1
 10
37.75
 20
117.38
 30
0.0
 11
37.75
 21
117.23
 31
0.0
  0
LINE
  8
0
  6
CONTINUOUS
 62
     1
 10
37.75
 20
117.23
 30
0.0
 11
37.75
 21
117.12
 31
0.0
  0
LINE
  8
0
  6
CONTINUOUS
 62
     1
 10
38.734928807
 20
118.727631895
 30
0.0
 11
38.70055047
 21
118.584954116
 31
0.0
  0
LINE
  8
0
  6
CONTINUOUS
 62
     1
 10
38.70055047
 20
118.584954116
 30
0.0
 11
38.673576161
 21
118.439200479
 31
0.0
  0
LINE
  8
0
  6
CONTINUOUS
 62
     1
 10
38.673576161
 20
118.439200479
 30
0.0
 11
38.654359033
 21
118.291168417
 31
0.0
  0
LINE
  8
0
  6
CONTINUOUS
 62
     1
 10
38.654359033
 20
118.291168417
 30
0.0
 11
38.643144181
 21
118.141704187
 31
0.0
  0
LINE
  8
0
  6
CONTINUOUS
 62
     1
 10
38.643144181
 20
118.141704187
 30
0.0
 11
38.640060777
 21
117.991683724
 31
0.0
  0
LINE
  8
0
  6
CONTINUOUS
 62
     1
 10
38.640060777
 20
117.991683724
 30
0.0
 11
38.645118267
 21
117.841992158
 31
0.0
  0
LINE
  8
0
  6
CONTINUOUS
 62
     1
 10
38.645118267
 20
117.841992158
 30
0.0
 11
38.658206852
 21
117.69350303
 31
0.0
  0
LINE
  8
0
  6
CONTINUOUS
 62
     1
 10
38.658206852
 20
117.69350303
 30
0.0
 11
38.679102186
 21
117.547058225
 31
0.0
  0
LINE
  8
0
  6
CONTINUOUS
 62
     1
 10
38.679102186
 20
117.547058225
 30
0.0
 11
38.707473939
 21
117.403449583
 31
0.0
  0
LINE
  8
0
  6
CONTINUOUS
 62
     1
 10
38.707473939
 20
117.403449583
 30
0.0
 11
38.742897647
 21
117.263402995
 31
0.0
  0
LINE
  8
0
  6
CONTINUOUS
 62
     1
 10
38.742897647
 20
117.263402995
 30
0.0
 11
38.801985451
 21
117.198126835
 31
0.0
  0
LINE
  8
0
  6
CONTINUOUS
 62
     1
 10
38.801985451
 20
117.198126835
 30
0.0
 11
38.876699324
 21
117.147517728
 31
0.0
  0
LINE
  8
0
  6
CONTINUOUS
 62
     1
 10
38.876699324
 20
117.147517728
 30
0.0
 11
39.001714176
 21
117.120005066
 31
0.0
  0
LINE
  8
0
  6
CONTINUOUS
 62
     1
 10
39.001714176
 20
117.120005066
 30
0.0
 11
39.103919717
 21
117.139258994
 31
0.0
  0
LINE
  8
0
  6
CONTINUOUS
 62
     1
 10
39.103919717
 20
117.139258994
 30
0.0
 11
39.19678395
 21
117.196983388
 31
0.0
  0
LINE
  8
0
  6
CONTINUOUS
 62
     1
 10
39.19678395
 20
117.196983388
 30
0.0
 11
39.246467056
 21
117.257179876
 31
0.0
  0
LINE
  8
0
  6
CONTINUOUS
 62
     1
 10
39.246467056
 20
117.257179876
 30
0.0
 11
39.29244428
 21
117.403086664
 31
0.0
  0
LINE
  8
0
  6
CONTINUOUS
 62
     1
 10
39.29244428
 20
117.403086664
 30
0.0
 11
39.320139566
 21
117.542623558
 31
0.0
  0
LINE
  8
0
  6
CONTINUOUS
 62
     1
 10
39.320139566
 20
117.542623558
 30
0.0
 11
39.341736993
 21
117.693016943
 31
0.0
  0
LINE
  8
0
  6
CONTINUOUS
 62
     1
 10
39.341736993
 20
117.693016943
 30
0.0
 11
39.354895348
 21
117.842215545
 31
0.0
  0
LINE
  8
0
  6
CONTINUOUS
 62
     1
 10
39.354895348
 20
117.842215545
 30
0.0
 11
39.359942699
 21
117.99221524
 31
0.0
  0
LINE
  8
0
  6
CONTINUOUS
 62
     1
 10
39.359942699
 20
117.99221524
 30
0.0
 11
39.356595295
 21
118.147048818
 31
0.0
  0
LINE
  8
0
  6
CONTINUOUS
 62
     1
 10
39.356595295
 20
118.147048818
 30
0.0
 11
39.345665322
 21
118.290930487
 31
0.0
  0
LINE
  8
0
  6
CONTINUOUS
 62
     1
 10
39.345665322
 20
118.290930487
 30
0.0
 11
39.326260719
 21
118.44023539
 31
0.0
  0
LINE
  8
0
  6
CONTINUOUS
 62
     1
 10
39.326260719
 20
118.44023539
 30
0.0
 11
39.299686989
 21
118.583838096
 31
0.0
  0
LINE
  8
0
  6
CONTINUOUS
 62
     1
 10
39.299686989
 20
118.583838096
 30
0.0
 11
39.263699949
 21
118.730674508
 31
0.0
  0
LINE
  8
0
  6
CONTINUOUS
 62
     1
 10
39.263699949
 20
118.730674508
 30
0.0
 11
39.21155653
 21
118.808352803
 31
0.0
  0
LINE
  8
0
  6
CONTINUOUS
 62
     1
 10
39.21155653
 20
118.808352803
 30
0.0
 11
39.125447708
 21
118.871462947
 31
0.0
  0
LINE
  8
0
  6
CONTINUOUS
 62
     1
 10
39.125447708
 20
118.871462947
 30
0.0
 11
39.010569682
 21
118.899807318
 31
0.0
  0
LINE
  8
0
  6
CONTINUOUS
 62
     1
 10
39.010569682
 20
118.899807318
 30
0.0
 11
38.876668912
 21
118.872467984
 31
0.0
  0
LINE
  8
0
  6
CONTINUOUS
 62
     1
 10
38.876668912
 20
118.872467984
 30
0.0
 11
38.787179169
 21
118.806995669
 31
0.0
  0
LINE
  8
0
  6
CONTINUOUS
 62
     1
 10
38.787179169
 20
118.806995669
 30
0.0
 11
38.734928807
 21
118.727631895
 31
0.0
  0
LINE
  8
0
  6
CONTINUOUS
 62
     1
 10
39.984928807
 20
118.727631895
 30
0.0
 11
39.95055047
 21
118.584954116
 31
0.0
  0
LINE
  8
0
  6
CONTINUOUS
 62
     1
 10
39.95055047
 20
118.584954116
 30
0.0
 11
39.923576161
 21
118.439200479
 31
0.0
  0
LINE
  8
0
  6
CONTINUOUS
 62
     1
 10
39.923576161
 20
118.439200479
 30
0.0
 11
39.904359033
 21
118.291168417
 31
0.0
  0
LINE
  8
0
  6
CONTINUOUS
 62
     1
 10
39.904359033
 20
118.291168417
 30
0.0
 11
39.893144181
 21
118.141704187
 31
0.0
  0
LINE
  8
0
  6
CONTINUOUS
 62
     1
 10
39.893144181
 20
118.141704187
 30
0.0
 11
39.890060777
 21
117.991683724
 31
0.0
  0
LINE
  8
0
  6
CONTINUOUS
 62
     1
 10
39.890060777
 20
117.991683724
 30
0.0
 11
39.895118267
 21
117.841992158
 31
0.0
  0
LINE
  8
0
  6
CONTINUOUS
 62
     1
 10
39.895118267
 20
117.841992158
 30
0.0
 11
39.908206852
 21
117.69350303
 31
0.0
  0
LINE
  8
0
  6
CONTINUOUS
 62
     1
 10
39.908206852
 20
117.69350303
 30
0.0
 11
39.929102186
 21
117.547058225
 31
0.0
  0
LINE
  8
0
  6
CONTINUOUS
 62
     1
 10
39.929102186
 20
117.547058225
 30
0.0
 11
39.957473939
 21
117.403449583
 31
0.0
  0
LINE
  8
0
  6
CONTINUOUS
 62
     1
 10
39.957473939
 20
117.403449583
 30
0.0
 11
39.992897647
 21
117.263402995
 31
0.0
  0
LINE
  8
0
  6
CONTINUOUS
 62
     1
 10
39.992897647
 20
117.263402995
 30
0.0
 11
40.051985451
 21
117.198126835
 31
0.0
  0
LINE
  8
0
  6
CONTINUOUS
 62
     1
 10
40.051985451
 20
117.198126835
 30
0.0
 11
40.126699324
 21
117.147517728
 31
0.0
  0
LINE
  8
0
  6
CONTINUOUS
 62
     1
 10
40.126699324
 20
117.147517728
 30
0.0
 11
40.251714176
 21
117.120005066
 31
0.0
  0
LINE
  8
0
  6
CONTINUOUS
 62
     1
 10
40.251714176
 20
117.120005066
 30
0.0
 11
40.353919717
 21
117.139258994
 31
0.0
  0
LINE
  8
0
  6
CONTINUOUS
 62
     1
 10
40.353919717
 20
117.139258994
 30
0.0
 11
40.44678395
 21
117.196983388
 31
0.0
  0
LINE
  8
0
  6
CONTINUOUS
 62
     1
 10
40.44678395
 20
117.196983388
 30
0.0
 11
40.496467056
 21
117.257179876
 31
0.0
  0
LINE
  8
0
  6
CONTINUOUS
 62
     1
 10
40.496467056
 20
117.257179876
 30
0.0
 11
40.54244428
 21
117.403086664
 31
0.0
  0
LINE
  8
0
  6
CONTINUOUS
 62
     1
 10
40.54244428
 20
117.403086664
 30
0.0
 11
40.570139566
 21
117.542623558
 31
0.0
  0
LINE
  8
0
  6
CONTINUOUS
 62
     1
 10
40.570139566
 20
117.542623558
 30
0.0
 11
40.591736993
 21
117.693016943
 31
0.0
  0
LINE
  8
0
  6
CONTINUOUS
 62
     1
 10
40.591736993
 20
117.693016943
 30
0.0
 11
40.604895348
 21
117.842215545
 31
0.0
  0
LINE
  8
0
  6
CONTINUOUS
 62
     1
 10
40.604895348
 20
117.842215545
 30
0.0
 11
40.609942699
 21
117.99221524
 31
0.0
  0
LINE
  8
0
  6
CONTINUOUS
 62
     1
 10
40.609942699
 20
117.99221524
 30
0.0
 11
40.606595295
 21
118.147048818
 31
0.0
  0
LINE
  8
0
  6
CONTINUOUS
 62
     1
 10
40.606595295
 20
118.147048818
 30
0.0
 11
40.595665322
 21
118.290930487
 31
0.0
  0
LINE
  8
0
  6
CONTINUOUS
 62
     1
 10
40.595665322
 20
118.290930487
 30
0.0
 11
40.576260719
 21
118.44023539
 31
0.0
  0
LINE
  8
0
  6
CONTINUOUS
 62
     1
 10
40.576260719
 20
118.44023539
 30
0.0
 11
40.549686989
 21
118.583838096
 31
0.0
  0
LINE
  8
0
  6
CONTINUOUS
 62
     1
 10
40.549686989
 20
118.583838096
 30
0.0
 11
40.513699949
 21
118.730674508
 31
0.0
  0
LINE
  8
0
  6
CONTINUOUS
 62
     1
 10
40.513699949
 20
118.730674508
 30
0.0
 11
40.46155653
 21
118.808352803
 31
0.0
  0
LINE
  8
0
  6
CONTINUOUS
 62
     1
 10
40.46155653
 20
118.808352803
 30
0.0
 11
40.375447708
 21
118.871462947
 31
0.0
  0
LINE
  8
0
  6
CONTINUOUS
 62
     1
 10
40.375447708
 20
118.871462947
 30
0.0
 11
40.260569682
 21
118.899807318
 31
0.0
  0
LINE
  8
0
  6
CONTINUOUS
 62
     1
 10
40.260569682
 20
118.899807318
 30
0.0
 11
40.126668912
 21
118.872467984
 31
0.0
  0
LINE
  8
0
  6
CONTINUOUS
 62
     1
 10
40.126668912
 20
118.872467984
 30
0.0
 11
40.037179169
 21
118.806995669
 31
0.0
  0
LINE
  8
0
  6
CONTINUOUS
 62
     1
 10
40.037179169
 20
118.806995669
 30
0.0
 11
39.984928807
 21
118.727631895
 31
0.0
  0
LINE
  8
0
  6
CONTINUOUS
 62
     1
 10
38.109764222
 20
108.08
 30
0.0
 11
38.206471671
 21
108.064195763
 31
0.0
  0
LINE
  8
0
  6
CONTINUOUS
 62
     1
 10
38.206471671
 20
108.064195763
 30
0.0
 11
38.286044734
 21
108.025226985
 31
0.0
  0
LINE
  8
0
  6
CONTINUOUS
 62
     1
 10
38.286044734
 20
108.025226985
 30
0.0
 11
38.364947654
 21
107.955666753
 31
0.0
  0
LINE
  8
0
  6
CONTINUOUS
 62
     1
 10
38.364947654
 20
107.955666753
 30
0.0
 11
38.433738516
 21
107.85085891
 31
0.0
  0
LINE
  8
0
  6
CONTINUOUS
 62
     1
 10
38.433738516
 20
107.85085891
 30
0.0
 11
38.476954997
 21
107.723575956
 31
0.0
  0
LINE
  8
0
  6
CONTINUOUS
 62
     1
 10
38.476954997
 20
107.723575956
 30
0.0
 11
38.489762381
 21
107.598526286
 31
0.0
  0
LINE
  8
0
  6
CONTINUOUS
 62
     1
 10
38.489762381
 20
107.598526286
 30
0.0
 11
38.475566025
 21
107.470017403
 31
0.0
  0
LINE
  8
0
  6
CONTINUOUS
 62
     1
 10
38.475566025
 20
107.470017403
 30
0.0
 11
38.438028592
 21
107.358203499
 31
0.0
  0
LINE
  8
0
  6
CONTINUOUS
 62
     1
 10
38.438028592
 20
107.358203499
 30
0.0
 11
38.367420627
 21
107.24718946
 31
0.0
  0
LINE
  8
0
  6
CONTINUOUS
 62
     1
 10
38.367420627
 20
107.24718946
 30
0.0
 11
38.289569967
 21
107.177134663
 31
0.0
  0
LINE
  8
0
  6
CONTINUOUS
 62
     1
 10
38.289569967
 20
107.177134663
 30
0.0
 11
38.204945504
 21
107.135301199
 31
0.0
  0
LINE
  8
0
  6
CONTINUOUS
 62
     1
 10
38.204945504
 20
107.135301199
 30
0.0
 11
38.109945618
 21
107.120000055
 31
0.0
  0
LINE
  8
0
  6
CONTINUOUS
 62
     1
 10
38.109945618
 20
107.120000055
 30
0.0
 11
38.00113379
 21
107.140031081
 31
0.0
  0
LINE
  8
0
  6
CONTINUOUS
 62
     1
 10
38.00113379
 20
107.140031081
 30
0.0
 11
37.926044711
 21
107.179827354
 31
0.0
  0
LINE
  8
0
  6
CONTINUOUS
 62
     1
 10
37.926044711
 20
107.179827354
 30
0.0
 11
37.855996749
 21
107.242720317
 31
0.0
  0
LINE
  8
0
  6
CONTINUOUS
 62
     1
 10
37.855996749
 20
107.242720317
 30
0.0
 11
37.784162395
 21
107.352525856
 31
0.0
  0
LINE
  8
0
  6
CONTINUOUS
 62
     1
 10
37.784162395
 20
107.352525856
 30
0.0
 11
37.744495514
 21
107.46764656
 31
0.0
  0
LINE
  8
0
  6
CONTINUOUS
 62
     1
 10
37.744495514
 20
107.46764656
 30
0.0
 11
37.729768855
 21
107.597616918
 31
0.0
  0
LINE
  8
0
  6
CONTINUOUS
 62
     1
 10
37.729768855
 20
107.597616918
 30
0.0
 11
37.742529759
 21
107.723369122
 31
0.0
  0
LINE
  8
0
  6
CONTINUOUS
 62
     1
 10
37.742529759
 20
107.723369122
 30
0.0
 11
37.786773894
 21
107.852875504
 31
0.0
  0
LINE
  8
0
  6
CONTINUOUS
 62
     1
 10
37.786773894
 20
107.852875504
 30
0.0
 11
37.851953145
 21
107.952630326
 31
0.0
  0
LINE
  8
0
  6
CONTINUOUS
 62
     1
 10
37.851953145
 20
107.952630326
 30
0.0
 11
37.939400926
 21
108.029058061
 31
0.0
  0
LINE
  8
0
  6
CONTINUOUS
 62
     1
 10
37.939400926
 20
108.029058061
 30
0.0
 11
38.038282972
 21
108.071431169
 31
0.0
  0
LINE
  8
0
  6
CONTINUOUS
 62
     1
 10
38.038282972
 20
108.071431169
 30
0.0
 11
38.209756405
 21
108.100029703
 31
0.0
  0
LINE
  8
0
  6
CONTINUOUS
 62
     1
 10
38.209756405
 20
108.100029703
 30
0.0
 11
38.293826851
 21
108.152793714
 31
0.0
  0
LINE
  8
0
  6
CONTINUOUS
 62
     1
 10
38.293826851
 20
108.152793714
 30
0.0
 11
38.360292069
 21
108.231140812
 31
0.0
  0
LINE
  8
0
  6
CONTINUOUS
 62
     1
 10
38.360292069
 20
108.231140812
 30
0.0
 11
38.409915041
 21
108.341315018
 31
0.0
  0
LINE
  8
0
  6
CONTINUOUS
 62
     1
 10
38.409915041
 20
108.341315018
 30
0.0
 11
38.429762444
 21
108.481314391
 31
0.0
  0
LINE
  8
0
  6
CONTINUOUS
 62
     1
 10
38.429762444
 20
108.481314391
 30
0.0
 11
38.410510547
 21
108.616654317
 31
0.0
  0
LINE
  8
0
  6
CONTINUOUS
 62
     1
 10
38.410510547
 20
108.616654317
 30
0.0
 11
38.359289209
 21
108.730428557
 31
0.0
  0
LINE
  8
0
  6
CONTINUOUS
 62
     1
 10
38.359289209
 20
108.730428557
 30
0.0
 11
38.289547149
 21
108.810903312
 31
0.0
  0
LINE
  8
0
  6
CONTINUOUS
 62
     1
 10
38.289547149
 20
108.810903312
 30
0.0
 11
38.210540742
 21
108.859646387
 31
0.0
  0
LINE
  8
0
  6
CONTINUOUS
 62
     1
 10
38.210540742
 20
108.859646387
 30
0.0
 11
38.110571737
 21
108.879998726
 31
0.0
  0
LINE
  8
0
  6
CONTINUOUS
 62
     1
 10
38.110571737
 20
108.879998726
 30
0.0
 11
38.010501201
 21
108.860268948
 31
0.0
  0
LINE
  8
0
  6
CONTINUOUS
 62
     1
 10
38.010501201
 20
108.860268948
 30
0.0
 11
37.930101483
 21
108.811005377
 31
0.0
  0
LINE
  8
0
  6
CONTINUOUS
 62
     1
 10
37.930101483
 20
108.811005377
 30
0.0
 11
37.860410337
 21
108.730694862
 31
0.0
  0
LINE
  8
0
  6
CONTINUOUS
 62
     1
 10
37.860410337
 20
108.730694862
 30
0.0
 11
37.8095307
 21
108.618405329
 31
0.0
  0
LINE
  8
0
  6
CONTINUOUS
 62
     1
 10
37.8095307
 20
108.618405329
 30
0.0
 11
37.789766711
 21
108.478406504
 31
0.0
  0
LINE
  8
0
  6
CONTINUOUS
 62
     1
 10
37.789766711
 20
108.478406504
 30
0.0
 11
37.809690028
 21
108.341055834
 31
0.0
  0
LINE
  8
0
  6
CONTINUOUS
 62
     1
 10
37.809690028
 20
108.341055834
 30
0.0
 11
37.859445364
 21
108.230812275
 31
0.0
  0
LINE
  8
0
  6
CONTINUOUS
 62
     1
 10
37.859445364
 20
108.230812275
 30
0.0
 11
37.93598436
 21
108.144122937
 31
0.0
  0
LINE
  8
0
  6
CONTINUOUS
 62
     1
 10
37.93598436
 20
108.144122937
 30
0.0
 11
38.024926469
 21
108.09431359
 31
0.0
  0
LINE
  8
0
  6
CONTINUOUS
 62
     1
 10
38.024926469
 20
108.09431359
 30
0.0
 11
38.109764222
 21
108.08
 31
0.0
  0
LINE
  8
0
  6
CONTINUOUS
 62
     1
 10
39.094692979
 20
108.727631895
 30
0.0
 11
39.060314642
 21
108.584954116
 31
0.0
  0
LINE
  8
0
  6
CONTINUOUS
 62
     1
 10
39.060314642
 20
108.584954116
 30
0.0
 11
39.033340333
 21
108.439200479
 31
0.0
  0
LINE
  8
0
  6
CONTINUOUS
 62
     1
 10
39.033340333
 20
108.439200479
 30
0.0
 11
39.014123205
 21
108.291168417
 31
0.0
  0
LINE
  8
0
  6
CONTINUOUS
 62
     1
 10
39.014123205
 20
108.291168417
 30
0.0
 11
39.002908353
 21
108.141704187
 31
0.0
  0
LINE
  8
0
  6
CONTINUOUS
 62
     1
 10
39.002908353
 20
108.141704187
 30
0.0
 11
38.999824949
 21
107.991683724
 31
0.0
  0
LINE
  8
0
  6
CONTINUOUS
 62
     1
 10
38.999824949
 20
107.991683724
 30
0.0
 11
39.004882439
 21
107.841992158
 31
0.0
  0
LINE
  8
0
  6
CONTINUOUS
 62
     1
 10
39.004882439
 20
107.841992158
 30
0.0
 11
39.017971024
 21
107.69350303
 31
0.0
  0
LINE
  8
0
  6
CONTINUOUS
 62
     1
 10
39.017971024
 20
107.69350303
 30
0.0
 11
39.038866358
 21
107.547058225
 31
0.0
  0
LINE
  8
0
  6
CONTINUOUS
 62
     1
 10
39.038866358
 20
107.547058225
 30
0.0
 11
39.06723811
 21
107.403449583
 31
0.0
  0
LINE
  8
0
  6
CONTINUOUS
 62
     1
 10
39.06723811
 20
107.403449583
 30
0.0
 11
39.102661819
 21
107.263402995
 31
0.0
  0
LINE
  8
0
  6
CONTINUOUS
 62
     1
 10
39.102661819
 20
107.263402995
 30
0.0
 11
39.161749623
 21
107.198126835
 31
0.0
  0
LINE
  8
0
  6
CONTINUOUS
 62
     1
 10
39.161749623
 20
107.198126835
 30
0.0
 11
39.236463496
 21
107.147517728
 31
0.0
  0
LINE
  8
0
  6
CONTINUOUS
 62
     1
 10
39.236463496
 20
107.147517728
 30
0.0
 11
39.361478348
 21
107.120005066
 31
0.0
  0
LINE
  8
0
  6
CONTINUOUS
 62
     1
 10
39.361478348
 20
107.120005066
 30
0.0
 11
39.463683888
 21
107.139258994
 31
0.0
  0
LINE
  8
0
  6
CONTINUOUS
 62
     1
 10
39.463683888
 20
107.139258994
 30
0.0
 11
39.556548122
 21
107.196983388
 31
0.0
  0
LINE
  8
0
  6
CONTINUOUS
 62
     1
 10
39.556548122
 20
107.196983388
 30
0.0
 11
39.606231228
 21
107.257179876
 31
0.0
  0
LINE
  8
0
  6
CONTINUOUS
 62
     1
 10
39.606231228
 20
107.257179876
 30
0.0
 11
39.652208452
 21
107.403086664
 31
0.0
  0
LINE
  8
0
  6
CONTINUOUS
 62
     1
 10
39.652208452
 20
107.403086664
 30
0.0
 11
39.679903738
 21
107.542623558
 31
0.0
  0
LINE
  8
0
  6
CONTINUOUS
 62
     1
 10
39.679903738
 20
107.542623558
 30
0.0
 11
39.701501165
 21
107.693016943
 31
0.0
  0
LINE
  8
0
  6
CONTINUOUS
 62
     1
 10
39.701501165
 20
107.693016943
 30
0.0
 11
39.71465952
 21
107.842215545
 31
0.0
  0
LINE
  8
0
  6
CONTINUOUS
 62
     1
 10
39.71465952
 20
107.842215545
 30
0.0
 11
39.719706871
 21
107.99221524
 31
0.0
  0
LINE
  8
0
  6
CONTINUOUS
 62
     1
 10
39.719706871
 20
107.99221524
 30
0.0
 11
39.716359467
 21
108.147048818
 31
0.0
  0
LINE
  8
0
  6
CONTINUOUS
 62
     1
 10
39.716359467
 20
108.147048818
 30
0.0
 11
39.705429494
 21
108.290930487
 31
0.0
  0
LINE
  8
0
  6
CONTINUOUS
 62
     1
 10
39.705429494
 20
108.290930487
 30
0.0
 11
39.686024891
 21
108.44023539
 31
0.0
  0
LINE
  8
0
  6
CONTINUOUS
 62
     1
 10
39.686024891
 20
108.44023539
 30
0.0
 11
39.659451161
 21
108.583838096
 31
0.0
  0
LINE
  8
0
  6
CONTINUOUS
 62
     1
 10
39.659451161
 20
108.583838096
 30
0.0
 11
39.623464121
 21
108.730674508
 31
0.0
  0
LINE
  8
0
  6
CONTINUOUS
 62
     1
 10
39.623464121
 20
108.730674508
 30
0.0
 11
39.571320702
 21
108.808352803
 31
0.0
  0
LINE
  8
0
  6
CONTINUOUS
 62
     1
 10
39.571320702
 20
108.808352803
 30
0.0
 11
39.48521188
 21
108.871462947
 31
0.0
  0
LINE
  8
0
  6
CONTINUOUS
 62
     1
 10
39.48521188
 20
108.871462947
 30
0.0
 11
39.370333854
 21
108.899807318
 31
0.0
  0
LINE
  8
0
  6
CONTINUOUS
 62
     1
 10
39.370333854
 20
108.899807318
 30
0.0
 11
39.236433084
 21
108.872467984
 31
0.0
  0
LINE
  8
0
  6
CONTINUOUS
 62
     1
 10
39.236433084
 20
108.872467984
 30
0.0
 11
39.146943341
 21
108.806995669
 31
0.0
  0
LINE
  8
0
  6
CONTINUOUS
 62
     1
 10
39.146943341
 20
108.806995669
 30
0.0
 11
39.094692979
 21
108.727631895
 31
0.0
  0
LINE
  8
0
  6
CONTINUOUS
 62
     1
 10
37.729764172
 20
97.6
 30
0.0
 11
37.747974547
 21
97.746810616
 31
0.0
  0
LINE
  8
0
  6
CONTINUOUS
 62
     1
 10
37.747974547
 20
97.746810616
 30
0.0
 11
37.7970165
 21
97.872645817
 31
0.0
  0
LINE
  8
0
  6
CONTINUOUS
 62
     1
 10
37.7970165
 20
97.872645817
 30
0.0
 11
37.871318309
 21
97.973740162
 31
0.0
  0
LINE
  8
0
  6
CONTINUOUS
 62
     1
 10
37.871318309
 20
97.973740162
 30
0.0
 11
37.971781782
 21
98.047237923
 31
0.0
  0
LINE
  8
0
  6
CONTINUOUS
 62
     1
 10
37.971781782
 20
98.047237923
 30
0.0
 11
38.096576342
 21
98.079710851
 31
0.0
  0
LINE
  8
0
  6
CONTINUOUS
 62
     1
 10
38.096576342
 20
98.079710851
 30
0.0
 11
38.25881598
 21
98.041533872
 31
0.0
  0
LINE
  8
0
  6
CONTINUOUS
 62
     1
 10
38.25881598
 20
98.041533872
 30
0.0
 11
38.344436399
 21
97.97753198
 31
0.0
  0
LINE
  8
0
  6
CONTINUOUS
 62
     1
 10
38.344436399
 20
97.97753198
 30
0.0
 11
38.423170778
 21
97.871435848
 31
0.0
  0
LINE
  8
0
  6
CONTINUOUS
 62
     1
 10
38.423170778
 20
97.871435848
 30
0.0
 11
38.470834044
 21
97.749611162
 31
0.0
  0
LINE
  8
0
  6
CONTINUOUS
 62
     1
 10
38.470834044
 20
97.749611162
 30
0.0
 11
38.489764045
 21
97.599607098
 31
0.0
  0
LINE
  8
0
  6
CONTINUOUS
 62
     1
 10
38.489764045
 20
97.599607098
 30
0.0
 11
38.478393893
 21
97.483459539
 31
0.0
  0
LINE
  8
0
  6
CONTINUOUS
 62
     1
 10
38.478393893
 20
97.483459539
 30
0.0
 11
38.43559267
 21
97.353002434
 31
0.0
  0
LINE
  8
0
  6
CONTINUOUS
 62
     1
 10
38.43559267
 20
97.353002434
 30
0.0
 11
38.347289541
 21
97.225325779
 31
0.0
  0
LINE
  8
0
  6
CONTINUOUS
 62
     1
 10
38.347289541
 20
97.225325779
 30
0.0
 11
38.265239712
 21
97.162014947
 31
0.0
  0
LINE
  8
0
  6
CONTINUOUS
 62
     1
 10
38.265239712
 20
97.162014947
 30
0.0
 11
38.100301513
 21
97.120148846
 31
0.0
  0
LINE
  8
0
  6
CONTINUOUS
 62
     1
 10
38.100301513
 20
97.120148846
 30
0.0
 11
37.978804603
 21
97.149405549
 31
0.0
  0
LINE
  8
0
  6
CONTINUOUS
 62
     1
 10
37.978804603
 20
97.149405549
 30
0.0
 11
37.869649823
 21
97.227968156
 31
0.0
  0
LINE
  8
0
  6
CONTINUOUS
 62
     1
 10
37.869649823
 20
97.227968156
 30
0.0
 11
37.792365727
 21
97.336068827
 31
0.0
  0
LINE
  8
0
  6
CONTINUOUS
 62
     1
 10
37.792365727
 20
97.336068827
 30
0.0
 11
37.744373373
 21
97.468185592
 31
0.0
  0
LINE
  8
0
  6
CONTINUOUS
 62
     1
 10
37.744373373
 20
97.468185592
 30
0.0
 11
37.735547143
 21
97.746557868
 31
0.0
  0
LINE
  8
0
  6
CONTINUOUS
 62
     1
 10
37.735547143
 20
97.746557868
 30
0.0
 11
37.749712706
 21
97.871681071
 31
0.0
  0
LINE
  8
0
  6
CONTINUOUS
 62
     1
 10
37.749712706
 20
97.871681071
 30
0.0
 11
37.777704912
 21
98.019572686
 31
0.0
  0
LINE
  8
0
  6
CONTINUOUS
 62
     1
 10
37.777704912
 20
98.019572686
 30
0.0
 11
37.819928782
 21
98.172086263
 31
0.0
  0
LINE
  8
0
  6
CONTINUOUS
 62
     1
 10
37.819928782
 20
98.172086263
 30
0.0
 11
37.867586958
 21
98.302641904
 31
0.0
  0
LINE
  8
0
  6
CONTINUOUS
 62
     1
 10
37.867586958
 20
98.302641904
 30
0.0
 11
37.922872234
 21
98.425270422
 31
0.0
  0
LINE
  8
0
  6
CONTINUOUS
 62
     1
 10
37.922872234
 20
98.425270422
 30
0.0
 11
37.98435944
 21
98.539295292
 31
0.0
  0
LINE
  8
0
  6
CONTINUOUS
 62
     1
 10
37.98435944
 20
98.539295292
 30
0.0
 11
38.050620705
 21
98.644335861
 31
0.0
  0
LINE
  8
0
  6
CONTINUOUS
 62
     1
 10
38.050620705
 20
98.644335861
 30
0.0
 11
38.120285702
 21
98.74027761
 31
0.0
  0
LINE
  8
0
  6
CONTINUOUS
 62
     1
 10
38.120285702
 20
98.74027761
 30
0.0
 11
38.242739895
 21
98.882624496
 31
0.0
  0
LINE
  8
0
  6
CONTINUOUS
 62
     1
 10
39.094692979
 20
98.727631895
 30
0.0
 11
39.060314642
 21
98.584954116
 31
0.0
  0
LINE
  8
0
  6
CONTINUOUS
 62
     1
 10
39.060314642
 20
98.584954116
 30
0.0
 11
39.033340333
 21
98.439200479
 31
0.0
  0
LINE
  8
0
  6
CONTINUOUS
 62
     1
 10
39.033340333
 20
98.439200479
 30
0.0
 11
39.014123205
 21
98.291168417
 31
0.0
  0
LINE
  8
0
  6
CONTINUOUS
 62
     1
 10
39.014123205
 20
98.291168417
 30
0.0
 11
39.002908353
 21
98.141704187
 31
0.0
  0
LINE
  8
0
  6
CONTINUOUS
 62
     1
 10
39.002908353
 20
98.141704187
 30
0.0
 11
38.999824949
 21
97.991683724
 31
0.0
  0
LINE
  8
0
  6
CONTINUOUS
 62
     1
 10
38.999824949
 20
97.991683724
 30
0.0
 11
39.004882439
 21
97.841992158
 31
0.0
  0
LINE
  8
0
  6
CONTINUOUS
 62
     1
 10
39.004882439
 20
97.841992158
 30
0.0
 11
39.017971024
 21
97.69350303
 31
0.0
  0
LINE
  8
0
  6
CONTINUOUS
 62
     1
 10
39.017971024
 20
97.69350303
 30
0.0
 11
39.038866358
 21
97.547058225
 31
0.0
  0
LINE
  8
0
  6
CONTINUOUS
 62
     1
 10
39.038866358
 20
97.547058225
 30
0.0
 11
39.06723811
 21
97.403449583
 31
0.0
  0
LINE
  8
0
  6
CONTINUOUS
 62
     1
 10
39.06723811
 20
97.403449583
 30
0.0
 11
39.102661819
 21
97.263402995
 31
0.0
  0
LINE
  8
0
  6
CONTINUOUS
 62
     1
 10
39.102661819
 20
97.263402995
 30
0.0
 11
39.161749623
 21
97.198126835
 31
0.0
  0
LINE
  8
0
  6
CONTINUOUS
 62
     1
 10
39.161749623
 20
97.198126835
 30
0.0
 11
39.236463496
 21
97.147517728
 31
0.0
  0
LINE
  8
0
  6
CONTINUOUS
 62
     1
 10
39.236463496
 20
97.147517728
 30
0.0
 11
39.361478348
 21
97.120005066
 31
0.0
  0
LINE
  8
0
  6
CONTINUOUS
 62
     1
 10
39.361478348
 20
97.120005066
 30
0.0
 11
39.463683888
 21
97.139258994
 31
0.0
  0
LINE
  8
0
  6
CONTINUOUS
 62
     1
 10
39.463683888
 20
97.139258994
 30
0.0
 11
39.556548122
 21
97.196983388
 31
0.0
  0
LINE
  8
0
  6
CONTINUOUS
 62
     1
 10
39.556548122
 20
97.196983388
 30
0.0
 11
39.606231228
 21
97.257179876
 31
0.0
  0
LINE
  8
0
  6
CONTINUOUS
 62
     1
 10
39.606231228
 20
97.257179876
 30
0.0
 11
39.652208452
 21
97.403086664
 31
0.0
  0
LINE
  8
0
  6
CONTINUOUS
 62
     1
 10
39.652208452
 20
97.403086664
 30
0.0
 11
39.679903738
 21
97.542623558
 31
0.0
  0
LINE
  8
0
  6
CONTINUOUS
 62
     1
 10
39.679903738
 20
97.542623558
 30
0.0
 11
39.701501165
 21
97.693016943
 31
0.0
  0
LINE
  8
0
  6
CONTINUOUS
 62
     1
 10
39.701501165
 20
97.693016943
 30
0.0
 11
39.71465952
 21
97.842215545
 31
0.0
  0
LINE
  8
0
  6
CONTINUOUS
 62
     1
 10
39.71465952
 20
97.842215545
 30
0.0
 11
39.719706871
 21
97.99221524
 31
0.0
  0
LINE
  8
0
  6
CONTINUOUS
 62
     1
 10
39.719706871
 20
97.99221524
 30
0.0
 11
39.716359467
 21
98.147048818
 31
0.0
  0
LINE
  8
0
  6
CONTINUOUS
 62
     1
 10
39.716359467
 20
98.147048818
 30
0.0
 11
39.705429494
 21
98.290930487
 31
0.0
  0
LINE
  8
0
  6
CONTINUOUS
 62
     1
 10
39.705429494
 20
98.290930487
 30
0.0
 11
39.686024891
 21
98.44023539
 31
0.0
  0
LINE
  8
0
  6
CONTINUOUS
 62
     1
 10
39.686024891
 20
98.44023539
 30
0.0
 11
39.659451161
 21
98.583838096
 31
0.0
  0
LINE
  8
0
  6
CONTINUOUS
 62
     1
 10
39.659451161
 20
98.583838096
 30
0.0
 11
39.623464121
 21
98.730674508
 31
0.0
  0
LINE
  8
0
  6
CONTINUOUS
 62
     1
 10
39.623464121
 20
98.730674508
 30
0.0
 11
39.571320702
 21
98.808352803
 31
0.0
  0
LINE
  8
0
  6
CONTINUOUS
 62
     1
 10
39.571320702
 20
98.808352803
 30
0.0
 11
39.48521188
 21
98.871462947
 31
0.0
  0
LINE
  8
0
  6
CONTINUOUS
 62
     1
 10
39.48521188
 20
98.871462947
 30
0.0
 11
39.370333854
 21
98.899807318
 31
0.0
  0
LINE
  8
0
  6
CONTINUOUS
 62
     1
 10
39.370333854
 20
98.899807318
 30
0.0
 11
39.236433084
 21
98.872467984
 31
0.0
  0
LINE
  8
0
  6
CONTINUOUS
 62
     1
 10
39.236433084
 20
98.872467984
 30
0.0
 11
39.146943341
 21
98.806995669
 31
0.0
  0
LINE
  8
0
  6
CONTINUOUS
 62
     1
 10
39.146943341
 20
98.806995669
 30
0.0
 11
39.094692979
 21
98.727631895
 31
0.0
  0
LINE
  8
0
  6
CONTINUOUS
 62
     1
 10
38.269764172
 20
87.12
 30
0.0
 11
38.269764172
 21
87.27
 31
0.0
  0
LINE
  8
0
  6
CONTINUOUS
 62
     1
 10
38.269764172
 20
87.27
 30
0.0
 11
38.269764172
 21
87.42
 31
0.0
  0
LINE
  8
0
  6
CONTINUOUS
 62
     1
 10
38.269764172
 20
87.42
 30
0.0
 11
38.269764172
 21
87.57
 31
0.0
  0
LINE
  8
0
  6
CONTINUOUS
 62
     1
 10
38.269764172
 20
87.57
 30
0.0
 11
38.269764172
 21
87.72
 31
0.0
  0
LINE
  8
0
  6
CONTINUOUS
 62
     1
 10
38.269764172
 20
87.72
 30
0.0
 11
38.269764172
 21
87.87
 31
0.0
  0
LINE
  8
0
  6
CONTINUOUS
 62
     1
 10
38.269764172
 20
87.87
 30
0.0
 11
38.269764172
 21
88.02
 31
0.0
  0
LINE
  8
0
  6
CONTINUOUS
 62
     1
 10
38.269764172
 20
88.02
 30
0.0
 11
38.269764172
 21
88.22
 31
0.0
  0
LINE
  8
0
  6
CONTINUOUS
 62
     1
 10
38.269764172
 20
88.22
 30
0.0
 11
38.269764172
 21
88.07
 31
0.0
  0
LINE
  8
0
  6
CONTINUOUS
 62
     1
 10
38.269764172
 20
88.07
 30
0.0
 11
38.269764172
 21
87.92
 31
0.0
  0
LINE
  8
0
  6
CONTINUOUS
 62
     1
 10
38.269764172
 20
87.92
 30
0.0
 11
38.269764172
 21
87.77
 31
0.0
  0
LINE
  8
0
  6
CONTINUOUS
 62
     1
 10
38.269764172
 20
87.77
 30
0.0
 11
38.269764172
 21
87.62
 31
0.0
  0
LINE
  8
0
  6
CONTINUOUS
 62
     1
 10
38.269764172
 20
87.62
 30
0.0
 11
38.269764172
 21
87.52
 31
0.0
  0
LINE
  8
0
  6
CONTINUOUS
 62
     1
 10
38.269764172
 20
87.52
 30
0.0
 11
38.469764172
 21
87.52
 31
0.0
  0
LINE
  8
0
  6
CONTINUOUS
 62
     1
 10
38.469764172
 20
87.52
 30
0.0
 11
38.319764172
 21
87.52
 31
0.0
  0
LINE
  8
0
  6
CONTINUOUS
 62
     1
 10
38.319764172
 20
87.52
 30
0.0
 11
38.169764172
 21
87.52
 31
0.0
  0
LINE
  8
0
  6
CONTINUOUS
 62
     1
 10
38.169764172
 20
87.52
 30
0.0
 11
38.019764172
 21
87.52
 31
0.0
  0
LINE
  8
0
  6
CONTINUOUS
 62
     1
 10
38.019764172
 20
87.52
 30
0.0
 11
37.869764172
 21
87.52
 31
0.0
  0
LINE
  8
0
  6
CONTINUOUS
 62
     1
 10
37.869764172
 20
87.52
 30
0.0
 11
37.749764172
 21
87.52
 31
0.0
  0
LINE
  8
0
  6
CONTINUOUS
 62
     1
 10
37.749764172
 20
87.52
 30
0.0
 11
37.784212448
 21
87.66162069
 31
0.0
  0
LINE
  8
0
  6
CONTINUOUS
 62
     1
 10
37.784212448
 20
87.66162069
 30
0.0
 11
37.818660724
 21
87.803241379
 31
0.0
  0
LINE
  8
0
  6
CONTINUOUS
 62
     1
 10
37.818660724
 20
87.803241379
 30
0.0
 11
37.853108999
 21
87.944862069
 31
0.0
  0
LINE
  8
0
  6
CONTINUOUS
 62
     1
 10
37.853108999
 20
87.944862069
 30
0.0
 11
37.887557275
 21
88.086482759
 31
0.0
  0
LINE
  8
0
  6
CONTINUOUS
 62
     1
 10
37.887557275
 20
88.086482759
 30
0.0
 11
37.922005551
 21
88.228103448
 31
0.0
  0
LINE
  8
0
  6
CONTINUOUS
 62
     1
 10
37.922005551
 20
88.228103448
 30
0.0
 11
37.956453827
 21
88.369724138
 31
0.0
  0
LINE
  8
0
  6
CONTINUOUS
 62
     1
 10
37.956453827
 20
88.369724138
 30
0.0
 11
37.990902103
 21
88.511344828
 31
0.0
  0
LINE
  8
0
  6
CONTINUOUS
 62
     1
 10
37.990902103
 20
88.511344828
 30
0.0
 11
38.025350379
 21
88.652965517
 31
0.0
  0
LINE
  8
0
  6
CONTINUOUS
 62
     1
 10
38.025350379
 20
88.652965517
 30
0.0
 11
38.059798655
 21
88.794586207
 31
0.0
  0
LINE
  8
0
  6
CONTINUOUS
 62
     1
 10
38.059798655
 20
88.794586207
 30
0.0
 11
38.081401982
 21
88.883399888
 31
0.0
  0
LINE
  8
0
  6
CONTINUOUS
 62
     1
 10
39.094692979
 20
88.727631895
 30
0.0
 11
39.060314642
 21
88.584954116
 31
0.0
  0
LINE
  8
0
  6
CONTINUOUS
 62
     1
 10
39.060314642
 20
88.584954116
 30
0.0
 11
39.033340333
 21
88.439200479
 31
0.0
  0
LINE
  8
0
  6
CONTINUOUS
 62
     1
 10
39.033340333
 20
88.439200479
 30
0.0
 11
39.014123205
 21
88.291168417
 31
0.0
  0
LINE
  8
0
  6
CONTINUOUS
 62
     1
 10
39.014123205
 20
88.291168417
 30
0.0
 11
39.002908353
 21
88.141704187
 31
0.0
  0
LINE
  8
0
  6
CONTINUOUS
 62
     1
 10
39.002908353
 20
88.141704187
 30
0.0
 11
38.999824949
 21
87.991683724
 31
0.0
  0
LINE
  8
0
  6
CONTINUOUS
 62
     1
 10
38.999824949
 20
87.991683724
 30
0.0
 11
39.004882439
 21
87.841992158
 31
0.0
  0
LINE
  8
0
  6
CONTINUOUS
 62
     1
 10
39.004882439
 20
87.841992158
 30
0.0
 11
39.017971024
 21
87.69350303
 31
0.0
  0
LINE
  8
0
  6
CONTINUOUS
 62
     1
 10
39.017971024
 20
87.69350303
 30
0.0
 11
39.038866358
 21
87.547058225
 31
0.0
  0
LINE
  8
0
  6
CONTINUOUS
 62
     1
 10
39.038866358
 20
87.547058225
 30
0.0
 11
39.06723811
 21
87.403449583
 31
0.0
  0
LINE
  8
0
  6
CONTINUOUS
 62
     1
 10
39.06723811
 20
87.403449583
 30
0.0
 11
39.102661819
 21
87.263402995
 31
0.0
  0
LINE
  8
0
  6
CONTINUOUS
 62
     1
 10
39.102661819
 20
87.263402995
 30
0.0
 11
39.161749623
 21
87.198126835
 31
0.0
  0
LINE
  8
0
  6
CONTINUOUS
 62
     1
 10
39.161749623
 20
87.198126835
 30
0.0
 11
39.236463496
 21
87.147517728
 31
0.0
  0
LINE
  8
0
  6
CONTINUOUS
 62
     1
 10
39.236463496
 20
87.147517728
 30
0.0
 11
39.361478348
 21
87.120005066
 31
0.0
  0
LINE
  8
0
  6
CONTINUOUS
 62
     1
 10
39.361478348
 20
87.120005066
 30
0.0
 11
39.463683888
 21
87.139258994
 31
0.0
  0
LINE
  8
0
  6
CONTINUOUS
 62
     1
 10
39.463683888
 20
87.139258994
 30
0.0
 11
39.556548122
 21
87.196983388
 31
0.0
  0
LINE
  8
0
  6
CONTINUOUS
 62
     1
 10
39.556548122
 20
87.196983388
 30
0.0
 11
39.606231228
 21
87.257179876
 31
0.0
  0
LINE
  8
0
  6
CONTINUOUS
 62
     1
 10
39.606231228
 20
87.257179876
 30
0.0
 11
39.652208452
 21
87.403086664
 31
0.0
  0
LINE
  8
0
  6
CONTINUOUS
 62
     1
 10
39.652208452
 20
87.403086664
 30
0.0
 11
39.679903738
 21
87.542623558
 31
0.0
  0
LINE
  8
0
  6
CONTINUOUS
 62
     1
 10
39.679903738
 20
87.542623558
 30
0.0
 11
39.701501165
 21
87.693016943
 31
0.0
  0
LINE
  8
0
  6
CONTINUOUS
 62
     1
 10
39.701501165
 20
87.693016943
 30
0.0
 11
39.71465952
 21
87.842215545
 31
0.0
  0
LINE
  8
0
  6
CONTINUOUS
 62
     1
 10
39.71465952
 20
87.842215545
 30
0.0
 11
39.719706871
 21
87.99221524
 31
0.0
  0
LINE
  8
0
  6
CONTINUOUS
 62
     1
 10
39.719706871
 20
87.99221524
 30
0.0
 11
39.716359467
 21
88.147048818
 31
0.0
  0
LINE
  8
0
  6
CONTINUOUS
 62
     1
 10
39.716359467
 20
88.147048818
 30
0.0
 11
39.705429494
 21
88.290930487
 31
0.0
  0
LINE
  8
0
  6
CONTINUOUS
 62
     1
 10
39.705429494
 20
88.290930487
 30
0.0
 11
39.686024891
 21
88.44023539
 31
0.0
  0
LINE
  8
0
  6
CONTINUOUS
 62
     1
 10
39.686024891
 20
88.44023539
 30
0.0
 11
39.659451161
 21
88.583838096
 31
0.0
  0
LINE
  8
0
  6
CONTINUOUS
 62
     1
 10
39.659451161
 20
88.583838096
 30
0.0
 11
39.623464121
 21
88.730674508
 31
0.0
  0
LINE
  8
0
  6
CONTINUOUS
 62
     1
 10
39.623464121
 20
88.730674508
 30
0.0
 11
39.571320702
 21
88.808352803
 31
0.0
  0
LINE
  8
0
  6
CONTINUOUS
 62
     1
 10
39.571320702
 20
88.808352803
 30
0.0
 11
39.48521188
 21
88.871462947
 31
0.0
  0
LINE
  8
0
  6
CONTINUOUS
 62
     1
 10
39.48521188
 20
88.871462947
 30
0.0
 11
39.370333854
 21
88.899807318
 31
0.0
  0
LINE
  8
0
  6
CONTINUOUS
 62
     1
 10
39.370333854
 20
88.899807318
 30
0.0
 11
39.236433084
 21
88.872467984
 31
0.0
  0
LINE
  8
0
  6
CONTINUOUS
 62
     1
 10
39.236433084
 20
88.872467984
 30
0.0
 11
39.146943341
 21
88.806995669
 31
0.0
  0
LINE
  8
0
  6
CONTINUOUS
 62
     1
 10
39.146943341
 20
88.806995669
 30
0.0
 11
39.094692979
 21
88.727631895
 31
0.0
  0
LINE
  8
0
  6
CONTINUOUS
 62
     1
 10
37.749764172
 20
78.52
 30
0.0
 11
37.758767416
 21
78.600007985
 31
0.0
  0
LINE
  8
0
  6
CONTINUOUS
 62
     1
 10
37.758767416
 20
78.600007985
 30
0.0
 11
37.784645955
 21
78.674590249
 31
0.0
  0
LINE
  8
0
  6
CONTINUOUS
 62
     1
 10
37.784645955
 20
78.674590249
 30
0.0
 11
37.820885354
 21
78.734823249
 31
0.0
  0
LINE
  8
0
  6
CONTINUOUS
 62
     1
 10
37.820885354
 20
78.734823249
 30
0.0
 11
37.868637044
 21
78.787315746
 31
0.0
  0
LINE
  8
0
  6
CONTINUOUS
 62
     1
 10
37.868637044
 20
78.787315746
 30
0.0
 11
37.924018831
 21
78.82838072
 31
0.0
  0
LINE
  8
0
  6
CONTINUOUS
 62
     1
 10
37.924018831
 20
78.82838072
 30
0.0
 11
37.996274157
 21
78.861643113
 31
0.0
  0
LINE
  8
0
  6
CONTINUOUS
 62
     1
 10
37.996274157
 20
78.861643113
 30
0.0
 11
38.096527536
 21
78.879756573
 31
0.0
  0
LINE
  8
0
  6
CONTINUOUS
 62
     1
 10
38.096527536
 20
78.879756573
 30
0.0
 11
38.200085795
 21
78.8684853
 31
0.0
  0
LINE
  8
0
  6
CONTINUOUS
 62
     1
 10
38.200085795
 20
78.8684853
 30
0.0
 11
38.273592125
 21
78.840562633
 31
0.0
  0
LINE
  8
0
  6
CONTINUOUS
 62
     1
 10
38.273592125
 20
78.840562633
 30
0.0
 11
38.332981344
 21
78.802443081
 31
0.0
  0
LINE
  8
0
  6
CONTINUOUS
 62
     1
 10
38.332981344
 20
78.802443081
 30
0.0
 11
38.383959051
 21
78.753274877
 31
0.0
  0
LINE
  8
0
  6
CONTINUOUS
 62
     1
 10
38.383959051
 20
78.753274877
 30
0.0
 11
38.423152592
 21
78.697165736
 31
0.0
  0
LINE
  8
0
  6
CONTINUOUS
 62
     1
 10
38.423152592
 20
78.697165736
 30
0.0
 11
38.454399121
 21
78.624051679
 31
0.0
  0
LINE
  8
0
  6
CONTINUOUS
 62
     1
 10
38.454399121
 20
78.624051679
 30
0.0
 11
38.468657389
 21
78.548207426
 31
0.0
  0
LINE
  8
0
  6
CONTINUOUS
 62
     1
 10
38.468657389
 20
78.548207426
 30
0.0
 11
38.466742818
 21
78.473457048
 31
0.0
  0
LINE
  8
0
  6
CONTINUOUS
 62
     1
 10
38.466742818
 20
78.473457048
 30
0.0
 11
38.447819689
 21
78.396232204
 31
0.0
  0
LINE
  8
0
  6
CONTINUOUS
 62
     1
 10
38.447819689
 20
78.396232204
 30
0.0
 11
38.413702444
 21
78.326534244
 31
0.0
  0
LINE
  8
0
  6
CONTINUOUS
 62
     1
 10
38.413702444
 20
78.326534244
 30
0.0
 11
38.370415824
 21
78.25209975
 31
0.0
  0
LINE
  8
0
  6
CONTINUOUS
 62
     1
 10
38.370415824
 20
78.25209975
 30
0.0
 11
38.305229965
 21
78.14000792
 31
0.0
  0
LINE
  8
0
  6
CONTINUOUS
 62
     1
 10
38.305229965
 20
78.14000792
 30
0.0
 11
38.240044106
 21
78.027916091
 31
0.0
  0
LINE
  8
0
  6
CONTINUOUS
 62
     1
 10
38.240044106
 20
78.027916091
 30
0.0
 11
38.174858247
 21
77.915824262
 31
0.0
  0
LINE
  8
0
  6
CONTINUOUS
 62
     1
 10
38.174858247
 20
77.915824262
 30
0.0
 11
38.109672388
 21
77.803732433
 31
0.0
  0
LINE
  8
0
  6
CONTINUOUS
 62
     1
 10
38.109672388
 20
77.803732433
 30
0.0
 11
38.044486529
 21
77.691640603
 31
0.0
  0
LINE
  8
0
  6
CONTINUOUS
 62
     1
 10
38.044486529
 20
77.691640603
 30
0.0
 11
37.97930067
 21
77.579548774
 31
0.0
  0
LINE
  8
0
  6
CONTINUOUS
 62
     1
 10
37.97930067
 20
77.579548774
 30
0.0
 11
37.914114812
 21
77.467456945
 31
0.0
  0
LINE
  8
0
  6
CONTINUOUS
 62
     1
 10
37.914114812
 20
77.467456945
 30
0.0
 11
37.848928953
 21
77.355365116
 31
0.0
  0
LINE
  8
0
  6
CONTINUOUS
 62
     1
 10
37.848928953
 20
77.355365116
 30
0.0
 11
37.783743094
 21
77.243273286
 31
0.0
  0
LINE
  8
0
  6
CONTINUOUS
 62
     1
 10
37.783743094
 20
77.243273286
 30
0.0
 11
37.712054772
 21
77.12
 31
0.0
  0
LINE
  8
0
  6
CONTINUOUS
 62
     1
 10
37.712054772
 20
77.12
 30
0.0
 11
37.862054772
 21
77.12
 31
0.0
  0
LINE
  8
0
  6
CONTINUOUS
 62
     1
 10
37.862054772
 20
77.12
 30
0.0
 11
38.012054772
 21
77.12
 31
0.0
  0
LINE
  8
0
  6
CONTINUOUS
 62
     1
 10
38.012054772
 20
77.12
 30
0.0
 11
38.162054772
 21
77.12
 31
0.0
  0
LINE
  8
0
  6
CONTINUOUS
 62
     1
 10
38.162054772
 20
77.12
 30
0.0
 11
38.312054772
 21
77.12
 31
0.0
  0
LINE
  8
0
  6
CONTINUOUS
 62
     1
 10
38.312054772
 20
77.12
 30
0.0
 11
38.469764181
 21
77.12
 31
0.0
  0
LINE
  8
0
  6
CONTINUOUS
 62
     1
 10
39.094692979
 20
78.727631895
 30
0.0
 11
39.060314642
 21
78.584954116
 31
0.0
  0
LINE
  8
0
  6
CONTINUOUS
 62
     1
 10
39.060314642
 20
78.584954116
 30
0.0
 11
39.033340333
 21
78.439200479
 31
0.0
  0
LINE
  8
0
  6
CONTINUOUS
 62
     1
 10
39.033340333
 20
78.439200479
 30
0.0
 11
39.014123205
 21
78.291168417
 31
0.0
  0
LINE
  8
0
  6
CONTINUOUS
 62
     1
 10
39.014123205
 20
78.291168417
 30
0.0
 11
39.002908353
 21
78.141704187
 31
0.0
  0
LINE
  8
0
  6
CONTINUOUS
 62
     1
 10
39.002908353
 20
78.141704187
 30
0.0
 11
38.999824949
 21
77.991683724
 31
0.0
  0
LINE
  8
0
  6
CONTINUOUS
 62
     1
 10
38.999824949
 20
77.991683724
 30
0.0
 11
39.004882439
 21
77.841992158
 31
0.0
  0
LINE
  8
0
  6
CONTINUOUS
 62
     1
 10
39.004882439
 20
77.841992158
 30
0.0
 11
39.017971024
 21
77.69350303
 31
0.0
  0
LINE
  8
0
  6
CONTINUOUS
 62
     1
 10
39.017971024
 20
77.69350303
 30
0.0
 11
39.038866358
 21
77.547058225
 31
0.0
  0
LINE
  8
0
  6
CONTINUOUS
 62
     1
 10
39.038866358
 20
77.547058225
 30
0.0
 11
39.06723811
 21
77.403449583
 31
0.0
  0
LINE
  8
0
  6
CONTINUOUS
 62
     1
 10
39.06723811
 20
77.403449583
 30
0.0
 11
39.102661819
 21
77.263402995
 31
0.0
  0
LINE
  8
0
  6
CONTINUOUS
 62
     1
 10
39.102661819
 20
77.263402995
 30
0.0
 11
39.161749623
 21
77.198126835
 31
0.0
  0
LINE
  8
0
  6
CONTINUOUS
 62
     1
 10
39.161749623
 20
77.198126835
 30
0.0
 11
39.236463496
 21
77.147517728
 31
0.0
  0
LINE
  8
0
  6
CONTINUOUS
 62
     1
 10
39.236463496
 20
77.147517728
 30
0.0
 11
39.361478348
 21
77.120005066
 31
0.0
  0
LINE
  8
0
  6
CONTINUOUS
 62
     1
 10
39.361478348
 20
77.120005066
 30
0.0
 11
39.463683888
 21
77.139258994
 31
0.0
  0
LINE
  8
0
  6
CONTINUOUS
 62
     1
 10
39.463683888
 20
77.139258994
 30
0.0
 11
39.556548122
 21
77.196983388
 31
0.0
  0
LINE
  8
0
  6
CONTINUOUS
 62
     1
 10
39.556548122
 20
77.196983388
 30
0.0
 11
39.606231228
 21
77.257179876
 31
0.0
  0
LINE
  8
0
  6
CONTINUOUS
 62
     1
 10
39.606231228
 20
77.257179876
 30
0.0
 11
39.652208452
 21
77.403086664
 31
0.0
  0
LINE
  8
0
  6
CONTINUOUS
 62
     1
 10
39.652208452
 20
77.403086664
 30
0.0
 11
39.679903738
 21
77.542623558
 31
0.0
  0
LINE
  8
0
  6
CONTINUOUS
 62
     1
 10
39.679903738
 20
77.542623558
 30
0.0
 11
39.701501165
 21
77.693016943
 31
0.0
  0
LINE
  8
0
  6
CONTINUOUS
 62
     1
 10
39.701501165
 20
77.693016943
 30
0.0
 11
39.71465952
 21
77.842215545
 31
0.0
  0
LINE
  8
0
  6
CONTINUOUS
 62
     1
 10
39.71465952
 20
77.842215545
 30
0.0
 11
39.719706871
 21
77.99221524
 31
0.0
  0
LINE
  8
0
  6
CONTINUOUS
 62
     1
 10
39.719706871
 20
77.99221524
 30
0.0
 11
39.716359467
 21
78.147048818
 31
0.0
  0
LINE
  8
0
  6
CONTINUOUS
 62
     1
 10
39.716359467
 20
78.147048818
 30
0.0
 11
39.705429494
 21
78.290930487
 31
0.0
  0
LINE
  8
0
  6
CONTINUOUS
 62
     1
 10
39.705429494
 20
78.290930487
 30
0.0
 11
39.686024891
 21
78.44023539
 31
0.0
  0
LINE
  8
0
  6
CONTINUOUS
 62
     1
 10
39.686024891
 20
78.44023539
 30
0.0
 11
39.659451161
 21
78.583838096
 31
0.0
  0
LINE
  8
0
  6
CONTINUOUS
 62
     1
 10
39.659451161
 20
78.583838096
 30
0.0
 11
39.623464121
 21
78.730674508
 31
0.0
  0
LINE
  8
0
  6
CONTINUOUS
 62
     1
 10
39.623464121
 20
78.730674508
 30
0.0
 11
39.571320702
 21
78.808352803
 31
0.0
  0
LINE
  8
0
  6
CONTINUOUS
 62
     1
 10
39.571320702
 20
78.808352803
 30
0.0
 11
39.48521188
 21
78.871462947
 31
0.0
  0
LINE
  8
0
  6
CONTINUOUS
 62
     1
 10
39.48521188
 20
78.871462947
 30
0.0
 11
39.370333854
 21
78.899807318
 31
0.0
  0
LINE
  8
0
  6
CONTINUOUS
 62
     1
 10
39.370333854
 20
78.899807318
 30
0.0
 11
39.236433084
 21
78.872467984
 31
0.0
  0
LINE
  8
0
  6
CONTINUOUS
 62
     1
 10
39.236433084
 20
78.872467984
 30
0.0
 11
39.146943341
 21
78.806995669
 31
0.0
  0
LINE
  8
0
  6
CONTINUOUS
 62
     1
 10
39.146943341
 20
78.806995669
 30
0.0
 11
39.094692979
 21
78.727631895
 31
0.0
  0
LINE
  8
0
  6
CONTINUOUS
 62
     1
 10
37.844692979
 20
68.727631895
 30
0.0
 11
37.810314642
 21
68.584954116
 31
0.0
  0
LINE
  8
0
  6
CONTINUOUS
 62
     1
 10
37.810314642
 20
68.584954116
 30
0.0
 11
37.783340333
 21
68.439200479
 31
0.0
  0
LINE
  8
0
  6
CONTINUOUS
 62
     1
 10
37.783340333
 20
68.439200479
 30
0.0
 11
37.764123205
 21
68.291168417
 31
0.0
  0
LINE
  8
0
  6
CONTINUOUS
 62
     1
 10
37.764123205
 20
68.291168417
 30
0.0
 11
37.752908353
 21
68.141704187
 31
0.0
  0
LINE
  8
0
  6
CONTINUOUS
 62
     1
 10
37.752908353
 20
68.141704187
 30
0.0
 11
37.749824949
 21
67.991683724
 31
0.0
  0
LINE
  8
0
  6
CONTINUOUS
 62
     1
 10
37.749824949
 20
67.991683724
 30
0.0
 11
37.754882439
 21
67.841992158
 31
0.0
  0
LINE
  8
0
  6
CONTINUOUS
 62
     1
 10
37.754882439
 20
67.841992158
 30
0.0
 11
37.767971024
 21
67.69350303
 31
0.0
  0
LINE
  8
0
  6
CONTINUOUS
 62
     1
 10
37.767971024
 20
67.69350303
 30
0.0
 11
37.788866358
 21
67.547058225
 31
0.0
  0
LINE
  8
0
  6
CONTINUOUS
 62
     1
 10
37.788866358
 20
67.547058225
 30
0.0
 11
37.81723811
 21
67.403449583
 31
0.0
  0
LINE
  8
0
  6
CONTINUOUS
 62
     1
 10
37.81723811
 20
67.403449583
 30
0.0
 11
37.852661819
 21
67.263402995
 31
0.0
  0
LINE
  8
0
  6
CONTINUOUS
 62
     1
 10
37.852661819
 20
67.263402995
 30
0.0
 11
37.911749623
 21
67.198126835
 31
0.0
  0
LINE
  8
0
  6
CONTINUOUS
 62
     1
 10
37.911749623
 20
67.198126835
 30
0.0
 11
37.986463496
 21
67.147517728
 31
0.0
  0
LINE
  8
0
  6
CONTINUOUS
 62
     1
 10
37.986463496
 20
67.147517728
 30
0.0
 11
38.111478348
 21
67.120005066
 31
0.0
  0
LINE
  8
0
  6
CONTINUOUS
 62
     1
 10
38.111478348
 20
67.120005066
 30
0.0
 11
38.213683888
 21
67.139258994
 31
0.0
  0
LINE
  8
0
  6
CONTINUOUS
 62
     1
 10
38.213683888
 20
67.139258994
 30
0.0
 11
38.306548122
 21
67.196983388
 31
0.0
  0
LINE
  8
0
  6
CONTINUOUS
 62
     1
 10
38.306548122
 20
67.196983388
 30
0.0
 11
38.356231228
 21
67.257179876
 31
0.0
  0
LINE
  8
0
  6
CONTINUOUS
 62
     1
 10
38.356231228
 20
67.257179876
 30
0.0
 11
38.402208452
 21
67.403086664
 31
0.0
  0
LINE
  8
0
  6
CONTINUOUS
 62
     1
 10
38.402208452
 20
67.403086664
 30
0.0
 11
38.429903738
 21
67.542623558
 31
0.0
  0
LINE
  8
0
  6
CONTINUOUS
 62
     1
 10
38.429903738
 20
67.542623558
 30
0.0
 11
38.451501165
 21
67.693016943
 31
0.0
  0
LINE
  8
0
  6
CONTINUOUS
 62
     1
 10
38.451501165
 20
67.693016943
 30
0.0
 11
38.46465952
 21
67.842215545
 31
0.0
  0
LINE
  8
0
  6
CONTINUOUS
 62
     1
 10
38.46465952
 20
67.842215545
 30
0.0
 11
38.469706871
 21
67.99221524
 31
0.0
  0
LINE
  8
0
  6
CONTINUOUS
 62
     1
 10
38.469706871
 20
67.99221524
 30
0.0
 11
38.466359467
 21
68.147048818
 31
0.0
  0
LINE
  8
0
  6
CONTINUOUS
 62
     1
 10
38.466359467
 20
68.147048818
 30
0.0
 11
38.455429494
 21
68.290930487
 31
0.0
  0
LINE
  8
0
  6
CONTINUOUS
 62
     1
 10
38.455429494
 20
68.290930487
 30
0.0
 11
38.436024891
 21
68.44023539
 31
0.0
  0
LINE
  8
0
  6
CONTINUOUS
 62
     1
 10
38.436024891
 20
68.44023539
 30
0.0
 11
38.409451161
 21
68.583838096
 31
0.0
  0
LINE
  8
0
  6
CONTINUOUS
 62
     1
 10
38.409451161
 20
68.583838096
 30
0.0
 11
38.373464121
 21
68.730674508
 31
0.0
  0
LINE
  8
0
  6
CONTINUOUS
 62
     1
 10
38.373464121
 20
68.730674508
 30
0.0
 11
38.321320702
 21
68.808352803
 31
0.0
  0
LINE
  8
0
  6
CONTINUOUS
 62
     1
 10
38.321320702
 20
68.808352803
 30
0.0
 11
38.23521188
 21
68.871462947
 31
0.0
  0
LINE
  8
0
  6
CONTINUOUS
 62
     1
 10
38.23521188
 20
68.871462947
 30
0.0
 11
38.120333854
 21
68.899807318
 31
0.0
  0
LINE
  8
0
  6
CONTINUOUS
 62
     1
 10
38.120333854
 20
68.899807318
 30
0.0
 11
37.986433084
 21
68.872467984
 31
0.0
  0
LINE
  8
0
  6
CONTINUOUS
 62
     1
 10
37.986433084
 20
68.872467984
 30
0.0
 11
37.896943341
 21
68.806995669
 31
0.0
  0
LINE
  8
0
  6
CONTINUOUS
 62
     1
 10
37.896943341
 20
68.806995669
 30
0.0
 11
37.844692979
 21
68.727631895
 31
0.0
  0
LINE
  8
0
  6
CONTINUOUS
 62
     1
 10
74.75
 20
160.5
 30
0.0
 11
69.75
 21
160.5
 31
0.0
  0
LINE
  8
0
  6
CONTINUOUS
 62
     1
 10
69.75
 20
160.5
 30
0.0
 11
69.75
 21
156.75
 31
0.0
  0
LINE
  8
0
  6
CONTINUOUS
 62
     1
 10
70.0
 20
160.5
 30
0.0
 11
70.0
 21
170.75
 31
0.0
  0
LINE
  8
0
  6
CONTINUOUS
 62
     1
 10
165.5
 20
102.3
 30
0.0
 11
165.5
 21
63.2
 31
0.0
  0
LINE
  8
0
  6
CONTINUOUS
 62
     1
 10
165.5
 20
63.2
 30
0.0
 11
168.25
 21
63.2
 31
0.0
  0
LINE
  8
0
  6
CONTINUOUS
 62
     1
 10
168.25
 20
63.2
 30
0.0
 11
168.25
 21
67.3
 31
0.0
  0
LINE
  8
0
  6
CONTINUOUS
 62
     1
 10
168.25
 20
67.3
 30
0.0
 11
174.75
 21
67.3
 31
0.0
  0
LINE
  8
0
  6
CONTINUOUS
 62
     1
 10
174.75
 20
67.3
 30
0.0
 11
174.75
 21
68.2
 31
0.0
  0
LINE
  8
0
  6
CONTINUOUS
 62
     1
 10
174.75
 20
68.2
 30
0.0
 11
168.25
 21
68.2
 31
0.0
  0
LINE
  8
0
  6
CONTINUOUS
 62
     1
 10
168.25
 20
63.2
 30
0.0
 11
170.25
 21
63.2
 31
0.0
  0
LINE
  8
0
  6
CONTINUOUS
 62
     1
 10
168.25
 20
68.2
 30
0.0
 11
168.25
 21
72.3
 31
0.0
  0
LINE
  8
0
  6
CONTINUOUS
 62
     1
 10
168.25
 20
68.2
 30
0.0
 11
170.25
 21
68.2
 31
0.0
  0
LINE
  8
0
  6
CONTINUOUS
 62
     1
 10
168.25
 20
72.3
 30
0.0
 11
174.75
 21
72.3
 31
0.0
  0
LINE
  8
0
  6
CONTINUOUS
 62
     1
 10
174.75
 20
72.3
 30
0.0
 11
174.75
 21
73.2
 31
0.0
  0
LINE
  8
0
  6
CONTINUOUS
 62
     1
 10
174.75
 20
73.2
 30
0.0
 11
168.25
 21
73.2
 31
0.0
  0
LINE
  8
0
  6
CONTINUOUS
 62
     1
 10
168.25
 20
73.2
 30
0.0
 11
168.25
 21
77.3
 31
0.0
  0
LINE
  8
0
  6
CONTINUOUS
 62
     1
 10
168.25
 20
77.3
 30
0.0
 11
174.75
 21
77.3
 31
0.0
  0
LINE
  8
0
  6
CONTINUOUS
 62
     1
 10
174.75
 20
77.3
 30
0.0
 11
174.75
 21
78.2
 31
0.0
  0
LINE
  8
0
  6
CONTINUOUS
 62
     1
 10
174.75
 20
78.2
 30
0.0
 11
168.25
 21
78.2
 31
0.0
  0
LINE
  8
0
  6
CONTINUOUS
 62
     1
 10
168.25
 20
78.2
 30
0.0
 11
168.25
 21
82.3
 31
0.0
  0
LINE
  8
0
  6
CONTINUOUS
 62
     1
 10
168.25
 20
82.3
 30
0.0
 11
174.75
 21
82.3
 31
0.0
  0
LINE
  8
0
  6
CONTINUOUS
 62
     1
 10
174.75
 20
82.3
 30
0.0
 11
174.75
 21
83.2
 31
0.0
  0
LINE
  8
0
  6
CONTINUOUS
 62
     1
 10
174.75
 20
83.2
 30
0.0
 11
168.25
 21
83.2
 31
0.0
  0
LINE
  8
0
  6
CONTINUOUS
 62
     1
 10
168.25
 20
83.2
 30
0.0
 11
168.25
 21
87.3
 31
0.0
  0
LINE
  8
0
  6
CONTINUOUS
 62
     1
 10
168.25
 20
87.3
 30
0.0
 11
174.75
 21
87.3
 31
0.0
  0
LINE
  8
0
  6
CONTINUOUS
 62
     1
 10
174.75
 20
87.3
 30
0.0
 11
174.75
 21
88.2
 31
0.0
  0
LINE
  8
0
  6
CONTINUOUS
 62
     1
 10
174.75
 20
88.2
 30
0.0
 11
168.25
 21
88.2
 31
0.0
  0
LINE
  8
0
  6
CONTINUOUS
 62
     1
 10
168.25
 20
88.2
 30
0.0
 11
168.25
 21
92.3
 31
0.0
  0
LINE
  8
0
  6
CONTINUOUS
 62
     1
 10
168.25
 20
92.3
 30
0.0
 11
174.75
 21
92.3
 31
0.0
  0
LINE
  8
0
  6
CONTINUOUS
 62
     1
 10
174.75
 20
92.3
 30
0.0
 11
174.75
 21
93.2
 31
0.0
  0
LINE
  8
0
  6
CONTINUOUS
 62
     1
 10
174.75
 20
93.2
 30
0.0
 11
168.25
 21
93.2
 31
0.0
  0
LINE
  8
0
  6
CONTINUOUS
 62
     1
 10
168.25
 20
93.2
 30
0.0
 11
168.25
 21
97.3
 31
0.0
  0
LINE
  8
0
  6
CONTINUOUS
 62
     1
 10
168.25
 20
97.3
 30
0.0
 11
174.75
 21
97.3
 31
0.0
  0
LINE
  8
0
  6
CONTINUOUS
 62
     1
 10
174.75
 20
97.3
 30
0.0
 11
174.75
 21
98.2
 31
0.0
  0
LINE
  8
0
  6
CONTINUOUS
 62
     1
 10
174.75
 20
98.2
 30
0.0
 11
168.25
 21
98.2
 31
0.0
  0
LINE
  8
0
  6
CONTINUOUS
 62
     1
 10
165.5
 20
102.3
 30
0.0
 11
168.25
 21
102.3
 31
0.0
  0
LINE
  8
0
  6
CONTINUOUS
 62
     1
 10
168.25
 20
102.3
 30
0.0
 11
168.25
 21
98.2
 31
0.0
  0
LINE
  8
0
  6
CONTINUOUS
 62
     1
 10
168.25
 20
102.3
 30
0.0
 11
170.25
 21
102.3
 31
0.0
  0
LINE
  8
0
  6
CONTINUOUS
 62
     1
 10
216.0
 20
130.75
 30
0.0
 11
196.0
 21
130.75
 31
0.0
  0
LINE
  8
0
  6
CONTINUOUS
 62
     1
 10
196.0
 20
130.75
 30
0.0
 11
196.0
 21
59.25
 31
0.0
  0
LINE
  8
0
  6
CONTINUOUS
 62
     1
 10
216.0
 20
59.25
 30
0.0
 11
216.0
 21
130.75
 31
0.0
  0
LINE
  8
0
  6
CONTINUOUS
 62
     1
 10
197.0
 20
130.75
 30
0.0
 11
197.0
 21
131.25
 31
0.0
  0
LINE
  8
0
  6
CONTINUOUS
 62
     1
 10
197.0
 20
131.25
 30
0.0
 11
215.0
 21
131.25
 31
0.0
  0
LINE
  8
0
  6
CONTINUOUS
 62
     1
 10
215.0
 20
131.25
 30
0.0
 11
215.0
 21
130.75
 31
0.0
  0
LINE
  8
0
  6
CONTINUOUS
 62
     1
 10
197.0
 20
59.25
 30
0.0
 11
197.0
 21
58.75
 31
0.0
  0
LINE
  8
0
  6
CONTINUOUS
 62
     1
 10
197.0
 20
58.75
 30
0.0
 11
215.0
 21
58.75
 31
0.0
  0
LINE
  8
0
  6
CONTINUOUS
 62
     1
 10
215.0
 20
58.75
 30
0.0
 11
215.0
 21
59.25
 31
0.0
  0
LINE
  8
0
  6
CONTINUOUS
 62
     1
 10
205.75
 20
130.75
 30
0.0
 11
205.75
 21
130.4
 31
0.0
  0
LINE
  8
0
  6
CONTINUOUS
 62
     1
 10
206.25
 20
130.75
 30
0.0
 11
206.25
 21
130.4
 31
0.0
  0
LINE
  8
0
  6
CONTINUOUS
 62
     1
 10
199.75
 20
136.25
 30
0.0
 11
199.75
 21
131.25
 31
0.0
  0
LINE
  8
0
  6
CONTINUOUS
 62
     1
 10
212.25
 20
136.25
 30
0.0
 11
212.25
 21
131.25
 31
0.0
  0
CIRCLE
  8
0
  6
CONTINUOUS
 62
     1
 10
206.0
 20
134.25
 30
0.0
 40
1.275
  0
LINE
  8
0
  6
CONTINUOUS
 62
     1
 10
201.75
 20
136.25
 30
0.0
 11
201.75
 21
131.25
 31
0.0
  0
LINE
  8
0
  6
CONTINUOUS
 62
     1
 10
210.25
 20
136.25
 30
0.0
 11
210.25
 21
131.25
 31
0.0
  0
LINE
  8
0
  6
CONTINUOUS
 62
     1
 10
199.75
 20
132.5
 30
0.0
 11
197.0
 21
132.5
 31
0.0
  0
LINE
  8
0
  6
CONTINUOUS
 62
     1
 10
197.0
 20
132.5
 30
0.0
 11
197.0
 21
131.25
 31
0.0
  0
LINE
  8
0
  6
CONTINUOUS
 62
     1
 10
196.0
 20
130.75
 30
0.0
 11
196.0
 21
132.5
 31
0.0
  0
LINE
  8
0
  6
CONTINUOUS
 62
     1
 10
196.0
 20
132.5
 30
0.0
 11
197.0
 21
132.5
 31
0.0
  0
LINE
  8
0
  6
CONTINUOUS
 62
     1
 10
216.0
 20
130.75
 30
0.0
 11
216.0
 21
132.5
 31
0.0
  0
LINE
  8
0
  6
CONTINUOUS
 62
     1
 10
216.0
 20
132.5
 30
0.0
 11
215.0
 21
132.5
 31
0.0
  0
LINE
  8
0
  6
CONTINUOUS
 62
     1
 10
215.0
 20
131.25
 30
0.0
 11
215.0
 21
132.5
 31
0.0
  0
LINE
  8
0
  6
CONTINUOUS
 62
     1
 10
215.0
 20
132.5
 30
0.0
 11
212.25
 21
132.5
 31
0.0
  0
LINE
  8
0
  6
CONTINUOUS
 62
     1
 10
199.75
 20
53.75
 30
0.0
 11
199.75
 21
58.75
 31
0.0
  0
LINE
  8
0
  6
CONTINUOUS
 62
     1
 10
212.25
 20
53.75
 30
0.0
 11
212.25
 21
58.75
 31
0.0
  0
LINE
  8
0
  6
CONTINUOUS
 62
     1
 10
201.75
 20
53.75
 30
0.0
 11
201.75
 21
58.75
 31
0.0
  0
LINE
  8
0
  6
CONTINUOUS
 62
     1
 10
210.25
 20
53.75
 30
0.0
 11
210.25
 21
58.75
 31
0.0
  0
LINE
  8
0
  6
CONTINUOUS
 62
     1
 10
199.75
 20
57.5
 30
0.0
 11
197.0
 21
57.5
 31
0.0
  0
LINE
  8
0
  6
CONTINUOUS
 62
     1
 10
197.0
 20
57.5
 30
0.0
 11
197.0
 21
58.75
 31
0.0
  0
LINE
  8
0
  6
CONTINUOUS
 62
     1
 10
196.0
 20
59.25
 30
0.0
 11
196.0
 21
57.5
 31
0.0
  0
LINE
  8
0
  6
CONTINUOUS
 62
     1
 10
196.0
 20
57.5
 30
0.0
 11
197.0
 21
57.5
 31
0.0
  0
LINE
  8
0
  6
CONTINUOUS
 62
     1
 10
216.0
 20
59.25
 30
0.0
 11
216.0
 21
57.5
 31
0.0
  0
LINE
  8
0
  6
CONTINUOUS
 62
     1
 10
216.0
 20
57.5
 30
0.0
 11
215.0
 21
57.5
 31
0.0
  0
LINE
  8
0
  6
CONTINUOUS
 62
     1
 10
215.0
 20
58.75
 30
0.0
 11
215.0
 21
57.5
 31
0.0
  0
LINE
  8
0
  6
CONTINUOUS
 62
     1
 10
215.0
 20
57.5
 30
0.0
 11
212.25
 21
57.5
 31
0.0
  0
LINE
  8
0
  6
CONTINUOUS
 62
     1
 10
206.0
 20
136.500000962
 30
0.0
 11
204.051442841
 21
135.375000962
 31
0.0
  0
LINE
  8
0
  6
CONTINUOUS
 62
     1
 10
204.051442841
 20
135.375000962
 30
0.0
 11
204.051442841
 21
133.125000962
 31
0.0
  0
LINE
  8
0
  6
CONTINUOUS
 62
     1
 10
204.051442841
 20
133.125000962
 30
0.0
 11
206.0
 21
132.000000962
 31
0.0
  0
LINE
  8
0
  6
CONTINUOUS
 62
     1
 10
206.0
 20
132.000000962
 30
0.0
 11
207.948557159
 21
133.125000962
 31
0.0
  0
LINE
  8
0
  6
CONTINUOUS
 62
     1
 10
207.948557159
 20
133.125000962
 30
0.0
 11
207.948557159
 21
135.375000962
 31
0.0
  0
LINE
  8
0
  6
CONTINUOUS
 62
     1
 10
207.948557159
 20
135.375000962
 30
0.0
 11
206.0
 21
136.500000962
 31
0.0
  0
LINE
  8
0
  6
CONTINUOUS
 62
     1
 10
206.433014368
 20
136.25
 30
0.0
 11
212.25
 21
136.25
 31
0.0
  0
LINE
  8
0
  6
CONTINUOUS
 62
     1
 10
199.75
 20
136.25
 30
0.0
 11
205.566985632
 21
136.25
 31
0.0
  0
CIRCLE
  8
0
  6
CONTINUOUS
 62
     1
 10
206.0
 20
55.75
 30
0.0
 40
1.275
  0
LINE
  8
0
  6
CONTINUOUS
 62
     1
 10
206.0
 20
53.499999038
 30
0.0
 11
204.051442841
 21
54.624999038
 31
0.0
  0
LINE
  8
0
  6
CONTINUOUS
 62
     1
 10
204.051442841
 20
54.624999038
 30
0.0
 11
204.051442841
 21
56.874999038
 31
0.0
  0
LINE
  8
0
  6
CONTINUOUS
 62
     1
 10
204.051442841
 20
56.874999038
 30
0.0
 11
206.0
 21
57.999999038
 31
0.0
  0
LINE
  8
0
  6
CONTINUOUS
 62
     1
 10
206.0
 20
57.999999038
 30
0.0
 11
207.948557159
 21
56.874999038
 31
0.0
  0
LINE
  8
0
  6
CONTINUOUS
 62
     1
 10
207.948557159
 20
56.874999038
 30
0.0
 11
207.948557159
 21
54.624999038
 31
0.0
  0
LINE
  8
0
  6
CONTINUOUS
 62
     1
 10
207.948557159
 20
54.624999038
 30
0.0
 11
206.0
 21
53.499999038
 31
0.0
  0
LINE
  8
0
  6
CONTINUOUS
 62
     1
 10
206.433014368
 20
53.75
 30
0.0
 11
212.25
 21
53.75
 31
0.0
  0
LINE
  8
0
  6
CONTINUOUS
 62
     1
 10
199.75
 20
53.75
 30
0.0
 11
205.566985632
 21
53.75
 31
0.0
  0
LINE
  8
0
  6
CONTINUOUS
 62
     1
 10
205.75
 20
130.75
 30
0.0
 11
196.0
 21
130.75
 31
0.0
  0
LINE
  8
0
  6
CONTINUOUS
 62
     1
 10
205.75
 20
120.5
 30
0.0
 11
198.0
 21
120.5
 31
0.0
  0
LINE
  8
0
  6
CONTINUOUS
 62
     1
 10
198.0
 20
120.5
 30
0.0
 11
198.0
 21
104.75
 31
0.0
  0
LINE
  8
0
  6
CONTINUOUS
 62
     1
 10
196.0
 20
59.25
 30
0.0
 11
205.75
 21
59.25
 31
0.0
  0
LINE
  8
0
  6
CONTINUOUS
 62
     1
 10
206.25
 20
130.75
 30
0.0
 11
216.0
 21
130.75
 31
0.0
  0
LINE
  8
0
  6
CONTINUOUS
 62
     1
 10
206.25
 20
120.5
 30
0.0
 11
214.0
 21
120.5
 31
0.0
  0
LINE
  8
0
  6
CONTINUOUS
 62
     1
 10
214.0
 20
120.5
 30
0.0
 11
214.0
 21
104.75
 31
0.0
  0
LINE
  8
0
  6
CONTINUOUS
 62
     1
 10
216.0
 20
59.25
 30
0.0
 11
206.25
 21
59.25
 31
0.0
  0
LINE
  8
0
  6
CONTINUOUS
 62
     1
 10
198.0
 20
104.75
 30
0.0
 11
204.0
 21
104.75
 31
0.0
  0
LINE
  8
0
  6
CONTINUOUS
 62
     1
 10
204.0
 20
103.75
 30
0.0
 11
202.25
 21
103.75
 31
0.0
  0
LINE
  8
0
  6
CONTINUOUS
 62
     1
 10
208.0
 20
103.75
 30
0.0
 11
209.75
 21
103.75
 31
0.0
  0
LINE
  8
0
  6
CONTINUOUS
 62
     1
 10
214.0
 20
104.75
 30
0.0
 11
208.0
 21
104.75
 31
0.0
  0
LINE
  8
0
  6
CONTINUOUS
 62
     1
 10
206.25
 20
130.4
 30
0.0
 11
206.25
 21
130.75
 31
0.0
  0
LINE
  8
0
  6
CONTINUOUS
 62
     1
 10
206.25
 20
120.5
 30
0.0
 11
206.25
 21
120.9
 31
0.0
  0
LINE
  8
0
  6
CONTINUOUS
 62
     1
 10
205.75
 20
130.4
 30
0.0
 11
205.75
 21
130.75
 31
0.0
  0
LINE
  8
0
  6
CONTINUOUS
 62
     1
 10
205.75
 20
120.5
 30
0.0
 11
205.75
 21
120.9
 31
0.0
  0
LINE
  8
0
  6
CONTINUOUS
 62
     1
 10
206.25
 20
59.25
 30
0.0
 11
206.25
 21
59.75
 31
0.0
  0
LINE
  8
0
  6
CONTINUOUS
 62
     1
 10
205.75
 20
59.25
 30
0.0
 11
205.75
 21
59.75
 31
0.0
  0
LINE
  8
0
  6
CONTINUOUS
 62
     1
 10
209.75
 20
103.75
 30
0.0
 11
209.75
 21
102.3
 31
0.0
  0
LINE
  8
0
  6
CONTINUOUS
 62
     2
 10
72.75
 20
166.75
 30
0.0
 11
72.75
 21
164.25
 31
0.0
  0
LINE
  8
0
  6
CONTINUOUS
 62
     2
 10
81.5
 20
164.25
 30
0.0
 11
81.5
 21
166.75
 31
0.0
  0
LINE
  8
0
  6
CONTINUOUS
 62
     2
 10
162.25
 20
164.25
 30
0.0
 11
162.25
 21
166.75
 31
0.0
  0
LINE
  8
0
  6
CONTINUOUS
 62
     2
 10
141.5
 20
164.25
 30
0.0
 11
141.5
 21
166.75
 31
0.0
  0
LINE
  8
0
  6
CONTINUOUS
 62
     2
 10
78.3
 20
166.5
 30
0.0
 11
81.5
 21
166.5
 31
0.0
  0
LINE
  8
0
  6
CONTINUOUS
 62
     2
 10
78.3
 20
164.5
 30
0.0
 11
81.5
 21
164.5
 31
0.0
  0
LINE
  8
0
  6
CONTINUOUS
 62
     2
 10
72.5
 20
166.5
 30
0.0
 11
76.7
 21
166.5
 31
0.0
  0
LINE
  8
0
  6
CONTINUOUS
 62
     2
 10
72.5
 20
164.5
 30
0.0
 11
76.7
 21
164.5
 31
0.0
  0
LINE
  8
0
  6
CONTINUOUS
 62
     2
 10
155.9
 20
164.5
 30
0.0
 11
141.5
 21
164.5
 31
0.0
  0
LINE
  8
0
  6
CONTINUOUS
 62
     2
 10
141.5
 20
166.5
 30
0.0
 11
155.9
 21
166.5
 31
0.0
  0
LINE
  8
0
  6
CONTINUOUS
 62
     2
 10
64.0
 20
175.5
 30
0.0
 11
58.0
 21
175.5
 31
0.0
  0
LINE
  8
0
  6
CONTINUOUS
 62
     2
 10
60.0
 20
175.5
 30
0.0
 11
59.352952387
 21
173.085185434
 31
0.0
  0
LINE
  8
0
  6
CONTINUOUS
 62
     2
 10
60.0
 20
175.5
 30
0.0
 11
60.647047613
 21
173.085185434
 31
0.0
  0
LINE
  8
0
  6
CONTINUOUS
 62
     2
 10
60.0
 20
171.75
 30
0.0
 11
60.0
 21
175.5
 31
0.0
  0
LINE
  8
0
  6
CONTINUOUS
 62
     2
 10
60.0
 20
175.5
 30
0.0
 11
60.0
 21
177.0
 31
0.0
  0
LINE
  8
0
  6
CONTINUOUS
 62
     2
 10
60.0
 20
177.0
 30
0.0
 11
60.0
 21
182.55
 31
0.0
  0
LINE
  8
0
  6
CONTINUOUS
 62
     2
 10
60.0
 20
177.0
 30
0.0
 11
60.647047613
 21
179.414814566
 31
0.0
  0
LINE
  8
0
  6
CONTINUOUS
 62
     2
 10
60.0
 20
177.0
 30
0.0
 11
59.352952387
 21
179.414814566
 31
0.0
  0
LINE
  8
0
  6
CONTINUOUS
 62
     2
 10
68.75
 20
177.0
 30
0.0
 11
58.0
 21
177.0
 31
0.0
  0
TEXT
  8
0
  6
CONTINUOUS
 62
     2
 10
59.0
 20
180.75
 30
0.3
 40
3.0
  1
３
 50
90.0
 41
0.6
 51
0.0
  7
KANJI0
  0
LINE
  8
0
  6
CONTINUOUS
 62
     2
 10
46.0
 20
133.5
 30
0.0
 11
46.0
 21
140.5
 31
0.0
  0
LINE
  8
0
  6
CONTINUOUS
 62
     2
 10
46.0
 20
138.5
 30
0.0
 11
43.585185434
 21
139.147047613
 31
0.0
  0
LINE
  8
0
  6
CONTINUOUS
 62
     2
 10
46.0
 20
138.5
 30
0.0
 11
43.585185434
 21
137.852952387
 31
0.0
  0
LINE
  8
0
  6
CONTINUOUS
 62
     2
 10
46.0
 20
138.5
 30
0.0
 11
26.0
 21
138.5
 31
0.0
  0
LINE
  8
0
  6
CONTINUOUS
 62
     2
 10
26.0
 20
138.5
 30
0.0
 11
28.414814566
 21
137.852952387
 31
0.0
  0
LINE
  8
0
  6
CONTINUOUS
 62
     2
 10
26.0
 20
138.5
 30
0.0
 11
28.414814566
 21
139.147047613
 31
0.0
  0
LINE
  8
0
  6
CONTINUOUS
 62
     2
 10
26.0
 20
133.5
 30
0.0
 11
26.0
 21
140.5
 31
0.0
  0
TEXT
  8
0
  6
CONTINUOUS
 62
     2
 10
34.05
 20
139.5
 30
0.3
 40
3.0
  1
４０
 50
0.0
 41
0.6
 51
0.0
  7
KANJI0
  0
LINE
  8
0
  6
CONTINUOUS
 62
     2
 10
56.0
 20
132.5
 30
0.0
 11
55.352952387
 21
130.085185434
 31
0.0
  0
LINE
  8
0
  6
CONTINUOUS
 62
     2
 10
56.0
 20
132.5
 30
0.0
 11
56.647047613
 21
130.085185434
 31
0.0
  0
LINE
  8
0
  6
CONTINUOUS
 62
     2
 10
56.0
 20
132.5
 30
0.0
 11
56.0
 21
57.5
 31
0.0
  0
LINE
  8
0
  6
CONTINUOUS
 62
     2
 10
56.0
 20
57.5
 30
0.0
 11
56.647047613
 21
59.914814566
 31
0.0
  0
LINE
  8
0
  6
CONTINUOUS
 62
     2
 10
56.0
 20
57.5
 30
0.0
 11
55.352952387
 21
59.914814566
 31
0.0
  0
TEXT
  8
0
  6
CONTINUOUS
 62
     2
 10
55.0
 20
92.0
 30
0.3
 40
3.0
  1
１５０
 50
90.0
 41
0.6
 51
0.0
  7
KANJI0
  0
LINE
  8
0
  6
CONTINUOUS
 62
     2
 10
16.0
 20
132.5
 30
0.0
 11
15.352952387
 21
130.085185434
 31
0.0
  0
LINE
  8
0
  6
CONTINUOUS
 62
     2
 10
16.0
 20
132.5
 30
0.0
 11
16.647047613
 21
130.085185434
 31
0.0
  0
LINE
  8
0
  6
CONTINUOUS
 62
     2
 10
16.0
 20
132.5
 30
0.0
 11
16.0
 21
122.25
 31
0.0
  0
LINE
  8
0
  6
CONTINUOUS
 62
     2
 10
16.0
 20
122.25
 30
0.0
 11
16.647047613
 21
124.664814566
 31
0.0
  0
LINE
  8
0
  6
CONTINUOUS
 62
     2
 10
16.0
 20
122.25
 30
0.0
 11
15.352952387
 21
124.664814566
 31
0.0
  0
TEXT
  8
0
  6
CONTINUOUS
 62
     2
 10
15.0
 20
123.325
 30
0.3
 40
3.0
  1
２０．５
 50
90.0
 41
0.6
 51
0.0
  7
KANJI0
  0
LINE
  8
0
  6
CONTINUOUS
 62
     2
 10
16.0
 20
57.5
 30
0.0
 11
16.647047613
 21
59.914814566
 31
0.0
  0
LINE
  8
0
  6
CONTINUOUS
 62
     2
 10
16.0
 20
57.5
 30
0.0
 11
15.352952387
 21
59.914814566
 31
0.0
  0
LINE
  8
0
  6
CONTINUOUS
 62
     2
 10
16.0
 20
57.5
 30
0.0
 11
16.0
 21
63.75
 31
0.0
  0
LINE
  8
0
  6
CONTINUOUS
 62
     2
 10
16.0
 20
63.75
 30
0.0
 11
15.352952387
 21
61.335185434
 31
0.0
  0
LINE
  8
0
  6
CONTINUOUS
 62
     2
 10
16.0
 20
63.75
 30
0.0
 11
16.647047613
 21
61.335185434
 31
0.0
  0
LINE
  8
0
  6
CONTINUOUS
 62
     2
 10
23.5
 20
122.25
 30
0.0
 11
14.0
 21
122.25
 31
0.0
  0
LINE
  8
0
  6
CONTINUOUS
 62
     2
 10
24.0
 20
132.5
 30
0.0
 11
14.0
 21
132.5
 31
0.0
  0
LINE
  8
0
  6
CONTINUOUS
 62
     2
 10
23.5
 20
63.75
 30
0.0
 11
14.0
 21
63.75
 31
0.0
  0
LINE
  8
0
  6
CONTINUOUS
 62
     2
 10
24.0
 20
57.5
 30
0.0
 11
14.0
 21
57.5
 31
0.0
  0
LINE
  8
0
  6
CONTINUOUS
 62
     2
 10
75.477297077
 20
127.73986021
 30
0.0
 11
75.76013979
 21
128.022702923
 31
0.0
  0
LINE
  8
0
  6
CONTINUOUS
 62
     2
 10
74.522702923
 20
129.26013979
 30
0.0
 11
74.23986021
 21
128.977297077
 31
0.0
  0
LINE
  8
0
  6
CONTINUOUS
 62
     2
 10
75.76013979
 20
128.977297077
 30
0.0
 11
75.477297077
 21
129.26013979
 31
0.0
  0
LINE
  8
0
  6
CONTINUOUS
 62
     2
 10
74.23986021
 20
128.022702923
 30
0.0
 11
74.522702923
 21
127.73986021
 31
0.0
  0
LINE
  8
0
  6
CONTINUOUS
 62
     2
 10
74.823223305
 20
128.959619408
 30
0.0
 11
74.522702923
 21
129.26013979
 31
0.0
  0
LINE
  8
0
  6
CONTINUOUS
 62
     2
 10
75.477297077
 20
129.26013979
 30
0.0
 11
75.176776695
 21
128.959619408
 31
0.0
  0
ARC
  8
0
  6
CONTINUOUS
 62
     2
 10
75.0
 20
129.136396103
 30
0.0
 40
0.25
 50
225.0
 51
315.0
  0
LINE
  8
0
  6
CONTINUOUS
 62
     2
 10
74.23986021
 20
128.977297077
 30
0.0
 11
74.540380592
 21
128.676776695
 31
0.0
  0
LINE
  8
0
  6
CONTINUOUS
 62
     2
 10
74.540380592
 20
128.323223305
 30
0.0
 11
74.23986021
 21
128.022702923
 31
0.0
  0
ARC
  8
0
  6
CONTINUOUS
 62
     2
 10
74.363603897
 20
128.5
 30
0.0
 40
0.25
 50
315.0
 51
45.0
  0
LINE
  8
0
  6
CONTINUOUS
 62
     2
 10
75.176776695
 20
128.040380592
 30
0.0
 11
75.477297077
 21
127.73986021
 31
0.0
  0
LINE
  8
0
  6
CONTINUOUS
 62
     2
 10
74.522702923
 20
127.73986021
 30
0.0
 11
74.823223305
 21
128.040380592
 31
0.0
  0
ARC
  8
0
  6
CONTINUOUS
 62
     2
 10
75.0
 20
127.863603897
 30
0.0
 40
0.25
 50
45.0
 51
135.0
  0
LINE
  8
0
  6
CONTINUOUS
 62
     2
 10
75.76013979
 20
128.022702923
 30
0.0
 11
75.459619408
 21
128.323223305
 31
0.0
  0
LINE
  8
0
  6
CONTINUOUS
 62
     2
 10
75.459619408
 20
128.676776695
 30
0.0
 11
75.76013979
 21
128.977297077
 31
0.0
  0
ARC
  8
0
  6
CONTINUOUS
 62
     2
 10
75.636396103
 20
128.5
 30
0.0
 40
0.25
 50
135.0
 51
225.0
  0
CIRCLE
  8
0
  6
CONTINUOUS
 62
     2
 10
75.0
 20
128.5
 30
0.0
 40
1.5
  0
LINE
  8
0
  6
CONTINUOUS
 62
     2
 10
115.477297077
 20
127.73986021
 30
0.0
 11
115.76013979
 21
128.022702923
 31
0.0
  0
LINE
  8
0
  6
CONTINUOUS
 62
     2
 10
114.522702923
 20
129.26013979
 30
0.0
 11
114.23986021
 21
128.977297077
 31
0.0
  0
LINE
  8
0
  6
CONTINUOUS
 62
     2
 10
115.76013979
 20
128.977297077
 30
0.0
 11
115.477297077
 21
129.26013979
 31
0.0
  0
LINE
  8
0
  6
CONTINUOUS
 62
     2
 10
114.23986021
 20
128.022702923
 30
0.0
 11
114.522702923
 21
127.73986021
 31
0.0
  0
LINE
  8
0
  6
CONTINUOUS
 62
     2
 10
114.823223305
 20
128.959619408
 30
0.0
 11
114.522702923
 21
129.26013979
 31
0.0
  0
LINE
  8
0
  6
CONTINUOUS
 62
     2
 10
115.477297077
 20
129.26013979
 30
0.0
 11
115.176776695
 21
128.959619408
 31
0.0
  0
ARC
  8
0
  6
CONTINUOUS
 62
     2
 10
115.0
 20
129.136396103
 30
0.0
 40
0.25
 50
225.0
 51
315.0
  0
LINE
  8
0
  6
CONTINUOUS
 62
     2
 10
114.23986021
 20
128.977297077
 30
0.0
 11
114.540380592
 21
128.676776695
 31
0.0
  0
LINE
  8
0
  6
CONTINUOUS
 62
     2
 10
114.540380592
 20
128.323223305
 30
0.0
 11
114.23986021
 21
128.022702923
 31
0.0
  0
ARC
  8
0
  6
CONTINUOUS
 62
     2
 10
114.363603897
 20
128.5
 30
0.0
 40
0.25
 50
315.0
 51
45.0
  0
LINE
  8
0
  6
CONTINUOUS
 62
     2
 10
115.176776695
 20
128.040380592
 30
0.0
 11
115.477297077
 21
127.73986021
 31
0.0
  0
LINE
  8
0
  6
CONTINUOUS
 62
     2
 10
114.522702923
 20
127.73986021
 30
0.0
 11
114.823223305
 21
128.040380592
 31
0.0
  0
ARC
  8
0
  6
CONTINUOUS
 62
     2
 10
115.0
 20
127.863603897
 30
0.0
 40
0.25
 50
45.0
 51
135.0
  0
LINE
  8
0
  6
CONTINUOUS
 62
     2
 10
115.76013979
 20
128.022702923
 30
0.0
 11
115.459619408
 21
128.323223305
 31
0.0
  0
LINE
  8
0
  6
CONTINUOUS
 62
     2
 10
115.459619408
 20
128.676776695
 30
0.0
 11
115.76013979
 21
128.977297077
 31
0.0
  0
ARC
  8
0
  6
CONTINUOUS
 62
     2
 10
115.636396103
 20
128.5
 30
0.0
 40
0.25
 50
135.0
 51
225.0
  0
CIRCLE
  8
0
  6
CONTINUOUS
 62
     2
 10
115.0
 20
128.5
 30
0.0
 40
1.5
  0
LINE
  8
0
  6
CONTINUOUS
 62
     2
 10
155.477297077
 20
127.73986021
 30
0.0
 11
155.76013979
 21
128.022702923
 31
0.0
  0
LINE
  8
0
  6
CONTINUOUS
 62
     2
 10
154.522702923
 20
129.26013979
 30
0.0
 11
154.23986021
 21
128.977297077
 31
0.0
  0
LINE
  8
0
  6
CONTINUOUS
 62
     2
 10
155.76013979
 20
128.977297077
 30
0.0
 11
155.477297077
 21
129.26013979
 31
0.0
  0
LINE
  8
0
  6
CONTINUOUS
 62
     2
 10
154.23986021
 20
128.022702923
 30
0.0
 11
154.522702923
 21
127.73986021
 31
0.0
  0
LINE
  8
0
  6
CONTINUOUS
 62
     2
 10
154.823223305
 20
128.959619408
 30
0.0
 11
154.522702923
 21
129.26013979
 31
0.0
  0
LINE
  8
0
  6
CONTINUOUS
 62
     2
 10
155.477297077
 20
129.26013979
 30
0.0
 11
155.176776695
 21
128.959619408
 31
0.0
  0
ARC
  8
0
  6
CONTINUOUS
 62
     2
 10
155.0
 20
129.136396103
 30
0.0
 40
0.25
 50
225.0
 51
315.0
  0
LINE
  8
0
  6
CONTINUOUS
 62
     2
 10
154.23986021
 20
128.977297077
 30
0.0
 11
154.540380592
 21
128.676776695
 31
0.0
  0
LINE
  8
0
  6
CONTINUOUS
 62
     2
 10
154.540380592
 20
128.323223305
 30
0.0
 11
154.23986021
 21
128.022702923
 31
0.0
  0
ARC
  8
0
  6
CONTINUOUS
 62
     2
 10
154.363603897
 20
128.5
 30
0.0
 40
0.25
 50
315.0
 51
45.0
  0
LINE
  8
0
  6
CONTINUOUS
 62
     2
 10
155.176776695
 20
128.040380592
 30
0.0
 11
155.477297077
 21
127.73986021
 31
0.0
  0
LINE
  8
0
  6
CONTINUOUS
 62
     2
 10
154.522702923
 20
127.73986021
 30
0.0
 11
154.823223305
 21
128.040380592
 31
0.0
  0
ARC
  8
0
  6
CONTINUOUS
 62
     2
 10
155.0
 20
127.863603897
 30
0.0
 40
0.25
 50
45.0
 51
135.0
  0
LINE
  8
0
  6
CONTINUOUS
 62
     2
 10
155.76013979
 20
128.022702923
 30
0.0
 11
155.459619408
 21
128.323223305
 31
0.0
  0
LINE
  8
0
  6
CONTINUOUS
 62
     2
 10
155.459619408
 20
128.676776695
 30
0.0
 11
155.76013979
 21
128.977297077
 31
0.0
  0
ARC
  8
0
  6
CONTINUOUS
 62
     2
 10
155.636396103
 20
128.5
 30
0.0
 40
0.25
 50
135.0
 51
225.0
  0
CIRCLE
  8
0
  6
CONTINUOUS
 62
     2
 10
155.0
 20
128.5
 30
0.0
 40
1.5
  0
LINE
  8
0
  6
CONTINUOUS
 62
     2
 10
75.477297077
 20
62.26013979
 30
0.0
 11
75.76013979
 21
61.977297077
 31
0.0
  0
LINE
  8
0
  6
CONTINUOUS
 62
     2
 10
74.522702923
 20
60.73986021
 30
0.0
 11
74.23986021
 21
61.022702923
 31
0.0
  0
LINE
  8
0
  6
CONTINUOUS
 62
     2
 10
75.76013979
 20
61.022702923
 30
0.0
 11
75.477297077
 21
60.73986021
 31
0.0
  0
LINE
  8
0
  6
CONTINUOUS
 62
     2
 10
74.23986021
 20
61.977297077
 30
0.0
 11
74.522702923
 21
62.26013979
 31
0.0
  0
LINE
  8
0
  6
CONTINUOUS
 62
     2
 10
74.823223305
 20
61.040380592
 30
0.0
 11
74.522702923
 21
60.73986021
 31
0.0
  0
LINE
  8
0
  6
CONTINUOUS
 62
     2
 10
75.477297077
 20
60.73986021
 30
0.0
 11
75.176776695
 21
61.040380592
 31
0.0
  0
ARC
  8
0
  6
CONTINUOUS
 62
     2
 10
75.0
 20
60.863603897
 30
0.0
 40
0.25
 50
45.0
 51
135.0
  0
LINE
  8
0
  6
CONTINUOUS
 62
     2
 10
74.23986021
 20
61.022702923
 30
0.0
 11
74.540380592
 21
61.323223305
 31
0.0
  0
LINE
  8
0
  6
CONTINUOUS
 62
     2
 10
74.540380592
 20
61.676776695
 30
0.0
 11
74.23986021
 21
61.977297077
 31
0.0
  0
ARC
  8
0
  6
CONTINUOUS
 62
     2
 10
74.363603897
 20
61.5
 30
0.0
 40
0.25
 50
315.0
 51
45.0
  0
LINE
  8
0
  6
CONTINUOUS
 62
     2
 10
75.176776695
 20
61.959619408
 30
0.0
 11
75.477297077
 21
62.26013979
 31
0.0
  0
LINE
  8
0
  6
CONTINUOUS
 62
     2
 10
74.522702923
 20
62.26013979
 30
0.0
 11
74.823223305
 21
61.959619408
 31
0.0
  0
ARC
  8
0
  6
CONTINUOUS
 62
     2
 10
75.0
 20
62.136396103
 30
0.0
 40
0.25
 50
225.0
 51
315.0
  0
LINE
  8
0
  6
CONTINUOUS
 62
     2
 10
75.76013979
 20
61.977297077
 30
0.0
 11
75.459619408
 21
61.676776695
 31
0.0
  0
LINE
  8
0
  6
CONTINUOUS
 62
     2
 10
75.459619408
 20
61.323223305
 30
0.0
 11
75.76013979
 21
61.022702923
 31
0.0
  0
ARC
  8
0
  6
CONTINUOUS
 62
     2
 10
75.636396103
 20
61.5
 30
0.0
 40
0.25
 50
135.0
 51
225.0
  0
CIRCLE
  8
0
  6
CONTINUOUS
 62
     2
 10
75.0
 20
61.5
 30
0.0
 40
1.5
  0
LINE
  8
0
  6
CONTINUOUS
 62
     2
 10
115.477297077
 20
62.26013979
 30
0.0
 11
115.76013979
 21
61.977297077
 31
0.0
  0
LINE
  8
0
  6
CONTINUOUS
 62
     2
 10
114.522702923
 20
60.73986021
 30
0.0
 11
114.23986021
 21
61.022702923
 31
0.0
  0
LINE
  8
0
  6
CONTINUOUS
 62
     2
 10
115.76013979
 20
61.022702923
 30
0.0
 11
115.477297077
 21
60.73986021
 31
0.0
  0
LINE
  8
0
  6
CONTINUOUS
 62
     2
 10
114.23986021
 20
61.977297077
 30
0.0
 11
114.522702923
 21
62.26013979
 31
0.0
  0
LINE
  8
0
  6
CONTINUOUS
 62
     2
 10
114.823223305
 20
61.040380592
 30
0.0
 11
114.522702923
 21
60.73986021
 31
0.0
  0
LINE
  8
0
  6
CONTINUOUS
 62
     2
 10
115.477297077
 20
60.73986021
 30
0.0
 11
115.176776695
 21
61.040380592
 31
0.0
  0
ARC
  8
0
  6
CONTINUOUS
 62
     2
 10
115.0
 20
60.863603897
 30
0.0
 40
0.25
 50
45.0
 51
135.0
  0
LINE
  8
0
  6
CONTINUOUS
 62
     2
 10
114.23986021
 20
61.022702923
 30
0.0
 11
114.540380592
 21
61.323223305
 31
0.0
  0
LINE
  8
0
  6
CONTINUOUS
 62
     2
 10
114.540380592
 20
61.676776695
 30
0.0
 11
114.23986021
 21
61.977297077
 31
0.0
  0
ARC
  8
0
  6
CONTINUOUS
 62
     2
 10
114.363603897
 20
61.5
 30
0.0
 40
0.25
 50
315.0
 51
45.0
  0
LINE
  8
0
  6
CONTINUOUS
 62
     2
 10
115.176776695
 20
61.959619408
 30
0.0
 11
115.477297077
 21
62.26013979
 31
0.0
  0
LINE
  8
0
  6
CONTINUOUS
 62
     2
 10
114.522702923
 20
62.26013979
 30
0.0
 11
114.823223305
 21
61.959619408
 31
0.0
  0
ARC
  8
0
  6
CONTINUOUS
 62
     2
 10
115.0
 20
62.136396103
 30
0.0
 40
0.25
 50
225.0
 51
315.0
  0
LINE
  8
0
  6
CONTINUOUS
 62
     2
 10
115.76013979
 20
61.977297077
 30
0.0
 11
115.459619408
 21
61.676776695
 31
0.0
  0
LINE
  8
0
  6
CONTINUOUS
 62
     2
 10
115.459619408
 20
61.323223305
 30
0.0
 11
115.76013979
 21
61.022702923
 31
0.0
  0
ARC
  8
0
  6
CONTINUOUS
 62
     2
 10
115.636396103
 20
61.5
 30
0.0
 40
0.25
 50
135.0
 51
225.0
  0
CIRCLE
  8
0
  6
CONTINUOUS
 62
     2
 10
115.0
 20
61.5
 30
0.0
 40
1.5
  0
LINE
  8
0
  6
CONTINUOUS
 62
     2
 10
155.477297077
 20
62.26013979
 30
0.0
 11
155.76013979
 21
61.977297077
 31
0.0
  0
LINE
  8
0
  6
CONTINUOUS
 62
     2
 10
154.522702923
 20
60.73986021
 30
0.0
 11
154.23986021
 21
61.022702923
 31
0.0
  0
LINE
  8
0
  6
CONTINUOUS
 62
     2
 10
155.76013979
 20
61.022702923
 30
0.0
 11
155.477297077
 21
60.73986021
 31
0.0
  0
LINE
  8
0
  6
CONTINUOUS
 62
     2
 10
154.23986021
 20
61.977297077
 30
0.0
 11
154.522702923
 21
62.26013979
 31
0.0
  0
LINE
  8
0
  6
CONTINUOUS
 62
     2
 10
154.823223305
 20
61.040380592
 30
0.0
 11
154.522702923
 21
60.73986021
 31
0.0
  0
LINE
  8
0
  6
CONTINUOUS
 62
     2
 10
155.477297077
 20
60.73986021
 30
0.0
 11
155.176776695
 21
61.040380592
 31
0.0
  0
ARC
  8
0
  6
CONTINUOUS
 62
     2
 10
155.0
 20
60.863603897
 30
0.0
 40
0.25
 50
45.0
 51
135.0
  0
LINE
  8
0
  6
CONTINUOUS
 62
     2
 10
154.23986021
 20
61.022702923
 30
0.0
 11
154.540380592
 21
61.323223305
 31
0.0
  0
LINE
  8
0
  6
CONTINUOUS
 62
     2
 10
154.540380592
 20
61.676776695
 30
0.0
 11
154.23986021
 21
61.977297077
 31
0.0
  0
ARC
  8
0
  6
CONTINUOUS
 62
     2
 10
154.363603897
 20
61.5
 30
0.0
 40
0.25
 50
315.0
 51
45.0
  0
LINE
  8
0
  6
CONTINUOUS
 62
     2
 10
155.176776695
 20
61.959619408
 30
0.0
 11
155.477297077
 21
62.26013979
 31
0.0
  0
LINE
  8
0
  6
CONTINUOUS
 62
     2
 10
154.522702923
 20
62.26013979
 30
0.0
 11
154.823223305
 21
61.959619408
 31
0.0
  0
ARC
  8
0
  6
CONTINUOUS
 62
     2
 10
155.0
 20
62.136396103
 30
0.0
 40
0.25
 50
225.0
 51
315.0
  0
LINE
  8
0
  6
CONTINUOUS
 62
     2
 10
155.76013979
 20
61.977297077
 30
0.0
 11
155.459619408
 21
61.676776695
 31
0.0
  0
LINE
  8
0
  6
CONTINUOUS
 62
     2
 10
155.459619408
 20
61.323223305
 30
0.0
 11
155.76013979
 21
61.022702923
 31
0.0
  0
ARC
  8
0
  6
CONTINUOUS
 62
     2
 10
155.636396103
 20
61.5
 30
0.0
 40
0.25
 50
135.0
 51
225.0
  0
CIRCLE
  8
0
  6
CONTINUOUS
 62
     2
 10
155.0
 20
61.5
 30
0.0
 40
1.5
  0
LINE
  8
0
  6
CONTINUOUS
 62
     2
 10
72.75
 20
135.4
 30
0.0
 11
72.75
 21
132.9
 31
0.0
  0
LINE
  8
0
  6
CONTINUOUS
 62
     2
 10
81.5
 20
135.4
 30
0.0
 11
81.5
 21
132.9
 31
0.0
  0
LINE
  8
0
  6
CONTINUOUS
 62
     2
 10
141.5
 20
135.4
 30
0.0
 11
141.5
 21
132.9
 31
0.0
  0
LINE
  8
0
  6
CONTINUOUS
 62
     2
 10
162.25
 20
133.0
 30
0.0
 11
162.25
 21
135.5
 31
0.0
  0
LINE
  8
0
  6
CONTINUOUS
 62
     2
 10
141.5
 20
135.15
 30
0.0
 11
155.9
 21
135.15
 31
0.0
  0
LINE
  8
0
  6
CONTINUOUS
 62
     2
 10
155.9
 20
133.15
 30
0.0
 11
141.4875
 21
133.15
 31
0.0
  0
LINE
  8
0
  6
CONTINUOUS
 62
     2
 10
81.5
 20
135.15
 30
0.0
 11
78.3
 21
135.15
 31
0.0
  0
LINE
  8
0
  6
CONTINUOUS
 62
     2
 10
78.3
 20
133.15
 30
0.0
 11
81.5
 21
133.15
 31
0.0
  0
LINE
  8
0
  6
CONTINUOUS
 62
     2
 10
72.5
 20
135.15
 30
0.0
 11
76.7
 21
135.15
 31
0.0
  0
LINE
  8
0
  6
CONTINUOUS
 62
     2
 10
72.5
 20
133.15
 30
0.0
 11
76.7
 21
133.15
 31
0.0
  0
LINE
  8
0
  6
CONTINUOUS
 62
     2
 10
70.0
 20
57.5
 30
0.0
 11
70.0
 21
132.5
 31
0.0
  0
LINE
  8
0
  6
CONTINUOUS
 62
     2
 10
69.75
 20
57.5
 30
0.0
 11
69.75
 21
132.5
 31
0.0
  0
LINE
  8
0
  6
CONTINUOUS
 62
     2
 10
64.849118357
 20
123.021233433
 30
0.0
 11
67.022587759
 21
121.785907258
 31
0.0
  0
LINE
  8
0
  6
CONTINUOUS
 62
     2
 10
64.849118357
 20
123.021233433
 30
0.0
 11
67.349061161
 21
123.038144284
 31
0.0
  0
TEXT
  8
0
  6
CONTINUOUS
 62
     2
 10
101.452279273
 20
114.511771549
 30
0.3
 40
3.0
  1
Ｒ２４０（カバー面）
 50
345.387571118
 41
0.6
 51
0.0
  7
KANJI0
  0
LINE
  8
0
  6
CONTINUOUS
 62
     2
 10
69.385888117
 20
116.0
 30
0.0
 11
71.393131457
 21
114.509706682
 31
0.0
  0
LINE
  8
0
  6
CONTINUOUS
 62
     2
 10
69.385888117
 20
116.0
 30
0.0
 11
71.8693585
 21
115.712989798
 31
0.0
  0
LINE
  8
0
  6
CONTINUOUS
 62
     2
 10
69.385888117
 20
116.0
 30
0.0
 11
127.5
 21
93.0
 31
0.0
  0
TEXT
  8
0
  6
CONTINUOUS
 62
     2
 10
86.968
 20
110.116944022
 30
0.3
 40
3.0
  1
Ｒ１２５（指針）
 50
338.407675128
 41
0.6
 51
0.0
  7
KANJI0
  0
LINE
  8
0
  6
LTYPE1
 62
     2
 10
122.5
 20
93.0
 30
0.0
 11
132.5
 21
93.0
 31
0.0
  0
LINE
  8
0
  6
CONTINUOUS
 62
     2
 10
127.5
 20
93.0
 30
0.0
 11
71.132899667
 21
66.0
 31
0.0
  0
ARC
  8
0
  6
CONTINUOUS
 62
     2
 10
127.5
 20
93.0
 30
0.0
 40
62.5
 50
155.741033199
 51
207.524275948
  0
LINE
  8
0
  6
CONTINUOUS
 62
     2
 10
64.849118357
 20
123.021233433
 30
0.0
 11
180.0
 21
93.0
 31
0.0
  0
LINE
  8
0
  6
LTYPE1
 62
     2
 10
180.0
 20
95.5
 30
0.0
 11
180.0
 21
90.5
 31
0.0
  0
LINE
  8
0
  6
CONTINUOUS
 62
     2
 10
90.85
 20
54.6
 30
0.0
 11
91.497047613
 21
52.185185434
 31
0.0
  0
LINE
  8
0
  6
CONTINUOUS
 62
     2
 10
90.85
 20
54.6
 30
0.0
 11
92.617766953
 21
52.832233047
 31
0.0
  0
LINE
  8
0
  6
CONTINUOUS
 62
     2
 10
90.85
 20
54.6
 30
0.0
 11
97.922540798
 21
42.35
 31
0.0
  0
LINE
  8
0
  6
CONTINUOUS
 62
     2
 10
97.922540798
 20
42.35
 30
0.0
 11
121.622540798
 21
42.35
 31
0.0
  0
TEXT
  8
0
  6
CONTINUOUS
 62
     2
 10
97.922540798
 20
43.35
 30
0.3
 40
3.0
  1
取付金具（Ｍ５）
 50
0.0
 41
0.9
 51
0.0
  7
KANJI1
  0
LINE
  8
0
  6
LTYPE1
 62
     2
 10
75.0
 20
59.0
 30
0.0
 11
75.0
 21
64.0
 31
0.0
  0
LINE
  8
0
  6
LTYPE1
 62
     2
 10
72.5
 20
61.5
 30
0.0
 11
77.5
 21
61.5
 31
0.0
  0
LINE
  8
0
  6
LTYPE1
 62
     2
 10
115.0
 20
59.0
 30
0.0
 11
115.0
 21
64.0
 31
0.0
  0
LINE
  8
0
  6
LTYPE1
 62
     2
 10
112.5
 20
61.5
 30
0.0
 11
117.5
 21
61.5
 31
0.0
  0
LINE
  8
0
  6
LTYPE1
 62
     2
 10
155.0
 20
59.0
 30
0.0
 11
155.0
 21
64.0
 31
0.0
  0
LINE
  8
0
  6
LTYPE1
 62
     2
 10
152.5
 20
61.5
 30
0.0
 11
157.5
 21
61.5
 31
0.0
  0
LINE
  8
0
  6
LTYPE1
 62
     2
 10
155.0
 20
126.0
 30
0.0
 11
155.0
 21
131.0
 31
0.0
  0
LINE
  8
0
  6
LTYPE1
 62
     2
 10
152.5
 20
128.5
 30
0.0
 11
157.5
 21
128.5
 31
0.0
  0
LINE
  8
0
  6
LTYPE1
 62
     2
 10
115.0
 20
126.0
 30
0.0
 11
115.0
 21
131.0
 31
0.0
  0
LINE
  8
0
  6
LTYPE1
 62
     2
 10
112.5
 20
128.5
 30
0.0
 11
117.5
 21
128.5
 31
0.0
  0
LINE
  8
0
  6
LTYPE1
 62
     2
 10
75.0
 20
126.0
 30
0.0
 11
75.0
 21
131.0
 31
0.0
  0
LINE
  8
0
  6
LTYPE1
 62
     2
 10
72.5
 20
128.5
 30
0.0
 11
77.5
 21
128.5
 31
0.0
  0
LINE
  8
0
  6
LTYPE1
 62
     2
 10
177.5
 20
93.0
 30
0.0
 11
182.5
 21
93.0
 31
0.0
  0
LINE
  8
0
  6
CONTINUOUS
 62
     2
 10
65.0
 20
132.75
 30
0.0
 11
65.0
 21
145.0
 31
0.0
  0
LINE
  8
0
  6
CONTINUOUS
 62
     2
 10
70.0
 20
134.75
 30
0.0
 11
70.0
 21
145.0
 31
0.0
  0
TEXT
  8
0
  6
CONTINUOUS
 62
     2
 10
65.55
 20
144.0
 30
0.3
 40
3.0
  1
１０
 50
0.0
 41
0.6
 51
0.0
  7
KANJI0
  0
LINE
  8
0
  6
CONTINUOUS
 62
     2
 10
65.0
 20
143.0
 30
0.0
 11
61.0
 21
143.0
 31
0.0
  0
LINE
  8
0
  6
CONTINUOUS
 62
     2
 10
61.0
 20
143.0
 30
0.0
 11
57.25
 21
143.0
 31
0.0
  0
LINE
  8
0
  6
CONTINUOUS
 62
     2
 10
61.0
 20
143.0
 30
0.0
 11
58.585185434
 21
143.647047613
 31
0.0
  0
LINE
  8
0
  6
CONTINUOUS
 62
     2
 10
61.0
 20
143.0
 30
0.0
 11
58.585185434
 21
142.352952387
 31
0.0
  0
LINE
  8
0
  6
CONTINUOUS
 62
     2
 10
61.0
 20
94.0
 30
0.0
 11
61.0
 21
145.0
 31
0.0
  0
TEXT
  8
0
  6
CONTINUOUS
 62
     2
 10
62.1
 20
144.0
 30
0.3
 40
3.0
  1
８
 50
0.0
 41
0.6
 51
0.0
  7
KANJI0
  0
LINE
  8
0
  6
CONTINUOUS
 62
     2
 10
165.5
 20
131.75
 30
0.0
 11
165.5
 21
145.0
 31
0.0
  0
LINE
  8
0
  6
CONTINUOUS
 62
     2
 10
165.5
 20
143.0
 30
0.0
 11
163.085185434
 21
143.647047613
 31
0.0
  0
LINE
  8
0
  6
CONTINUOUS
 62
     2
 10
165.5
 20
143.0
 30
0.0
 11
163.085185434
 21
142.352952387
 31
0.0
  0
LINE
  8
0
  6
CONTINUOUS
 62
     2
 10
165.5
 20
143.0
 30
0.0
 11
70.0
 21
143.0
 31
0.0
  0
LINE
  8
0
  6
CONTINUOUS
 62
     2
 10
70.0
 20
143.0
 30
0.0
 11
72.414814566
 21
142.352952387
 31
0.0
  0
LINE
  8
0
  6
CONTINUOUS
 62
     2
 10
70.0
 20
143.0
 30
0.0
 11
72.414814566
 21
143.647047613
 31
0.0
  0
TEXT
  8
0
  6
CONTINUOUS
 62
     2
 10
114.75
 20
144.0
 30
0.3
 40
3.0
  1
１９１
 50
0.0
 41
0.6
 51
0.0
  7
KANJI0
  0
LINE
  8
0
  6
CONTINUOUS
 62
     2
 10
65.0
 20
143.0
 30
0.0
 11
70.0
 21
143.0
 31
0.0
  0
CIRCLE
  8
0
  6
CONTINUOUS
 62
     2
 10
65.0
 20
143.0
 30
0.0
 40
0.3
  0
LINE
  8
0
  6
CONTINUOUS
 62
     2
 10
165.0
 20
131.25
 30
0.0
 11
185.5
 21
131.25
 31
0.0
  0
LINE
  8
0
  6
CONTINUOUS
 62
     2
 10
183.5
 20
131.25
 30
0.0
 11
182.852952387
 21
128.835185434
 31
0.0
  0
LINE
  8
0
  6
CONTINUOUS
 62
     2
 10
183.5
 20
131.25
 30
0.0
 11
184.147047613
 21
128.835185434
 31
0.0
  0
LINE
  8
0
  6
CONTINUOUS
 62
     2
 10
183.5
 20
131.25
 30
0.0
 11
183.5
 21
58.75
 31
0.0
  0
LINE
  8
0
  6
CONTINUOUS
 62
     2
 10
183.5
 20
58.75
 30
0.0
 11
184.147047613
 21
61.164814566
 31
0.0
  0
LINE
  8
0
  6
CONTINUOUS
 62
     2
 10
183.5
 20
58.75
 30
0.0
 11
182.852952387
 21
61.164814566
 31
0.0
  0
LINE
  8
0
  6
CONTINUOUS
 62
     2
 10
165.0
 20
58.75
 30
0.0
 11
185.5
 21
58.75
 31
0.0
  0
TEXT
  8
0
  6
CONTINUOUS
 62
     2
 10
182.5
 20
96.0
 30
0.3
 40
3.0
  1
１４５
 50
90.0
 41
0.6
 51
0.0
  7
KANJI0
  0
ARC
  8
0
  6
CONTINUOUS
 62
     2
 10
156.91796875
 20
134.25
 30
0.0
 40
1.78203125
 50
320.853748339
 51
39.146251661
  0
ARC
  8
0
  6
CONTINUOUS
 62
     2
 10
156.91796875
 20
132.0
 30
0.0
 40
1.78203125
 50
0.0
 51
39.146251661
  0
ARC
  8
0
  6
CONTINUOUS
 62
     2
 10
156.91796875
 20
136.5
 30
0.0
 40
1.78203125
 50
320.853748339
 51
360.0
  0
LINE
  8
0
  6
CONTINUOUS
 62
     2
 10
158.7
 20
135.25
 30
0.0
 11
162.5
 21
135.25
 31
0.0
  0
LINE
  8
0
  6
CONTINUOUS
 62
     2
 10
162.5
 20
133.25
 30
0.0
 11
158.7
 21
133.25
 31
0.0
  0
LINE
  8
0
  6
CONTINUOUS
 62
     2
 10
72.75
 20
54.6
 30
0.0
 11
72.75
 21
57.1
 31
0.0
  0
LINE
  8
0
  6
CONTINUOUS
 62
     2
 10
81.5
 20
54.6
 30
0.0
 11
81.5
 21
57.1
 31
0.0
  0
LINE
  8
0
  6
CONTINUOUS
 62
     2
 10
141.5
 20
54.6
 30
0.0
 11
141.5
 21
57.1
 31
0.0
  0
LINE
  8
0
  6
CONTINUOUS
 62
     2
 10
162.25
 20
57.0
 30
0.0
 11
162.25
 21
54.5
 31
0.0
  0
LINE
  8
0
  6
CONTINUOUS
 62
     2
 10
141.5
 20
54.85
 30
0.0
 11
155.9
 21
54.85
 31
0.0
  0
LINE
  8
0
  6
CONTINUOUS
 62
     2
 10
155.9
 20
56.85
 30
0.0
 11
141.4875
 21
56.85
 31
0.0
  0
LINE
  8
0
  6
CONTINUOUS
 62
     2
 10
81.5
 20
54.85
 30
0.0
 11
78.3
 21
54.85
 31
0.0
  0
LINE
  8
0
  6
CONTINUOUS
 62
     2
 10
78.3
 20
56.85
 30
0.0
 11
81.5
 21
56.85
 31
0.0
  0
LINE
  8
0
  6
CONTINUOUS
 62
     2
 10
72.5
 20
54.85
 30
0.0
 11
76.7
 21
54.85
 31
0.0
  0
LINE
  8
0
  6
CONTINUOUS
 62
     2
 10
72.5
 20
56.85
 30
0.0
 11
76.7
 21
56.85
 31
0.0
  0
ARC
  8
0
  6
CONTINUOUS
 62
     2
 10
156.91796875
 20
55.75
 30
0.0
 40
1.78203125
 50
320.853748339
 51
39.146251661
  0
ARC
  8
0
  6
CONTINUOUS
 62
     2
 10
156.91796875
 20
58.0
 30
0.0
 40
1.78203125
 50
320.853748339
 51
360.0
  0
ARC
  8
0
  6
CONTINUOUS
 62
     2
 10
156.91796875
 20
53.5
 30
0.0
 40
1.78203125
 50
0.0
 51
39.146251661
  0
LINE
  8
0
  6
CONTINUOUS
 62
     2
 10
158.7
 20
54.75
 30
0.0
 11
162.5
 21
54.75
 31
0.0
  0
LINE
  8
0
  6
CONTINUOUS
 62
     2
 10
162.5
 20
56.75
 30
0.0
 11
158.7
 21
56.75
 31
0.0
  0
LINE
  8
0
  6
CONTINUOUS
 62
     2
 10
183.5
 20
58.75
 30
0.0
 11
184.147047613
 21
61.164814566
 31
0.0
  0
LINE
  8
0
  6
CONTINUOUS
 62
     2
 10
183.5
 20
58.75
 30
0.0
 11
182.852952387
 21
61.164814566
 31
0.0
  0
LINE
  8
0
  6
CONTINUOUS
 62
     2
 10
183.5
 20
62.5
 30
0.0
 11
183.5
 21
58.75
 31
0.0
  0
LINE
  8
0
  6
CONTINUOUS
 62
     2
 10
183.5
 20
58.75
 30
0.0
 11
183.5
 21
53.75
 31
0.0
  0
LINE
  8
0
  6
CONTINUOUS
 62
     2
 10
183.5
 20
53.75
 30
0.0
 11
183.5
 21
50.0
 31
0.0
  0
LINE
  8
0
  6
CONTINUOUS
 62
     2
 10
183.5
 20
53.75
 30
0.0
 11
182.852952387
 21
51.335185434
 31
0.0
  0
LINE
  8
0
  6
CONTINUOUS
 62
     2
 10
183.5
 20
53.75
 30
0.0
 11
184.147047613
 21
51.335185434
 31
0.0
  0
LINE
  8
0
  6
CONTINUOUS
 62
     2
 10
159.7
 20
53.75
 30
0.0
 11
185.5
 21
53.75
 31
0.0
  0
TEXT
  8
0
  6
CONTINUOUS
 62
     2
 10
182.5
 20
54.3
 30
0.3
 40
3.0
  1
１０
 50
90.0
 41
0.6
 51
0.0
  7
KANJI0
  0
ARC
  8
0
  6
CONTINUOUS
 62
     2
 10
156.91796875
 20
164.375
 30
0.0
 40
1.78203125
 50
332.474380886
 51
39.146251661
  0
ARC
  8
0
  6
CONTINUOUS
 62
     2
 10
156.91796875
 20
166.625
 30
0.0
 40
1.78203125
 50
320.853748339
 51
27.525619114
  0
LINE
  8
0
  6
CONTINUOUS
 62
     2
 10
158.7
 20
166.5
 30
0.0
 11
162.5
 21
166.5
 31
0.0
  0
LINE
  8
0
  6
CONTINUOUS
 62
     2
 10
162.5
 20
164.5
 30
0.0
 11
158.7
 21
164.5
 31
0.0
  0
LINE
  8
0
  6
CONTINUOUS
 62
     2
 10
61.0
 20
144.0
 30
0.0
 11
61.0
 21
150.0
 31
0.0
  0
LINE
  8
0
  6
CONTINUOUS
 62
     2
 10
61.0
 20
148.0
 30
0.0
 11
63.414814566
 21
147.352952387
 31
0.0
  0
LINE
  8
0
  6
CONTINUOUS
 62
     2
 10
61.0
 20
148.0
 30
0.0
 11
63.414814566
 21
148.647047613
 31
0.0
  0
LINE
  8
0
  6
CONTINUOUS
 62
     2
 10
165.5
 20
143.0
 30
0.0
 11
167.914814566
 21
142.352952387
 31
0.0
  0
LINE
  8
0
  6
CONTINUOUS
 62
     2
 10
165.5
 20
143.0
 30
0.0
 11
167.914814566
 21
143.647047613
 31
0.0
  0
TEXT
  8
0
  6
CONTINUOUS
 62
     2
 10
28.95
 20
125.25
 30
0.3
 40
3.0
  1
（名称板）
 50
0.0
 41
0.9
 51
0.0
  7
KANJI1
  0
TEXT
  8
0
  6
CONTINUOUS
 62
     2
 10
29.45
 20
59.25
 30
0.3
 40
3.0
  1
（ＴＡＧ板）
 50
0.0
 41
0.9
 51
0.0
  7
KANJI1
  0
LINE
  8
0
  6
CONTINUOUS
 62
     2
 10
70.0
 20
50.75
 30
0.0
 11
70.0
 21
46.75
 31
0.0
  0
LINE
  8
0
  6
CONTINUOUS
 62
     2
 10
70.0
 20
48.75
 30
0.0
 11
67.585185434
 21
49.397047613
 31
0.0
  0
LINE
  8
0
  6
CONTINUOUS
 62
     2
 10
70.0
 20
48.75
 30
0.0
 11
67.585185434
 21
48.102952387
 31
0.0
  0
LINE
  8
0
  6
CONTINUOUS
 62
     2
 10
66.25
 20
48.75
 30
0.0
 11
70.0
 21
48.75
 31
0.0
  0
LINE
  8
0
  6
CONTINUOUS
 62
     2
 10
70.0
 20
48.75
 30
0.0
 11
72.5
 21
48.75
 31
0.0
  0
LINE
  8
0
  6
CONTINUOUS
 62
     2
 10
72.5
 20
48.75
 30
0.0
 11
84.35
 21
48.75
 31
0.0
  0
LINE
  8
0
  6
CONTINUOUS
 62
     2
 10
72.5
 20
48.75
 30
0.0
 11
74.914814566
 21
48.102952387
 31
0.0
  0
LINE
  8
0
  6
CONTINUOUS
 62
     2
 10
72.5
 20
48.75
 30
0.0
 11
74.914814566
 21
49.397047613
 31
0.0
  0
LINE
  8
0
  6
CONTINUOUS
 62
     2
 10
72.5
 20
51.25
 30
0.0
 11
72.5
 21
46.75
 31
0.0
  0
TEXT
  8
0
  6
CONTINUOUS
 62
     2
 10
76.25
 20
49.75
 30
0.3
 40
3.0
  1
８　ｍａｘ．
 50
0.0
 41
0.6
 51
0.0
  7
KANJI0
  0
LINE
  8
0
  6
CONTINUOUS
 62
     2
 10
71.607050808
 20
180.0
 30
0.0
 11
92.307050808
 21
180.0
 31
0.0
  0
TEXT
  8
0
  6
CONTINUOUS
 62
     2
 10
71.607050808
 20
181.0
 30
0.3
 40
3.0
  1
エスカッション
 50
0.0
 41
0.9
 51
0.0
  7
KANJI1
  0
LINE
  8
0
  6
LTYPE1
 62
     2
 10
57.0
 20
165.5
 30
0.0
 11
176.0
 21
165.5
 31
0.0
  0
LINE
  8
0
  6
CONTINUOUS
 62
     2
 10
28.0
 20
121.0
 30
0.0
 11
28.0
 21
65.25
 31
0.0
  0
LINE
  8
0
  6
CONTINUOUS
 62
     2
 10
44.0
 20
65.25
 30
0.0
 11
44.0
 21
121.0
 31
0.0
  0
LINE
  8
0
  6
CONTINUOUS
 62
     2
 10
28.0
 20
65.25
 30
0.0
 11
44.0
 21
65.25
 31
0.0
  0
LINE
  8
0
  6
CONTINUOUS
 62
     2
 10
44.0
 20
121.0
 30
0.0
 11
28.0
 21
121.0
 31
0.0
  0
LINE
  8
0
  6
CONTINUOUS
 62
     2
 10
34.0
 20
121.0
 30
0.0
 11
34.0
 21
65.25
 31
0.0
  0
LINE
  8
0
  6
CONTINUOUS
 62
     2
 10
36.9125
 20
68.075
 30
0.0
 11
36.9125
 21
67.925
 31
0.0
  0
LINE
  8
0
  6
CONTINUOUS
 62
     2
 10
34.0
 20
72.925
 30
0.0
 11
34.0
 21
73.075
 31
0.0
  0
LINE
  8
0
  6
CONTINUOUS
 62
     2
 10
36.9125
 20
73.075
 30
0.0
 11
36.9125
 21
72.925
 31
0.0
  0
LINE
  8
0
  6
CONTINUOUS
 62
     2
 10
34.0
 20
77.925
 30
0.0
 11
34.0
 21
78.075
 31
0.0
  0
LINE
  8
0
  6
CONTINUOUS
 62
     2
 10
36.9125
 20
78.075
 30
0.0
 11
36.9125
 21
77.925
 31
0.0
  0
LINE
  8
0
  6
CONTINUOUS
 62
     2
 10
34.0
 20
82.925
 30
0.0
 11
34.0
 21
83.075
 31
0.0
  0
LINE
  8
0
  6
CONTINUOUS
 62
     2
 10
36.9125
 20
83.075
 30
0.0
 11
36.9125
 21
82.925
 31
0.0
  0
LINE
  8
0
  6
CONTINUOUS
 62
     2
 10
34.0
 20
87.925
 30
0.0
 11
34.0
 21
88.075
 31
0.0
  0
LINE
  8
0
  6
CONTINUOUS
 62
     2
 10
36.9125
 20
88.075
 30
0.0
 11
36.9125
 21
87.925
 31
0.0
  0
LINE
  8
0
  6
CONTINUOUS
 62
     2
 10
34.0
 20
92.925
 30
0.0
 11
34.0
 21
93.075
 31
0.0
  0
LINE
  8
0
  6
CONTINUOUS
 62
     2
 10
36.9125
 20
93.075
 30
0.0
 11
36.9125
 21
92.925
 31
0.0
  0
LINE
  8
0
  6
CONTINUOUS
 62
     2
 10
34.0
 20
97.925
 30
0.0
 11
34.0
 21
98.075
 31
0.0
  0
LINE
  8
0
  6
CONTINUOUS
 62
     2
 10
36.9125
 20
98.075
 30
0.0
 11
36.9125
 21
97.925
 31
0.0
  0
LINE
  8
0
  6
CONTINUOUS
 62
     2
 10
34.0
 20
102.925
 30
0.0
 11
34.0
 21
103.075
 31
0.0
  0
LINE
  8
0
  6
CONTINUOUS
 62
     2
 10
36.9125
 20
103.075
 30
0.0
 11
36.9125
 21
102.925
 31
0.0
  0
LINE
  8
0
  6
CONTINUOUS
 62
     2
 10
34.0
 20
107.925
 30
0.0
 11
34.0
 21
108.075
 31
0.0
  0
LINE
  8
0
  6
CONTINUOUS
 62
     2
 10
36.9125
 20
108.075
 30
0.0
 11
36.9125
 21
107.925
 31
0.0
  0
LINE
  8
0
  6
CONTINUOUS
 62
     2
 10
34.0
 20
112.925
 30
0.0
 11
34.0
 21
113.075
 31
0.0
  0
LINE
  8
0
  6
CONTINUOUS
 62
     2
 10
36.9125
 20
113.075
 30
0.0
 11
36.9125
 21
112.925
 31
0.0
  0
LINE
  8
0
  6
CONTINUOUS
 62
     2
 10
34.0
 20
117.925
 30
0.0
 11
34.0
 21
118.075
 31
0.0
  0
LINE
  8
0
  6
CONTINUOUS
 62
     2
 10
36.9125
 20
118.075
 30
0.0
 11
36.9125
 21
117.925
 31
0.0
  0
ARC
  8
0
  6
CONTINUOUS
 62
     2
 10
31.04
 20
93.4
 30
0.0
 40
1.056
 50
337.467174552
 51
22.511176732
  0
ARC
  8
0
  6
CONTINUOUS
 62
     2
 10
31.04
 20
93.4
 30
0.0
 40
1.032
 50
337.684584171
 51
22.324706219
  0
ARC
  8
0
  6
CONTINUOUS
 62
     2
 10
31.04
 20
93.4
 30
0.0
 40
1.008
 50
337.549614612
 51
22.453599418
  0
ARC
  8
0
  6
CONTINUOUS
 62
     2
 10
31.04
 20
93.4
 30
0.0
 40
0.984
 50
337.442033402
 51
22.554911701
  0
ARC
  8
0
  6
CONTINUOUS
 62
     2
 10
31.04
 20
93.4
 30
0.0
 40
0.96
 50
337.452380695
 51
22.564315364
  0
ARC
  8
0
  6
CONTINUOUS
 62
     2
 10
32.48
 20
93.4
 30
0.0
 40
1.056
 50
157.488823268
 51
202.532825448
  0
ARC
  8
0
  6
CONTINUOUS
 62
     2
 10
32.48
 20
93.4
 30
0.0
 40
1.032
 50
157.675293781
 51
202.315415829
  0
ARC
  8
0
  6
CONTINUOUS
 62
     2
 10
32.48
 20
93.4
 30
0.0
 40
1.008
 50
157.546400582
 51
202.450385388
  0
ARC
  8
0
  6
CONTINUOUS
 62
     2
 10
32.48
 20
93.4
 30
0.0
 40
0.984
 50
157.445088299
 51
202.557966598
  0
ARC
  8
0
  6
CONTINUOUS
 62
     2
 10
32.48
 20
93.4
 30
0.0
 40
0.96
 50
157.435684636
 51
202.547619305
  0
ARC
  8
0
  6
CONTINUOUS
 62
     2
 10
31.76
 20
93.7
 30
0.0
 40
0.18
 50
22.323602445
 51
157.676397555
  0
ARC
  8
0
  6
CONTINUOUS
 62
     2
 10
31.76
 20
93.7
 30
0.0
 40
0.204
 50
22.306563269
 51
157.693436731
  0
ARC
  8
0
  6
CONTINUOUS
 62
     2
 10
31.76
 20
93.7
 30
0.0
 40
0.228
 50
21.884823963
 51
158.115176037
  0
ARC
  8
0
  6
CONTINUOUS
 62
     2
 10
31.76
 20
93.7
 30
0.0
 40
0.252
 50
21.411238642
 51
158.588761358
  0
ARC
  8
0
  6
CONTINUOUS
 62
     2
 10
31.76
 20
93.7
 30
0.0
 40
0.276
 50
22.204019072
 51
157.795980928
  0
ARC
  8
0
  6
CONTINUOUS
 62
     2
 10
31.76
 20
93.1
 30
0.0
 40
0.18
 50
202.234559129
 51
337.765440871
  0
ARC
  8
0
  6
CONTINUOUS
 62
     2
 10
31.76
 20
93.1
 30
0.0
 40
0.204
 50
202.321298355
 51
337.678701645
  0
ARC
  8
0
  6
CONTINUOUS
 62
     2
 10
31.76
 20
93.1
 30
0.0
 40
0.228
 50
201.870616205
 51
338.129383795
  0
ARC
  8
0
  6
CONTINUOUS
 62
     2
 10
31.76
 20
93.1
 30
0.0
 40
0.252
 50
201.373203871
 51
338.626796129
  0
ARC
  8
0
  6
CONTINUOUS
 62
     2
 10
31.76
 20
93.1
 30
0.0
 40
0.276
 50
202.286846658
 51
337.713153342
  0
ARC
  8
0
  6
CONTINUOUS
 62
     2
 10
32.32
 20
92.6
 30
0.0
 40
1.056
 50
337.467174552
 51
22.511176732
  0
ARC
  8
0
  6
CONTINUOUS
 62
     2
 10
32.32
 20
92.6
 30
0.0
 40
1.032
 50
337.684584171
 51
22.324706219
  0
ARC
  8
0
  6
CONTINUOUS
 62
     2
 10
32.32
 20
92.6
 30
0.0
 40
1.008
 50
337.549614612
 51
22.453599418
  0
ARC
  8
0
  6
CONTINUOUS
 62
     2
 10
32.32
 20
92.6
 30
0.0
 40
0.984
 50
337.442033402
 51
22.554911701
  0
ARC
  8
0
  6
CONTINUOUS
 62
     2
 10
32.32
 20
92.6
 30
0.0
 40
0.96
 50
337.452380695
 51
22.564315364
  0
ARC
  8
0
  6
CONTINUOUS
 62
     2
 10
33.76
 20
92.6
 30
0.0
 40
1.056
 50
157.488823268
 51
202.532825448
  0
ARC
  8
0
  6
CONTINUOUS
 62
     2
 10
33.76
 20
92.6
 30
0.0
 40
1.032
 50
157.675293781
 51
202.315415829
  0
ARC
  8
0
  6
CONTINUOUS
 62
     2
 10
33.76
 20
92.6
 30
0.0
 40
1.008
 50
157.546400582
 51
202.450385388
  0
ARC
  8
0
  6
CONTINUOUS
 62
     2
 10
33.76
 20
92.6
 30
0.0
 40
0.984
 50
157.445088299
 51
202.557966598
  0
ARC
  8
0
  6
CONTINUOUS
 62
     2
 10
33.76
 20
92.6
 30
0.0
 40
0.96
 50
157.435684636
 51
202.547619305
  0
ARC
  8
0
  6
CONTINUOUS
 62
     2
 10
33.04
 20
92.9
 30
0.0
 40
0.18
 50
22.323602445
 51
157.676397555
  0
ARC
  8
0
  6
CONTINUOUS
 62
     2
 10
33.04
 20
92.9
 30
0.0
 40
0.204
 50
22.306563269
 51
157.693436731
  0
ARC
  8
0
  6
CONTINUOUS
 62
     2
 10
33.04
 20
92.9
 30
0.0
 40
0.228
 50
21.884823963
 51
158.115176037
  0
ARC
  8
0
  6
CONTINUOUS
 62
     2
 10
33.04
 20
92.9
 30
0.0
 40
0.252
 50
21.411238642
 51
158.588761358
  0
ARC
  8
0
  6
CONTINUOUS
 62
     2
 10
33.04
 20
92.9
 30
0.0
 40
0.276
 50
22.204019072
 51
157.795980928
  0
ARC
  8
0
  6
CONTINUOUS
 62
     2
 10
33.04
 20
92.3
 30
0.0
 40
0.18
 50
202.234559129
 51
337.765440871
  0
ARC
  8
0
  6
CONTINUOUS
 62
     2
 10
33.04
 20
92.3
 30
0.0
 40
0.204
 50
202.321298355
 51
337.678701645
  0
ARC
  8
0
  6
CONTINUOUS
 62
     2
 10
33.04
 20
92.3
 30
0.0
 40
0.228
 50
201.870616205
 51
338.129383795
  0
ARC
  8
0
  6
CONTINUOUS
 62
     2
 10
33.04
 20
92.3
 30
0.0
 40
0.252
 50
201.373203871
 51
338.626796129
  0
ARC
  8
0
  6
CONTINUOUS
 62
     2
 10
33.04
 20
92.3
 30
0.0
 40
0.276
 50
202.286846658
 51
337.713153342
  0
LINE
  8
0
  6
CONTINUOUS
 62
     2
 10
33.215454591
 20
93.897146195
 30
0.0
 11
31.658085676
 21
92.041146195
 31
0.0
  0
LINE
  8
0
  6
CONTINUOUS
 62
     2
 10
33.141914324
 20
93.958853805
 30
0.0
 11
31.584545409
 21
92.102853805
 31
0.0
  0
LINE
  8
0
  6
CONTINUOUS
 62
     2
 10
31.639700609
 20
92.056573097
 30
0.0
 11
33.197069524
 21
93.912573097
 31
0.0
  0
LINE
  8
0
  6
CONTINUOUS
 62
     2
 10
31.602930476
 20
92.087426903
 30
0.0
 11
33.160299391
 21
93.943426903
 31
0.0
  0
LINE
  8
0
  6
CONTINUOUS
 62
     2
 10
33.178684458
 20
93.928
 30
0.0
 11
31.621315542
 21
92.072
 31
0.0
  0
ARC
  8
0
  6
CONTINUOUS
 62
     2
 10
31.621315542
 20
92.072
 30
0.0
 40
0.024
 50
140.0
 51
320.0
  0
ARC
  8
0
  6
CONTINUOUS
 62
     2
 10
31.621315542
 20
92.072
 30
0.0
 40
0.048
 50
140.0
 51
320.0
  0
ARC
  8
0
  6
CONTINUOUS
 62
     2
 10
33.178684458
 20
93.928
 30
0.0
 40
0.024
 50
320.0
 51
140.0
  0
ARC
  8
0
  6
CONTINUOUS
 62
     2
 10
33.178684458
 20
93.928
 30
0.0
 40
0.048
 50
320.0
 51
140.0
  0
LINE
  8
0
  6
CONTINUOUS
 62
     2
 10
34.125
 20
68.0
 30
0.0
 11
36.7875
 21
68.0
 31
0.0
  0
LINE
  8
0
  6
CONTINUOUS
 62
     2
 10
34.125
 20
73.0
 30
0.0
 11
36.7875
 21
73.0
 31
0.0
  0
LINE
  8
0
  6
CONTINUOUS
 62
     2
 10
34.125
 20
78.0
 30
0.0
 11
36.7875
 21
78.0
 31
0.0
  0
LINE
  8
0
  6
CONTINUOUS
 62
     2
 10
34.125
 20
83.0
 30
0.0
 11
36.7875
 21
83.0
 31
0.0
  0
LINE
  8
0
  6
CONTINUOUS
 62
     2
 10
34.125
 20
88.0
 30
0.0
 11
36.7875
 21
88.0
 31
0.0
  0
LINE
  8
0
  6
CONTINUOUS
 62
     2
 10
34.125
 20
93.0
 30
0.0
 11
36.7875
 21
93.0
 31
0.0
  0
LINE
  8
0
  6
CONTINUOUS
 62
     2
 10
34.125
 20
98.0
 30
0.0
 11
36.7875
 21
98.0
 31
0.0
  0
LINE
  8
0
  6
CONTINUOUS
 62
     2
 10
34.125
 20
103.0
 30
0.0
 11
36.7875
 21
103.0
 31
0.0
  0
LINE
  8
0
  6
CONTINUOUS
 62
     2
 10
34.125
 20
108.0
 30
0.0
 11
36.7875
 21
108.0
 31
0.0
  0
LINE
  8
0
  6
CONTINUOUS
 62
     2
 10
34.125
 20
113.0
 30
0.0
 11
36.7875
 21
113.0
 31
0.0
  0
LINE
  8
0
  6
CONTINUOUS
 62
     2
 10
34.125
 20
118.0
 30
0.0
 11
36.7875
 21
118.0
 31
0.0
  0
LINE
  8
0
  6
CONTINUOUS
 62
     2
 10
34.0
 20
68.075
 30
0.0
 11
36.9125
 21
68.075
 31
0.0
  0
LINE
  8
0
  6
CONTINUOUS
 62
     2
 10
36.9125
 20
67.925
 30
0.0
 11
34.0
 21
67.925
 31
0.0
  0
LINE
  8
0
  6
CONTINUOUS
 62
     2
 10
34.0
 20
69.0
 30
0.0
 11
35.9125
 21
69.0
 31
0.0
  0
LINE
  8
0
  6
CONTINUOUS
 62
     2
 10
35.9125
 20
69.0
 30
0.0
 11
34.0
 21
69.0
 31
0.0
  0
LINE
  8
0
  6
CONTINUOUS
 62
     2
 10
34.0
 20
70.0
 30
0.0
 11
35.9125
 21
70.0
 31
0.0
  0
LINE
  8
0
  6
CONTINUOUS
 62
     2
 10
35.9125
 20
70.0
 30
0.0
 11
34.0
 21
70.0
 31
0.0
  0
LINE
  8
0
  6
CONTINUOUS
 62
     2
 10
34.0
 20
71.0
 30
0.0
 11
35.9125
 21
71.0
 31
0.0
  0
LINE
  8
0
  6
CONTINUOUS
 62
     2
 10
35.9125
 20
71.0
 30
0.0
 11
34.0
 21
71.0
 31
0.0
  0
LINE
  8
0
  6
CONTINUOUS
 62
     2
 10
34.0
 20
72.0
 30
0.0
 11
35.9125
 21
72.0
 31
0.0
  0
LINE
  8
0
  6
CONTINUOUS
 62
     2
 10
35.9125
 20
72.0
 30
0.0
 11
34.0
 21
72.0
 31
0.0
  0
LINE
  8
0
  6
CONTINUOUS
 62
     2
 10
34.0
 20
73.075
 30
0.0
 11
36.9125
 21
73.075
 31
0.0
  0
LINE
  8
0
  6
CONTINUOUS
 62
     2
 10
36.9125
 20
72.925
 30
0.0
 11
34.0
 21
72.925
 31
0.0
  0
LINE
  8
0
  6
CONTINUOUS
 62
     2
 10
34.0
 20
78.075
 30
0.0
 11
36.9125
 21
78.075
 31
0.0
  0
LINE
  8
0
  6
CONTINUOUS
 62
     2
 10
36.9125
 20
77.925
 30
0.0
 11
34.0
 21
77.925
 31
0.0
  0
LINE
  8
0
  6
CONTINUOUS
 62
     2
 10
34.0
 20
83.075
 30
0.0
 11
36.9125
 21
83.075
 31
0.0
  0
LINE
  8
0
  6
CONTINUOUS
 62
     2
 10
36.9125
 20
82.925
 30
0.0
 11
34.0
 21
82.925
 31
0.0
  0
LINE
  8
0
  6
CONTINUOUS
 62
     2
 10
34.0
 20
88.075
 30
0.0
 11
36.9125
 21
88.075
 31
0.0
  0
LINE
  8
0
  6
CONTINUOUS
 62
     2
 10
36.9125
 20
87.925
 30
0.0
 11
34.0
 21
87.925
 31
0.0
  0
LINE
  8
0
  6
CONTINUOUS
 62
     2
 10
34.0
 20
93.075
 30
0.0
 11
36.9125
 21
93.075
 31
0.0
  0
LINE
  8
0
  6
CONTINUOUS
 62
     2
 10
36.9125
 20
92.925
 30
0.0
 11
34.0
 21
92.925
 31
0.0
  0
LINE
  8
0
  6
CONTINUOUS
 62
     2
 10
34.0
 20
98.075
 30
0.0
 11
36.9125
 21
98.075
 31
0.0
  0
LINE
  8
0
  6
CONTINUOUS
 62
     2
 10
36.9125
 20
97.925
 30
0.0
 11
34.0
 21
97.925
 31
0.0
  0
LINE
  8
0
  6
CONTINUOUS
 62
     2
 10
34.0
 20
103.075
 30
0.0
 11
36.9125
 21
103.075
 31
0.0
  0
LINE
  8
0
  6
CONTINUOUS
 62
     2
 10
36.9125
 20
102.925
 30
0.0
 11
34.0
 21
102.925
 31
0.0
  0
LINE
  8
0
  6
CONTINUOUS
 62
     2
 10
34.0
 20
108.075
 30
0.0
 11
36.9125
 21
108.075
 31
0.0
  0
LINE
  8
0
  6
CONTINUOUS
 62
     2
 10
36.9125
 20
107.925
 30
0.0
 11
34.0
 21
107.925
 31
0.0
  0
LINE
  8
0
  6
CONTINUOUS
 62
     2
 10
34.0
 20
113.075
 30
0.0
 11
36.9125
 21
113.075
 31
0.0
  0
LINE
  8
0
  6
CONTINUOUS
 62
     2
 10
36.9125
 20
112.925
 30
0.0
 11
34.0
 21
112.925
 31
0.0
  0
LINE
  8
0
  6
CONTINUOUS
 62
     2
 10
34.0
 20
118.075
 30
0.0
 11
36.9125
 21
118.075
 31
0.0
  0
LINE
  8
0
  6
CONTINUOUS
 62
     2
 10
36.9125
 20
117.925
 30
0.0
 11
34.0
 21
117.925
 31
0.0
  0
LINE
  8
0
  6
CONTINUOUS
 62
     2
 10
34.0
 20
74.0
 30
0.0
 11
35.9125
 21
74.0
 31
0.0
  0
LINE
  8
0
  6
CONTINUOUS
 62
     2
 10
35.9125
 20
74.0
 30
0.0
 11
34.0
 21
74.0
 31
0.0
  0
LINE
  8
0
  6
CONTINUOUS
 62
     2
 10
34.0
 20
75.0
 30
0.0
 11
35.9125
 21
75.0
 31
0.0
  0
LINE
  8
0
  6
CONTINUOUS
 62
     2
 10
35.9125
 20
75.0
 30
0.0
 11
34.0
 21
75.0
 31
0.0
  0
LINE
  8
0
  6
CONTINUOUS
 62
     2
 10
34.0
 20
76.0
 30
0.0
 11
35.9125
 21
76.0
 31
0.0
  0
LINE
  8
0
  6
CONTINUOUS
 62
     2
 10
35.9125
 20
76.0
 30
0.0
 11
34.0
 21
76.0
 31
0.0
  0
LINE
  8
0
  6
CONTINUOUS
 62
     2
 10
34.0
 20
77.0
 30
0.0
 11
35.9125
 21
77.0
 31
0.0
  0
LINE
  8
0
  6
CONTINUOUS
 62
     2
 10
35.9125
 20
77.0
 30
0.0
 11
34.0
 21
77.0
 31
0.0
  0
LINE
  8
0
  6
CONTINUOUS
 62
     2
 10
34.0
 20
79.0
 30
0.0
 11
35.9125
 21
79.0
 31
0.0
  0
LINE
  8
0
  6
CONTINUOUS
 62
     2
 10
35.9125
 20
79.0
 30
0.0
 11
34.0
 21
79.0
 31
0.0
  0
LINE
  8
0
  6
CONTINUOUS
 62
     2
 10
34.0
 20
80.0
 30
0.0
 11
35.9125
 21
80.0
 31
0.0
  0
LINE
  8
0
  6
CONTINUOUS
 62
     2
 10
35.9125
 20
80.0
 30
0.0
 11
34.0
 21
80.0
 31
0.0
  0
LINE
  8
0
  6
CONTINUOUS
 62
     2
 10
34.0
 20
81.0
 30
0.0
 11
35.9125
 21
81.0
 31
0.0
  0
LINE
  8
0
  6
CONTINUOUS
 62
     2
 10
35.9125
 20
81.0
 30
0.0
 11
34.0
 21
81.0
 31
0.0
  0
LINE
  8
0
  6
CONTINUOUS
 62
     2
 10
34.0
 20
82.0
 30
0.0
 11
35.9125
 21
82.0
 31
0.0
  0
LINE
  8
0
  6
CONTINUOUS
 62
     2
 10
35.9125
 20
82.0
 30
0.0
 11
34.0
 21
82.0
 31
0.0
  0
LINE
  8
0
  6
CONTINUOUS
 62
     2
 10
34.0
 20
84.0
 30
0.0
 11
35.9125
 21
84.0
 31
0.0
  0
LINE
  8
0
  6
CONTINUOUS
 62
     2
 10
35.9125
 20
84.0
 30
0.0
 11
34.0
 21
84.0
 31
0.0
  0
LINE
  8
0
  6
CONTINUOUS
 62
     2
 10
34.0
 20
85.0
 30
0.0
 11
35.9125
 21
85.0
 31
0.0
  0
LINE
  8
0
  6
CONTINUOUS
 62
     2
 10
35.9125
 20
85.0
 30
0.0
 11
34.0
 21
85.0
 31
0.0
  0
LINE
  8
0
  6
CONTINUOUS
 62
     2
 10
34.0
 20
86.0
 30
0.0
 11
35.9125
 21
86.0
 31
0.0
  0
LINE
  8
0
  6
CONTINUOUS
 62
     2
 10
35.9125
 20
86.0
 30
0.0
 11
34.0
 21
86.0
 31
0.0
  0
LINE
  8
0
  6
CONTINUOUS
 62
     2
 10
34.0
 20
87.0
 30
0.0
 11
35.9125
 21
87.0
 31
0.0
  0
LINE
  8
0
  6
CONTINUOUS
 62
     2
 10
35.9125
 20
87.0
 30
0.0
 11
34.0
 21
87.0
 31
0.0
  0
LINE
  8
0
  6
CONTINUOUS
 62
     2
 10
34.0
 20
89.0
 30
0.0
 11
35.9125
 21
89.0
 31
0.0
  0
LINE
  8
0
  6
CONTINUOUS
 62
     2
 10
35.9125
 20
89.0
 30
0.0
 11
34.0
 21
89.0
 31
0.0
  0
LINE
  8
0
  6
CONTINUOUS
 62
     2
 10
34.0
 20
90.0
 30
0.0
 11
35.9125
 21
90.0
 31
0.0
  0
LINE
  8
0
  6
CONTINUOUS
 62
     2
 10
35.9125
 20
90.0
 30
0.0
 11
34.0
 21
90.0
 31
0.0
  0
LINE
  8
0
  6
CONTINUOUS
 62
     2
 10
34.0
 20
91.0
 30
0.0
 11
35.9125
 21
91.0
 31
0.0
  0
LINE
  8
0
  6
CONTINUOUS
 62
     2
 10
35.9125
 20
91.0
 30
0.0
 11
34.0
 21
91.0
 31
0.0
  0
LINE
  8
0
  6
CONTINUOUS
 62
     2
 10
34.0
 20
92.0
 30
0.0
 11
35.9125
 21
92.0
 31
0.0
  0
LINE
  8
0
  6
CONTINUOUS
 62
     2
 10
35.9125
 20
92.0
 30
0.0
 11
34.0
 21
92.0
 31
0.0
  0
LINE
  8
0
  6
CONTINUOUS
 62
     2
 10
34.0
 20
94.0
 30
0.0
 11
35.9125
 21
94.0
 31
0.0
  0
LINE
  8
0
  6
CONTINUOUS
 62
     2
 10
35.9125
 20
94.0
 30
0.0
 11
34.0
 21
94.0
 31
0.0
  0
LINE
  8
0
  6
CONTINUOUS
 62
     2
 10
34.0
 20
95.0
 30
0.0
 11
35.9125
 21
95.0
 31
0.0
  0
LINE
  8
0
  6
CONTINUOUS
 62
     2
 10
35.9125
 20
95.0
 30
0.0
 11
34.0
 21
95.0
 31
0.0
  0
LINE
  8
0
  6
CONTINUOUS
 62
     2
 10
34.0
 20
96.0
 30
0.0
 11
35.9125
 21
96.0
 31
0.0
  0
LINE
  8
0
  6
CONTINUOUS
 62
     2
 10
35.9125
 20
96.0
 30
0.0
 11
34.0
 21
96.0
 31
0.0
  0
LINE
  8
0
  6
CONTINUOUS
 62
     2
 10
34.0
 20
97.0
 30
0.0
 11
35.9125
 21
97.0
 31
0.0
  0
LINE
  8
0
  6
CONTINUOUS
 62
     2
 10
35.9125
 20
97.0
 30
0.0
 11
34.0
 21
97.0
 31
0.0
  0
LINE
  8
0
  6
CONTINUOUS
 62
     2
 10
34.0
 20
99.0
 30
0.0
 11
35.9125
 21
99.0
 31
0.0
  0
LINE
  8
0
  6
CONTINUOUS
 62
     2
 10
35.9125
 20
99.0
 30
0.0
 11
34.0
 21
99.0
 31
0.0
  0
LINE
  8
0
  6
CONTINUOUS
 62
     2
 10
34.0
 20
100.0
 30
0.0
 11
35.9125
 21
100.0
 31
0.0
  0
LINE
  8
0
  6
CONTINUOUS
 62
     2
 10
35.9125
 20
100.0
 30
0.0
 11
34.0
 21
100.0
 31
0.0
  0
LINE
  8
0
  6
CONTINUOUS
 62
     2
 10
34.0
 20
101.0
 30
0.0
 11
35.9125
 21
101.0
 31
0.0
  0
LINE
  8
0
  6
CONTINUOUS
 62
     2
 10
35.9125
 20
101.0
 30
0.0
 11
34.0
 21
101.0
 31
0.0
  0
LINE
  8
0
  6
CONTINUOUS
 62
     2
 10
34.0
 20
102.0
 30
0.0
 11
35.9125
 21
102.0
 31
0.0
  0
LINE
  8
0
  6
CONTINUOUS
 62
     2
 10
35.9125
 20
102.0
 30
0.0
 11
34.0
 21
102.0
 31
0.0
  0
LINE
  8
0
  6
CONTINUOUS
 62
     2
 10
34.0
 20
104.0
 30
0.0
 11
35.9125
 21
104.0
 31
0.0
  0
LINE
  8
0
  6
CONTINUOUS
 62
     2
 10
35.9125
 20
104.0
 30
0.0
 11
34.0
 21
104.0
 31
0.0
  0
LINE
  8
0
  6
CONTINUOUS
 62
     2
 10
34.0
 20
105.0
 30
0.0
 11
35.9125
 21
105.0
 31
0.0
  0
LINE
  8
0
  6
CONTINUOUS
 62
     2
 10
35.9125
 20
105.0
 30
0.0
 11
34.0
 21
105.0
 31
0.0
  0
LINE
  8
0
  6
CONTINUOUS
 62
     2
 10
34.0
 20
106.0
 30
0.0
 11
35.9125
 21
106.0
 31
0.0
  0
LINE
  8
0
  6
CONTINUOUS
 62
     2
 10
35.9125
 20
106.0
 30
0.0
 11
34.0
 21
106.0
 31
0.0
  0
LINE
  8
0
  6
CONTINUOUS
 62
     2
 10
34.0
 20
107.0
 30
0.0
 11
35.9125
 21
107.0
 31
0.0
  0
LINE
  8
0
  6
CONTINUOUS
 62
     2
 10
35.9125
 20
107.0
 30
0.0
 11
34.0
 21
107.0
 31
0.0
  0
LINE
  8
0
  6
CONTINUOUS
 62
     2
 10
34.0
 20
109.0
 30
0.0
 11
35.9125
 21
109.0
 31
0.0
  0
LINE
  8
0
  6
CONTINUOUS
 62
     2
 10
35.9125
 20
109.0
 30
0.0
 11
34.0
 21
109.0
 31
0.0
  0
LINE
  8
0
  6
CONTINUOUS
 62
     2
 10
34.0
 20
110.0
 30
0.0
 11
35.9125
 21
110.0
 31
0.0
  0
LINE
  8
0
  6
CONTINUOUS
 62
     2
 10
35.9125
 20
110.0
 30
0.0
 11
34.0
 21
110.0
 31
0.0
  0
LINE
  8
0
  6
CONTINUOUS
 62
     2
 10
34.0
 20
111.0
 30
0.0
 11
35.9125
 21
111.0
 31
0.0
  0
LINE
  8
0
  6
CONTINUOUS
 62
     2
 10
35.9125
 20
111.0
 30
0.0
 11
34.0
 21
111.0
 31
0.0
  0
LINE
  8
0
  6
CONTINUOUS
 62
     2
 10
34.0
 20
112.0
 30
0.0
 11
35.9125
 21
112.0
 31
0.0
  0
LINE
  8
0
  6
CONTINUOUS
 62
     2
 10
35.9125
 20
112.0
 30
0.0
 11
34.0
 21
112.0
 31
0.0
  0
LINE
  8
0
  6
CONTINUOUS
 62
     2
 10
34.0
 20
114.0
 30
0.0
 11
35.9125
 21
114.0
 31
0.0
  0
LINE
  8
0
  6
CONTINUOUS
 62
     2
 10
35.9125
 20
114.0
 30
0.0
 11
34.0
 21
114.0
 31
0.0
  0
LINE
  8
0
  6
CONTINUOUS
 62
     2
 10
34.0
 20
115.0
 30
0.0
 11
35.9125
 21
115.0
 31
0.0
  0
LINE
  8
0
  6
CONTINUOUS
 62
     2
 10
35.9125
 20
115.0
 30
0.0
 11
34.0
 21
115.0
 31
0.0
  0
LINE
  8
0
  6
CONTINUOUS
 62
     2
 10
34.0
 20
116.0
 30
0.0
 11
35.9125
 21
116.0
 31
0.0
  0
LINE
  8
0
  6
CONTINUOUS
 62
     2
 10
35.9125
 20
116.0
 30
0.0
 11
34.0
 21
116.0
 31
0.0
  0
LINE
  8
0
  6
CONTINUOUS
 62
     2
 10
34.0
 20
117.0
 30
0.0
 11
35.9125
 21
117.0
 31
0.0
  0
LINE
  8
0
  6
CONTINUOUS
 62
     2
 10
35.9125
 20
117.0
 30
0.0
 11
34.0
 21
117.0
 31
0.0
  0
TEXT
  8
0
  6
CONTINUOUS
 62
     2
 10
165.9
 20
37.1
 30
0.25
 40
2.5
  1
１　　＋
 50
0.0
 41
0.9
 51
0.0
  7
KANJI2
  0
TEXT
  8
0
  6
CONTINUOUS
 62
     2
 10
165.9
 20
30.1
 30
0.25
 40
2.5
  1
２　　－
 50
0.0
 41
0.9
 51
0.0
  7
KANJI2
  0
TEXT
  8
0
  6
CONTINUOUS
 62
     2
 10
171.5
 20
35.1
 30
0.16
 40
2.0
  1
ＬＥＦＴ
 50
0.0
 41
0.8
 51
0.0
  7
KANJI3
  0
TEXT
  8
0
  6
CONTINUOUS
 62
     2
 10
170.5
 20
32.6
 30
0.16
 40
2.0
  1
ＩＮＰＵＴ
 50
0.0
 41
0.8
 51
0.0
  7
KANJI3
  0
ARC
  8
0
  6
CONTINUOUS
 62
     2
 10
179.9
 20
38.8
 30
0.0
 40
1.0
 50
0.0
 51
90.0
  0
ARC
  8
0
  6
CONTINUOUS
 62
     2
 10
179.9
 20
30.8
 30
0.0
 40
1.0
 50
270.0
 51
0.0
  0
ARC
  8
0
  6
CONTINUOUS
 62
     2
 10
181.9
 20
35.8
 30
0.0
 40
1.0
 50
180.0
 51
270.0
  0
ARC
  8
0
  6
CONTINUOUS
 62
     2
 10
181.9
 20
33.8
 30
0.0
 40
1.0
 50
90.0
 51
180.0
  0
LINE
  8
0
  6
CONTINUOUS
 62
     2
 10
180.9
 20
38.8
 30
0.0
 11
180.9
 21
35.8
 31
0.0
  0
LINE
  8
0
  6
CONTINUOUS
 62
     2
 10
180.9
 20
33.8
 30
0.0
 11
180.9
 21
30.8
 31
0.0
  0
ARC
  8
0
  6
CONTINUOUS
 62
     2
 10
179.9
 20
26.8
 30
0.0
 40
1.0
 50
0.0
 51
90.0
  0
ARC
  8
0
  6
CONTINUOUS
 62
     2
 10
181.9
 20
23.8
 30
0.0
 40
1.0
 50
180.0
 51
270.0
  0
ARC
  8
0
  6
CONTINUOUS
 62
     2
 10
181.9
 20
21.8
 30
0.0
 40
1.0
 50
90.0
 51
180.0
  0
LINE
  8
0
  6
CONTINUOUS
 62
     2
 10
180.9
 20
26.8
 30
0.0
 11
180.9
 21
23.8
 31
0.0
  0
TEXT
  8
0
  6
CONTINUOUS
 62
     2
 10
165.9
 20
25.1
 30
0.25
 40
2.5
  1
５　　＋
 50
0.0
 41
0.9
 51
0.0
  7
KANJI2
  0
TEXT
  8
0
  6
CONTINUOUS
 62
     2
 10
170.5
 20
21.9
 30
0.16
 40
2.0
  1
ＤＣ２４Ｖ
 50
0.0
 41
0.8
 51
0.0
  7
KANJI3
  0
ARC
  8
0
  6
CONTINUOUS
 62
     2
 10
179.9
 20
18.8
 30
0.0
 40
1.0
 50
270.0
 51
0.0
  0
LINE
  8
0
  6
CONTINUOUS
 62
     2
 10
180.9
 20
21.8
 30
0.0
 11
180.9
 21
18.8
 31
0.0
  0
TEXT
  8
0
  6
CONTINUOUS
 62
     2
 10
165.9
 20
18.1
 30
0.25
 40
2.5
  1
６　　－
 50
0.0
 41
0.9
 51
0.0
  7
KANJI2
  0
TEXT
  8
0
  6
CONTINUOUS
 62
     2
 10
182.9
 20
21.3
 30
0.3
 40
3.0
  1
補助電源ＤＣ２４Ｖ
 50
0.0
 41
0.9
 51
0.0
  7
KANJI1
  0
TEXT
  8
0
  6
CONTINUOUS
 62
     2
 10
162.9
 20
41.1
 30
0.3
 40
3.0
  1
端子記号
 50
0.0
 41
0.9
 51
0.0
  7
KANJI4
  0
TEXT
  8
0
  6
CONTINUOUS
 62
     2
 10
15.1
 20
41.15
 30
0.3
 40
3.0
  1
目盛長　１００ｍｍ
 50
0.0
 41
0.9
 51
0.0
  7
KANJI1
  0
LINE
  8
0
  6
CONTINUOUS
 62
     2
 10
47.0
 20
57.5
 30
0.0
 11
58.0
 21
57.5
 31
0.0
  0
LINE
  8
0
  6
CONTINUOUS
 62
     2
 10
33.75
 20
68.15
 30
0.0
 11
30.5
 21
69.65
 31
0.0
  0
LINE
  8
0
  6
CONTINUOUS
 62
     2
 10
30.5
 20
66.65
 30
0.0
 11
33.75
 21
68.15
 31
0.0
  0
LINE
  8
0
  6
CONTINUOUS
 62
     2
 10
30.5
 20
69.65
 30
0.0
 11
29.961781772
 21
69.65
 31
0.0
  0
LINE
  8
0
  6
CONTINUOUS
 62
     2
 10
29.715183291
 20
69.441099747
 30
0.0
 11
29.5
 21
68.15
 31
0.0
  0
ARC
  8
0
  6
CONTINUOUS
 62
     2
 10
29.961781772
 20
69.4
 30
0.0
 40
0.25
 50
90.0
 51
170.537677792
  0
LINE
  8
0
  6
CONTINUOUS
 62
     2
 10
29.5
 20
68.15
 30
0.0
 11
29.715183291
 21
66.858900253
 31
0.0
  0
LINE
  8
0
  6
CONTINUOUS
 62
     2
 10
29.961781772
 20
66.65
 30
0.0
 11
30.5
 21
66.65
 31
0.0
  0
ARC
  8
0
  6
CONTINUOUS
 62
     2
 10
29.961781772
 20
66.9
 30
0.0
 40
0.25
 50
189.462322208
 51
270.0
  0
LINE
  8
0
  6
CONTINUOUS
 62
     2
 10
30.75
 20
66.765384615
 30
0.0
 11
30.75
 21
65.25
 31
0.0
  0
LINE
  8
0
  6
CONTINUOUS
 62
     2
 10
30.75
 20
121.0
 30
0.0
 11
30.75
 21
69.534615385
 31
0.0
  0
LINE
  8
0
  6
CONTINUOUS
 62
     2
 10
29.65
 20
69.065384615
 30
0.0
 11
28.94123746
 21
71.462811499
 31
0.0
  0
LINE
  8
0
  6
CONTINUOUS
 62
     2
 10
29.65
 20
69.065384615
 30
0.0
 11
27.837480194
 21
70.787235931
 31
0.0
  0
LINE
  8
0
  6
CONTINUOUS
 62
     2
 10
29.65
 20
69.065384615
 30
0.0
 11
22.55
 21
80.665384615
 31
0.0
  0
LINE
  8
0
  6
CONTINUOUS
 62
     2
 10
22.55
 20
80.665384615
 30
0.0
 11
13.95
 21
80.665384615
 31
0.0
  0
TEXT
  8
0
  6
CONTINUOUS
 62
     2
 10
182.9
 20
33.3
 30
0.3
 40
3.0
  1
計器入力
 50
0.0
 41
0.9
 51
0.0
  7
KANJI1
  0
TEXT
  8
0
  6
CONTINUOUS
 62
     2
 10
46.1
 20
41.15
 30
0.3
 40
3.0
  1
重量　約１．３ｋｇ
 50
0.0
 41
0.9
 51
0.0
  7
KANJI1
  0
TEXT
  8
0
  6
CONTINUOUS
 62
     2
 10
15.85
 20
81.665384615
 30
0.3
 40
3.0
  1
指針
 50
0.0
 41
0.9
 51
0.0
  7
KANJI1
  0
LINE
  8
0
  6
CONTINUOUS
 62
     2
 10
165.5
 20
103.5
 30
0.0
 11
167.0
 21
103.7
 31
0.0
  0
LINE
  8
0
  6
CONTINUOUS
 62
     2
 10
167.0
 20
102.7
 30
0.0
 11
165.5
 21
102.5
 31
0.0
  0
LINE
  8
0
  6
CONTINUOUS
 62
     2
 10
167.0
 20
102.7
 30
0.0
 11
167.0
 21
103.7
 31
0.0
  0
LINE
  8
0
  6
CONTINUOUS
 62
     2
 10
165.5
 20
105.0
 30
0.0
 11
166.5
 21
105.0
 31
0.0
  0
LINE
  8
0
  6
CONTINUOUS
 62
     2
 10
166.5
 20
105.0
 30
0.0
 11
166.5
 21
115.0
 31
0.0
  0
LINE
  8
0
  6
CONTINUOUS
 62
     2
 10
166.5
 20
115.0
 30
0.0
 11
165.5
 21
115.0
 31
0.0
  0
LINE
  8
0
  6
CONTINUOUS
 62
     2
 10
167.019648985
 20
103.602619865
 30
0.0
 11
168.119648985
 21
105.502619865
 31
0.0
  0
ARC
  8
0
  6
CONTINUOUS
 62
     2
 10
155.547612459
 20
110.824978177
 30
0.0
 40
13.652237927
 50
337.054681693
 51
32.200337832
  0
LINE
  8
0
  6
CONTINUOUS
 62
     2
 10
167.1
 20
118.1
 30
0.0
 11
165.5
 21
119.4
 31
0.0
  0
LINE
  8
0
  6
CONTINUOUS
 62
     2
 10
167.711990013
 20
103.201790848
 30
0.0
 11
168.836582082
 21
105.144268057
 31
0.0
  0
ARC
  8
0
  6
CONTINUOUS
 62
     2
 10
155.547612459
 20
110.824978177
 30
0.0
 40
14.452237927
 50
336.854474688
 51
32.729950107
  0
LINE
  8
0
  6
CONTINUOUS
 62
     2
 10
167.711990013
 20
103.201790848
 30
0.0
 11
167.011990013
 21
102.801790848
 31
0.0
  0
LINE
  8
0
  6
CONTINUOUS
 62
     2
 10
167.705243543
 20
118.639016028
 30
0.0
 11
165.5
 21
120.430776406
 31
0.0
  0
LINE
  8
0
  6
CONTINUOUS
 62
     2
 10
170.25
 20
102.3
 30
0.0
 11
170.25
 21
98.2
 31
0.0
  0
LINE
  8
0
  6
CONTINUOUS
 62
     2
 10
170.65
 20
98.2
 30
0.0
 11
170.65
 21
102.3
 31
0.0
  0
LINE
  8
0
  6
CONTINUOUS
 62
     2
 10
170.65
 20
102.3
 30
0.0
 11
170.25
 21
102.3
 31
0.0
  0
LINE
  8
0
  6
CONTINUOUS
 62
     2
 10
170.25
 20
101.5
 30
0.0
 11
170.65
 21
101.5
 31
0.0
  0
LINE
  8
0
  6
CONTINUOUS
 62
     2
 10
170.25
 20
99.0
 30
0.0
 11
170.65
 21
99.0
 31
0.0
  0
LINE
  8
0
  6
CONTINUOUS
 62
     2
 10
170.25
 20
63.2
 30
0.0
 11
170.25
 21
67.3
 31
0.0
  0
LINE
  8
0
  6
CONTINUOUS
 62
     2
 10
170.65
 20
67.3
 30
0.0
 11
170.65
 21
63.2
 31
0.0
  0
LINE
  8
0
  6
CONTINUOUS
 62
     2
 10
170.65
 20
63.2
 30
0.0
 11
170.25
 21
63.2
 31
0.0
  0
LINE
  8
0
  6
CONTINUOUS
 62
     2
 10
170.25
 20
64.0
 30
0.0
 11
170.65
 21
64.0
 31
0.0
  0
LINE
  8
0
  6
CONTINUOUS
 62
     2
 10
170.25
 20
66.5
 30
0.0
 11
170.65
 21
66.5
 31
0.0
  0
LINE
  8
0
  6
CONTINUOUS
 62
     2
 10
170.25
 20
68.2
 30
0.0
 11
170.25
 21
72.3
 31
0.0
  0
LINE
  8
0
  6
CONTINUOUS
 62
     2
 10
170.65
 20
72.3
 30
0.0
 11
170.65
 21
68.2
 31
0.0
  0
LINE
  8
0
  6
CONTINUOUS
 62
     2
 10
170.65
 20
68.2
 30
0.0
 11
170.25
 21
68.2
 31
0.0
  0
LINE
  8
0
  6
CONTINUOUS
 62
     2
 10
170.25
 20
69.0
 30
0.0
 11
170.65
 21
69.0
 31
0.0
  0
LINE
  8
0
  6
CONTINUOUS
 62
     2
 10
170.25
 20
71.5
 30
0.0
 11
170.65
 21
71.5
 31
0.0
  0
LINE
  8
0
  6
CONTINUOUS
 62
     2
 10
170.25
 20
73.2
 30
0.0
 11
170.25
 21
77.3
 31
0.0
  0
LINE
  8
0
  6
CONTINUOUS
 62
     2
 10
170.65
 20
77.3
 30
0.0
 11
170.65
 21
73.2
 31
0.0
  0
LINE
  8
0
  6
CONTINUOUS
 62
     2
 10
170.25
 20
74.0
 30
0.0
 11
170.65
 21
74.0
 31
0.0
  0
LINE
  8
0
  6
CONTINUOUS
 62
     2
 10
170.25
 20
76.5
 30
0.0
 11
170.65
 21
76.5
 31
0.0
  0
LINE
  8
0
  6
CONTINUOUS
 62
     2
 10
170.25
 20
78.2
 30
0.0
 11
170.25
 21
82.3
 31
0.0
  0
LINE
  8
0
  6
CONTINUOUS
 62
     2
 10
170.65
 20
82.3
 30
0.0
 11
170.65
 21
78.2
 31
0.0
  0
LINE
  8
0
  6
CONTINUOUS
 62
     2
 10
170.25
 20
79.0
 30
0.0
 11
170.65
 21
79.0
 31
0.0
  0
LINE
  8
0
  6
CONTINUOUS
 62
     2
 10
170.25
 20
81.5
 30
0.0
 11
170.65
 21
81.5
 31
0.0
  0
LINE
  8
0
  6
CONTINUOUS
 62
     2
 10
170.25
 20
83.2
 30
0.0
 11
170.25
 21
87.3
 31
0.0
  0
LINE
  8
0
  6
CONTINUOUS
 62
     2
 10
170.65
 20
87.3
 30
0.0
 11
170.65
 21
83.2
 31
0.0
  0
LINE
  8
0
  6
CONTINUOUS
 62
     2
 10
170.25
 20
84.0
 30
0.0
 11
170.65
 21
84.0
 31
0.0
  0
LINE
  8
0
  6
CONTINUOUS
 62
     2
 10
170.25
 20
86.5
 30
0.0
 11
170.65
 21
86.5
 31
0.0
  0
LINE
  8
0
  6
CONTINUOUS
 62
     2
 10
170.25
 20
88.2
 30
0.0
 11
170.25
 21
92.3
 31
0.0
  0
LINE
  8
0
  6
CONTINUOUS
 62
     2
 10
170.65
 20
92.3
 30
0.0
 11
170.65
 21
88.2
 31
0.0
  0
LINE
  8
0
  6
CONTINUOUS
 62
     2
 10
170.25
 20
89.0
 30
0.0
 11
170.65
 21
89.0
 31
0.0
  0
LINE
  8
0
  6
CONTINUOUS
 62
     2
 10
170.25
 20
91.5
 30
0.0
 11
170.65
 21
91.5
 31
0.0
  0
LINE
  8
0
  6
CONTINUOUS
 62
     2
 10
170.25
 20
93.2
 30
0.0
 11
170.25
 21
97.3
 31
0.0
  0
LINE
  8
0
  6
CONTINUOUS
 62
     2
 10
170.65
 20
97.3
 30
0.0
 11
170.65
 21
93.2
 31
0.0
  0
LINE
  8
0
  6
CONTINUOUS
 62
     2
 10
170.25
 20
94.0
 30
0.0
 11
170.65
 21
94.0
 31
0.0
  0
LINE
  8
0
  6
CONTINUOUS
 62
     2
 10
170.25
 20
96.5
 30
0.0
 11
170.65
 21
96.5
 31
0.0
  0
LINE
  8
0
  6
CONTINUOUS
 62
     2
 10
173.35
 20
67.3
 30
0.0
 11
173.35
 21
68.2
 31
0.0
  0
LINE
  8
0
  6
CONTINUOUS
 62
     2
 10
173.85
 20
68.2
 30
0.0
 11
173.85
 21
67.3
 31
0.0
  0
LINE
  8
0
  6
CONTINUOUS
 62
     2
 10
172.75
 20
67.3
 30
0.0
 11
172.75
 21
68.2
 31
0.0
  0
LINE
  8
0
  6
CONTINUOUS
 62
     2
 10
173.35
 20
72.3
 30
0.0
 11
173.35
 21
73.2
 31
0.0
  0
LINE
  8
0
  6
CONTINUOUS
 62
     2
 10
173.85
 20
73.2
 30
0.0
 11
173.85
 21
72.3
 31
0.0
  0
LINE
  8
0
  6
CONTINUOUS
 62
     2
 10
172.75
 20
72.3
 30
0.0
 11
172.75
 21
73.2
 31
0.0
  0
LINE
  8
0
  6
CONTINUOUS
 62
     2
 10
173.35
 20
77.3
 30
0.0
 11
173.35
 21
78.2
 31
0.0
  0
LINE
  8
0
  6
CONTINUOUS
 62
     2
 10
173.85
 20
78.2
 30
0.0
 11
173.85
 21
77.3
 31
0.0
  0
LINE
  8
0
  6
CONTINUOUS
 62
     2
 10
172.75
 20
77.3
 30
0.0
 11
172.75
 21
78.2
 31
0.0
  0
LINE
  8
0
  6
CONTINUOUS
 62
     2
 10
173.35
 20
82.3
 30
0.0
 11
173.35
 21
83.2
 31
0.0
  0
LINE
  8
0
  6
CONTINUOUS
 62
     2
 10
173.85
 20
83.2
 30
0.0
 11
173.85
 21
82.3
 31
0.0
  0
LINE
  8
0
  6
CONTINUOUS
 62
     2
 10
172.75
 20
82.3
 30
0.0
 11
172.75
 21
83.2
 31
0.0
  0
LINE
  8
0
  6
CONTINUOUS
 62
     2
 10
173.35
 20
87.3
 30
0.0
 11
173.35
 21
88.2
 31
0.0
  0
LINE
  8
0
  6
CONTINUOUS
 62
     2
 10
173.85
 20
88.2
 30
0.0
 11
173.85
 21
87.3
 31
0.0
  0
LINE
  8
0
  6
CONTINUOUS
 62
     2
 10
172.75
 20
87.3
 30
0.0
 11
172.75
 21
88.2
 31
0.0
  0
LINE
  8
0
  6
CONTINUOUS
 62
     2
 10
173.35
 20
92.3
 30
0.0
 11
173.35
 21
93.2
 31
0.0
  0
LINE
  8
0
  6
CONTINUOUS
 62
     2
 10
173.85
 20
93.2
 30
0.0
 11
173.85
 21
92.3
 31
0.0
  0
LINE
  8
0
  6
CONTINUOUS
 62
     2
 10
172.75
 20
92.3
 30
0.0
 11
172.75
 21
93.2
 31
0.0
  0
LINE
  8
0
  6
CONTINUOUS
 62
     2
 10
173.35
 20
97.3
 30
0.0
 11
173.35
 21
98.2
 31
0.0
  0
LINE
  8
0
  6
CONTINUOUS
 62
     2
 10
173.85
 20
98.2
 30
0.0
 11
173.85
 21
97.3
 31
0.0
  0
LINE
  8
0
  6
CONTINUOUS
 62
     2
 10
172.75
 20
97.3
 30
0.0
 11
172.75
 21
98.2
 31
0.0
  0
LINE
  8
0
  6
LTYPE1
 62
     2
 10
173.45
 20
70.25
 30
0.0
 11
166.5
 21
70.25
 31
0.0
  0
LINE
  8
0
  6
LTYPE1
 62
     2
 10
173.45
 20
75.25
 30
0.0
 11
166.5
 21
75.25
 31
0.0
  0
LINE
  8
0
  6
LTYPE1
 62
     2
 10
173.45
 20
80.25
 30
0.0
 11
166.5
 21
80.25
 31
0.0
  0
LINE
  8
0
  6
LTYPE1
 62
     2
 10
173.45
 20
85.25
 30
0.0
 11
166.5
 21
85.25
 31
0.0
  0
LINE
  8
0
  6
LTYPE1
 62
     2
 10
173.45
 20
90.25
 30
0.0
 11
166.5
 21
90.25
 31
0.0
  0
LINE
  8
0
  6
LTYPE1
 62
     2
 10
173.45
 20
95.25
 30
0.0
 11
166.5
 21
95.25
 31
0.0
  0
LINE
  8
0
  6
LTYPE1
 62
     2
 10
173.45
 20
100.25
 30
0.0
 11
166.5
 21
100.25
 31
0.0
  0
LINE
  8
0
  6
LTYPE1
 62
     2
 10
173.45
 20
65.25
 30
0.0
 11
166.5
 21
65.25
 31
0.0
  0
LINE
  8
0
  6
CONTINUOUS
 62
     2
 10
175.2
 20
98.35
 30
0.0
 11
175.2
 21
67.15
 31
0.0
  0
LINE
  8
0
  6
CONTINUOUS
 62
     2
 10
175.2
 20
67.15
 30
0.0
 11
173.5
 21
67.15
 31
0.0
  0
LINE
  8
0
  6
CONTINUOUS
 62
     2
 10
173.5
 20
67.15
 30
0.0
 11
173.5
 21
98.35
 31
0.0
  0
LINE
  8
0
  6
CONTINUOUS
 62
     2
 10
173.5
 20
98.35
 30
0.0
 11
175.2
 21
98.35
 31
0.0
  0
LINE
  8
0
  6
CONTINUOUS
 62
     2
 10
175.2
 20
81.48660254
 30
0.0
 11
175.847047613
 21
79.071787975
 31
0.0
  0
LINE
  8
0
  6
CONTINUOUS
 62
     2
 10
175.2
 20
81.48660254
 30
0.0
 11
176.967766953
 21
79.718835587
 31
0.0
  0
LINE
  8
0
  6
CONTINUOUS
 62
     2
 10
175.2
 20
81.48660254
 30
0.0
 11
178.144486373
 21
76.38660254
 31
0.0
  0
LINE
  8
0
  6
CONTINUOUS
 62
     2
 10
171.04
 20
101.58
 30
0.0
 11
171.04
 21
98.92
 31
0.0
  0
LINE
  8
0
  6
CONTINUOUS
 62
     2
 10
171.35
 20
98.94
 30
0.0
 11
171.04
 21
98.92
 31
0.0
  0
LINE
  8
0
  6
CONTINUOUS
 62
     2
 10
171.04
 20
101.58
 30
0.0
 11
171.35
 21
101.58
 31
0.0
  0
LINE
  8
0
  6
CONTINUOUS
 62
     2
 10
172.09
 20
100.83
 30
0.0
 11
172.09
 21
99.67
 31
0.0
  0
ARC
  8
0
  6
CONTINUOUS
 62
     2
 10
171.34
 20
100.83
 30
0.0
 40
0.75
 50
0.0
 51
90.0
  0
ARC
  8
0
  6
CONTINUOUS
 62
     2
 10
171.34
 20
99.67
 30
0.0
 40
0.75
 50
268.472474559
 51
0.0
  0
LINE
  8
0
  6
CONTINUOUS
 62
     2
 10
171.03
 20
101.6
 30
0.0
 11
170.65
 21
101.6
 31
0.0
  0
LINE
  8
0
  6
CONTINUOUS
 62
     2
 10
170.65
 20
101.6
 30
0.0
 11
170.65
 21
98.92
 31
0.0
  0
LINE
  8
0
  6
CONTINUOUS
 62
     2
 10
170.65
 20
98.92
 30
0.0
 11
171.03
 21
98.92
 31
0.0
  0
LINE
  8
0
  6
CONTINUOUS
 62
     2
 10
170.65
 20
100.13
 30
0.0
 11
171.03
 21
100.44
 31
0.0
  0
LINE
  8
0
  6
CONTINUOUS
 62
     2
 10
170.65
 20
99.89
 30
0.0
 11
171.04
 21
100.18
 31
0.0
  0
LINE
  8
0
  6
CONTINUOUS
 62
     2
 10
172.09
 20
100.46
 30
0.0
 11
172.02
 21
100.46
 31
0.0
  0
LINE
  8
0
  6
CONTINUOUS
 62
     2
 10
172.02
 20
100.47
 30
0.0
 11
172.02
 21
100.09
 31
0.0
  0
LINE
  8
0
  6
CONTINUOUS
 62
     2
 10
172.02
 20
100.09
 30
0.0
 11
172.08
 21
100.09
 31
0.0
  0
LINE
  8
0
  6
CONTINUOUS
 62
     2
 10
171.04
 20
96.58
 30
0.0
 11
171.04
 21
93.92
 31
0.0
  0
LINE
  8
0
  6
CONTINUOUS
 62
     2
 10
171.35
 20
93.94
 30
0.0
 11
171.04
 21
93.92
 31
0.0
  0
LINE
  8
0
  6
CONTINUOUS
 62
     2
 10
171.04
 20
96.58
 30
0.0
 11
171.35
 21
96.58
 31
0.0
  0
LINE
  8
0
  6
CONTINUOUS
 62
     2
 10
172.09
 20
95.83
 30
0.0
 11
172.09
 21
94.67
 31
0.0
  0
ARC
  8
0
  6
CONTINUOUS
 62
     2
 10
171.34
 20
95.83
 30
0.0
 40
0.75
 50
0.0
 51
90.0
  0
ARC
  8
0
  6
CONTINUOUS
 62
     2
 10
171.34
 20
94.67
 30
0.0
 40
0.75
 50
268.472474559
 51
0.0
  0
LINE
  8
0
  6
CONTINUOUS
 62
     2
 10
171.03
 20
96.6
 30
0.0
 11
170.65
 21
96.6
 31
0.0
  0
LINE
  8
0
  6
CONTINUOUS
 62
     2
 10
170.65
 20
96.6
 30
0.0
 11
170.65
 21
93.92
 31
0.0
  0
LINE
  8
0
  6
CONTINUOUS
 62
     2
 10
170.65
 20
93.92
 30
0.0
 11
171.03
 21
93.92
 31
0.0
  0
LINE
  8
0
  6
CONTINUOUS
 62
     2
 10
170.65
 20
95.13
 30
0.0
 11
171.03
 21
95.44
 31
0.0
  0
LINE
  8
0
  6
CONTINUOUS
 62
     2
 10
170.65
 20
94.89
 30
0.0
 11
171.04
 21
95.18
 31
0.0
  0
LINE
  8
0
  6
CONTINUOUS
 62
     2
 10
172.09
 20
95.46
 30
0.0
 11
172.02
 21
95.46
 31
0.0
  0
LINE
  8
0
  6
CONTINUOUS
 62
     2
 10
172.02
 20
95.47
 30
0.0
 11
172.02
 21
95.09
 31
0.0
  0
LINE
  8
0
  6
CONTINUOUS
 62
     2
 10
172.02
 20
95.09
 30
0.0
 11
172.08
 21
95.09
 31
0.0
  0
LINE
  8
0
  6
CONTINUOUS
 62
     2
 10
171.04
 20
91.58
 30
0.0
 11
171.04
 21
88.92
 31
0.0
  0
LINE
  8
0
  6
CONTINUOUS
 62
     2
 10
171.35
 20
88.94
 30
0.0
 11
171.04
 21
88.92
 31
0.0
  0
LINE
  8
0
  6
CONTINUOUS
 62
     2
 10
171.04
 20
91.58
 30
0.0
 11
171.35
 21
91.58
 31
0.0
  0
LINE
  8
0
  6
CONTINUOUS
 62
     2
 10
172.09
 20
90.83
 30
0.0
 11
172.09
 21
89.67
 31
0.0
  0
ARC
  8
0
  6
CONTINUOUS
 62
     2
 10
171.34
 20
90.83
 30
0.0
 40
0.75
 50
0.0
 51
90.0
  0
ARC
  8
0
  6
CONTINUOUS
 62
     2
 10
171.34
 20
89.67
 30
0.0
 40
0.75
 50
268.472474559
 51
0.0
  0
LINE
  8
0
  6
CONTINUOUS
 62
     2
 10
171.03
 20
91.6
 30
0.0
 11
170.65
 21
91.6
 31
0.0
  0
LINE
  8
0
  6
CONTINUOUS
 62
     2
 10
170.65
 20
91.6
 30
0.0
 11
170.65
 21
88.92
 31
0.0
  0
LINE
  8
0
  6
CONTINUOUS
 62
     2
 10
170.65
 20
88.92
 30
0.0
 11
171.03
 21
88.92
 31
0.0
  0
LINE
  8
0
  6
CONTINUOUS
 62
     2
 10
170.65
 20
90.13
 30
0.0
 11
171.03
 21
90.44
 31
0.0
  0
LINE
  8
0
  6
CONTINUOUS
 62
     2
 10
170.65
 20
89.89
 30
0.0
 11
171.04
 21
90.18
 31
0.0
  0
LINE
  8
0
  6
CONTINUOUS
 62
     2
 10
172.09
 20
90.46
 30
0.0
 11
172.02
 21
90.46
 31
0.0
  0
LINE
  8
0
  6
CONTINUOUS
 62
     2
 10
172.02
 20
90.47
 30
0.0
 11
172.02
 21
90.09
 31
0.0
  0
LINE
  8
0
  6
CONTINUOUS
 62
     2
 10
172.02
 20
90.09
 30
0.0
 11
172.08
 21
90.09
 31
0.0
  0
LINE
  8
0
  6
CONTINUOUS
 62
     2
 10
171.04
 20
66.58
 30
0.0
 11
171.04
 21
63.92
 31
0.0
  0
LINE
  8
0
  6
CONTINUOUS
 62
     2
 10
171.35
 20
63.94
 30
0.0
 11
171.04
 21
63.92
 31
0.0
  0
LINE
  8
0
  6
CONTINUOUS
 62
     2
 10
171.04
 20
66.58
 30
0.0
 11
171.35
 21
66.58
 31
0.0
  0
LINE
  8
0
  6
CONTINUOUS
 62
     2
 10
172.09
 20
65.83
 30
0.0
 11
172.09
 21
64.67
 31
0.0
  0
ARC
  8
0
  6
CONTINUOUS
 62
     2
 10
171.34
 20
65.83
 30
0.0
 40
0.75
 50
0.0
 51
90.0
  0
ARC
  8
0
  6
CONTINUOUS
 62
     2
 10
171.34
 20
64.67
 30
0.0
 40
0.75
 50
268.472474559
 51
0.0
  0
LINE
  8
0
  6
CONTINUOUS
 62
     2
 10
171.03
 20
66.6
 30
0.0
 11
170.65
 21
66.6
 31
0.0
  0
LINE
  8
0
  6
CONTINUOUS
 62
     2
 10
170.65
 20
66.6
 30
0.0
 11
170.65
 21
63.92
 31
0.0
  0
LINE
  8
0
  6
CONTINUOUS
 62
     2
 10
170.65
 20
63.92
 30
0.0
 11
171.03
 21
63.92
 31
0.0
  0
LINE
  8
0
  6
CONTINUOUS
 62
     2
 10
170.65
 20
65.13
 30
0.0
 11
171.03
 21
65.44
 31
0.0
  0
LINE
  8
0
  6
CONTINUOUS
 62
     2
 10
170.65
 20
64.89
 30
0.0
 11
171.04
 21
65.18
 31
0.0
  0
LINE
  8
0
  6
CONTINUOUS
 62
     2
 10
172.09
 20
65.46
 30
0.0
 11
172.02
 21
65.46
 31
0.0
  0
LINE
  8
0
  6
CONTINUOUS
 62
     2
 10
172.02
 20
65.47
 30
0.0
 11
172.02
 21
65.09
 31
0.0
  0
LINE
  8
0
  6
CONTINUOUS
 62
     2
 10
172.02
 20
65.09
 30
0.0
 11
172.08
 21
65.09
 31
0.0
  0
LINE
  8
0
  6
CONTINUOUS
 62
     2
 10
198.25
 20
130.4
 30
0.0
 11
198.25
 21
120.9
 31
0.0
  0
LINE
  8
0
  6
CONTINUOUS
 62
     2
 10
213.75
 20
130.4
 30
0.0
 11
198.25
 21
130.4
 31
0.0
  0
LINE
  8
0
  6
CONTINUOUS
 62
     2
 10
213.75
 20
130.4
 30
0.0
 11
213.75
 21
120.9
 31
0.0
  0
LINE
  8
0
  6
CONTINUOUS
 62
     2
 10
198.25
 20
120.9
 30
0.0
 11
213.75
 21
120.9
 31
0.0
  0
ARC
  8
0
  6
CONTINUOUS
 62
     2
 10
204.333333
 20
102.65
 30
0.0
 40
0.333333
 50
180.0
 51
0.0
  0
ARC
  8
0
  6
CONTINUOUS
 62
     2
 10
204.999999
 20
102.65
 30
0.0
 40
0.333333
 50
180.0
 51
0.0
  0
ARC
  8
0
  6
CONTINUOUS
 62
     2
 10
205.666665
 20
102.65
 30
0.0
 40
0.333333
 50
180.0
 51
0.0
  0
ARC
  8
0
  6
CONTINUOUS
 62
     2
 10
206.333331
 20
102.65
 30
0.0
 40
0.333333
 50
180.0
 51
0.0
  0
ARC
  8
0
  6
CONTINUOUS
 62
     2
 10
206.999997
 20
102.65
 30
0.0
 40
0.333333
 50
180.0
 51
0.0
  0
ARC
  8
0
  6
CONTINUOUS
 62
     2
 10
207.666663
 20
102.65
 30
0.0
 40
0.333333
 50
180.0
 51
0.0
  0
TEXT
  8
0
  6
CONTINUOUS
 62
     2
 10
200.0
 20
126.4
 30
0.3
 40
3.0
  1
貼　銘　板
 50
0.0
 41
0.9
 51
0.0
  7
KANJI1
  0
TEXT
  8
0
  6
CONTINUOUS
 62
     2
 10
198.4
 20
122.4
 30
0.3
 40
3.0
  1
（表示事項）
 50
0.0
 41
0.9
 51
0.0
  7
KANJI1
  0
ARC
  8
0
  6
CONTINUOUS
 62
     2
 10
204.333333
 20
119.9
 30
0.0
 40
0.333333
 50
0.0
 51
180.0
  0
ARC
  8
0
  6
CONTINUOUS
 62
     2
 10
204.999999
 20
119.9
 30
0.0
 40
0.333333
 50
0.0
 51
180.0
  0
ARC
  8
0
  6
CONTINUOUS
 62
     2
 10
205.666665
 20
119.9
 30
0.0
 40
0.333333
 50
0.0
 51
180.0
  0
ARC
  8
0
  6
CONTINUOUS
 62
     2
 10
206.333331
 20
119.9
 30
0.0
 40
0.333333
 50
0.0
 51
180.0
  0
ARC
  8
0
  6
CONTINUOUS
 62
     2
 10
206.999997
 20
119.9
 30
0.0
 40
0.333333
 50
0.0
 51
180.0
  0
ARC
  8
0
  6
CONTINUOUS
 62
     2
 10
207.666663
 20
119.9
 30
0.0
 40
0.333333
 50
0.0
 51
180.0
  0
LINE
  8
0
  6
CONTINUOUS
 62
     2
 10
204.0
 20
102.65
 30
0.0
 11
204.0
 21
119.9
 31
0.0
  0
LINE
  8
0
  6
CONTINUOUS
 62
     2
 10
208.0
 20
119.9
 30
0.0
 11
208.0
 21
102.65
 31
0.0
  0
LINE
  8
0
  6
CONTINUOUS
 62
     2
 10
222.0
 20
75.25
 30
0.0
 11
222.647047613
 21
77.664814566
 31
0.0
  0
LINE
  8
0
  6
CONTINUOUS
 62
     2
 10
222.0
 20
75.25
 30
0.0
 11
221.352952387
 21
77.664814566
 31
0.0
  0
LINE
  8
0
  6
CONTINUOUS
 62
     2
 10
222.0
 20
79.0
 30
0.0
 11
222.0
 21
75.25
 31
0.0
  0
LINE
  8
0
  6
CONTINUOUS
 62
     2
 10
222.0
 20
75.25
 30
0.0
 11
222.0
 21
70.25
 31
0.0
  0
LINE
  8
0
  6
CONTINUOUS
 62
     2
 10
222.0
 20
70.25
 30
0.0
 11
222.0
 21
66.5
 31
0.0
  0
LINE
  8
0
  6
CONTINUOUS
 62
     2
 10
222.0
 20
70.25
 30
0.0
 11
221.352952387
 21
67.835185434
 31
0.0
  0
LINE
  8
0
  6
CONTINUOUS
 62
     2
 10
222.0
 20
70.25
 30
0.0
 11
222.647047613
 21
67.835185434
 31
0.0
  0
TEXT
  8
0
  6
CONTINUOUS
 62
     2
 10
221.0
 20
71.15
 30
0.3
 40
3.0
  1
１０
 50
90.0
 41
0.6
 51
0.0
  7
KANJI0
  0
LINE
  8
0
  6
CONTINUOUS
 62
     2
 10
199.15
 20
59.75
 30
0.0
 11
197.655449671
 21
57.745924324
 31
0.0
  0
LINE
  8
0
  6
CONTINUOUS
 62
     2
 10
199.15
 20
59.75
 30
0.0
 11
198.857719286
 21
57.267144389
 31
0.0
  0
LINE
  8
0
  6
CONTINUOUS
 62
     2
 10
218.55
 20
48.45
 30
0.0
 11
194.65
 21
48.45
 31
0.0
  0
LINE
  8
0
  6
CONTINUOUS
 62
     2
 10
199.15
 20
59.75
 30
0.0
 11
194.65
 21
48.45
 31
0.0
  0
ARC
  8
0
  6
CONTINUOUS
 62
     2
 10
206.0
 20
134.25
 30
0.0
 40
1.02
 50
23.088831181
 51
156.911168819
  0
ARC
  8
0
  6
CONTINUOUS
 62
     2
 10
206.0
 20
134.25
 30
0.0
 40
1.02
 50
203.088731761
 51
336.911268239
  0
LINE
  8
0
  6
CONTINUOUS
 62
     2
 10
204.789370317
 20
134.650000962
 30
0.0
 11
207.210629683
 21
134.650000962
 31
0.0
  0
LINE
  8
0
  6
CONTINUOUS
 62
     2
 10
204.789369681
 20
133.850000962
 30
0.0
 11
207.210630319
 21
133.850000962
 31
0.0
  0
ARC
  8
0
  6
CONTINUOUS
 62
     2
 10
206.0
 20
55.75
 30
0.0
 40
1.02
 50
203.088831181
 51
336.911168819
  0
ARC
  8
0
  6
CONTINUOUS
 62
     2
 10
206.0
 20
55.75
 30
0.0
 40
1.02
 50
23.088731761
 51
156.911268239
  0
LINE
  8
0
  6
CONTINUOUS
 62
     2
 10
204.789370317
 20
55.349999038
 30
0.0
 11
207.210629683
 21
55.349999038
 31
0.0
  0
LINE
  8
0
  6
CONTINUOUS
 62
     2
 10
204.789369681
 20
56.149999038
 30
0.0
 11
207.210630319
 21
56.149999038
 31
0.0
  0
LINE
  8
0
  6
LTYPE1
 62
     2
 10
206.0
 20
98.0
 30
0.0
 11
206.0
 21
102.5
 31
0.0
  0
LINE
  8
0
  6
CONTINUOUS
 62
     2
 10
208.25
 20
75.25
 30
0.0
 11
224.0
 21
75.25
 31
0.0
  0
LINE
  8
0
  6
CONTINUOUS
 62
     2
 10
208.25
 20
70.25
 30
0.0
 11
224.0
 21
70.25
 31
0.0
  0
TEXT
  8
0
  6
CONTINUOUS
 62
     2
 10
184.0
 20
77.38660254
 30
0.0
 40
3.0
  1
端子カバー
 50
0.0
 41
0.8
 51
0.0
  7
KANJI5
  0
LINE
  8
0
  6
CONTINUOUS
 62
     2
 10
178.144486373
 20
76.38660254
 30
0.0
 11
195.7
 21
76.38660254
 31
0.0
  0
LINE
  8
0
  6
CONTINUOUS
 62
     2
 10
171.04
 20
71.58
 30
0.0
 11
171.04
 21
68.92
 31
0.0
  0
LINE
  8
0
  6
CONTINUOUS
 62
     2
 10
171.35
 20
68.94
 30
0.0
 11
171.04
 21
68.92
 31
0.0
  0
LINE
  8
0
  6
CONTINUOUS
 62
     2
 10
171.04
 20
71.58
 30
0.0
 11
171.35
 21
71.58
 31
0.0
  0
LINE
  8
0
  6
CONTINUOUS
 62
     2
 10
172.09
 20
70.83
 30
0.0
 11
172.09
 21
69.67
 31
0.0
  0
ARC
  8
0
  6
CONTINUOUS
 62
     2
 10
171.34
 20
70.83
 30
0.0
 40
0.75
 50
0.0
 51
90.0
  0
ARC
  8
0
  6
CONTINUOUS
 62
     2
 10
171.34
 20
69.67
 30
0.0
 40
0.75
 50
268.472474559
 51
0.0
  0
LINE
  8
0
  6
CONTINUOUS
 62
     2
 10
171.03
 20
71.6
 30
0.0
 11
170.65
 21
71.6
 31
0.0
  0
LINE
  8
0
  6
CONTINUOUS
 62
     2
 10
170.65
 20
71.6
 30
0.0
 11
170.65
 21
68.92
 31
0.0
  0
LINE
  8
0
  6
CONTINUOUS
 62
     2
 10
170.65
 20
68.92
 30
0.0
 11
171.03
 21
68.92
 31
0.0
  0
LINE
  8
0
  6
CONTINUOUS
 62
     2
 10
170.65
 20
70.13
 30
0.0
 11
171.03
 21
70.44
 31
0.0
  0
LINE
  8
0
  6
CONTINUOUS
 62
     2
 10
170.65
 20
69.89
 30
0.0
 11
171.04
 21
70.18
 31
0.0
  0
LINE
  8
0
  6
CONTINUOUS
 62
     2
 10
172.09
 20
70.46
 30
0.0
 11
172.02
 21
70.46
 31
0.0
  0
LINE
  8
0
  6
CONTINUOUS
 62
     2
 10
172.02
 20
70.47
 30
0.0
 11
172.02
 21
70.09
 31
0.0
  0
LINE
  8
0
  6
CONTINUOUS
 62
     2
 10
172.02
 20
70.09
 30
0.0
 11
172.08
 21
70.09
 31
0.0
  0
LINE
  8
0
  6
CONTINUOUS
 62
     2
 10
171.04
 20
76.58
 30
0.0
 11
171.04
 21
73.92
 31
0.0
  0
LINE
  8
0
  6
CONTINUOUS
 62
     2
 10
171.35
 20
73.94
 30
0.0
 11
171.04
 21
73.92
 31
0.0
  0
LINE
  8
0
  6
CONTINUOUS
 62
     2
 10
171.04
 20
76.58
 30
0.0
 11
171.35
 21
76.58
 31
0.0
  0
LINE
  8
0
  6
CONTINUOUS
 62
     2
 10
172.09
 20
75.83
 30
0.0
 11
172.09
 21
74.67
 31
0.0
  0
ARC
  8
0
  6
CONTINUOUS
 62
     2
 10
171.34
 20
75.83
 30
0.0
 40
0.75
 50
0.0
 51
90.0
  0
ARC
  8
0
  6
CONTINUOUS
 62
     2
 10
171.34
 20
74.67
 30
0.0
 40
0.75
 50
268.472474559
 51
0.0
  0
LINE
  8
0
  6
CONTINUOUS
 62
     2
 10
171.03
 20
76.6
 30
0.0
 11
170.65
 21
76.6
 31
0.0
  0
LINE
  8
0
  6
CONTINUOUS
 62
     2
 10
170.65
 20
76.6
 30
0.0
 11
170.65
 21
73.92
 31
0.0
  0
LINE
  8
0
  6
CONTINUOUS
 62
     2
 10
170.65
 20
73.92
 30
0.0
 11
171.03
 21
73.92
 31
0.0
  0
LINE
  8
0
  6
CONTINUOUS
 62
     2
 10
170.65
 20
75.13
 30
0.0
 11
171.03
 21
75.44
 31
0.0
  0
LINE
  8
0
  6
CONTINUOUS
 62
     2
 10
170.65
 20
74.89
 30
0.0
 11
171.04
 21
75.18
 31
0.0
  0
LINE
  8
0
  6
CONTINUOUS
 62
     2
 10
172.09
 20
75.46
 30
0.0
 11
172.02
 21
75.46
 31
0.0
  0
LINE
  8
0
  6
CONTINUOUS
 62
     2
 10
172.02
 20
75.47
 30
0.0
 11
172.02
 21
75.09
 31
0.0
  0
LINE
  8
0
  6
CONTINUOUS
 62
     2
 10
172.02
 20
75.09
 30
0.0
 11
172.08
 21
75.09
 31
0.0
  0
LINE
  8
0
  6
CONTINUOUS
 62
     2
 10
172.25
 20
74.85
 30
0.0
 11
172.897047613
 21
72.435185434
 31
0.0
  0
LINE
  8
0
  6
CONTINUOUS
 62
     2
 10
172.25
 20
74.85
 30
0.0
 11
174.017766953
 21
73.082233047
 31
0.0
  0
LINE
  8
0
  6
CONTINUOUS
 62
     2
 10
172.25
 20
74.85
 30
0.0
 11
176.291451884
 21
67.85
 31
0.0
  0
TEXT
  8
0
  6
CONTINUOUS
 62
     2
 10
176.291451884
 20
64.35
 30
0.3
 40
3.0
  1
ネジ
 50
0.0
 41
0.9
 51
0.0
  7
KANJI1
  0
LINE
  8
0
  6
CONTINUOUS
 62
     2
 10
176.291451884
 20
67.85
 30
0.0
 11
182.291451884
 21
67.85
 31
0.0
  0
TEXT
  8
0
  6
CONTINUOUS
 62
     2
 10
176.291451884
 20
68.85
 30
0.3
 40
3.0
  1
Ｍ３
 50
0.0
 41
0.9
 51
0.0
  7
KANJI1
  0
LINE
  8
0
  6
CONTINUOUS
 62
     2
 10
179.75
 20
87.3
 30
0.0
 11
179.75
 21
91.05
 31
0.0
  0
LINE
  8
0
  6
CONTINUOUS
 62
     2
 10
179.75
 20
87.3
 30
0.0
 11
180.397047613
 21
89.714814566
 31
0.0
  0
LINE
  8
0
  6
CONTINUOUS
 62
     2
 10
179.75
 20
87.3
 30
0.0
 11
179.102952387
 21
89.714814566
 31
0.0
  0
LINE
  8
0
  6
CONTINUOUS
 62
     2
 10
175.75
 20
87.3
 30
0.0
 11
181.75
 21
87.3
 31
0.0
  0
LINE
  8
0
  6
CONTINUOUS
 62
     2
 10
179.75
 20
83.2
 30
0.0
 11
179.102952387
 21
80.785185434
 31
0.0
  0
LINE
  8
0
  6
CONTINUOUS
 62
     2
 10
179.75
 20
83.2
 30
0.0
 11
180.397047613
 21
80.785185434
 31
0.0
  0
LINE
  8
0
  6
CONTINUOUS
 62
     2
 10
179.75
 20
79.45
 30
0.0
 11
179.75
 21
83.2
 31
0.0
  0
LINE
  8
0
  6
CONTINUOUS
 62
     2
 10
179.75
 20
83.2
 30
0.0
 11
179.75
 21
87.3
 31
0.0
  0
TEXT
  8
0
  6
CONTINUOUS
 62
     2
 10
178.75
 20
83.25
 30
0.2
 40
3.0
  1
８．２
 50
90.0
 41
0.5
 51
0.0
  7
KANJI6
  0
LINE
  8
0
  6
CONTINUOUS
 62
     2
 10
175.75
 20
83.2
 30
0.0
 11
181.75
 21
83.2
 31
0.0
  0
LINE
  8
0
  6
CONTINUOUS
 62
     2
 10
162.15
 20
173.95
 30
0.0
 11
164.06677682
 21
175.554981814
 31
0.0
  0
LINE
  8
0
  6
CONTINUOUS
 62
     2
 10
162.15
 20
173.95
 30
0.0
 11
163.007486512
 21
176.298343433
 31
0.0
  0
LINE
  8
0
  6
CONTINUOUS
 62
     2
 10
162.15
 20
173.95
 30
0.0
 11
166.430701754
 21
180.05
 31
0.0
  0
LINE
  8
0
  6
CONTINUOUS
 62
     2
 10
128.093859649
 20
180.05
 30
0.0
 11
166.430701754
 21
180.05
 31
0.0
  0
LINE
  8
0
  6
CONTINUOUS
 62
     2
 10
175.2
 20
99.25
 30
0.0
 11
175.2
 21
145.0
 31
0.0
  0
LINE
  8
0
  6
CONTINUOUS
 62
     2
 10
175.2
 20
148.0
 30
0.0
 11
172.785185434
 21
148.647047613
 31
0.0
  0
LINE
  8
0
  6
CONTINUOUS
 62
     2
 10
175.2
 20
148.0
 30
0.0
 11
172.785185434
 21
147.352952387
 31
0.0
  0
LINE
  8
0
  6
CONTINUOUS
 62
     2
 10
175.2
 20
144.0
 30
0.0
 11
175.2
 21
150.0
 31
0.0
  0
LINE
  8
0
  6
CONTINUOUS
 62
     2
 10
175.2
 20
143.0
 30
0.0
 11
172.785185434
 21
143.647047613
 31
0.0
  0
LINE
  8
0
  6
CONTINUOUS
 62
     2
 10
175.2
 20
143.0
 30
0.0
 11
172.785185434
 21
142.352952387
 31
0.0
  0
LINE
  8
0
  6
CONTINUOUS
 62
     2
 10
165.5
 20
143.0
 30
0.0
 11
175.2
 21
143.0
 31
0.0
  0
LINE
  8
0
  6
CONTINUOUS
 62
     2
 10
61.0
 20
148.0
 30
0.0
 11
175.2
 21
148.0
 31
0.0
  0
LINE
  8
0
  6
LTYPE2
 62
     5
 10
197.5
 20
59.75
 30
0.0
 11
214.5
 21
59.75
 31
0.0
  0
LINE
  8
0
  6
LTYPE2
 62
     5
 10
214.5
 20
59.75
 30
0.0
 11
214.5
 21
62.25
 31
0.0
  0
LINE
  8
0
  6
LTYPE2
 62
     5
 10
214.5
 20
62.25
 30
0.0
 11
197.5
 21
62.25
 31
0.0
  0
LINE
  8
0
  6
LTYPE2
 62
     5
 10
197.5
 20
62.25
 30
0.0
 11
197.5
 21
59.75
 31
0.0
  0
LINE
  8
0
  6
LTYPE2
 62
     5
 10
160.5
 20
157.0
 30
0.0
 11
163.0
 21
157.0
 31
0.0
  0
LINE
  8
0
  6
LTYPE2
 62
     5
 10
163.0
 20
157.0
 30
0.0
 11
163.0
 21
174.0
 31
0.0
  0
LINE
  8
0
  6
LTYPE2
 62
     5
 10
163.0
 20
174.0
 30
0.0
 11
160.5
 21
174.0
 31
0.0
  0
LINE
  8
0
  6
LTYPE2
 62
     5
 10
160.5
 20
164.25
 30
0.0
 11
160.5
 21
157.0
 31
0.0
  0
LINE
  8
0
  6
LTYPE2
 62
     5
 10
160.5
 20
174.0
 30
0.0
 11
160.5
 21
166.75
 31
0.0
  0
TEXT
  8
0
  6
CONTINUOUS
 62
     2
 10
196.65
 20
49.45
 30
0.3
 40
3.0
  1
ＴＡＧ　ＮＯ．ラベル
 50
0.0
 41
0.9
 51
0.0
  7
KANJI1
  0
TEXT
  8
0
  6
CONTINUOUS
 62
     2
 10
15.0
 20
57.575
 30
0.2
 40
3.0
  1
１２．５
 50
90.0
 41
0.5
 51
0.0
  7
KANJI6
  0
TEXT
  8
0
  6
CONTINUOUS
 62
     2
 10
113.5
 20
149.0
 30
0.3
 40
3.0
  1
２２８．５
 50
0.0
 41
0.6
 51
0.0
  7
KANJI0
  0
TEXT
  8
0
  6
CONTINUOUS
 62
     2
 10
166.7
 20
144.0
 30
0.3
 40
3.0
  1
１９．５
 50
0.0
 41
0.6
 51
0.0
  7
KANJI0
  0
TEXT
  8
0
  6
CONTINUOUS
 62
     2
 10
129.242982456
 20
181.05
 30
0.3
 40
3.0
  1
ＴＡＧ　ＮＯ．２枚表示の場合
 50
0.0
 41
0.9
 51
0.0
  7
KANJI1
  0
LINE
  8
0
  6
CONTINUOUS
 62
     1
 10
70.0
 20
156.5
 30
0.0
 11
164.5
 21
156.5
 31
0.0
  0
LINE
  8
0
  6
CONTINUOUS
 62
     1
 10
70.0
 20
155.5
 30
0.0
 11
165.0
 21
155.5
 31
0.0
  0
LINE
  8
0
  6
CONTINUOUS
 62
     2
 10
70.0
 20
160.5
 30
0.0
 11
70.0
 21
154.0
 31
0.0
  0
LINE
  8
0
  6
CONTINUOUS
 62
     2
 10
70.0
 20
154.0
 30
0.0
 11
69.75
 21
154.0
 31
0.0
  0
LINE
  8
0
  6
CONTINUOUS
 62
     2
 10
69.75
 20
154.0
 30
0.0
 11
69.75
 21
160.5
 31
0.0
  0
LINE
  8
0
  6
CONTINUOUS
 62
     2
 10
70.0
 20
170.5
 30
0.0
 11
70.0
 21
177.0
 31
0.0
  0
LINE
  8
0
  6
CONTINUOUS
 62
     2
 10
70.0
 20
177.0
 30
0.0
 11
69.75
 21
177.0
 31
0.0
  0
LINE
  8
0
  6
CONTINUOUS
 62
     2
 10
69.75
 20
177.0
 30
0.0
 11
69.75
 21
170.5
 31
0.0
  0
LINE
  8
0
  6
CONTINUOUS
 62
     2
 10
69.875
 20
177.0
 30
0.0
 11
71.642766953
 21
178.767766953
 31
0.0
  0
LINE
  8
0
  6
CONTINUOUS
 62
     2
 10
69.875
 20
177.0
 30
0.0
 11
70.522047613
 21
179.414814566
 31
0.0
  0
LINE
  8
0
  6
CONTINUOUS
 62
     2
 10
69.875
 20
177.0
 30
0.0
 11
71.607050808
 21
180.0
 31
0.0
  0
LINE
  8
0
  6
CONTINUOUS
 62
     1
 10
46.0
 20
132.5
 30
0.0
 11
46.5
 21
132.5
 31
0.0
  0
LINE
  8
0
  6
CONTINUOUS
 62
     1
 10
47.5
 20
131.5
 30
0.0
 11
47.5
 21
58.5
 31
0.0
  0
ARC
  8
0
  6
CONTINUOUS
 62
     1
 10
46.5
 20
131.5
 30
0.0
 40
1.0
 50
0.0
 51
90.0
  0
LINE
  8
0
  6
CONTINUOUS
 62
     2
 10
47.6
 20
132.5
 30
0.0
 11
58.0
 21
132.5
 31
0.0
  0
LINE
  8
0
  6
CONTINUOUS
 62
     1
 10
46.5
 20
57.5
 30
0.0
 11
46.0
 21
57.5
 31
0.0
  0
ARC
  8
0
  6
CONTINUOUS
 62
     1
 10
46.5
 20
58.5
 30
0.0
 40
1.0
 50
270.0
 51
0.0
  0
LINE
  8
0
  6
LTYPE1
 62
     2
 10
36.0
 20
137.5
 30
0.0
 11
36.0
 21
62.2
 31
0.0
  0
LINE
  8
0
  6
LTYPE1
 62
     2
 10
36.0
 20
59.3
 30
0.0
 11
36.0
 21
52.5
 31
0.0
  0
LINE
  8
0
  6
CONTINUOUS
 62
     1
 10
196.0
 20
132.5
 30
0.0
 11
195.5
 21
132.5
 31
0.0
  0
LINE
  8
0
  6
CONTINUOUS
 62
     1
 10
194.5
 20
131.5
 30
0.0
 11
194.5
 21
58.5
 31
0.0
  0
ARC
  8
0
  6
CONTINUOUS
 62
     1
 10
195.5
 20
131.5
 30
0.0
 40
1.0
 50
90.0
 51
180.0
  0
LINE
  8
0
  6
CONTINUOUS
 62
     1
 10
216.0
 20
132.5
 30
0.0
 11
216.5
 21
132.5
 31
0.0
  0
LINE
  8
0
  6
CONTINUOUS
 62
     1
 10
217.5
 20
131.5
 30
0.0
 11
217.5
 21
58.5
 31
0.0
  0
ARC
  8
0
  6
CONTINUOUS
 62
     1
 10
216.5
 20
131.5
 30
0.0
 40
1.0
 50
0.0
 51
90.0
  0
LINE
  8
0
  6
CONTINUOUS
 62
     1
 10
216.0
 20
57.5
 30
0.0
 11
216.5
 21
57.5
 31
0.0
  0
ARC
  8
0
  6
CONTINUOUS
 62
     1
 10
216.5
 20
58.5
 30
0.0
 40
1.0
 50
270.0
 51
0.0
  0
LINE
  8
0
  6
CONTINUOUS
 62
     1
 10
196.0
 20
57.5
 30
0.0
 11
195.5
 21
57.5
 31
0.0
  0
ARC
  8
0
  6
CONTINUOUS
 62
     1
 10
195.5
 20
58.5
 30
0.0
 40
1.0
 50
180.0
 51
270.0
  0
LINE
  8
0
  6
CONTINUOUS
 62
     1
 10
205.25
 20
63.2
 30
0.0
 11
205.25
 21
67.3
 31
0.0
  0
LINE
  8
0
  6
CONTINUOUS
 62
     1
 10
211.25
 20
67.3
 30
0.0
 11
211.25
 21
63.2
 31
0.0
  0
LINE
  8
0
  6
CONTINUOUS
 62
     1
 10
204.0
 20
63.2
 30
0.0
 11
212.5
 21
63.2
 31
0.0
  0
LINE
  8
0
  6
CONTINUOUS
 62
     1
 10
212.5
 20
68.2
 30
0.0
 11
212.5
 21
67.3
 31
0.0
  0
LINE
  8
0
  6
CONTINUOUS
 62
     1
 10
204.0
 20
68.2
 30
0.0
 11
204.0
 21
67.3
 31
0.0
  0
LINE
  8
0
  6
CONTINUOUS
 62
     1
 10
204.0
 20
67.3
 30
0.0
 11
204.0
 21
63.2
 31
0.0
  0
LINE
  8
0
  6
CONTINUOUS
 62
     1
 10
212.5
 20
63.2
 30
0.0
 11
212.5
 21
67.3
 31
0.0
  0
LINE
  8
0
  6
CONTINUOUS
 62
     1
 10
205.25
 20
68.2
 30
0.0
 11
205.25
 21
72.3
 31
0.0
  0
LINE
  8
0
  6
CONTINUOUS
 62
     1
 10
211.25
 20
72.3
 30
0.0
 11
211.25
 21
68.2
 31
0.0
  0
LINE
  8
0
  6
CONTINUOUS
 62
     1
 10
212.5
 20
72.3
 30
0.0
 11
204.0
 21
72.3
 31
0.0
  0
LINE
  8
0
  6
CONTINUOUS
 62
     1
 10
204.0
 20
73.2
 30
0.0
 11
212.5
 21
73.2
 31
0.0
  0
LINE
  8
0
  6
CONTINUOUS
 62
     1
 10
212.5
 20
73.2
 30
0.0
 11
212.5
 21
72.3
 31
0.0
  0
LINE
  8
0
  6
CONTINUOUS
 62
     1
 10
204.0
 20
73.2
 30
0.0
 11
204.0
 21
72.3
 31
0.0
  0
LINE
  8
0
  6
CONTINUOUS
 62
     1
 10
204.0
 20
72.3
 30
0.0
 11
204.0
 21
68.2
 31
0.0
  0
LINE
  8
0
  6
CONTINUOUS
 62
     1
 10
212.5
 20
68.2
 30
0.0
 11
212.5
 21
72.3
 31
0.0
  0
LINE
  8
0
  6
CONTINUOUS
 62
     1
 10
205.25
 20
67.3
 30
0.0
 11
205.25
 21
63.2
 31
0.0
  0
LINE
  8
0
  6
CONTINUOUS
 62
     1
 10
205.25
 20
73.2
 30
0.0
 11
205.25
 21
77.3
 31
0.0
  0
LINE
  8
0
  6
CONTINUOUS
 62
     1
 10
211.25
 20
77.3
 30
0.0
 11
211.25
 21
73.2
 31
0.0
  0
LINE
  8
0
  6
CONTINUOUS
 62
     1
 10
212.5
 20
77.3
 30
0.0
 11
204.0
 21
77.3
 31
0.0
  0
LINE
  8
0
  6
CONTINUOUS
 62
     1
 10
204.0
 20
78.2
 30
0.0
 11
212.5
 21
78.2
 31
0.0
  0
LINE
  8
0
  6
CONTINUOUS
 62
     1
 10
212.5
 20
78.2
 30
0.0
 11
212.5
 21
77.3
 31
0.0
  0
LINE
  8
0
  6
CONTINUOUS
 62
     1
 10
204.0
 20
78.2
 30
0.0
 11
204.0
 21
77.3
 31
0.0
  0
LINE
  8
0
  6
CONTINUOUS
 62
     1
 10
204.0
 20
77.3
 30
0.0
 11
204.0
 21
73.2
 31
0.0
  0
LINE
  8
0
  6
CONTINUOUS
 62
     1
 10
212.5
 20
73.2
 30
0.0
 11
212.5
 21
77.3
 31
0.0
  0
LINE
  8
0
  6
CONTINUOUS
 62
     1
 10
205.25
 20
78.2
 30
0.0
 11
205.25
 21
82.3
 31
0.0
  0
LINE
  8
0
  6
CONTINUOUS
 62
     1
 10
211.25
 20
82.3
 30
0.0
 11
211.25
 21
78.2
 31
0.0
  0
LINE
  8
0
  6
CONTINUOUS
 62
     1
 10
212.5
 20
82.3
 30
0.0
 11
204.0
 21
82.3
 31
0.0
  0
LINE
  8
0
  6
CONTINUOUS
 62
     1
 10
204.0
 20
83.2
 30
0.0
 11
212.5
 21
83.2
 31
0.0
  0
LINE
  8
0
  6
CONTINUOUS
 62
     1
 10
212.5
 20
83.2
 30
0.0
 11
212.5
 21
82.3
 31
0.0
  0
LINE
  8
0
  6
CONTINUOUS
 62
     1
 10
204.0
 20
83.2
 30
0.0
 11
204.0
 21
82.3
 31
0.0
  0
LINE
  8
0
  6
CONTINUOUS
 62
     1
 10
204.0
 20
82.3
 30
0.0
 11
204.0
 21
78.2
 31
0.0
  0
LINE
  8
0
  6
CONTINUOUS
 62
     1
 10
212.5
 20
78.2
 30
0.0
 11
212.5
 21
82.3
 31
0.0
  0
LINE
  8
0
  6
CONTINUOUS
 62
     1
 10
205.25
 20
83.2
 30
0.0
 11
205.25
 21
87.3
 31
0.0
  0
LINE
  8
0
  6
CONTINUOUS
 62
     1
 10
211.25
 20
87.3
 30
0.0
 11
211.25
 21
83.2
 31
0.0
  0
LINE
  8
0
  6
CONTINUOUS
 62
     1
 10
212.5
 20
87.3
 30
0.0
 11
204.0
 21
87.3
 31
0.0
  0
LINE
  8
0
  6
CONTINUOUS
 62
     1
 10
204.0
 20
88.2
 30
0.0
 11
212.5
 21
88.2
 31
0.0
  0
LINE
  8
0
  6
CONTINUOUS
 62
     1
 10
212.5
 20
88.2
 30
0.0
 11
212.5
 21
87.3
 31
0.0
  0
LINE
  8
0
  6
CONTINUOUS
 62
     1
 10
204.0
 20
88.2
 30
0.0
 11
204.0
 21
87.3
 31
0.0
  0
LINE
  8
0
  6
CONTINUOUS
 62
     1
 10
204.0
 20
87.3
 30
0.0
 11
204.0
 21
83.2
 31
0.0
  0
LINE
  8
0
  6
CONTINUOUS
 62
     1
 10
212.5
 20
83.2
 30
0.0
 11
212.5
 21
87.3
 31
0.0
  0
LINE
  8
0
  6
CONTINUOUS
 62
     1
 10
205.25
 20
88.2
 30
0.0
 11
205.25
 21
92.3
 31
0.0
  0
LINE
  8
0
  6
CONTINUOUS
 62
     1
 10
211.25
 20
92.3
 30
0.0
 11
211.25
 21
88.2
 31
0.0
  0
LINE
  8
0
  6
CONTINUOUS
 62
     1
 10
212.5
 20
92.3
 30
0.0
 11
204.0
 21
92.3
 31
0.0
  0
LINE
  8
0
  6
CONTINUOUS
 62
     1
 10
204.0
 20
93.2
 30
0.0
 11
212.5
 21
93.2
 31
0.0
  0
LINE
  8
0
  6
CONTINUOUS
 62
     1
 10
212.5
 20
93.2
 30
0.0
 11
212.5
 21
92.3
 31
0.0
  0
LINE
  8
0
  6
CONTINUOUS
 62
     1
 10
204.0
 20
93.2
 30
0.0
 11
204.0
 21
92.3
 31
0.0
  0
LINE
  8
0
  6
CONTINUOUS
 62
     1
 10
204.0
 20
92.3
 30
0.0
 11
204.0
 21
88.2
 31
0.0
  0
LINE
  8
0
  6
CONTINUOUS
 62
     1
 10
212.5
 20
88.2
 30
0.0
 11
212.5
 21
92.3
 31
0.0
  0
LINE
  8
0
  6
CONTINUOUS
 62
     1
 10
205.25
 20
93.2
 30
0.0
 11
205.25
 21
97.3
 31
0.0
  0
LINE
  8
0
  6
CONTINUOUS
 62
     1
 10
211.25
 20
97.3
 30
0.0
 11
211.25
 21
93.2
 31
0.0
  0
LINE
  8
0
  6
CONTINUOUS
 62
     1
 10
212.5
 20
97.3
 30
0.0
 11
204.0
 21
97.3
 31
0.0
  0
LINE
  8
0
  6
CONTINUOUS
 62
     1
 10
204.0
 20
98.2
 30
0.0
 11
212.5
 21
98.2
 31
0.0
  0
LINE
  8
0
  6
CONTINUOUS
 62
     1
 10
212.5
 20
98.2
 30
0.0
 11
212.5
 21
97.3
 31
0.0
  0
LINE
  8
0
  6
CONTINUOUS
 62
     1
 10
204.0
 20
98.2
 30
0.0
 11
204.0
 21
97.3
 31
0.0
  0
LINE
  8
0
  6
CONTINUOUS
 62
     1
 10
204.0
 20
97.3
 30
0.0
 11
204.0
 21
93.2
 31
0.0
  0
LINE
  8
0
  6
CONTINUOUS
 62
     1
 10
212.5
 20
93.2
 30
0.0
 11
212.5
 21
97.3
 31
0.0
  0
LINE
  8
0
  6
CONTINUOUS
 62
     1
 10
204.0
 20
68.2
 30
0.0
 11
212.5
 21
68.2
 31
0.0
  0
LINE
  8
0
  6
CONTINUOUS
 62
     1
 10
205.25
 20
102.3
 30
0.0
 11
205.25
 21
98.2
 31
0.0
  0
LINE
  8
0
  6
CONTINUOUS
 62
     1
 10
211.25
 20
98.2
 30
0.0
 11
211.25
 21
102.3
 31
0.0
  0
LINE
  8
0
  6
CONTINUOUS
 62
     1
 10
204.0
 20
102.3
 30
0.0
 11
212.5
 21
102.3
 31
0.0
  0
LINE
  8
0
  6
CONTINUOUS
 62
     1
 10
204.0
 20
98.2
 30
0.0
 11
204.0
 21
102.3
 31
0.0
  0
LINE
  8
0
  6
CONTINUOUS
 62
     1
 10
212.5
 20
102.3
 30
0.0
 11
212.5
 21
98.2
 31
0.0
  0
LINE
  8
0
  6
CONTINUOUS
 62
     1
 10
205.25
 20
98.2
 30
0.0
 11
205.25
 21
102.3
 31
0.0
  0
LINE
  8
0
  6
CONTINUOUS
 62
     1
 10
212.5
 20
67.3
 30
0.0
 11
204.0
 21
67.3
 31
0.0
  0
LINE
  8
0
  6
CONTINUOUS
 62
     2
 10
206.5
 20
63.45
 30
0.0
 11
206.5
 21
64.0
 31
0.0
  0
LINE
  8
0
  6
CONTINUOUS
 62
     2
 10
206.5
 20
63.45
 30
0.0
 11
206.75
 21
63.2
 31
0.0
  0
LINE
  8
0
  6
CONTINUOUS
 62
     2
 10
206.5
 20
66.5
 30
0.0
 11
206.5
 21
67.05
 31
0.0
  0
LINE
  8
0
  6
CONTINUOUS
 62
     2
 10
206.5
 20
67.05
 30
0.0
 11
206.75
 21
67.3
 31
0.0
  0
LINE
  8
0
  6
CONTINUOUS
 62
     2
 10
210.0
 20
66.5
 30
0.0
 11
210.0
 21
67.05
 31
0.0
  0
LINE
  8
0
  6
CONTINUOUS
 62
     2
 10
209.75
 20
67.3
 30
0.0
 11
210.0
 21
67.05
 31
0.0
  0
LINE
  8
0
  6
CONTINUOUS
 62
     2
 10
210.0
 20
63.45
 30
0.0
 11
210.0
 21
64.0
 31
0.0
  0
LINE
  8
0
  6
CONTINUOUS
 62
     2
 10
206.75
 20
63.2
 30
0.0
 11
209.75
 21
63.2
 31
0.0
  0
LINE
  8
0
  6
CONTINUOUS
 62
     2
 10
210.0
 20
63.45
 30
0.0
 11
209.75
 21
63.2
 31
0.0
  0
LINE
  8
0
  6
CONTINUOUS
 62
     2
 10
206.1
 20
64.0
 30
0.0
 11
206.5
 21
64.0
 31
0.0
  0
LINE
  8
0
  6
CONTINUOUS
 62
     2
 10
206.1
 20
64.0
 30
0.0
 11
206.1
 21
66.5
 31
0.0
  0
LINE
  8
0
  6
CONTINUOUS
 62
     2
 10
206.1
 20
66.5
 30
0.0
 11
206.5
 21
66.5
 31
0.0
  0
LINE
  8
0
  6
CONTINUOUS
 62
     2
 10
210.4
 20
64.0
 30
0.0
 11
210.0
 21
64.0
 31
0.0
  0
LINE
  8
0
  6
CONTINUOUS
 62
     2
 10
210.4
 20
64.0
 30
0.0
 11
210.4
 21
66.5
 31
0.0
  0
LINE
  8
0
  6
CONTINUOUS
 62
     2
 10
210.4
 20
66.5
 30
0.0
 11
210.0
 21
66.5
 31
0.0
  0
LINE
  8
0
  6
CONTINUOUS
 62
     2
 10
210.4
 20
66.6
 30
0.0
 11
210.0
 21
66.6
 31
0.0
  0
ARC
  8
0
  6
CONTINUOUS
 62
     2
 10
210.4
 20
66.5
 30
0.0
 40
0.1
 50
0.0
 51
90.0
  0
LINE
  8
0
  6
CONTINUOUS
 62
     2
 10
210.0
 20
63.9
 30
0.0
 11
210.4
 21
63.9
 31
0.0
  0
LINE
  8
0
  6
CONTINUOUS
 62
     2
 10
210.5
 20
64.0
 30
0.0
 11
210.5
 21
66.5
 31
0.0
  0
ARC
  8
0
  6
CONTINUOUS
 62
     2
 10
210.4
 20
64.0
 30
0.0
 40
0.1
 50
270.0
 51
0.0
  0
LINE
  8
0
  6
CONTINUOUS
 62
     2
 10
206.1
 20
66.6
 30
0.0
 11
206.5
 21
66.6
 31
0.0
  0
ARC
  8
0
  6
CONTINUOUS
 62
     2
 10
206.1
 20
66.5
 30
0.0
 40
0.1
 50
90.0
 51
180.0
  0
LINE
  8
0
  6
CONTINUOUS
 62
     2
 10
206.5
 20
63.9
 30
0.0
 11
206.1
 21
63.9
 31
0.0
  0
ARC
  8
0
  6
CONTINUOUS
 62
     2
 10
206.1
 20
64.0
 30
0.0
 40
0.1
 50
180.0
 51
270.0
  0
LINE
  8
0
  6
CONTINUOUS
 62
     2
 10
206.0
 20
64.0
 30
0.0
 11
206.0
 21
66.5
 31
0.0
  0
LINE
  8
0
  6
CONTINUOUS
 62
     2
 10
206.5
 20
68.45
 30
0.0
 11
206.5
 21
69.0
 31
0.0
  0
LINE
  8
0
  6
CONTINUOUS
 62
     2
 10
206.5
 20
68.45
 30
0.0
 11
206.75
 21
68.2
 31
0.0
  0
LINE
  8
0
  6
CONTINUOUS
 62
     2
 10
206.5
 20
71.5
 30
0.0
 11
206.5
 21
72.05
 31
0.0
  0
LINE
  8
0
  6
CONTINUOUS
 62
     2
 10
206.5
 20
72.05
 30
0.0
 11
206.75
 21
72.3
 31
0.0
  0
LINE
  8
0
  6
CONTINUOUS
 62
     2
 10
209.75
 20
72.3
 30
0.0
 11
206.75
 21
72.3
 31
0.0
  0
LINE
  8
0
  6
CONTINUOUS
 62
     2
 10
210.0
 20
71.5
 30
0.0
 11
210.0
 21
72.05
 31
0.0
  0
LINE
  8
0
  6
CONTINUOUS
 62
     2
 10
209.75
 20
72.3
 30
0.0
 11
210.0
 21
72.05
 31
0.0
  0
LINE
  8
0
  6
CONTINUOUS
 62
     2
 10
210.0
 20
68.45
 30
0.0
 11
210.0
 21
69.0
 31
0.0
  0
LINE
  8
0
  6
CONTINUOUS
 62
     2
 10
206.75
 20
68.2
 30
0.0
 11
209.75
 21
68.2
 31
0.0
  0
LINE
  8
0
  6
CONTINUOUS
 62
     2
 10
210.0
 20
68.45
 30
0.0
 11
209.75
 21
68.2
 31
0.0
  0
LINE
  8
0
  6
CONTINUOUS
 62
     2
 10
206.1
 20
69.0
 30
0.0
 11
206.5
 21
69.0
 31
0.0
  0
LINE
  8
0
  6
CONTINUOUS
 62
     2
 10
206.1
 20
69.0
 30
0.0
 11
206.1
 21
71.5
 31
0.0
  0
LINE
  8
0
  6
CONTINUOUS
 62
     2
 10
206.1
 20
71.5
 30
0.0
 11
206.5
 21
71.5
 31
0.0
  0
LINE
  8
0
  6
CONTINUOUS
 62
     2
 10
210.4
 20
69.0
 30
0.0
 11
210.0
 21
69.0
 31
0.0
  0
LINE
  8
0
  6
CONTINUOUS
 62
     2
 10
210.4
 20
69.0
 30
0.0
 11
210.4
 21
71.5
 31
0.0
  0
LINE
  8
0
  6
CONTINUOUS
 62
     2
 10
210.4
 20
71.5
 30
0.0
 11
210.0
 21
71.5
 31
0.0
  0
LINE
  8
0
  6
CONTINUOUS
 62
     2
 10
210.4
 20
71.6
 30
0.0
 11
210.0
 21
71.6
 31
0.0
  0
ARC
  8
0
  6
CONTINUOUS
 62
     2
 10
210.4
 20
71.5
 30
0.0
 40
0.1
 50
0.0
 51
90.0
  0
LINE
  8
0
  6
CONTINUOUS
 62
     2
 10
210.0
 20
68.9
 30
0.0
 11
210.4
 21
68.9
 31
0.0
  0
LINE
  8
0
  6
CONTINUOUS
 62
     2
 10
210.5
 20
69.0
 30
0.0
 11
210.5
 21
71.5
 31
0.0
  0
ARC
  8
0
  6
CONTINUOUS
 62
     2
 10
210.4
 20
69.0
 30
0.0
 40
0.1
 50
270.0
 51
0.0
  0
LINE
  8
0
  6
CONTINUOUS
 62
     2
 10
206.1
 20
71.6
 30
0.0
 11
206.5
 21
71.6
 31
0.0
  0
ARC
  8
0
  6
CONTINUOUS
 62
     2
 10
206.1
 20
71.5
 30
0.0
 40
0.1
 50
90.0
 51
180.0
  0
LINE
  8
0
  6
CONTINUOUS
 62
     2
 10
206.5
 20
68.9
 30
0.0
 11
206.1
 21
68.9
 31
0.0
  0
ARC
  8
0
  6
CONTINUOUS
 62
     2
 10
206.1
 20
69.0
 30
0.0
 40
0.1
 50
180.0
 51
270.0
  0
LINE
  8
0
  6
CONTINUOUS
 62
     2
 10
206.0
 20
69.0
 30
0.0
 11
206.0
 21
71.5
 31
0.0
  0
LINE
  8
0
  6
CONTINUOUS
 62
     2
 10
206.5
 20
73.45
 30
0.0
 11
206.5
 21
74.0
 31
0.0
  0
LINE
  8
0
  6
CONTINUOUS
 62
     2
 10
206.5
 20
73.45
 30
0.0
 11
206.75
 21
73.2
 31
0.0
  0
LINE
  8
0
  6
CONTINUOUS
 62
     2
 10
206.5
 20
76.5
 30
0.0
 11
206.5
 21
77.05
 31
0.0
  0
LINE
  8
0
  6
CONTINUOUS
 62
     2
 10
206.5
 20
77.05
 30
0.0
 11
206.75
 21
77.3
 31
0.0
  0
LINE
  8
0
  6
CONTINUOUS
 62
     2
 10
209.75
 20
77.3
 30
0.0
 11
206.75
 21
77.3
 31
0.0
  0
LINE
  8
0
  6
CONTINUOUS
 62
     2
 10
210.0
 20
76.5
 30
0.0
 11
210.0
 21
77.05
 31
0.0
  0
LINE
  8
0
  6
CONTINUOUS
 62
     2
 10
209.75
 20
77.3
 30
0.0
 11
210.0
 21
77.05
 31
0.0
  0
LINE
  8
0
  6
CONTINUOUS
 62
     2
 10
210.0
 20
73.45
 30
0.0
 11
210.0
 21
74.0
 31
0.0
  0
LINE
  8
0
  6
CONTINUOUS
 62
     2
 10
206.75
 20
73.2
 30
0.0
 11
209.75
 21
73.2
 31
0.0
  0
LINE
  8
0
  6
CONTINUOUS
 62
     2
 10
210.0
 20
73.45
 30
0.0
 11
209.75
 21
73.2
 31
0.0
  0
LINE
  8
0
  6
CONTINUOUS
 62
     2
 10
206.1
 20
74.0
 30
0.0
 11
206.5
 21
74.0
 31
0.0
  0
LINE
  8
0
  6
CONTINUOUS
 62
     2
 10
206.1
 20
74.0
 30
0.0
 11
206.1
 21
76.5
 31
0.0
  0
LINE
  8
0
  6
CONTINUOUS
 62
     2
 10
206.1
 20
76.5
 30
0.0
 11
206.5
 21
76.5
 31
0.0
  0
LINE
  8
0
  6
CONTINUOUS
 62
     2
 10
210.4
 20
74.0
 30
0.0
 11
210.0
 21
74.0
 31
0.0
  0
LINE
  8
0
  6
CONTINUOUS
 62
     2
 10
210.4
 20
74.0
 30
0.0
 11
210.4
 21
76.5
 31
0.0
  0
LINE
  8
0
  6
CONTINUOUS
 62
     2
 10
210.4
 20
76.5
 30
0.0
 11
210.0
 21
76.5
 31
0.0
  0
LINE
  8
0
  6
CONTINUOUS
 62
     2
 10
210.4
 20
76.6
 30
0.0
 11
210.0
 21
76.6
 31
0.0
  0
ARC
  8
0
  6
CONTINUOUS
 62
     2
 10
210.4
 20
76.5
 30
0.0
 40
0.1
 50
0.0
 51
90.0
  0
LINE
  8
0
  6
CONTINUOUS
 62
     2
 10
210.0
 20
73.9
 30
0.0
 11
210.4
 21
73.9
 31
0.0
  0
LINE
  8
0
  6
CONTINUOUS
 62
     2
 10
210.5
 20
74.0
 30
0.0
 11
210.5
 21
76.5
 31
0.0
  0
ARC
  8
0
  6
CONTINUOUS
 62
     2
 10
210.4
 20
74.0
 30
0.0
 40
0.1
 50
270.0
 51
0.0
  0
LINE
  8
0
  6
CONTINUOUS
 62
     2
 10
206.1
 20
76.6
 30
0.0
 11
206.5
 21
76.6
 31
0.0
  0
ARC
  8
0
  6
CONTINUOUS
 62
     2
 10
206.1
 20
76.5
 30
0.0
 40
0.1
 50
90.0
 51
180.0
  0
LINE
  8
0
  6
CONTINUOUS
 62
     2
 10
206.5
 20
73.9
 30
0.0
 11
206.1
 21
73.9
 31
0.0
  0
ARC
  8
0
  6
CONTINUOUS
 62
     2
 10
206.1
 20
74.0
 30
0.0
 40
0.1
 50
180.0
 51
270.0
  0
LINE
  8
0
  6
CONTINUOUS
 62
     2
 10
206.0
 20
74.0
 30
0.0
 11
206.0
 21
76.5
 31
0.0
  0
LINE
  8
0
  6
CONTINUOUS
 62
     2
 10
206.5
 20
78.45
 30
0.0
 11
206.5
 21
79.0
 31
0.0
  0
LINE
  8
0
  6
CONTINUOUS
 62
     2
 10
206.5
 20
78.45
 30
0.0
 11
206.75
 21
78.2
 31
0.0
  0
LINE
  8
0
  6
CONTINUOUS
 62
     2
 10
206.5
 20
81.5
 30
0.0
 11
206.5
 21
82.05
 31
0.0
  0
LINE
  8
0
  6
CONTINUOUS
 62
     2
 10
206.5
 20
82.05
 30
0.0
 11
206.75
 21
82.3
 31
0.0
  0
LINE
  8
0
  6
CONTINUOUS
 62
     2
 10
209.75
 20
82.3
 30
0.0
 11
206.75
 21
82.3
 31
0.0
  0
LINE
  8
0
  6
CONTINUOUS
 62
     2
 10
210.0
 20
81.5
 30
0.0
 11
210.0
 21
82.05
 31
0.0
  0
LINE
  8
0
  6
CONTINUOUS
 62
     2
 10
209.75
 20
82.3
 30
0.0
 11
210.0
 21
82.05
 31
0.0
  0
LINE
  8
0
  6
CONTINUOUS
 62
     2
 10
210.0
 20
78.45
 30
0.0
 11
210.0
 21
79.0
 31
0.0
  0
LINE
  8
0
  6
CONTINUOUS
 62
     2
 10
206.75
 20
78.2
 30
0.0
 11
209.75
 21
78.2
 31
0.0
  0
LINE
  8
0
  6
CONTINUOUS
 62
     2
 10
210.0
 20
78.45
 30
0.0
 11
209.75
 21
78.2
 31
0.0
  0
LINE
  8
0
  6
CONTINUOUS
 62
     2
 10
206.1
 20
79.0
 30
0.0
 11
206.5
 21
79.0
 31
0.0
  0
LINE
  8
0
  6
CONTINUOUS
 62
     2
 10
206.1
 20
79.0
 30
0.0
 11
206.1
 21
81.5
 31
0.0
  0
LINE
  8
0
  6
CONTINUOUS
 62
     2
 10
206.1
 20
81.5
 30
0.0
 11
206.5
 21
81.5
 31
0.0
  0
LINE
  8
0
  6
CONTINUOUS
 62
     2
 10
210.4
 20
79.0
 30
0.0
 11
210.0
 21
79.0
 31
0.0
  0
LINE
  8
0
  6
CONTINUOUS
 62
     2
 10
210.4
 20
79.0
 30
0.0
 11
210.4
 21
81.5
 31
0.0
  0
LINE
  8
0
  6
CONTINUOUS
 62
     2
 10
210.4
 20
81.5
 30
0.0
 11
210.0
 21
81.5
 31
0.0
  0
LINE
  8
0
  6
CONTINUOUS
 62
     2
 10
210.4
 20
81.6
 30
0.0
 11
210.0
 21
81.6
 31
0.0
  0
ARC
  8
0
  6
CONTINUOUS
 62
     2
 10
210.4
 20
81.5
 30
0.0
 40
0.1
 50
0.0
 51
90.0
  0
LINE
  8
0
  6
CONTINUOUS
 62
     2
 10
210.0
 20
78.9
 30
0.0
 11
210.4
 21
78.9
 31
0.0
  0
LINE
  8
0
  6
CONTINUOUS
 62
     2
 10
210.5
 20
79.0
 30
0.0
 11
210.5
 21
81.5
 31
0.0
  0
ARC
  8
0
  6
CONTINUOUS
 62
     2
 10
210.4
 20
79.0
 30
0.0
 40
0.1
 50
270.0
 51
0.0
  0
LINE
  8
0
  6
CONTINUOUS
 62
     2
 10
206.1
 20
81.6
 30
0.0
 11
206.5
 21
81.6
 31
0.0
  0
ARC
  8
0
  6
CONTINUOUS
 62
     2
 10
206.1
 20
81.5
 30
0.0
 40
0.1
 50
90.0
 51
180.0
  0
LINE
  8
0
  6
CONTINUOUS
 62
     2
 10
206.5
 20
78.9
 30
0.0
 11
206.1
 21
78.9
 31
0.0
  0
ARC
  8
0
  6
CONTINUOUS
 62
     2
 10
206.1
 20
79.0
 30
0.0
 40
0.1
 50
180.0
 51
270.0
  0
LINE
  8
0
  6
CONTINUOUS
 62
     2
 10
206.0
 20
79.0
 30
0.0
 11
206.0
 21
81.5
 31
0.0
  0
LINE
  8
0
  6
CONTINUOUS
 62
     2
 10
206.5
 20
83.45
 30
0.0
 11
206.5
 21
84.0
 31
0.0
  0
LINE
  8
0
  6
CONTINUOUS
 62
     2
 10
206.5
 20
83.45
 30
0.0
 11
206.75
 21
83.2
 31
0.0
  0
LINE
  8
0
  6
CONTINUOUS
 62
     2
 10
206.5
 20
86.5
 30
0.0
 11
206.5
 21
87.05
 31
0.0
  0
LINE
  8
0
  6
CONTINUOUS
 62
     2
 10
206.5
 20
87.05
 30
0.0
 11
206.75
 21
87.3
 31
0.0
  0
LINE
  8
0
  6
CONTINUOUS
 62
     2
 10
209.75
 20
87.3
 30
0.0
 11
206.75
 21
87.3
 31
0.0
  0
LINE
  8
0
  6
CONTINUOUS
 62
     2
 10
210.0
 20
86.5
 30
0.0
 11
210.0
 21
87.05
 31
0.0
  0
LINE
  8
0
  6
CONTINUOUS
 62
     2
 10
209.75
 20
87.3
 30
0.0
 11
210.0
 21
87.05
 31
0.0
  0
LINE
  8
0
  6
CONTINUOUS
 62
     2
 10
210.0
 20
83.45
 30
0.0
 11
210.0
 21
84.0
 31
0.0
  0
LINE
  8
0
  6
CONTINUOUS
 62
     2
 10
206.75
 20
83.2
 30
0.0
 11
209.75
 21
83.2
 31
0.0
  0
LINE
  8
0
  6
CONTINUOUS
 62
     2
 10
210.0
 20
83.45
 30
0.0
 11
209.75
 21
83.2
 31
0.0
  0
LINE
  8
0
  6
CONTINUOUS
 62
     2
 10
206.1
 20
84.0
 30
0.0
 11
206.5
 21
84.0
 31
0.0
  0
LINE
  8
0
  6
CONTINUOUS
 62
     2
 10
206.1
 20
84.0
 30
0.0
 11
206.1
 21
86.5
 31
0.0
  0
LINE
  8
0
  6
CONTINUOUS
 62
     2
 10
206.1
 20
86.5
 30
0.0
 11
206.5
 21
86.5
 31
0.0
  0
LINE
  8
0
  6
CONTINUOUS
 62
     2
 10
210.4
 20
84.0
 30
0.0
 11
210.0
 21
84.0
 31
0.0
  0
LINE
  8
0
  6
CONTINUOUS
 62
     2
 10
210.4
 20
84.0
 30
0.0
 11
210.4
 21
86.5
 31
0.0
  0
LINE
  8
0
  6
CONTINUOUS
 62
     2
 10
210.4
 20
86.5
 30
0.0
 11
210.0
 21
86.5
 31
0.0
  0
LINE
  8
0
  6
CONTINUOUS
 62
     2
 10
210.4
 20
86.6
 30
0.0
 11
210.0
 21
86.6
 31
0.0
  0
ARC
  8
0
  6
CONTINUOUS
 62
     2
 10
210.4
 20
86.5
 30
0.0
 40
0.1
 50
0.0
 51
90.0
  0
LINE
  8
0
  6
CONTINUOUS
 62
     2
 10
210.0
 20
83.9
 30
0.0
 11
210.4
 21
83.9
 31
0.0
  0
LINE
  8
0
  6
CONTINUOUS
 62
     2
 10
210.5
 20
84.0
 30
0.0
 11
210.5
 21
86.5
 31
0.0
  0
ARC
  8
0
  6
CONTINUOUS
 62
     2
 10
210.4
 20
84.0
 30
0.0
 40
0.1
 50
270.0
 51
0.0
  0
LINE
  8
0
  6
CONTINUOUS
 62
     2
 10
206.1
 20
86.6
 30
0.0
 11
206.5
 21
86.6
 31
0.0
  0
ARC
  8
0
  6
CONTINUOUS
 62
     2
 10
206.1
 20
86.5
 30
0.0
 40
0.1
 50
90.0
 51
180.0
  0
LINE
  8
0
  6
CONTINUOUS
 62
     2
 10
206.5
 20
83.9
 30
0.0
 11
206.1
 21
83.9
 31
0.0
  0
ARC
  8
0
  6
CONTINUOUS
 62
     2
 10
206.1
 20
84.0
 30
0.0
 40
0.1
 50
180.0
 51
270.0
  0
LINE
  8
0
  6
CONTINUOUS
 62
     2
 10
206.0
 20
84.0
 30
0.0
 11
206.0
 21
86.5
 31
0.0
  0
LINE
  8
0
  6
CONTINUOUS
 62
     2
 10
206.5
 20
88.45
 30
0.0
 11
206.5
 21
89.0
 31
0.0
  0
LINE
  8
0
  6
CONTINUOUS
 62
     2
 10
206.5
 20
88.45
 30
0.0
 11
206.75
 21
88.2
 31
0.0
  0
LINE
  8
0
  6
CONTINUOUS
 62
     2
 10
206.5
 20
91.5
 30
0.0
 11
206.5
 21
92.05
 31
0.0
  0
LINE
  8
0
  6
CONTINUOUS
 62
     2
 10
206.5
 20
92.05
 30
0.0
 11
206.75
 21
92.3
 31
0.0
  0
LINE
  8
0
  6
CONTINUOUS
 62
     2
 10
209.75
 20
92.3
 30
0.0
 11
206.75
 21
92.3
 31
0.0
  0
LINE
  8
0
  6
CONTINUOUS
 62
     2
 10
210.0
 20
91.5
 30
0.0
 11
210.0
 21
92.05
 31
0.0
  0
LINE
  8
0
  6
CONTINUOUS
 62
     2
 10
209.75
 20
92.3
 30
0.0
 11
210.0
 21
92.05
 31
0.0
  0
LINE
  8
0
  6
CONTINUOUS
 62
     2
 10
210.0
 20
88.45
 30
0.0
 11
210.0
 21
89.0
 31
0.0
  0
LINE
  8
0
  6
CONTINUOUS
 62
     2
 10
206.75
 20
88.2
 30
0.0
 11
209.75
 21
88.2
 31
0.0
  0
LINE
  8
0
  6
CONTINUOUS
 62
     2
 10
210.0
 20
88.45
 30
0.0
 11
209.75
 21
88.2
 31
0.0
  0
LINE
  8
0
  6
CONTINUOUS
 62
     2
 10
206.1
 20
89.0
 30
0.0
 11
206.5
 21
89.0
 31
0.0
  0
LINE
  8
0
  6
CONTINUOUS
 62
     2
 10
206.1
 20
89.0
 30
0.0
 11
206.1
 21
91.5
 31
0.0
  0
LINE
  8
0
  6
CONTINUOUS
 62
     2
 10
206.1
 20
91.5
 30
0.0
 11
206.5
 21
91.5
 31
0.0
  0
LINE
  8
0
  6
CONTINUOUS
 62
     2
 10
210.4
 20
89.0
 30
0.0
 11
210.0
 21
89.0
 31
0.0
  0
LINE
  8
0
  6
CONTINUOUS
 62
     2
 10
210.4
 20
89.0
 30
0.0
 11
210.4
 21
91.5
 31
0.0
  0
LINE
  8
0
  6
CONTINUOUS
 62
     2
 10
210.4
 20
91.5
 30
0.0
 11
210.0
 21
91.5
 31
0.0
  0
LINE
  8
0
  6
CONTINUOUS
 62
     2
 10
210.4
 20
91.6
 30
0.0
 11
210.0
 21
91.6
 31
0.0
  0
ARC
  8
0
  6
CONTINUOUS
 62
     2
 10
210.4
 20
91.5
 30
0.0
 40
0.1
 50
0.0
 51
90.0
  0
LINE
  8
0
  6
CONTINUOUS
 62
     2
 10
210.0
 20
88.9
 30
0.0
 11
210.4
 21
88.9
 31
0.0
  0
LINE
  8
0
  6
CONTINUOUS
 62
     2
 10
210.5
 20
89.0
 30
0.0
 11
210.5
 21
91.5
 31
0.0
  0
ARC
  8
0
  6
CONTINUOUS
 62
     2
 10
210.4
 20
89.0
 30
0.0
 40
0.1
 50
270.0
 51
0.0
  0
LINE
  8
0
  6
CONTINUOUS
 62
     2
 10
206.1
 20
91.6
 30
0.0
 11
206.5
 21
91.6
 31
0.0
  0
ARC
  8
0
  6
CONTINUOUS
 62
     2
 10
206.1
 20
91.5
 30
0.0
 40
0.1
 50
90.0
 51
180.0
  0
LINE
  8
0
  6
CONTINUOUS
 62
     2
 10
206.5
 20
88.9
 30
0.0
 11
206.1
 21
88.9
 31
0.0
  0
ARC
  8
0
  6
CONTINUOUS
 62
     2
 10
206.1
 20
89.0
 30
0.0
 40
0.1
 50
180.0
 51
270.0
  0
LINE
  8
0
  6
CONTINUOUS
 62
     2
 10
206.0
 20
89.0
 30
0.0
 11
206.0
 21
91.5
 31
0.0
  0
LINE
  8
0
  6
CONTINUOUS
 62
     2
 10
206.5
 20
93.45
 30
0.0
 11
206.5
 21
94.0
 31
0.0
  0
LINE
  8
0
  6
CONTINUOUS
 62
     2
 10
206.5
 20
93.45
 30
0.0
 11
206.75
 21
93.2
 31
0.0
  0
LINE
  8
0
  6
CONTINUOUS
 62
     2
 10
206.5
 20
96.5
 30
0.0
 11
206.5
 21
97.05
 31
0.0
  0
LINE
  8
0
  6
CONTINUOUS
 62
     2
 10
206.5
 20
97.05
 30
0.0
 11
206.75
 21
97.3
 31
0.0
  0
LINE
  8
0
  6
CONTINUOUS
 62
     2
 10
209.75
 20
97.3
 30
0.0
 11
206.75
 21
97.3
 31
0.0
  0
LINE
  8
0
  6
CONTINUOUS
 62
     2
 10
210.0
 20
96.5
 30
0.0
 11
210.0
 21
97.05
 31
0.0
  0
LINE
  8
0
  6
CONTINUOUS
 62
     2
 10
209.75
 20
97.3
 30
0.0
 11
210.0
 21
97.05
 31
0.0
  0
LINE
  8
0
  6
CONTINUOUS
 62
     2
 10
210.0
 20
93.45
 30
0.0
 11
210.0
 21
94.0
 31
0.0
  0
LINE
  8
0
  6
CONTINUOUS
 62
     2
 10
206.75
 20
93.2
 30
0.0
 11
209.75
 21
93.2
 31
0.0
  0
LINE
  8
0
  6
CONTINUOUS
 62
     2
 10
210.0
 20
93.45
 30
0.0
 11
209.75
 21
93.2
 31
0.0
  0
LINE
  8
0
  6
CONTINUOUS
 62
     2
 10
206.1
 20
94.0
 30
0.0
 11
206.5
 21
94.0
 31
0.0
  0
LINE
  8
0
  6
CONTINUOUS
 62
     2
 10
206.1
 20
94.0
 30
0.0
 11
206.1
 21
96.5
 31
0.0
  0
LINE
  8
0
  6
CONTINUOUS
 62
     2
 10
206.1
 20
96.5
 30
0.0
 11
206.5
 21
96.5
 31
0.0
  0
LINE
  8
0
  6
CONTINUOUS
 62
     2
 10
210.4
 20
94.0
 30
0.0
 11
210.0
 21
94.0
 31
0.0
  0
LINE
  8
0
  6
CONTINUOUS
 62
     2
 10
210.4
 20
94.0
 30
0.0
 11
210.4
 21
96.5
 31
0.0
  0
LINE
  8
0
  6
CONTINUOUS
 62
     2
 10
210.4
 20
96.5
 30
0.0
 11
210.0
 21
96.5
 31
0.0
  0
LINE
  8
0
  6
CONTINUOUS
 62
     2
 10
210.4
 20
96.6
 30
0.0
 11
210.0
 21
96.6
 31
0.0
  0
ARC
  8
0
  6
CONTINUOUS
 62
     2
 10
210.4
 20
96.5
 30
0.0
 40
0.1
 50
0.0
 51
90.0
  0
LINE
  8
0
  6
CONTINUOUS
 62
     2
 10
210.0
 20
93.9
 30
0.0
 11
210.4
 21
93.9
 31
0.0
  0
LINE
  8
0
  6
CONTINUOUS
 62
     2
 10
210.5
 20
94.0
 30
0.0
 11
210.5
 21
96.5
 31
0.0
  0
ARC
  8
0
  6
CONTINUOUS
 62
     2
 10
210.4
 20
94.0
 30
0.0
 40
0.1
 50
270.0
 51
0.0
  0
LINE
  8
0
  6
CONTINUOUS
 62
     2
 10
206.1
 20
96.6
 30
0.0
 11
206.5
 21
96.6
 31
0.0
  0
ARC
  8
0
  6
CONTINUOUS
 62
     2
 10
206.1
 20
96.5
 30
0.0
 40
0.1
 50
90.0
 51
180.0
  0
LINE
  8
0
  6
CONTINUOUS
 62
     2
 10
206.5
 20
93.9
 30
0.0
 11
206.1
 21
93.9
 31
0.0
  0
ARC
  8
0
  6
CONTINUOUS
 62
     2
 10
206.1
 20
94.0
 30
0.0
 40
0.1
 50
180.0
 51
270.0
  0
LINE
  8
0
  6
CONTINUOUS
 62
     2
 10
206.0
 20
94.0
 30
0.0
 11
206.0
 21
96.5
 31
0.0
  0
LINE
  8
0
  6
CONTINUOUS
 62
     2
 10
206.5
 20
102.05
 30
0.0
 11
206.5
 21
101.5
 31
0.0
  0
LINE
  8
0
  6
CONTINUOUS
 62
     2
 10
206.5
 20
102.05
 30
0.0
 11
206.75
 21
102.3
 31
0.0
  0
LINE
  8
0
  6
CONTINUOUS
 62
     2
 10
206.5
 20
99.0
 30
0.0
 11
206.5
 21
98.45
 31
0.0
  0
LINE
  8
0
  6
CONTINUOUS
 62
     2
 10
206.5
 20
98.45
 30
0.0
 11
206.75
 21
98.2
 31
0.0
  0
LINE
  8
0
  6
CONTINUOUS
 62
     2
 10
209.75
 20
98.2
 30
0.0
 11
206.75
 21
98.2
 31
0.0
  0
LINE
  8
0
  6
CONTINUOUS
 62
     2
 10
210.0
 20
99.0
 30
0.0
 11
210.0
 21
98.45
 31
0.0
  0
LINE
  8
0
  6
CONTINUOUS
 62
     2
 10
209.75
 20
98.2
 30
0.0
 11
210.0
 21
98.45
 31
0.0
  0
LINE
  8
0
  6
CONTINUOUS
 62
     2
 10
210.0
 20
102.05
 30
0.0
 11
210.0
 21
101.5
 31
0.0
  0
LINE
  8
0
  6
CONTINUOUS
 62
     2
 10
206.75
 20
102.3
 30
0.0
 11
209.75
 21
102.3
 31
0.0
  0
LINE
  8
0
  6
CONTINUOUS
 62
     2
 10
210.0
 20
102.05
 30
0.0
 11
209.75
 21
102.3
 31
0.0
  0
LINE
  8
0
  6
CONTINUOUS
 62
     2
 10
206.1
 20
101.5
 30
0.0
 11
206.5
 21
101.5
 31
0.0
  0
LINE
  8
0
  6
CONTINUOUS
 62
     2
 10
206.1
 20
101.5
 30
0.0
 11
206.1
 21
99.0
 31
0.0
  0
LINE
  8
0
  6
CONTINUOUS
 62
     2
 10
206.1
 20
99.0
 30
0.0
 11
206.5
 21
99.0
 31
0.0
  0
LINE
  8
0
  6
CONTINUOUS
 62
     2
 10
210.4
 20
101.5
 30
0.0
 11
210.0
 21
101.5
 31
0.0
  0
LINE
  8
0
  6
CONTINUOUS
 62
     2
 10
210.4
 20
101.5
 30
0.0
 11
210.4
 21
99.0
 31
0.0
  0
LINE
  8
0
  6
CONTINUOUS
 62
     2
 10
210.4
 20
99.0
 30
0.0
 11
210.0
 21
99.0
 31
0.0
  0
LINE
  8
0
  6
CONTINUOUS
 62
     2
 10
210.4
 20
98.9
 30
0.0
 11
210.0
 21
98.9
 31
0.0
  0
ARC
  8
0
  6
CONTINUOUS
 62
     2
 10
210.4
 20
99.0
 30
0.0
 40
0.1
 50
270.0
 51
0.0
  0
LINE
  8
0
  6
CONTINUOUS
 62
     2
 10
210.0
 20
101.6
 30
0.0
 11
210.4
 21
101.6
 31
0.0
  0
LINE
  8
0
  6
CONTINUOUS
 62
     2
 10
210.5
 20
101.5
 30
0.0
 11
210.5
 21
99.0
 31
0.0
  0
ARC
  8
0
  6
CONTINUOUS
 62
     2
 10
210.4
 20
101.5
 30
0.0
 40
0.1
 50
0.0
 51
90.0
  0
LINE
  8
0
  6
CONTINUOUS
 62
     2
 10
206.1
 20
98.9
 30
0.0
 11
206.5
 21
98.9
 31
0.0
  0
ARC
  8
0
  6
CONTINUOUS
 62
     2
 10
206.1
 20
99.0
 30
0.0
 40
0.1
 50
180.0
 51
270.0
  0
LINE
  8
0
  6
CONTINUOUS
 62
     2
 10
206.5
 20
101.6
 30
0.0
 11
206.1
 21
101.6
 31
0.0
  0
ARC
  8
0
  6
CONTINUOUS
 62
     2
 10
206.1
 20
101.5
 30
0.0
 40
0.1
 50
90.0
 51
180.0
  0
LINE
  8
0
  6
CONTINUOUS
 62
     2
 10
206.0
 20
101.5
 30
0.0
 11
206.0
 21
99.0
 31
0.0
  0
LINE
  8
0
  6
CONTINUOUS
 62
     2
 10
209.75
 20
67.3
 30
0.0
 11
206.75
 21
67.3
 31
0.0
  0
LINE
  8
0
  6
LTYPE1
 62
     2
 10
208.25
 20
68.0
 30
0.0
 11
208.25
 21
72.5
 31
0.0
  0
LINE
  8
0
  6
LTYPE1
 62
     2
 10
206.0
 20
70.25
 30
0.0
 11
210.5
 21
70.25
 31
0.0
  0
LINE
  8
0
  6
LTYPE1
 62
     2
 10
208.25
 20
73.0
 30
0.0
 11
208.25
 21
77.5
 31
0.0
  0
LINE
  8
0
  6
LTYPE1
 62
     2
 10
206.0
 20
75.25
 30
0.0
 11
210.5
 21
75.25
 31
0.0
  0
LINE
  8
0
  6
LTYPE1
 62
     2
 10
208.25
 20
78.0
 30
0.0
 11
208.25
 21
82.5
 31
0.0
  0
LINE
  8
0
  6
LTYPE1
 62
     2
 10
206.0
 20
80.25
 30
0.0
 11
210.5
 21
80.25
 31
0.0
  0
LINE
  8
0
  6
LTYPE1
 62
     2
 10
208.25
 20
83.0
 30
0.0
 11
208.25
 21
87.5
 31
0.0
  0
LINE
  8
0
  6
LTYPE1
 62
     2
 10
206.0
 20
85.25
 30
0.0
 11
210.5
 21
85.25
 31
0.0
  0
LINE
  8
0
  6
LTYPE1
 62
     2
 10
208.25
 20
88.0
 30
0.0
 11
208.25
 21
92.5
 31
0.0
  0
LINE
  8
0
  6
LTYPE1
 62
     2
 10
206.0
 20
90.25
 30
0.0
 11
210.5
 21
90.25
 31
0.0
  0
LINE
  8
0
  6
LTYPE1
 62
     2
 10
208.25
 20
93.0
 30
0.0
 11
208.25
 21
97.5
 31
0.0
  0
LINE
  8
0
  6
LTYPE1
 62
     2
 10
206.0
 20
95.25
 30
0.0
 11
210.5
 21
95.25
 31
0.0
  0
LINE
  8
0
  6
LTYPE1
 62
     2
 10
208.25
 20
63.0
 30
0.0
 11
208.25
 21
67.5
 31
0.0
  0
LINE
  8
0
  6
LTYPE1
 62
     2
 10
206.0
 20
65.25
 30
0.0
 11
210.5
 21
65.25
 31
0.0
  0
LINE
  8
0
  6
LTYPE1
 62
     2
 10
206.0
 20
100.25
 30
0.0
 11
210.5
 21
100.25
 31
0.0
  0
LINE
  8
0
  6
CONTINUOUS
 62
     2
 10
213.0
 20
67.2
 30
0.0
 11
213.0
 21
98.3
 31
0.0
  0
LINE
  8
0
  6
CONTINUOUS
 62
     2
 10
213.0
 20
98.3
 30
0.0
 11
203.5
 21
98.3
 31
0.0
  0
LINE
  8
0
  6
CONTINUOUS
 62
     2
 10
203.5
 20
98.3
 30
0.0
 11
203.5
 21
67.2
 31
0.0
  0
LINE
  8
0
  6
CONTINUOUS
 62
     2
 10
203.5
 20
67.2
 30
0.0
 11
213.0
 21
67.2
 31
0.0
  0
CIRCLE
  8
0
  6
CONTINUOUS
 62
     2
 10
208.25
 20
100.25
 30
0.0
 40
1.5
  0
LINE
  8
0
  6
CONTINUOUS
 62
     2
 10
208.05
 20
99.375
 30
0.0
 11
208.05
 21
99.85
 31
0.0
  0
ARC
  8
0
  6
CONTINUOUS
 62
     2
 10
207.85
 20
99.85
 30
0.0
 40
0.2
 50
0.0
 51
90.0
  0
LINE
  8
0
  6
CONTINUOUS
 62
     2
 10
207.85
 20
100.05
 30
0.0
 11
207.375
 21
100.05
 31
0.0
  0
LINE
  8
0
  6
CONTINUOUS
 62
     2
 10
207.375
 20
100.05
 30
0.0
 11
207.375
 21
100.45
 31
0.0
  0
LINE
  8
0
  6
CONTINUOUS
 62
     2
 10
207.375
 20
100.45
 30
0.0
 11
207.85
 21
100.45
 31
0.0
  0
ARC
  8
0
  6
CONTINUOUS
 62
     2
 10
207.85
 20
100.65
 30
0.0
 40
0.2
 50
270.0
 51
0.0
  0
LINE
  8
0
  6
CONTINUOUS
 62
     2
 10
208.05
 20
100.65
 30
0.0
 11
208.05
 21
101.125
 31
0.0
  0
LINE
  8
0
  6
CONTINUOUS
 62
     2
 10
208.05
 20
101.125
 30
0.0
 11
208.45
 21
101.125
 31
0.0
  0
LINE
  8
0
  6
CONTINUOUS
 62
     2
 10
208.45
 20
101.125
 30
0.0
 11
208.45
 21
100.65
 31
0.0
  0
ARC
  8
0
  6
CONTINUOUS
 62
     2
 10
208.65
 20
100.65
 30
0.0
 40
0.2
 50
180.0
 51
270.0
  0
LINE
  8
0
  6
CONTINUOUS
 62
     2
 10
208.65
 20
100.45
 30
0.0
 11
209.125
 21
100.45
 31
0.0
  0
LINE
  8
0
  6
CONTINUOUS
 62
     2
 10
209.125
 20
100.45
 30
0.0
 11
209.125
 21
100.05
 31
0.0
  0
LINE
  8
0
  6
CONTINUOUS
 62
     2
 10
209.125
 20
100.05
 30
0.0
 11
208.65
 21
100.05
 31
0.0
  0
ARC
  8
0
  6
CONTINUOUS
 62
     2
 10
208.65
 20
99.85
 30
0.0
 40
0.2
 50
90.0
 51
180.0
  0
LINE
  8
0
  6
CONTINUOUS
 62
     2
 10
208.45
 20
99.85
 30
0.0
 11
208.45
 21
99.375
 31
0.0
  0
LINE
  8
0
  6
CONTINUOUS
 62
     2
 10
208.45
 20
99.375
 30
0.0
 11
208.05
 21
99.375
 31
0.0
  0
CIRCLE
  8
0
  6
CONTINUOUS
 62
     2
 10
208.25
 20
95.25
 30
0.0
 40
1.5
  0
LINE
  8
0
  6
CONTINUOUS
 62
     2
 10
208.05
 20
94.375
 30
0.0
 11
208.05
 21
94.85
 31
0.0
  0
ARC
  8
0
  6
CONTINUOUS
 62
     2
 10
207.85
 20
94.85
 30
0.0
 40
0.2
 50
0.0
 51
90.0
  0
LINE
  8
0
  6
CONTINUOUS
 62
     2
 10
207.85
 20
95.05
 30
0.0
 11
207.375
 21
95.05
 31
0.0
  0
LINE
  8
0
  6
CONTINUOUS
 62
     2
 10
207.375
 20
95.05
 30
0.0
 11
207.375
 21
95.45
 31
0.0
  0
LINE
  8
0
  6
CONTINUOUS
 62
     2
 10
207.375
 20
95.45
 30
0.0
 11
207.85
 21
95.45
 31
0.0
  0
ARC
  8
0
  6
CONTINUOUS
 62
     2
 10
207.85
 20
95.65
 30
0.0
 40
0.2
 50
270.0
 51
0.0
  0
LINE
  8
0
  6
CONTINUOUS
 62
     2
 10
208.05
 20
95.65
 30
0.0
 11
208.05
 21
96.125
 31
0.0
  0
LINE
  8
0
  6
CONTINUOUS
 62
     2
 10
208.05
 20
96.125
 30
0.0
 11
208.45
 21
96.125
 31
0.0
  0
LINE
  8
0
  6
CONTINUOUS
 62
     2
 10
208.45
 20
96.125
 30
0.0
 11
208.45
 21
95.65
 31
0.0
  0
ARC
  8
0
  6
CONTINUOUS
 62
     2
 10
208.65
 20
95.65
 30
0.0
 40
0.2
 50
180.0
 51
270.0
  0
LINE
  8
0
  6
CONTINUOUS
 62
     2
 10
208.65
 20
95.45
 30
0.0
 11
209.125
 21
95.45
 31
0.0
  0
LINE
  8
0
  6
CONTINUOUS
 62
     2
 10
209.125
 20
95.45
 30
0.0
 11
209.125
 21
95.05
 31
0.0
  0
LINE
  8
0
  6
CONTINUOUS
 62
     2
 10
209.125
 20
95.05
 30
0.0
 11
208.65
 21
95.05
 31
0.0
  0
ARC
  8
0
  6
CONTINUOUS
 62
     2
 10
208.65
 20
94.85
 30
0.0
 40
0.2
 50
90.0
 51
180.0
  0
LINE
  8
0
  6
CONTINUOUS
 62
     2
 10
208.45
 20
94.85
 30
0.0
 11
208.45
 21
94.375
 31
0.0
  0
LINE
  8
0
  6
CONTINUOUS
 62
     2
 10
208.45
 20
94.375
 30
0.0
 11
208.05
 21
94.375
 31
0.0
  0
CIRCLE
  8
0
  6
CONTINUOUS
 62
     2
 10
208.25
 20
90.25
 30
0.0
 40
1.5
  0
LINE
  8
0
  6
CONTINUOUS
 62
     2
 10
208.05
 20
89.375
 30
0.0
 11
208.05
 21
89.85
 31
0.0
  0
ARC
  8
0
  6
CONTINUOUS
 62
     2
 10
207.85
 20
89.85
 30
0.0
 40
0.2
 50
0.0
 51
90.0
  0
LINE
  8
0
  6
CONTINUOUS
 62
     2
 10
207.85
 20
90.05
 30
0.0
 11
207.375
 21
90.05
 31
0.0
  0
LINE
  8
0
  6
CONTINUOUS
 62
     2
 10
207.375
 20
90.05
 30
0.0
 11
207.375
 21
90.45
 31
0.0
  0
LINE
  8
0
  6
CONTINUOUS
 62
     2
 10
207.375
 20
90.45
 30
0.0
 11
207.85
 21
90.45
 31
0.0
  0
ARC
  8
0
  6
CONTINUOUS
 62
     2
 10
207.85
 20
90.65
 30
0.0
 40
0.2
 50
270.0
 51
0.0
  0
LINE
  8
0
  6
CONTINUOUS
 62
     2
 10
208.05
 20
90.65
 30
0.0
 11
208.05
 21
91.125
 31
0.0
  0
LINE
  8
0
  6
CONTINUOUS
 62
     2
 10
208.05
 20
91.125
 30
0.0
 11
208.45
 21
91.125
 31
0.0
  0
LINE
  8
0
  6
CONTINUOUS
 62
     2
 10
208.45
 20
91.125
 30
0.0
 11
208.45
 21
90.65
 31
0.0
  0
ARC
  8
0
  6
CONTINUOUS
 62
     2
 10
208.65
 20
90.65
 30
0.0
 40
0.2
 50
180.0
 51
270.0
  0
LINE
  8
0
  6
CONTINUOUS
 62
     2
 10
208.65
 20
90.45
 30
0.0
 11
209.125
 21
90.45
 31
0.0
  0
LINE
  8
0
  6
CONTINUOUS
 62
     2
 10
209.125
 20
90.45
 30
0.0
 11
209.125
 21
90.05
 31
0.0
  0
LINE
  8
0
  6
CONTINUOUS
 62
     2
 10
209.125
 20
90.05
 30
0.0
 11
208.65
 21
90.05
 31
0.0
  0
ARC
  8
0
  6
CONTINUOUS
 62
     2
 10
208.65
 20
89.85
 30
0.0
 40
0.2
 50
90.0
 51
180.0
  0
LINE
  8
0
  6
CONTINUOUS
 62
     2
 10
208.45
 20
89.85
 30
0.0
 11
208.45
 21
89.375
 31
0.0
  0
LINE
  8
0
  6
CONTINUOUS
 62
     2
 10
208.45
 20
89.375
 30
0.0
 11
208.05
 21
89.375
 31
0.0
  0
CIRCLE
  8
0
  6
CONTINUOUS
 62
     2
 10
208.25
 20
65.25
 30
0.0
 40
1.5
  0
LINE
  8
0
  6
CONTINUOUS
 62
     2
 10
208.05
 20
64.375
 30
0.0
 11
208.05
 21
64.85
 31
0.0
  0
ARC
  8
0
  6
CONTINUOUS
 62
     2
 10
207.85
 20
64.85
 30
0.0
 40
0.2
 50
0.0
 51
90.0
  0
LINE
  8
0
  6
CONTINUOUS
 62
     2
 10
207.85
 20
65.05
 30
0.0
 11
207.375
 21
65.05
 31
0.0
  0
LINE
  8
0
  6
CONTINUOUS
 62
     2
 10
207.375
 20
65.05
 30
0.0
 11
207.375
 21
65.45
 31
0.0
  0
LINE
  8
0
  6
CONTINUOUS
 62
     2
 10
207.375
 20
65.45
 30
0.0
 11
207.85
 21
65.45
 31
0.0
  0
ARC
  8
0
  6
CONTINUOUS
 62
     2
 10
207.85
 20
65.65
 30
0.0
 40
0.2
 50
270.0
 51
0.0
  0
LINE
  8
0
  6
CONTINUOUS
 62
     2
 10
208.05
 20
65.65
 30
0.0
 11
208.05
 21
66.125
 31
0.0
  0
LINE
  8
0
  6
CONTINUOUS
 62
     2
 10
208.05
 20
66.125
 30
0.0
 11
208.45
 21
66.125
 31
0.0
  0
LINE
  8
0
  6
CONTINUOUS
 62
     2
 10
208.45
 20
66.125
 30
0.0
 11
208.45
 21
65.65
 31
0.0
  0
ARC
  8
0
  6
CONTINUOUS
 62
     2
 10
208.65
 20
65.65
 30
0.0
 40
0.2
 50
180.0
 51
270.0
  0
LINE
  8
0
  6
CONTINUOUS
 62
     2
 10
208.65
 20
65.45
 30
0.0
 11
209.125
 21
65.45
 31
0.0
  0
LINE
  8
0
  6
CONTINUOUS
 62
     2
 10
209.125
 20
65.45
 30
0.0
 11
209.125
 21
65.05
 31
0.0
  0
LINE
  8
0
  6
CONTINUOUS
 62
     2
 10
209.125
 20
65.05
 30
0.0
 11
208.65
 21
65.05
 31
0.0
  0
ARC
  8
0
  6
CONTINUOUS
 62
     2
 10
208.65
 20
64.85
 30
0.0
 40
0.2
 50
90.0
 51
180.0
  0
LINE
  8
0
  6
CONTINUOUS
 62
     2
 10
208.45
 20
64.85
 30
0.0
 11
208.45
 21
64.375
 31
0.0
  0
LINE
  8
0
  6
CONTINUOUS
 62
     2
 10
208.45
 20
64.375
 30
0.0
 11
208.05
 21
64.375
 31
0.0
  0
CIRCLE
  8
0
  6
CONTINUOUS
 62
     2
 10
208.25
 20
70.25
 30
0.0
 40
1.5
  0
LINE
  8
0
  6
CONTINUOUS
 62
     2
 10
208.05
 20
69.375
 30
0.0
 11
208.05
 21
69.85
 31
0.0
  0
ARC
  8
0
  6
CONTINUOUS
 62
     2
 10
207.85
 20
69.85
 30
0.0
 40
0.2
 50
0.0
 51
90.0
  0
LINE
  8
0
  6
CONTINUOUS
 62
     2
 10
207.85
 20
70.05
 30
0.0
 11
207.375
 21
70.05
 31
0.0
  0
LINE
  8
0
  6
CONTINUOUS
 62
     2
 10
207.375
 20
70.05
 30
0.0
 11
207.375
 21
70.45
 31
0.0
  0
LINE
  8
0
  6
CONTINUOUS
 62
     2
 10
207.375
 20
70.45
 30
0.0
 11
207.85
 21
70.45
 31
0.0
  0
ARC
  8
0
  6
CONTINUOUS
 62
     2
 10
207.85
 20
70.65
 30
0.0
 40
0.2
 50
270.0
 51
0.0
  0
LINE
  8
0
  6
CONTINUOUS
 62
     2
 10
208.05
 20
70.65
 30
0.0
 11
208.05
 21
71.125
 31
0.0
  0
LINE
  8
0
  6
CONTINUOUS
 62
     2
 10
208.05
 20
71.125
 30
0.0
 11
208.45
 21
71.125
 31
0.0
  0
LINE
  8
0
  6
CONTINUOUS
 62
     2
 10
208.45
 20
71.125
 30
0.0
 11
208.45
 21
70.65
 31
0.0
  0
ARC
  8
0
  6
CONTINUOUS
 62
     2
 10
208.65
 20
70.65
 30
0.0
 40
0.2
 50
180.0
 51
270.0
  0
LINE
  8
0
  6
CONTINUOUS
 62
     2
 10
208.65
 20
70.45
 30
0.0
 11
209.125
 21
70.45
 31
0.0
  0
LINE
  8
0
  6
CONTINUOUS
 62
     2
 10
209.125
 20
70.45
 30
0.0
 11
209.125
 21
70.05
 31
0.0
  0
LINE
  8
0
  6
CONTINUOUS
 62
     2
 10
209.125
 20
70.05
 30
0.0
 11
208.65
 21
70.05
 31
0.0
  0
ARC
  8
0
  6
CONTINUOUS
 62
     2
 10
208.65
 20
69.85
 30
0.0
 40
0.2
 50
90.0
 51
180.0
  0
LINE
  8
0
  6
CONTINUOUS
 62
     2
 10
208.45
 20
69.85
 30
0.0
 11
208.45
 21
69.375
 31
0.0
  0
LINE
  8
0
  6
CONTINUOUS
 62
     2
 10
208.45
 20
69.375
 30
0.0
 11
208.05
 21
69.375
 31
0.0
  0
CIRCLE
  8
0
  6
CONTINUOUS
 62
     2
 10
208.25
 20
75.25
 30
0.0
 40
1.5
  0
LINE
  8
0
  6
CONTINUOUS
 62
     2
 10
208.05
 20
74.375
 30
0.0
 11
208.05
 21
74.85
 31
0.0
  0
ARC
  8
0
  6
CONTINUOUS
 62
     2
 10
207.85
 20
74.85
 30
0.0
 40
0.2
 50
0.0
 51
90.0
  0
LINE
  8
0
  6
CONTINUOUS
 62
     2
 10
207.85
 20
75.05
 30
0.0
 11
207.375
 21
75.05
 31
0.0
  0
LINE
  8
0
  6
CONTINUOUS
 62
     2
 10
207.375
 20
75.05
 30
0.0
 11
207.375
 21
75.45
 31
0.0
  0
LINE
  8
0
  6
CONTINUOUS
 62
     2
 10
207.375
 20
75.45
 30
0.0
 11
207.85
 21
75.45
 31
0.0
  0
ARC
  8
0
  6
CONTINUOUS
 62
     2
 10
207.85
 20
75.65
 30
0.0
 40
0.2
 50
270.0
 51
0.0
  0
LINE
  8
0
  6
CONTINUOUS
 62
     2
 10
208.05
 20
75.65
 30
0.0
 11
208.05
 21
76.125
 31
0.0
  0
LINE
  8
0
  6
CONTINUOUS
 62
     2
 10
208.05
 20
76.125
 30
0.0
 11
208.45
 21
76.125
 31
0.0
  0
LINE
  8
0
  6
CONTINUOUS
 62
     2
 10
208.45
 20
76.125
 30
0.0
 11
208.45
 21
75.65
 31
0.0
  0
ARC
  8
0
  6
CONTINUOUS
 62
     2
 10
208.65
 20
75.65
 30
0.0
 40
0.2
 50
180.0
 51
270.0
  0
LINE
  8
0
  6
CONTINUOUS
 62
     2
 10
208.65
 20
75.45
 30
0.0
 11
209.125
 21
75.45
 31
0.0
  0
LINE
  8
0
  6
CONTINUOUS
 62
     2
 10
209.125
 20
75.45
 30
0.0
 11
209.125
 21
75.05
 31
0.0
  0
LINE
  8
0
  6
CONTINUOUS
 62
     2
 10
209.125
 20
75.05
 30
0.0
 11
208.65
 21
75.05
 31
0.0
  0
ARC
  8
0
  6
CONTINUOUS
 62
     2
 10
208.65
 20
74.85
 30
0.0
 40
0.2
 50
90.0
 51
180.0
  0
LINE
  8
0
  6
CONTINUOUS
 62
     2
 10
208.45
 20
74.85
 30
0.0
 11
208.45
 21
74.375
 31
0.0
  0
LINE
  8
0
  6
CONTINUOUS
 62
     2
 10
208.45
 20
74.375
 30
0.0
 11
208.05
 21
74.375
 31
0.0
  0
LINE
  8
0
  6
CONTINUOUS
 62
     1
 10
205.75
 20
62.25
 30
0.0
 11
205.75
 21
63.2
 31
0.0
  0
LINE
  8
0
  6
CONTINUOUS
 62
     1
 10
206.25
 20
63.2
 30
0.0
 11
206.25
 21
62.25
 31
0.0
  0
LINE
  8
0
  6
CONTINUOUS
 62
     1
 10
202.25
 20
103.75
 30
0.0
 11
202.25
 21
102.25
 31
0.0
  0
LINE
  8
0
  6
CONTINUOUS
 62
     1
 10
202.25
 20
102.25
 30
0.0
 11
204.0
 21
102.25
 31
0.0
  0
LINE
  8
0
  6
CONTINUOUS
 62
     1
 10
165.5
 20
172.0
 30
0.0
 11
165.5
 21
163.5
 31
0.0
  0
LINE
  8
0
  6
CONTINUOUS
 62
     1
 10
165.5
 20
172.0
 30
0.0
 11
168.25
 21
172.0
 31
0.0
  0
LINE
  8
0
  6
CONTINUOUS
 62
     1
 10
170.154993762
 20
170.754750312
 30
0.0
 11
168.25
 21
170.85
 31
0.0
  0
ARC
  8
0
  6
CONTINUOUS
 62
     1
 10
170.15
 20
170.654875078
 30
0.0
 40
0.1
 50
360.0
 51
87.137594774
  0
LINE
  8
0
  6
CONTINUOUS
 62
     1
 10
170.25
 20
170.654875078
 30
0.0
 11
170.25
 21
164.845124922
 31
0.0
  0
ARC
  8
0
  6
CONTINUOUS
 62
     1
 10
170.15
 20
164.845124922
 30
0.0
 40
0.1
 50
272.862405226
 51
0.0
  0
LINE
  8
0
  6
CONTINUOUS
 62
     1
 10
168.25
 20
172.0
 30
0.0
 11
168.25
 21
170.85
 31
0.0
  0
LINE
  8
0
  6
CONTINUOUS
 62
     1
 10
168.25
 20
163.5
 30
0.0
 11
165.5
 21
163.5
 31
0.0
  0
LINE
  8
0
  6
CONTINUOUS
 62
     1
 10
168.25
 20
172.0
 30
0.0
 11
172.701937515
 21
172.0
 31
0.0
  0
ARC
  8
0
  6
CONTINUOUS
 62
     1
 10
172.701937515
 20
171.9
 30
0.0
 40
0.1
 50
38.659808254
 51
90.0
  0
LINE
  8
0
  6
CONTINUOUS
 62
     1
 10
173.319975604
 20
171.287530495
 30
0.0
 11
172.780024396
 21
171.962469505
 31
0.0
  0
ARC
  8
0
  6
CONTINUOUS
 62
     1
 10
173.398062485
 20
171.35
 30
0.0
 40
0.1
 50
218.659808254
 51
270.0
  0
LINE
  8
0
  6
CONTINUOUS
 62
     1
 10
173.75
 20
171.25
 30
0.0
 11
173.398062485
 21
171.25
 31
0.0
  0
ARC
  8
0
  6
CONTINUOUS
 62
     1
 10
173.75
 20
171.35
 30
0.0
 40
0.1
 50
270.0
 51
0.0
  0
LINE
  8
0
  6
CONTINUOUS
 62
     1
 10
173.85
 20
171.9
 30
0.0
 11
173.85
 21
171.35
 31
0.0
  0
ARC
  8
0
  6
CONTINUOUS
 62
     1
 10
173.95
 20
171.9
 30
0.0
 40
0.1
 50
90.0
 51
180.0
  0
LINE
  8
0
  6
CONTINUOUS
 62
     1
 10
173.95
 20
172.0
 30
0.0
 11
174.65
 21
172.0
 31
0.0
  0
ARC
  8
0
  6
CONTINUOUS
 62
     1
 10
174.65
 20
171.9
 30
0.0
 40
0.1
 50
0.0
 51
90.0
  0
LINE
  8
0
  6
CONTINUOUS
 62
     1
 10
168.25
 20
163.5
 30
0.0
 11
172.701937515
 21
163.5
 31
0.0
  0
ARC
  8
0
  6
CONTINUOUS
 62
     1
 10
172.701937515
 20
163.6
 30
0.0
 40
0.1
 50
270.0
 51
321.340191746
  0
LINE
  8
0
  6
CONTINUOUS
 62
     1
 10
173.319975604
 20
164.212469505
 30
0.0
 11
172.780024396
 21
163.537530495
 31
0.0
  0
ARC
  8
0
  6
CONTINUOUS
 62
     1
 10
173.398062485
 20
164.15
 30
0.0
 40
0.1
 50
90.0
 51
141.340191746
  0
LINE
  8
0
  6
CONTINUOUS
 62
     1
 10
173.75
 20
164.25
 30
0.0
 11
173.398062485
 21
164.25
 31
0.0
  0
ARC
  8
0
  6
CONTINUOUS
 62
     1
 10
173.75
 20
164.15
 30
0.0
 40
0.1
 50
0.0
 51
90.0
  0
LINE
  8
0
  6
CONTINUOUS
 62
     1
 10
174.75
 20
171.9
 30
0.0
 11
174.75
 21
163.6
 31
0.0
  0
LINE
  8
0
  6
CONTINUOUS
 62
     1
 10
173.85
 20
164.15
 30
0.0
 11
173.85
 21
163.6
 31
0.0
  0
ARC
  8
0
  6
CONTINUOUS
 62
     1
 10
173.95
 20
163.6
 30
0.0
 40
0.1
 50
180.0
 51
270.0
  0
LINE
  8
0
  6
CONTINUOUS
 62
     1
 10
173.95
 20
163.5
 30
0.0
 11
174.65
 21
163.5
 31
0.0
  0
ARC
  8
0
  6
CONTINUOUS
 62
     1
 10
174.65
 20
163.6
 30
0.0
 40
0.1
 50
270.0
 51
0.0
  0
LINE
  8
0
  6
CONTINUOUS
 62
     2
 10
170.25
 20
169.9
 30
0.0
 11
170.3
 21
169.9
 31
0.0
  0
ARC
  8
0
  6
CONTINUOUS
 62
     2
 10
170.3
 20
169.55
 30
0.0
 40
0.35
 50
0.0
 51
90.0
  0
LINE
  8
0
  6
CONTINUOUS
 62
     2
 10
170.3
 20
165.6
 30
0.0
 11
170.25
 21
165.6
 31
0.0
  0
LINE
  8
0
  6
CONTINUOUS
 62
     2
 10
170.65
 20
169.55
 30
0.0
 11
170.65
 21
165.95
 31
0.0
  0
ARC
  8
0
  6
CONTINUOUS
 62
     2
 10
170.3
 20
165.95
 30
0.0
 40
0.35
 50
270.0
 51
0.0
  0
LINE
  8
0
  6
CONTINUOUS
 62
     2
 10
173.650003081
 20
163.65
 30
0.0
 11
173.750003081
 21
163.7
 31
0.0
  0
LINE
  8
0
  6
CONTINUOUS
 62
     2
 10
173.750003081
 20
163.7
 30
0.0
 11
173.85
 21
163.6
 31
0.0
  0
LINE
  8
0
  6
CONTINUOUS
 62
     2
 10
173.950003081
 20
163.05
 30
0.0
 11
174.65
 21
163.05
 31
0.0
  0
ARC
  8
0
  6
CONTINUOUS
 62
     2
 10
174.65
 20
163.6
 30
0.0
 40
0.55
 50
270.0
 51
0.0
  0
ARC
  8
0
  6
CONTINUOUS
 62
     2
 10
174.100003081
 20
163.5
 30
0.0
 40
0.474341649
 50
161.565051177
 51
251.565051177
  0
LINE
  8
0
  6
CONTINUOUS
 62
     2
 10
175.2
 20
163.6
 30
0.0
 11
175.2
 21
171.9
 31
0.0
  0
LINE
  8
0
  6
CONTINUOUS
 62
     2
 10
173.950003081
 20
172.45
 30
0.0
 11
174.65
 21
172.45
 31
0.0
  0
ARC
  8
0
  6
CONTINUOUS
 62
     2
 10
174.65
 20
171.9
 30
0.0
 40
0.55
 50
360.0
 51
90.0
  0
LINE
  8
0
  6
CONTINUOUS
 62
     2
 10
173.650003081
 20
171.85
 30
0.0
 11
173.750003081
 21
171.8
 31
0.0
  0
LINE
  8
0
  6
CONTINUOUS
 62
     2
 10
173.750003081
 20
171.8
 30
0.0
 11
173.85
 21
171.9
 31
0.0
  0
ARC
  8
0
  6
CONTINUOUS
 62
     2
 10
174.100003081
 20
172.0
 30
0.0
 40
0.474341649
 50
108.434948823
 51
198.434948823
  0
LINE
  8
0
  6
CONTINUOUS
 62
     2
 10
171.04
 20
169.08
 30
0.0
 11
171.04
 21
166.42
 31
0.0
  0
LINE
  8
0
  6
CONTINUOUS
 62
     2
 10
171.35
 20
166.44
 30
0.0
 11
171.04
 21
166.42
 31
0.0
  0
LINE
  8
0
  6
CONTINUOUS
 62
     2
 10
171.04
 20
169.08
 30
0.0
 11
171.35
 21
169.08
 31
0.0
  0
LINE
  8
0
  6
CONTINUOUS
 62
     2
 10
172.09
 20
168.33
 30
0.0
 11
172.09
 21
167.17
 31
0.0
  0
ARC
  8
0
  6
CONTINUOUS
 62
     2
 10
171.34
 20
168.33
 30
0.0
 40
0.75
 50
0.0
 51
90.0
  0
ARC
  8
0
  6
CONTINUOUS
 62
     2
 10
171.34
 20
167.17
 30
0.0
 40
0.75
 50
268.472474559
 51
0.0
  0
LINE
  8
0
  6
CONTINUOUS
 62
     2
 10
171.03
 20
169.1
 30
0.0
 11
170.65
 21
169.1
 31
0.0
  0
LINE
  8
0
  6
CONTINUOUS
 62
     2
 10
170.65
 20
169.1
 30
0.0
 11
170.65
 21
166.42
 31
0.0
  0
LINE
  8
0
  6
CONTINUOUS
 62
     2
 10
170.65
 20
166.42
 30
0.0
 11
171.03
 21
166.42
 31
0.0
  0
LINE
  8
0
  6
CONTINUOUS
 62
     2
 10
170.65
 20
167.63
 30
0.0
 11
171.03
 21
167.94
 31
0.0
  0
LINE
  8
0
  6
CONTINUOUS
 62
     2
 10
170.65
 20
167.39
 30
0.0
 11
171.04
 21
167.68
 31
0.0
  0
LINE
  8
0
  6
CONTINUOUS
 62
     2
 10
172.09
 20
167.96
 30
0.0
 11
172.02
 21
167.96
 31
0.0
  0
LINE
  8
0
  6
CONTINUOUS
 62
     2
 10
172.02
 20
167.97
 30
0.0
 11
172.02
 21
167.59
 31
0.0
  0
LINE
  8
0
  6
CONTINUOUS
 62
     2
 10
172.02
 20
167.59
 30
0.0
 11
172.08
 21
167.59
 31
0.0
  0
LINE
  8
0
  6
LTYPE1
 62
     2
 10
170.25
 20
167.75
 30
0.0
 11
172.75
 21
167.75
 31
0.0
  0
ARC
  8
0
  6
CONTINUOUS
 62
     2
 10
169.599998634
 20
167.166665
 30
0.0
 40
0.333333
 50
270.0
 51
90.0
  0
ARC
  8
0
  6
CONTINUOUS
 62
     2
 10
169.599998634
 20
166.499999
 30
0.0
 40
0.333333
 50
270.0
 51
90.0
  0
ARC
  8
0
  6
CONTINUOUS
 62
     2
 10
169.599998634
 20
165.833333
 30
0.0
 40
0.333333
 50
270.0
 51
90.0
  0
ARC
  8
0
  6
CONTINUOUS
 62
     2
 10
169.599998634
 20
165.166667
 30
0.0
 40
0.333333
 50
270.0
 51
90.0
  0
ARC
  8
0
  6
CONTINUOUS
 62
     2
 10
169.599998634
 20
164.500001
 30
0.0
 40
0.333333
 50
270.0
 51
90.0
  0
ARC
  8
0
  6
CONTINUOUS
 62
     2
 10
169.599998634
 20
163.833335
 30
0.0
 40
0.333333
 50
270.0
 51
90.0
  0
LINE
  8
0
  6
CONTINUOUS
 62
     2
 10
165.5
 20
163.5
 30
0.0
 11
169.6
 21
163.5
 31
0.0
  0
LINE
  8
0
  6
CONTINUOUS
 62
     2
 10
165.5
 20
164.166666
 30
0.0
 11
169.6
 21
164.166666
 31
0.0
  0
LINE
  8
0
  6
CONTINUOUS
 62
     2
 10
165.5
 20
164.833332
 30
0.0
 11
169.6
 21
164.833332
 31
0.0
  0
LINE
  8
0
  6
CONTINUOUS
 62
     2
 10
165.5
 20
165.499998
 30
0.0
 11
169.6
 21
165.499998
 31
0.0
  0
LINE
  8
0
  6
CONTINUOUS
 62
     2
 10
165.5
 20
166.166664
 30
0.0
 11
169.6
 21
166.166664
 31
0.0
  0
LINE
  8
0
  6
CONTINUOUS
 62
     2
 10
165.5
 20
166.83333
 30
0.0
 11
169.6
 21
166.83333
 31
0.0
  0
LINE
  8
0
  6
CONTINUOUS
 62
     2
 10
165.5
 20
167.499996
 30
0.0
 11
169.6
 21
167.499996
 31
0.0
  0
LINE
  8
0
  6
CONTINUOUS
 62
     1
 10
170.154993762
 20
164.745249688
 30
0.0
 11
169.841665487
 21
164.729583274
 31
0.0
  0
LINE
  8
0
  6
CONTINUOUS
 62
     5
 10
201.6
 20
97.95
 30
0.0
 11
197.6
 21
97.95
 31
0.0
  0
LINE
  8
0
  6
CONTINUOUS
 62
     5
 10
197.85
 20
94.85
 30
0.0
 11
197.85
 21
90.85
 31
0.0
  0
LINE
  8
0
  6
CONTINUOUS
 62
     5
 10
197.85
 20
94.85
 30
0.0
 11
198.6
 21
95.45
 31
0.0
  0
LINE
  8
0
  6
CONTINUOUS
 62
     5
 10
197.85
 20
90.85
 30
0.0
 11
198.6
 21
90.25
 31
0.0
  0
TEXT
  8
0
  6
CONTINUOUS
 62
     5
 10
198.85
 20
94.7
 30
0.1
 40
1.5
  1
１＋
 50
0.0
 41
0.666666667
 51
0.0
  7
KANJI7
  0
TEXT
  8
0
  6
CONTINUOUS
 62
     5
 10
198.85
 20
89.45
 30
0.1
 40
1.5
  1
２－
 50
0.0
 41
0.666666667
 51
0.0
  7
KANJI7
  0
TEXT
  8
0
  6
CONTINUOUS
 62
     5
 10
197.7
 20
91.75
 30
0.05
 40
1.0
  1
ＩＮＰＵＴ
 50
0.0
 41
0.75
 51
0.0
  7
KANJI8
  0
TEXT
  8
0
  6
CONTINUOUS
 62
     5
 10
198.0
 20
93.15
 30
0.05
 40
1.0
  1
ＬＥＦＴ
 50
0.0
 41
0.75
 51
0.0
  7
KANJI8
  0
LINE
  8
0
  6
CONTINUOUS
 62
     5
 10
197.6
 20
87.95
 30
0.0
 11
197.6
 21
97.95
 31
0.0
  0
LINE
  8
0
  6
CONTINUOUS
 62
     5
 10
201.6
 20
97.95
 30
0.0
 11
201.6
 21
87.95
 31
0.0
  0
LINE
  8
0
  6
CONTINUOUS
 62
     5
 10
197.6
 20
87.95
 30
0.0
 11
201.6
 21
87.95
 31
0.0
  0
TEXT
  8
0
  6
CONTINUOUS
 62
     5
 10
197.8
 20
71.75
 30
0.02
 40
1.0
  1
ＤＣ２４Ｖ
 50
0.0
 41
0.75
 51
0.0
  7
KANJI9
  0
LINE
  8
0
  6
CONTINUOUS
 62
     5
 10
197.85
 20
74.45
 30
0.0
 11
197.85
 21
70.45
 31
0.0
  0
LINE
  8
0
  6
CONTINUOUS
 62
     5
 10
197.85
 20
74.45
 30
0.0
 11
198.6
 21
75.05
 31
0.0
  0
LINE
  8
0
  6
CONTINUOUS
 62
     5
 10
197.85
 20
70.45
 30
0.0
 11
198.6
 21
69.85
 31
0.0
  0
TEXT
  8
0
  6
CONTINUOUS
 62
     5
 10
198.85
 20
74.3
 30
0.1
 40
1.5
  1
５＋
 50
0.0
 41
0.666666667
 51
0.0
  7
KANJI7
  0
TEXT
  8
0
  6
CONTINUOUS
 62
     5
 10
198.85
 20
69.05
 30
0.1
 40
1.5
  1
６－
 50
0.0
 41
0.666666667
 51
0.0
  7
KANJI7
  0
LINE
  8
0
  6
CONTINUOUS
 62
     5
 10
197.6
 20
67.55
 30
0.0
 11
201.6
 21
67.55
 31
0.0
  0
LINE
  8
0
  6
CONTINUOUS
 62
     5
 10
197.6
 20
67.55
 30
0.0
 11
197.6
 21
77.55
 31
0.0
  0
LINE
  8
0
  6
CONTINUOUS
 62
     5
 10
201.6
 20
77.55
 30
0.0
 11
201.6
 21
67.55
 31
0.0
  0
LINE
  8
0
  6
CONTINUOUS
 62
     5
 10
197.6
 20
77.55
 30
0.0
 11
201.6
 21
77.55
 31
0.0
  0
LINE
  8
0
  6
CONTINUOUS
 62
     2
 10
226.0
 20
121.25
 30
0.0
 11
226.306
 21
121.25
 31
0.0
  0
TEXT
  8
0
  6
CONTINUOUS
 62
     3
 10
235.0
 20
12.0
 30
0.2
 40
5.8
  1
ＭＳ－１２２１８
 50
0.0
 41
0.827586207
 51
0.0
  7
KANJI10
  0
LINE
  8
0
  6
CONTINUOUS
 62
     2
 10
171.04
 20
81.58
 30
0.0
 11
171.04
 21
78.92
 31
0.0
  0
LINE
  8
0
  6
CONTINUOUS
 62
     2
 10
171.35
 20
78.94
 30
0.0
 11
171.04
 21
78.92
 31
0.0
  0
LINE
  8
0
  6
CONTINUOUS
 62
     2
 10
171.04
 20
81.58
 30
0.0
 11
171.35
 21
81.58
 31
0.0
  0
LINE
  8
0
  6
CONTINUOUS
 62
     2
 10
172.09
 20
80.83
 30
0.0
 11
172.09
 21
79.67
 31
0.0
  0
ARC
  8
0
  6
CONTINUOUS
 62
     2
 10
171.34
 20
80.83
 30
0.0
 40
0.75
 50
0.0
 51
90.0
  0
ARC
  8
0
  6
CONTINUOUS
 62
     2
 10
171.34
 20
79.67
 30
0.0
 40
0.75
 50
268.472474559
 51
0.0
  0
LINE
  8
0
  6
CONTINUOUS
 62
     2
 10
171.03
 20
81.6
 30
0.0
 11
170.65
 21
81.6
 31
0.0
  0
LINE
  8
0
  6
CONTINUOUS
 62
     2
 10
170.65
 20
81.6
 30
0.0
 11
170.65
 21
78.92
 31
0.0
  0
LINE
  8
0
  6
CONTINUOUS
 62
     2
 10
170.65
 20
78.92
 30
0.0
 11
171.03
 21
78.92
 31
0.0
  0
LINE
  8
0
  6
CONTINUOUS
 62
     2
 10
170.65
 20
80.13
 30
0.0
 11
171.03
 21
80.44
 31
0.0
  0
LINE
  8
0
  6
CONTINUOUS
 62
     2
 10
170.65
 20
79.89
 30
0.0
 11
171.04
 21
80.18
 31
0.0
  0
LINE
  8
0
  6
CONTINUOUS
 62
     2
 10
172.09
 20
80.46
 30
0.0
 11
172.02
 21
80.46
 31
0.0
  0
LINE
  8
0
  6
CONTINUOUS
 62
     2
 10
172.02
 20
80.47
 30
0.0
 11
172.02
 21
80.09
 31
0.0
  0
LINE
  8
0
  6
CONTINUOUS
 62
     2
 10
172.02
 20
80.09
 30
0.0
 11
172.08
 21
80.09
 31
0.0
  0
LINE
  8
0
  6
CONTINUOUS
 62
     2
 10
171.04
 20
86.58
 30
0.0
 11
171.04
 21
83.92
 31
0.0
  0
LINE
  8
0
  6
CONTINUOUS
 62
     2
 10
171.35
 20
83.94
 30
0.0
 11
171.04
 21
83.92
 31
0.0
  0
LINE
  8
0
  6
CONTINUOUS
 62
     2
 10
171.04
 20
86.58
 30
0.0
 11
171.35
 21
86.58
 31
0.0
  0
LINE
  8
0
  6
CONTINUOUS
 62
     2
 10
172.09
 20
85.83
 30
0.0
 11
172.09
 21
84.67
 31
0.0
  0
ARC
  8
0
  6
CONTINUOUS
 62
     2
 10
171.34
 20
85.83
 30
0.0
 40
0.75
 50
0.0
 51
90.0
  0
ARC
  8
0
  6
CONTINUOUS
 62
     2
 10
171.34
 20
84.67
 30
0.0
 40
0.75
 50
268.472474559
 51
0.0
  0
LINE
  8
0
  6
CONTINUOUS
 62
     2
 10
171.03
 20
86.6
 30
0.0
 11
170.65
 21
86.6
 31
0.0
  0
LINE
  8
0
  6
CONTINUOUS
 62
     2
 10
170.65
 20
86.6
 30
0.0
 11
170.65
 21
83.92
 31
0.0
  0
LINE
  8
0
  6
CONTINUOUS
 62
     2
 10
170.65
 20
83.92
 30
0.0
 11
171.03
 21
83.92
 31
0.0
  0
LINE
  8
0
  6
CONTINUOUS
 62
     2
 10
170.65
 20
85.13
 30
0.0
 11
171.03
 21
85.44
 31
0.0
  0
LINE
  8
0
  6
CONTINUOUS
 62
     2
 10
170.65
 20
84.89
 30
0.0
 11
171.04
 21
85.18
 31
0.0
  0
LINE
  8
0
  6
CONTINUOUS
 62
     2
 10
172.09
 20
85.46
 30
0.0
 11
172.02
 21
85.46
 31
0.0
  0
LINE
  8
0
  6
CONTINUOUS
 62
     2
 10
172.02
 20
85.47
 30
0.0
 11
172.02
 21
85.09
 31
0.0
  0
LINE
  8
0
  6
CONTINUOUS
 62
     2
 10
172.02
 20
85.09
 30
0.0
 11
172.08
 21
85.09
 31
0.0
  0
LINE
  8
0
  6
CONTINUOUS
 62
     2
 10
208.05
 20
79.375
 30
0.0
 11
208.05
 21
79.85
 31
0.0
  0
ARC
  8
0
  6
CONTINUOUS
 62
     2
 10
207.85
 20
79.85
 30
0.0
 40
0.2
 50
0.0
 51
90.0
  0
LINE
  8
0
  6
CONTINUOUS
 62
     2
 10
207.85
 20
80.05
 30
0.0
 11
207.375
 21
80.05
 31
0.0
  0
LINE
  8
0
  6
CONTINUOUS
 62
     2
 10
207.375
 20
80.05
 30
0.0
 11
207.375
 21
80.45
 31
0.0
  0
LINE
  8
0
  6
CONTINUOUS
 62
     2
 10
207.375
 20
80.45
 30
0.0
 11
207.85
 21
80.45
 31
0.0
  0
ARC
  8
0
  6
CONTINUOUS
 62
     2
 10
207.85
 20
80.65
 30
0.0
 40
0.2
 50
270.0
 51
0.0
  0
LINE
  8
0
  6
CONTINUOUS
 62
     2
 10
208.05
 20
80.65
 30
0.0
 11
208.05
 21
81.125
 31
0.0
  0
LINE
  8
0
  6
CONTINUOUS
 62
     2
 10
208.05
 20
81.125
 30
0.0
 11
208.45
 21
81.125
 31
0.0
  0
LINE
  8
0
  6
CONTINUOUS
 62
     2
 10
208.45
 20
81.125
 30
0.0
 11
208.45
 21
80.65
 31
0.0
  0
ARC
  8
0
  6
CONTINUOUS
 62
     2
 10
208.65
 20
80.65
 30
0.0
 40
0.2
 50
180.0
 51
270.0
  0
LINE
  8
0
  6
CONTINUOUS
 62
     2
 10
208.65
 20
80.45
 30
0.0
 11
209.125
 21
80.45
 31
0.0
  0
LINE
  8
0
  6
CONTINUOUS
 62
     2
 10
209.125
 20
80.45
 30
0.0
 11
209.125
 21
80.05
 31
0.0
  0
LINE
  8
0
  6
CONTINUOUS
 62
     2
 10
209.125
 20
80.05
 30
0.0
 11
208.65
 21
80.05
 31
0.0
  0
ARC
  8
0
  6
CONTINUOUS
 62
     2
 10
208.65
 20
79.85
 30
0.0
 40
0.2
 50
90.0
 51
180.0
  0
LINE
  8
0
  6
CONTINUOUS
 62
     2
 10
208.45
 20
79.85
 30
0.0
 11
208.45
 21
79.375
 31
0.0
  0
LINE
  8
0
  6
CONTINUOUS
 62
     2
 10
208.45
 20
79.375
 30
0.0
 11
208.05
 21
79.375
 31
0.0
  0
LINE
  8
0
  6
CONTINUOUS
 62
     2
 10
208.05
 20
84.375
 30
0.0
 11
208.05
 21
84.85
 31
0.0
  0
ARC
  8
0
  6
CONTINUOUS
 62
     2
 10
207.85
 20
84.85
 30
0.0
 40
0.2
 50
0.0
 51
90.0
  0
LINE
  8
0
  6
CONTINUOUS
 62
     2
 10
207.85
 20
85.05
 30
0.0
 11
207.375
 21
85.05
 31
0.0
  0
LINE
  8
0
  6
CONTINUOUS
 62
     2
 10
207.375
 20
85.05
 30
0.0
 11
207.375
 21
85.45
 31
0.0
  0
LINE
  8
0
  6
CONTINUOUS
 62
     2
 10
207.375
 20
85.45
 30
0.0
 11
207.85
 21
85.45
 31
0.0
  0
ARC
  8
0
  6
CONTINUOUS
 62
     2
 10
207.85
 20
85.65
 30
0.0
 40
0.2
 50
270.0
 51
0.0
  0
LINE
  8
0
  6
CONTINUOUS
 62
     2
 10
208.05
 20
85.65
 30
0.0
 11
208.05
 21
86.125
 31
0.0
  0
LINE
  8
0
  6
CONTINUOUS
 62
     2
 10
208.05
 20
86.125
 30
0.0
 11
208.45
 21
86.125
 31
0.0
  0
LINE
  8
0
  6
CONTINUOUS
 62
     2
 10
208.45
 20
86.125
 30
0.0
 11
208.45
 21
85.65
 31
0.0
  0
ARC
  8
0
  6
CONTINUOUS
 62
     2
 10
208.65
 20
85.65
 30
0.0
 40
0.2
 50
180.0
 51
270.0
  0
LINE
  8
0
  6
CONTINUOUS
 62
     2
 10
208.65
 20
85.45
 30
0.0
 11
209.125
 21
85.45
 31
0.0
  0
LINE
  8
0
  6
CONTINUOUS
 62
     2
 10
209.125
 20
85.45
 30
0.0
 11
209.125
 21
85.05
 31
0.0
  0
LINE
  8
0
  6
CONTINUOUS
 62
     2
 10
209.125
 20
85.05
 30
0.0
 11
208.65
 21
85.05
 31
0.0
  0
ARC
  8
0
  6
CONTINUOUS
 62
     2
 10
208.65
 20
84.85
 30
0.0
 40
0.2
 50
90.0
 51
180.0
  0
LINE
  8
0
  6
CONTINUOUS
 62
     2
 10
208.45
 20
84.85
 30
0.0
 11
208.45
 21
84.375
 31
0.0
  0
LINE
  8
0
  6
CONTINUOUS
 62
     2
 10
208.45
 20
84.375
 30
0.0
 11
208.05
 21
84.375
 31
0.0
  0
CIRCLE
  8
0
  6
CONTINUOUS
 62
     2
 10
208.25
 20
80.25
 30
0.0
 40
1.5
  0
CIRCLE
  8
0
  6
CONTINUOUS
 62
     2
 10
208.25
 20
85.25
 30
0.0
 40
1.5
  0
LINE
  8
0
  6
CONTINUOUS
 62
     2
 10
213.25
 20
53.75
 30
0.0
 11
226.113
 21
53.75
 31
0.0
  0
LINE
  8
0
  6
CONTINUOUS
 62
     2
 10
224.113
 20
53.75
 30
0.0
 11
224.760047613
 21
56.164814566
 31
0.0
  0
LINE
  8
0
  6
CONTINUOUS
 62
     2
 10
224.113
 20
53.75
 30
0.0
 11
223.465952387
 21
56.164814566
 31
0.0
  0
LINE
  8
0
  6
CONTINUOUS
 62
     2
 10
224.113
 20
53.75
 30
0.0
 11
224.113
 21
136.25
 31
0.0
  0
LINE
  8
0
  6
CONTINUOUS
 62
     2
 10
224.113
 20
136.25
 30
0.0
 11
223.465952387
 21
133.835185434
 31
0.0
  0
LINE
  8
0
  6
CONTINUOUS
 62
     2
 10
224.113
 20
136.25
 30
0.0
 11
224.760047613
 21
133.835185434
 31
0.0
  0
LINE
  8
0
  6
CONTINUOUS
 62
     2
 10
213.25
 20
136.25
 30
0.0
 11
226.113
 21
136.25
 31
0.0
  0
TEXT
  8
0
  6
CONTINUOUS
 62
     2
 10
223.113
 20
92.0
 30
0.3
 40
3.0
  1
１６５
 50
90.0
 41
0.6
 51
0.0
  7
KANJI0
  0
LINE
  8
0
  6
LTYPE1
 62
     2
 10
219.313
 20
95.0
 30
0.0
 11
193.0
 21
95.0
 31
0.0
  0
TEXT
  8
0
  6
CONTINUOUS
 62
     1
 10
247.3
 20
21.65
 30
0.5
 40
5.0
  1
縁形計器
 50
0.0
 41
0.9
 51
0.0
  7
KANJI11
  0
TEXT
  8
0
  6
CONTINUOUS
 62
     2
 10
247.3
 20
27.15
 30
0.3
 40
3.0
  1
端子カバー付　電子式
 50
0.0
 41
0.9
 51
0.0
  7
KANJI1
  0
TEXT
  8
0
  6
CONTINUOUS
 62
     6
 10
233.2
 20
33.05
 30
0.6
 40
6.0
  1
□ＥＦ－１５Ｓ
 50
0.0
 41
0.9
 51
0.0
  7
KANJI12
  0
LINE
  8
0
  6
LTYPE1
 62
     2
 10
49.45
 20
95.0
 30
0.0
 11
22.5
 21
95.0
 31
0.0
  0
LINE
  8
0
  6
LTYPE1
 62
     2
 10
175.0
 20
95.0
 30
0.0
 11
58.7
 21
95.0
 31
0.0
  0
LINE
  8
0
  6
LTYPE1
 62
     2
 10
127.5
 20
136.8
 30
0.0
 11
127.5
 21
51.35
 31
0.0
  0
LINE
  8
0
  6
LTYPE1
 62
     2
 10
127.5
 20
152.4
 30
0.0
 11
127.5
 21
177.5
 31
0.0
  0
LINE
  8
0
  6
CONTINUOUS
 62
     1
 10
202.5
 20
144.5
 30
0.0
 11
202.5
 21
174.5
 31
0.0
  0
LINE
  8
0
  6
CONTINUOUS
 62
     1
 10
202.5
 20
174.5
 30
0.0
 11
194.5
 21
174.5
 31
0.0
  0
LINE
  8
0
  6
CONTINUOUS
 62
     1
 10
194.5
 20
174.5
 30
0.0
 11
194.5
 21
144.5
 31
0.0
  0
TEXT
  8
0
  6
CONTINUOUS
 62
     2
 10
215.35
 20
174.579491924
 30
0.3
 40
3.0
  1
Ｎは連結台数
 50
0.0
 41
0.9
 51
0.0
  7
KANJI1
  0
LINE
  8
0
  6
CONTINUOUS
 62
     2
 10
193.5
 20
174.5
 30
0.0
 11
187.5
 21
174.5
 31
0.0
  0
LINE
  8
0
  6
CONTINUOUS
 62
     2
 10
189.5
 20
174.5
 30
0.0
 11
188.852952387
 21
172.085185434
 31
0.0
  0
LINE
  8
0
  6
CONTINUOUS
 62
     2
 10
189.5
 20
174.5
 30
0.0
 11
190.147047613
 21
172.085185434
 31
0.0
  0
LINE
  8
0
  6
CONTINUOUS
 62
     2
 10
189.5
 20
174.5
 30
0.0
 11
189.5
 21
144.5
 31
0.0
  0
TEXT
  8
0
  6
CONTINUOUS
 62
     2
 10
188.5
 20
155.33
 30
0.3
 40
3.0
  1
１４６
 50
90.0
 41
0.6
 51
0.0
  7
KANJI0
  0
TEXT
  8
0
  6
CONTINUOUS
 62
     2
 10
188.5
 20
161.78
 30
0.18
 40
1.8
  1
－０
 50
90.0
 41
0.6
 51
0.0
  7
KANJI13
  0
TEXT
  8
0
  6
CONTINUOUS
 62
     2
 10
186.7
 20
161.78
 30
0.18
 40
1.8
  1
＋１
 50
90.0
 41
0.6
 51
0.0
  7
KANJI13
  0
TEXT
  8
0
  6
CONTINUOUS
 62
     2
 10
198.35
 20
172.5
 30
0.3
 40
3.0
  1
パネルカット寸法
 50
0.0
 41
0.9
 51
0.0
  7
KANJI14
  0
LINE
  8
0
  6
LTYPE3
 62
     2
 10
198.5
 20
181.5
 30
0.0
 11
198.5
 21
174.5
 31
0.0
  0
LINE
  8
0
  6
LTYPE3
 62
     2
 10
189.5
 20
159.5
 30
0.0
 11
194.5
 21
159.5
 31
0.0
  0
LINE
  8
0
  6
LTYPE3
 62
     2
 10
202.5
 20
159.5
 30
0.0
 11
207.5
 21
159.5
 31
0.0
  0
LINE
  8
0
  6
LTYPE3
 62
     2
 10
198.5
 20
186.5
 30
0.0
 11
198.5
 21
174.5
 31
0.0
  0
LINE
  8
0
  6
CONTINUOUS
 62
     2
 10
207.85
 20
178.5
 30
0.0
 11
207.202952387
 21
176.085185434
 31
0.0
  0
LINE
  8
0
  6
CONTINUOUS
 62
     2
 10
207.85
 20
178.5
 30
0.0
 11
208.497047613
 21
176.085185434
 31
0.0
  0
LINE
  8
0
  6
CONTINUOUS
 62
     2
 10
207.85
 20
178.5
 30
0.0
 11
207.85
 21
140.5
 31
0.0
  0
TEXT
  8
0
  6
CONTINUOUS
 62
     2
 10
211.85
 20
149.4
 30
0.3
 40
3.0
  1
（裏側取付スペース）
 50
90.0
 41
0.6
 51
0.0
  7
KANJI0
  0
TEXT
  8
0
  6
CONTINUOUS
 62
     2
 10
206.85
 20
149.4
 30
0.3
 40
3.0
  1
（１７５）
 50
90.0
 41
0.6
 51
0.0
  7
KANJI0
  0
LINE
  8
0
  6
CONTINUOUS
 62
     2
 10
194.5
 20
182.5
 30
0.0
 11
192.085185434
 21
183.147047613
 31
0.0
  0
LINE
  8
0
  6
CONTINUOUS
 62
     2
 10
194.5
 20
182.5
 30
0.0
 11
192.085185434
 21
181.852952387
 31
0.0
  0
POLYLINE
  8
0
  6
CONTINUOUS
 62
     2
 66
     1
  0
VERTEX
  8
0
  6
CONTINUOUS
 62
     2
 10
190.75
 20
182.5
 30
0.0
  0
VERTEX
  8
0
  6
CONTINUOUS
 62
     2
 10
194.5
 20
182.5
 30
0.0
  0
VERTEX
  8
0
  6
CONTINUOUS
 62
     2
 10
202.5
 20
182.5
 30
0.0
  0
VERTEX
  8
0
  6
CONTINUOUS
 62
     2
 10
204.914814566
 20
181.852952387
 30
0.0
  0
SEQEND
  0
LINE
  8
0
  6
CONTINUOUS
 62
     2
 10
202.5
 20
182.5
 30
0.0
 11
204.914814566
 21
183.147047613
 31
0.0
  0
LINE
  8
0
  6
CONTINUOUS
 62
     2
 10
202.5
 20
182.5
 30
0.0
 11
211.8
 21
182.5
 31
0.0
  0
TEXT
  8
0
  6
CONTINUOUS
 62
     2
 10
204.02
 20
183.5
 30
0.3
 40
3.0
  1
４０．２×Ｎ＋１．５
 50
0.0
 41
0.6
 51
0.0
  7
KANJI0
  0
LINE
  8
0
  6
LTYPE2
 62
     2
 10
194.5
 20
178.5
 30
0.0
 11
194.5
 21
174.5
 31
0.0
  0
LINE
  8
0
  6
LTYPE2
 62
     2
 10
202.5
 20
178.5
 30
0.0
 11
202.5
 21
174.5
 31
0.0
  0
LINE
  8
0
  6
CONTINUOUS
 62
     2
 10
194.5
 20
179.0
 30
0.0
 11
194.5
 21
185.5
 31
0.0
  0
LINE
  8
0
  6
LTYPE2
 62
     2
 10
194.5
 20
175.5
 30
0.0
 11
194.5
 21
178.5
 31
0.0
  0
LINE
  8
0
  6
LTYPE2
 62
     2
 10
202.5
 20
175.5
 30
0.0
 11
202.5
 21
178.5
 31
0.0
  0
LINE
  8
0
  6
CONTINUOUS
 62
     2
 10
202.5
 20
179.0
 30
0.0
 11
202.5
 21
185.5
 31
0.0
  0
LINE
  8
0
  6
CONTINUOUS
 62
     2
 10
203.0
 20
178.5
 30
0.0
 11
209.85
 21
178.5
 31
0.0
  0
LINE
  8
0
  6
LTYPE2
 62
     2
 10
194.5
 20
178.5
 30
0.0
 11
202.5
 21
178.5
 31
0.0
  0
LINE
  8
0
  6
CONTINUOUS
 62
     1
 10
194.5
 20
144.5
 30
0.0
 11
202.5
 21
144.5
 31
0.0
  0
LINE
  8
0
  6
CONTINUOUS
 62
     2
 10
193.5
 20
144.5
 30
0.0
 11
187.5
 21
144.5
 31
0.0
  0
LINE
  8
0
  6
LTYPE2
 62
     2
 10
194.5
 20
144.5
 30
0.0
 11
194.5
 21
140.5
 31
0.0
  0
LINE
  8
0
  6
LTYPE2
 62
     2
 10
202.5
 20
140.5
 30
0.0
 11
202.5
 21
144.5
 31
0.0
  0
LINE
  8
0
  6
LTYPE2
 62
     2
 10
194.5
 20
140.5
 30
0.0
 11
202.5
 21
140.5
 31
0.0
  0
LINE
  8
0
  6
LTYPE3
 62
     2
 10
198.5
 20
144.5
 30
0.0
 11
198.5
 21
139.5
 31
0.0
  0
LINE
  8
0
  6
LTYPE3
 62
     2
 10
198.5
 20
144.5
 30
0.0
 11
198.5
 21
139.5
 31
0.0
  0
LINE
  8
0
  6
CONTINUOUS
 62
     2
 10
207.85
 20
140.5
 30
0.0
 11
208.497047613
 21
142.914814566
 31
0.0
  0
LINE
  8
0
  6
CONTINUOUS
 62
     2
 10
207.85
 20
140.5
 30
0.0
 11
207.202952387
 21
142.914814566
 31
0.0
  0
LINE
  8
0
  6
CONTINUOUS
 62
     2
 10
203.0
 20
140.5
 30
0.0
 11
209.85
 21
140.5
 31
0.0
  0
LINE
  8
0
  6
LTYPE1
 62
     2
 10
206.0
 20
52.6
 30
0.0
 11
206.0
 21
138.95
 31
0.0
  0
ENDSEC
  0
EOF
