  0
SECTION
  2
HEADER
  9
$ACADVER
  1
AC1009
  9
$DWGCODEPAGE
  3
dos932
  9
$EXTMIN
 10
0.0
 20
0.0
 30
0.0
  9
$EXTMAX
 10
297.0
 20
210.0
 30
0.0
  9
$LIMMIN
 10
0.0
 20
0.0
  9
$LIMMAX
 10
297.0
 20
210.0
  9
$LTSCALE
 40
1.0
  9
$PDMODE
 70
     0
  0
ENDSEC
  0
SECTION
  2
TABLES
  0
TABLE
  2
VPORT
 70
     1
  0
VPORT
  2
*ACTIVE
 70
     0
 10
0.0
 20
0.0
 11
1.0
 21
1.0
 12
148.5
 22
105.0
 13
0.0
 23
0.0
 14
10.0
 24
10.0
 15
10.0
 25
10.0
 16
0.0
 26
0.0
 36
1.0
 17
0.0
 27
0.0
 37
0.0
 40
297.0
 41
1.414285714
 42
50.0
 43
0.0
 44
0.0
 50
0.0
 51
0.0
 71
     0
 72
  1000
 73
     1
 74
     3
 75
     0
 76
     0
 77
     0
 78
     0
  0
ENDTAB
  0
TABLE
  2
LTYPE
 70
     4
  0
LTYPE
  2
CONTINUOUS
 70
    64
  3
Solid line
 72
    65
 73
     0
 40
0.0
  0
LTYPE
  2
LTYPE1
 70
    64
  3
PHANTOM
 72
    65
 73
     6
 40
8.0
 49
6.0
 49
-0.4
 49
0.4
 49
-0.4
 49
0.4
 49
-0.4
  0
LTYPE
  2
LTYPE2
 70
    64
  3
HIDDEN
 72
    65
 73
     2
 40
2.0
 49
1.2
 49
-0.8
  0
LTYPE
  2
LTYPE3
 70
    64
  3
CENTER
 72
    65
 73
     4
 40
8.0
 49
5.6
 49
-0.8
 49
0.8
 49
-0.8
  0
ENDTAB
  0
TABLE
  2
LAYER
 70
   128
  0
LAYER
  2
0
 70
     0
 62
     7
  6
CONTINUOUS
  0
LAYER
  2
2
 70
     0
 62
     7
  6
CONTINUOUS
  0
LAYER
  2
3
 70
     0
 62
     7
  6
CONTINUOUS
  0
LAYER
  2
4
 70
     0
 62
     7
  6
CONTINUOUS
  0
LAYER
  2
5
 70
     0
 62
     7
  6
CONTINUOUS
  0
LAYER
  2
6
 70
     0
 62
     7
  6
CONTINUOUS
  0
LAYER
  2
7
 70
     0
 62
     7
  6
CONTINUOUS
  0
LAYER
  2
8
 70
     0
 62
     7
  6
CONTINUOUS
  0
LAYER
  2
9
 70
     0
 62
     7
  6
CONTINUOUS
  0
LAYER
  2
10
 70
     0
 62
     7
  6
CONTINUOUS
  0
LAYER
  2
11
 70
     0
 62
     7
  6
CONTINUOUS
  0
LAYER
  2
12
 70
     0
 62
     7
  6
CONTINUOUS
  0
LAYER
  2
13
 70
     0
 62
     7
  6
CONTINUOUS
  0
LAYER
  2
14
 70
     0
 62
     7
  6
CONTINUOUS
  0
LAYER
  2
15
 70
     0
 62
     7
  6
CONTINUOUS
  0
LAYER
  2
16
 70
     0
 62
     7
  6
CONTINUOUS
  0
LAYER
  2
17
 70
     0
 62
     7
  6
CONTINUOUS
  0
LAYER
  2
18
 70
     0
 62
     7
  6
CONTINUOUS
  0
LAYER
  2
19
 70
     0
 62
     7
  6
CONTINUOUS
  0
LAYER
  2
20
 70
     0
 62
     7
  6
CONTINUOUS
  0
LAYER
  2
21
 70
     0
 62
     7
  6
CONTINUOUS
  0
LAYER
  2
22
 70
     0
 62
     7
  6
CONTINUOUS
  0
LAYER
  2
23
 70
     0
 62
     7
  6
CONTINUOUS
  0
LAYER
  2
24
 70
     0
 62
     7
  6
CONTINUOUS
  0
LAYER
  2
25
 70
     0
 62
     7
  6
CONTINUOUS
  0
LAYER
  2
26
 70
     0
 62
     7
  6
CONTINUOUS
  0
LAYER
  2
27
 70
     0
 62
     7
  6
CONTINUOUS
  0
LAYER
  2
28
 70
     0
 62
     7
  6
CONTINUOUS
  0
LAYER
  2
29
 70
     0
 62
     7
  6
CONTINUOUS
  0
LAYER
  2
30
 70
     0
 62
     7
  6
CONTINUOUS
  0
LAYER
  2
31
 70
     0
 62
     7
  6
CONTINUOUS
  0
LAYER
  2
32
 70
     0
 62
     7
  6
CONTINUOUS
  0
LAYER
  2
33
 70
     0
 62
     7
  6
CONTINUOUS
  0
LAYER
  2
34
 70
     0
 62
     7
  6
CONTINUOUS
  0
LAYER
  2
35
 70
     0
 62
     7
  6
CONTINUOUS
  0
LAYER
  2
36
 70
     0
 62
     7
  6
CONTINUOUS
  0
LAYER
  2
37
 70
     0
 62
     7
  6
CONTINUOUS
  0
LAYER
  2
38
 70
     0
 62
     7
  6
CONTINUOUS
  0
LAYER
  2
39
 70
     0
 62
     7
  6
CONTINUOUS
  0
LAYER
  2
40
 70
     0
 62
     7
  6
CONTINUOUS
  0
LAYER
  2
41
 70
     0
 62
     7
  6
CONTINUOUS
  0
LAYER
  2
42
 70
     0
 62
     7
  6
CONTINUOUS
  0
LAYER
  2
43
 70
     0
 62
     7
  6
CONTINUOUS
  0
LAYER
  2
44
 70
     0
 62
     7
  6
CONTINUOUS
  0
LAYER
  2
45
 70
     0
 62
     7
  6
CONTINUOUS
  0
LAYER
  2
46
 70
     0
 62
     7
  6
CONTINUOUS
  0
LAYER
  2
47
 70
     0
 62
     7
  6
CONTINUOUS
  0
LAYER
  2
48
 70
     0
 62
     7
  6
CONTINUOUS
  0
LAYER
  2
49
 70
     0
 62
     7
  6
CONTINUOUS
  0
LAYER
  2
50
 70
     0
 62
     7
  6
CONTINUOUS
  0
LAYER
  2
51
 70
     0
 62
     7
  6
CONTINUOUS
  0
LAYER
  2
52
 70
     0
 62
     7
  6
CONTINUOUS
  0
LAYER
  2
53
 70
     0
 62
     7
  6
CONTINUOUS
  0
LAYER
  2
54
 70
     0
 62
     7
  6
CONTINUOUS
  0
LAYER
  2
55
 70
     0
 62
     7
  6
CONTINUOUS
  0
LAYER
  2
56
 70
     0
 62
     7
  6
CONTINUOUS
  0
LAYER
  2
57
 70
     0
 62
     7
  6
CONTINUOUS
  0
LAYER
  2
58
 70
     0
 62
     7
  6
CONTINUOUS
  0
LAYER
  2
59
 70
     0
 62
     7
  6
CONTINUOUS
  0
LAYER
  2
60
 70
     0
 62
     7
  6
CONTINUOUS
  0
LAYER
  2
61
 70
     0
 62
     7
  6
CONTINUOUS
  0
LAYER
  2
62
 70
     0
 62
     7
  6
CONTINUOUS
  0
LAYER
  2
63
 70
     0
 62
     7
  6
CONTINUOUS
  0
LAYER
  2
64
 70
     0
 62
     7
  6
CONTINUOUS
  0
LAYER
  2
65
 70
     0
 62
     7
  6
CONTINUOUS
  0
LAYER
  2
66
 70
     0
 62
     7
  6
CONTINUOUS
  0
LAYER
  2
67
 70
     0
 62
     7
  6
CONTINUOUS
  0
LAYER
  2
68
 70
     0
 62
     7
  6
CONTINUOUS
  0
LAYER
  2
69
 70
     0
 62
     7
  6
CONTINUOUS
  0
LAYER
  2
70
 70
     0
 62
     7
  6
CONTINUOUS
  0
LAYER
  2
71
 70
     0
 62
     7
  6
CONTINUOUS
  0
LAYER
  2
72
 70
     0
 62
     7
  6
CONTINUOUS
  0
LAYER
  2
73
 70
     0
 62
     7
  6
CONTINUOUS
  0
LAYER
  2
74
 70
     0
 62
     7
  6
CONTINUOUS
  0
LAYER
  2
75
 70
     0
 62
     7
  6
CONTINUOUS
  0
LAYER
  2
76
 70
     0
 62
     7
  6
CONTINUOUS
  0
LAYER
  2
77
 70
     0
 62
     7
  6
CONTINUOUS
  0
LAYER
  2
78
 70
     0
 62
     7
  6
CONTINUOUS
  0
LAYER
  2
79
 70
     0
 62
     7
  6
CONTINUOUS
  0
LAYER
  2
80
 70
     0
 62
     7
  6
CONTINUOUS
  0
LAYER
  2
81
 70
     0
 62
     7
  6
CONTINUOUS
  0
LAYER
  2
82
 70
     0
 62
     7
  6
CONTINUOUS
  0
LAYER
  2
83
 70
     0
 62
     7
  6
CONTINUOUS
  0
LAYER
  2
84
 70
     0
 62
     7
  6
CONTINUOUS
  0
LAYER
  2
85
 70
     0
 62
     7
  6
CONTINUOUS
  0
LAYER
  2
86
 70
     0
 62
     7
  6
CONTINUOUS
  0
LAYER
  2
87
 70
     0
 62
     7
  6
CONTINUOUS
  0
LAYER
  2
88
 70
     0
 62
     7
  6
CONTINUOUS
  0
LAYER
  2
89
 70
     0
 62
     7
  6
CONTINUOUS
  0
LAYER
  2
90
 70
     0
 62
     7
  6
CONTINUOUS
  0
LAYER
  2
91
 70
     0
 62
     7
  6
CONTINUOUS
  0
LAYER
  2
92
 70
     0
 62
     7
  6
CONTINUOUS
  0
LAYER
  2
93
 70
     0
 62
     7
  6
CONTINUOUS
  0
LAYER
  2
94
 70
     0
 62
     7
  6
CONTINUOUS
  0
LAYER
  2
95
 70
     0
 62
     7
  6
CONTINUOUS
  0
LAYER
  2
96
 70
     0
 62
     7
  6
CONTINUOUS
  0
LAYER
  2
97
 70
     0
 62
     7
  6
CONTINUOUS
  0
LAYER
  2
98
 70
     0
 62
     7
  6
CONTINUOUS
  0
LAYER
  2
99
 70
     0
 62
     7
  6
CONTINUOUS
  0
LAYER
  2
100
 70
     0
 62
     7
  6
CONTINUOUS
  0
LAYER
  2
101
 70
     0
 62
     7
  6
CONTINUOUS
  0
LAYER
  2
102
 70
     0
 62
     7
  6
CONTINUOUS
  0
LAYER
  2
103
 70
     0
 62
     7
  6
CONTINUOUS
  0
LAYER
  2
104
 70
     0
 62
     7
  6
CONTINUOUS
  0
LAYER
  2
105
 70
     0
 62
     7
  6
CONTINUOUS
  0
LAYER
  2
106
 70
     0
 62
     7
  6
CONTINUOUS
  0
LAYER
  2
107
 70
     0
 62
     7
  6
CONTINUOUS
  0
LAYER
  2
108
 70
     0
 62
     7
  6
CONTINUOUS
  0
LAYER
  2
109
 70
     0
 62
     7
  6
CONTINUOUS
  0
LAYER
  2
110
 70
     0
 62
     7
  6
CONTINUOUS
  0
LAYER
  2
111
 70
     0
 62
     7
  6
CONTINUOUS
  0
LAYER
  2
112
 70
     0
 62
     7
  6
CONTINUOUS
  0
LAYER
  2
113
 70
     0
 62
     7
  6
CONTINUOUS
  0
LAYER
  2
114
 70
     0
 62
     7
  6
CONTINUOUS
  0
LAYER
  2
115
 70
     0
 62
     7
  6
CONTINUOUS
  0
LAYER
  2
116
 70
     0
 62
     7
  6
CONTINUOUS
  0
LAYER
  2
117
 70
     0
 62
     7
  6
CONTINUOUS
  0
LAYER
  2
118
 70
     0
 62
     7
  6
CONTINUOUS
  0
LAYER
  2
119
 70
     0
 62
     7
  6
CONTINUOUS
  0
LAYER
  2
120
 70
     0
 62
     7
  6
CONTINUOUS
  0
LAYER
  2
121
 70
     0
 62
     7
  6
CONTINUOUS
  0
LAYER
  2
122
 70
     0
 62
     7
  6
CONTINUOUS
  0
LAYER
  2
123
 70
     0
 62
     7
  6
CONTINUOUS
  0
LAYER
  2
124
 70
     0
 62
     7
  6
CONTINUOUS
  0
LAYER
  2
125
 70
     0
 62
     7
  6
CONTINUOUS
  0
LAYER
  2
126
 70
     0
 62
     7
  6
CONTINUOUS
  0
LAYER
  2
127
 70
     0
 62
     7
  6
CONTINUOUS
  0
LAYER
  2
128
 70
     0
 62
     7
  6
CONTINUOUS
  0
ENDTAB
  0
TABLE
  2
STYLE
 70
    15
  0
STYLE
  2
STANDARD
 70
     0
 40
0.0
 41
1.0
 50
0.0
 71
     0
 42
0.2
  3
txt.shx
  4
extfont.shx
  0
STYLE
  2
KANJI0
 70
     0
 40
3.0
 41
0.6
 50
0.0
 71
     0
 42
3.0
  3
txt.shx
  4
extfont.shx
  0
STYLE
  2
KANJI1
 70
     0
 40
3.0
 41
0.9
 50
0.0
 71
     0
 42
3.0
  3
txt.shx
  4
extfont.shx
  0
STYLE
  2
KANJI2
 70
     0
 40
1.8
 41
0.6
 50
0.0
 71
     0
 42
1.8
  3
txt.shx
  4
extfont.shx
  0
STYLE
  2
KANJI3
 70
     4
 40
3.0
 41
0.9
 50
0.0
 71
     0
 42
3.0
  3
txt.shx
  4
extfont.shx
  0
STYLE
  2
KANJI4
 70
     0
 40
2.5
 41
0.9
 50
0.0
 71
     0
 42
2.5
  3
txt.shx
  4
extfont.shx
  0
STYLE
  2
KANJI5
 70
     0
 40
2.0
 41
0.8
 50
0.0
 71
     0
 42
2.0
  3
txt.shx
  4
extfont.shx
  0
STYLE
  2
KANJI6
 70
     0
 40
3.0
 41
0.5
 50
0.0
 71
     0
 42
3.0
  3
txt.shx
  4
extfont.shx
  0
STYLE
  2
KANJI7
 70
     0
 40
3.0
 41
0.9
 50
0.0
 71
     0
 42
3.0
  3
txt.shx
  4
extfont.shx
  0
STYLE
  2
KANJI8
 70
     0
 40
3.0
 41
0.833333333
 50
0.0
 71
     0
 42
3.0
  3
txt.shx
  4
extfont.shx
  0
STYLE
  2
KANJI9
 70
     0
 40
1.5
 41
0.666666667
 50
0.0
 71
     0
 42
1.5
  3
txt.shx
  4
extfont.shx
  0
STYLE
  2
KANJI10
 70
     0
 40
1.0
 41
0.75
 50
0.0
 71
     0
 42
1.0
  3
txt.shx
  4
extfont.shx
  0
STYLE
  2
KANJI11
 70
     0
 40
5.8
 41
0.827586207
 50
0.0
 71
     0
 42
5.8
  3
txt.shx
  4
extfont.shx
  0
STYLE
  2
KANJI12
 70
     0
 40
4.0
 41
0.9
 50
0.0
 71
     0
 42
4.0
  3
txt.shx
  4
extfont.shx
  0
STYLE
  2
KANJI13
 70
     0
 40
6.0
 41
0.9
 50
0.0
 71
     0
 42
6.0
  3
txt.shx
  4
extfont.shx
  0
ENDTAB
  0
TABLE
  2
VIEW
 70
     0
  0
ENDTAB
  0
ENDSEC
  0
SECTION
  2
BLOCKS
  0
ENDSEC
  0
SECTION
  2
ENTITIES
  0
LINE
  8
0
  6
CONTINUOUS
 62
     1
 10
27.25
 20
117.5
 30
0.0
 11
44.75
 21
117.5
 31
0.0
  0
LINE
  8
0
  6
CONTINUOUS
 62
     1
 10
44.75
 20
107.25
 30
0.0
 11
27.25
 21
107.25
 31
0.0
  0
LINE
  8
0
  6
CONTINUOUS
 62
     1
 10
44.75
 20
48.75
 30
0.0
 11
27.25
 21
48.75
 31
0.0
  0
LINE
  8
0
  6
CONTINUOUS
 62
     1
 10
44.75
 20
42.5
 30
0.0
 11
44.75
 21
117.5
 31
0.0
  0
LINE
  8
0
  6
CONTINUOUS
 62
     1
 10
44.75
 20
117.5
 30
0.0
 11
46.0
 21
117.5
 31
0.0
  0
LINE
  8
0
  6
CONTINUOUS
 62
     1
 10
26.0
 20
117.5
 30
0.0
 11
27.25
 21
117.5
 31
0.0
  0
LINE
  8
0
  6
CONTINUOUS
 62
     1
 10
27.25
 20
117.5
 30
0.0
 11
27.25
 21
42.5
 31
0.0
  0
LINE
  8
0
  6
CONTINUOUS
 62
     1
 10
26.0
 20
42.5
 30
0.0
 11
26.0
 21
117.5
 31
0.0
  0
LINE
  8
0
  6
CONTINUOUS
 62
     1
 10
26.0
 20
42.5
 30
0.0
 11
46.0
 21
42.5
 31
0.0
  0
LINE
  8
0
  6
CONTINUOUS
 62
     1
 10
25.5
 20
42.5
 30
0.0
 11
26.0
 21
42.5
 31
0.0
  0
ARC
  8
0
  6
CONTINUOUS
 62
     1
 10
25.5
 20
43.5
 30
0.0
 40
1.0
 50
180.0
 51
270.0
  0
LINE
  8
0
  6
CONTINUOUS
 62
     1
 10
26.0
 20
117.5
 30
0.0
 11
25.5
 21
117.5
 31
0.0
  0
LINE
  8
0
  6
CONTINUOUS
 62
     1
 10
24.5
 20
116.5
 30
0.0
 11
24.5
 21
43.5
 31
0.0
  0
ARC
  8
0
  6
CONTINUOUS
 62
     1
 10
25.5
 20
116.5
 30
0.0
 40
1.0
 50
90.0
 51
180.0
  0
LINE
  8
0
  6
CONTINUOUS
 62
     1
 10
46.0
 20
42.5
 30
0.0
 11
46.0
 21
117.5
 31
0.0
  0
LINE
  8
0
  6
CONTINUOUS
 62
     1
 10
37.75
 20
103.88
 30
0.0
 11
37.75
 21
103.73
 31
0.0
  0
LINE
  8
0
  6
CONTINUOUS
 62
     1
 10
37.75
 20
103.73
 30
0.0
 11
37.75
 21
103.58
 31
0.0
  0
LINE
  8
0
  6
CONTINUOUS
 62
     1
 10
37.75
 20
103.58
 30
0.0
 11
37.75
 21
103.43
 31
0.0
  0
LINE
  8
0
  6
CONTINUOUS
 62
     1
 10
37.75
 20
103.43
 30
0.0
 11
37.75
 21
103.28
 31
0.0
  0
LINE
  8
0
  6
CONTINUOUS
 62
     1
 10
37.75
 20
103.28
 30
0.0
 11
37.75
 21
103.13
 31
0.0
  0
LINE
  8
0
  6
CONTINUOUS
 62
     1
 10
37.75
 20
103.13
 30
0.0
 11
37.75
 21
102.98
 31
0.0
  0
LINE
  8
0
  6
CONTINUOUS
 62
     1
 10
37.75
 20
102.98
 30
0.0
 11
37.75
 21
102.83
 31
0.0
  0
LINE
  8
0
  6
CONTINUOUS
 62
     1
 10
37.75
 20
102.83
 30
0.0
 11
37.75
 21
102.68
 31
0.0
  0
LINE
  8
0
  6
CONTINUOUS
 62
     1
 10
37.75
 20
102.68
 30
0.0
 11
37.75
 21
102.53
 31
0.0
  0
LINE
  8
0
  6
CONTINUOUS
 62
     1
 10
37.75
 20
102.53
 30
0.0
 11
37.75
 21
102.38
 31
0.0
  0
LINE
  8
0
  6
CONTINUOUS
 62
     1
 10
37.75
 20
102.38
 30
0.0
 11
37.75
 21
102.23
 31
0.0
  0
LINE
  8
0
  6
CONTINUOUS
 62
     1
 10
37.75
 20
102.23
 30
0.0
 11
37.75
 21
102.12
 31
0.0
  0
LINE
  8
0
  6
CONTINUOUS
 62
     1
 10
38.734928807
 20
103.727631895
 30
0.0
 11
38.70055047
 21
103.584954116
 31
0.0
  0
LINE
  8
0
  6
CONTINUOUS
 62
     1
 10
38.70055047
 20
103.584954116
 30
0.0
 11
38.673576161
 21
103.439200479
 31
0.0
  0
LINE
  8
0
  6
CONTINUOUS
 62
     1
 10
38.673576161
 20
103.439200479
 30
0.0
 11
38.654359033
 21
103.291168417
 31
0.0
  0
LINE
  8
0
  6
CONTINUOUS
 62
     1
 10
38.654359033
 20
103.291168417
 30
0.0
 11
38.643144181
 21
103.141704187
 31
0.0
  0
LINE
  8
0
  6
CONTINUOUS
 62
     1
 10
38.643144181
 20
103.141704187
 30
0.0
 11
38.640060777
 21
102.991683724
 31
0.0
  0
LINE
  8
0
  6
CONTINUOUS
 62
     1
 10
38.640060777
 20
102.991683724
 30
0.0
 11
38.645118267
 21
102.841992158
 31
0.0
  0
LINE
  8
0
  6
CONTINUOUS
 62
     1
 10
38.645118267
 20
102.841992158
 30
0.0
 11
38.658206852
 21
102.69350303
 31
0.0
  0
LINE
  8
0
  6
CONTINUOUS
 62
     1
 10
38.658206852
 20
102.69350303
 30
0.0
 11
38.679102186
 21
102.547058225
 31
0.0
  0
LINE
  8
0
  6
CONTINUOUS
 62
     1
 10
38.679102186
 20
102.547058225
 30
0.0
 11
38.707473939
 21
102.403449583
 31
0.0
  0
LINE
  8
0
  6
CONTINUOUS
 62
     1
 10
38.707473939
 20
102.403449583
 30
0.0
 11
38.742897647
 21
102.263402995
 31
0.0
  0
LINE
  8
0
  6
CONTINUOUS
 62
     1
 10
38.742897647
 20
102.263402995
 30
0.0
 11
38.801985451
 21
102.198126835
 31
0.0
  0
LINE
  8
0
  6
CONTINUOUS
 62
     1
 10
38.801985451
 20
102.198126835
 30
0.0
 11
38.876699324
 21
102.147517728
 31
0.0
  0
LINE
  8
0
  6
CONTINUOUS
 62
     1
 10
38.876699324
 20
102.147517728
 30
0.0
 11
39.001714176
 21
102.120005066
 31
0.0
  0
LINE
  8
0
  6
CONTINUOUS
 62
     1
 10
39.001714176
 20
102.120005066
 30
0.0
 11
39.103919717
 21
102.139258994
 31
0.0
  0
LINE
  8
0
  6
CONTINUOUS
 62
     1
 10
39.103919717
 20
102.139258994
 30
0.0
 11
39.19678395
 21
102.196983388
 31
0.0
  0
LINE
  8
0
  6
CONTINUOUS
 62
     1
 10
39.19678395
 20
102.196983388
 30
0.0
 11
39.246467056
 21
102.257179876
 31
0.0
  0
LINE
  8
0
  6
CONTINUOUS
 62
     1
 10
39.246467056
 20
102.257179876
 30
0.0
 11
39.29244428
 21
102.403086664
 31
0.0
  0
LINE
  8
0
  6
CONTINUOUS
 62
     1
 10
39.29244428
 20
102.403086664
 30
0.0
 11
39.320139566
 21
102.542623558
 31
0.0
  0
LINE
  8
0
  6
CONTINUOUS
 62
     1
 10
39.320139566
 20
102.542623558
 30
0.0
 11
39.341736993
 21
102.693016943
 31
0.0
  0
LINE
  8
0
  6
CONTINUOUS
 62
     1
 10
39.341736993
 20
102.693016943
 30
0.0
 11
39.354895348
 21
102.842215545
 31
0.0
  0
LINE
  8
0
  6
CONTINUOUS
 62
     1
 10
39.354895348
 20
102.842215545
 30
0.0
 11
39.359942699
 21
102.99221524
 31
0.0
  0
LINE
  8
0
  6
CONTINUOUS
 62
     1
 10
39.359942699
 20
102.99221524
 30
0.0
 11
39.356595295
 21
103.147048818
 31
0.0
  0
LINE
  8
0
  6
CONTINUOUS
 62
     1
 10
39.356595295
 20
103.147048818
 30
0.0
 11
39.345665322
 21
103.290930487
 31
0.0
  0
LINE
  8
0
  6
CONTINUOUS
 62
     1
 10
39.345665322
 20
103.290930487
 30
0.0
 11
39.326260719
 21
103.44023539
 31
0.0
  0
LINE
  8
0
  6
CONTINUOUS
 62
     1
 10
39.326260719
 20
103.44023539
 30
0.0
 11
39.299686989
 21
103.583838096
 31
0.0
  0
LINE
  8
0
  6
CONTINUOUS
 62
     1
 10
39.299686989
 20
103.583838096
 30
0.0
 11
39.263699949
 21
103.730674508
 31
0.0
  0
LINE
  8
0
  6
CONTINUOUS
 62
     1
 10
39.263699949
 20
103.730674508
 30
0.0
 11
39.21155653
 21
103.808352803
 31
0.0
  0
LINE
  8
0
  6
CONTINUOUS
 62
     1
 10
39.21155653
 20
103.808352803
 30
0.0
 11
39.125447708
 21
103.871462947
 31
0.0
  0
LINE
  8
0
  6
CONTINUOUS
 62
     1
 10
39.125447708
 20
103.871462947
 30
0.0
 11
39.010569682
 21
103.899807318
 31
0.0
  0
LINE
  8
0
  6
CONTINUOUS
 62
     1
 10
39.010569682
 20
103.899807318
 30
0.0
 11
38.876668912
 21
103.872467984
 31
0.0
  0
LINE
  8
0
  6
CONTINUOUS
 62
     1
 10
38.876668912
 20
103.872467984
 30
0.0
 11
38.787179169
 21
103.806995669
 31
0.0
  0
LINE
  8
0
  6
CONTINUOUS
 62
     1
 10
38.787179169
 20
103.806995669
 30
0.0
 11
38.734928807
 21
103.727631895
 31
0.0
  0
LINE
  8
0
  6
CONTINUOUS
 62
     1
 10
39.984928807
 20
103.727631895
 30
0.0
 11
39.95055047
 21
103.584954116
 31
0.0
  0
LINE
  8
0
  6
CONTINUOUS
 62
     1
 10
39.95055047
 20
103.584954116
 30
0.0
 11
39.923576161
 21
103.439200479
 31
0.0
  0
LINE
  8
0
  6
CONTINUOUS
 62
     1
 10
39.923576161
 20
103.439200479
 30
0.0
 11
39.904359033
 21
103.291168417
 31
0.0
  0
LINE
  8
0
  6
CONTINUOUS
 62
     1
 10
39.904359033
 20
103.291168417
 30
0.0
 11
39.893144181
 21
103.141704187
 31
0.0
  0
LINE
  8
0
  6
CONTINUOUS
 62
     1
 10
39.893144181
 20
103.141704187
 30
0.0
 11
39.890060777
 21
102.991683724
 31
0.0
  0
LINE
  8
0
  6
CONTINUOUS
 62
     1
 10
39.890060777
 20
102.991683724
 30
0.0
 11
39.895118267
 21
102.841992158
 31
0.0
  0
LINE
  8
0
  6
CONTINUOUS
 62
     1
 10
39.895118267
 20
102.841992158
 30
0.0
 11
39.908206852
 21
102.69350303
 31
0.0
  0
LINE
  8
0
  6
CONTINUOUS
 62
     1
 10
39.908206852
 20
102.69350303
 30
0.0
 11
39.929102186
 21
102.547058225
 31
0.0
  0
LINE
  8
0
  6
CONTINUOUS
 62
     1
 10
39.929102186
 20
102.547058225
 30
0.0
 11
39.957473939
 21
102.403449583
 31
0.0
  0
LINE
  8
0
  6
CONTINUOUS
 62
     1
 10
39.957473939
 20
102.403449583
 30
0.0
 11
39.992897647
 21
102.263402995
 31
0.0
  0
LINE
  8
0
  6
CONTINUOUS
 62
     1
 10
39.992897647
 20
102.263402995
 30
0.0
 11
40.051985451
 21
102.198126835
 31
0.0
  0
LINE
  8
0
  6
CONTINUOUS
 62
     1
 10
40.051985451
 20
102.198126835
 30
0.0
 11
40.126699324
 21
102.147517728
 31
0.0
  0
LINE
  8
0
  6
CONTINUOUS
 62
     1
 10
40.126699324
 20
102.147517728
 30
0.0
 11
40.251714176
 21
102.120005066
 31
0.0
  0
LINE
  8
0
  6
CONTINUOUS
 62
     1
 10
40.251714176
 20
102.120005066
 30
0.0
 11
40.353919717
 21
102.139258994
 31
0.0
  0
LINE
  8
0
  6
CONTINUOUS
 62
     1
 10
40.353919717
 20
102.139258994
 30
0.0
 11
40.44678395
 21
102.196983388
 31
0.0
  0
LINE
  8
0
  6
CONTINUOUS
 62
     1
 10
40.44678395
 20
102.196983388
 30
0.0
 11
40.496467056
 21
102.257179876
 31
0.0
  0
LINE
  8
0
  6
CONTINUOUS
 62
     1
 10
40.496467056
 20
102.257179876
 30
0.0
 11
40.54244428
 21
102.403086664
 31
0.0
  0
LINE
  8
0
  6
CONTINUOUS
 62
     1
 10
40.54244428
 20
102.403086664
 30
0.0
 11
40.570139566
 21
102.542623558
 31
0.0
  0
LINE
  8
0
  6
CONTINUOUS
 62
     1
 10
40.570139566
 20
102.542623558
 30
0.0
 11
40.591736993
 21
102.693016943
 31
0.0
  0
LINE
  8
0
  6
CONTINUOUS
 62
     1
 10
40.591736993
 20
102.693016943
 30
0.0
 11
40.604895348
 21
102.842215545
 31
0.0
  0
LINE
  8
0
  6
CONTINUOUS
 62
     1
 10
40.604895348
 20
102.842215545
 30
0.0
 11
40.609942699
 21
102.99221524
 31
0.0
  0
LINE
  8
0
  6
CONTINUOUS
 62
     1
 10
40.609942699
 20
102.99221524
 30
0.0
 11
40.606595295
 21
103.147048818
 31
0.0
  0
LINE
  8
0
  6
CONTINUOUS
 62
     1
 10
40.606595295
 20
103.147048818
 30
0.0
 11
40.595665322
 21
103.290930487
 31
0.0
  0
LINE
  8
0
  6
CONTINUOUS
 62
     1
 10
40.595665322
 20
103.290930487
 30
0.0
 11
40.576260719
 21
103.44023539
 31
0.0
  0
LINE
  8
0
  6
CONTINUOUS
 62
     1
 10
40.576260719
 20
103.44023539
 30
0.0
 11
40.549686989
 21
103.583838096
 31
0.0
  0
LINE
  8
0
  6
CONTINUOUS
 62
     1
 10
40.549686989
 20
103.583838096
 30
0.0
 11
40.513699949
 21
103.730674508
 31
0.0
  0
LINE
  8
0
  6
CONTINUOUS
 62
     1
 10
40.513699949
 20
103.730674508
 30
0.0
 11
40.46155653
 21
103.808352803
 31
0.0
  0
LINE
  8
0
  6
CONTINUOUS
 62
     1
 10
40.46155653
 20
103.808352803
 30
0.0
 11
40.375447708
 21
103.871462947
 31
0.0
  0
LINE
  8
0
  6
CONTINUOUS
 62
     1
 10
40.375447708
 20
103.871462947
 30
0.0
 11
40.260569682
 21
103.899807318
 31
0.0
  0
LINE
  8
0
  6
CONTINUOUS
 62
     1
 10
40.260569682
 20
103.899807318
 30
0.0
 11
40.126668912
 21
103.872467984
 31
0.0
  0
LINE
  8
0
  6
CONTINUOUS
 62
     1
 10
40.126668912
 20
103.872467984
 30
0.0
 11
40.037179169
 21
103.806995669
 31
0.0
  0
LINE
  8
0
  6
CONTINUOUS
 62
     1
 10
40.037179169
 20
103.806995669
 30
0.0
 11
39.984928807
 21
103.727631895
 31
0.0
  0
LINE
  8
0
  6
CONTINUOUS
 62
     1
 10
38.109764222
 20
93.08
 30
0.0
 11
38.206471671
 21
93.064195763
 31
0.0
  0
LINE
  8
0
  6
CONTINUOUS
 62
     1
 10
38.206471671
 20
93.064195763
 30
0.0
 11
38.286044734
 21
93.025226985
 31
0.0
  0
LINE
  8
0
  6
CONTINUOUS
 62
     1
 10
38.286044734
 20
93.025226985
 30
0.0
 11
38.364947654
 21
92.955666753
 31
0.0
  0
LINE
  8
0
  6
CONTINUOUS
 62
     1
 10
38.364947654
 20
92.955666753
 30
0.0
 11
38.433738516
 21
92.85085891
 31
0.0
  0
LINE
  8
0
  6
CONTINUOUS
 62
     1
 10
38.433738516
 20
92.85085891
 30
0.0
 11
38.476954997
 21
92.723575956
 31
0.0
  0
LINE
  8
0
  6
CONTINUOUS
 62
     1
 10
38.476954997
 20
92.723575956
 30
0.0
 11
38.489762381
 21
92.598526286
 31
0.0
  0
LINE
  8
0
  6
CONTINUOUS
 62
     1
 10
38.489762381
 20
92.598526286
 30
0.0
 11
38.475566025
 21
92.470017403
 31
0.0
  0
LINE
  8
0
  6
CONTINUOUS
 62
     1
 10
38.475566025
 20
92.470017403
 30
0.0
 11
38.438028592
 21
92.358203499
 31
0.0
  0
LINE
  8
0
  6
CONTINUOUS
 62
     1
 10
38.438028592
 20
92.358203499
 30
0.0
 11
38.367420627
 21
92.24718946
 31
0.0
  0
LINE
  8
0
  6
CONTINUOUS
 62
     1
 10
38.367420627
 20
92.24718946
 30
0.0
 11
38.289569967
 21
92.177134663
 31
0.0
  0
LINE
  8
0
  6
CONTINUOUS
 62
     1
 10
38.289569967
 20
92.177134663
 30
0.0
 11
38.204945504
 21
92.135301199
 31
0.0
  0
LINE
  8
0
  6
CONTINUOUS
 62
     1
 10
38.204945504
 20
92.135301199
 30
0.0
 11
38.109945618
 21
92.120000055
 31
0.0
  0
LINE
  8
0
  6
CONTINUOUS
 62
     1
 10
38.109945618
 20
92.120000055
 30
0.0
 11
38.00113379
 21
92.140031081
 31
0.0
  0
LINE
  8
0
  6
CONTINUOUS
 62
     1
 10
38.00113379
 20
92.140031081
 30
0.0
 11
37.926044711
 21
92.179827354
 31
0.0
  0
LINE
  8
0
  6
CONTINUOUS
 62
     1
 10
37.926044711
 20
92.179827354
 30
0.0
 11
37.855996749
 21
92.242720317
 31
0.0
  0
LINE
  8
0
  6
CONTINUOUS
 62
     1
 10
37.855996749
 20
92.242720317
 30
0.0
 11
37.784162395
 21
92.352525856
 31
0.0
  0
LINE
  8
0
  6
CONTINUOUS
 62
     1
 10
37.784162395
 20
92.352525856
 30
0.0
 11
37.744495514
 21
92.46764656
 31
0.0
  0
LINE
  8
0
  6
CONTINUOUS
 62
     1
 10
37.744495514
 20
92.46764656
 30
0.0
 11
37.729768855
 21
92.597616918
 31
0.0
  0
LINE
  8
0
  6
CONTINUOUS
 62
     1
 10
37.729768855
 20
92.597616918
 30
0.0
 11
37.742529759
 21
92.723369122
 31
0.0
  0
LINE
  8
0
  6
CONTINUOUS
 62
     1
 10
37.742529759
 20
92.723369122
 30
0.0
 11
37.786773894
 21
92.852875504
 31
0.0
  0
LINE
  8
0
  6
CONTINUOUS
 62
     1
 10
37.786773894
 20
92.852875504
 30
0.0
 11
37.851953145
 21
92.952630326
 31
0.0
  0
LINE
  8
0
  6
CONTINUOUS
 62
     1
 10
37.851953145
 20
92.952630326
 30
0.0
 11
37.939400926
 21
93.029058061
 31
0.0
  0
LINE
  8
0
  6
CONTINUOUS
 62
     1
 10
37.939400926
 20
93.029058061
 30
0.0
 11
38.038282972
 21
93.071431169
 31
0.0
  0
LINE
  8
0
  6
CONTINUOUS
 62
     1
 10
38.038282972
 20
93.071431169
 30
0.0
 11
38.209756405
 21
93.100029703
 31
0.0
  0
LINE
  8
0
  6
CONTINUOUS
 62
     1
 10
38.209756405
 20
93.100029703
 30
0.0
 11
38.293826851
 21
93.152793714
 31
0.0
  0
LINE
  8
0
  6
CONTINUOUS
 62
     1
 10
38.293826851
 20
93.152793714
 30
0.0
 11
38.360292069
 21
93.231140812
 31
0.0
  0
LINE
  8
0
  6
CONTINUOUS
 62
     1
 10
38.360292069
 20
93.231140812
 30
0.0
 11
38.409915041
 21
93.341315018
 31
0.0
  0
LINE
  8
0
  6
CONTINUOUS
 62
     1
 10
38.409915041
 20
93.341315018
 30
0.0
 11
38.429762444
 21
93.481314391
 31
0.0
  0
LINE
  8
0
  6
CONTINUOUS
 62
     1
 10
38.429762444
 20
93.481314391
 30
0.0
 11
38.410510547
 21
93.616654317
 31
0.0
  0
LINE
  8
0
  6
CONTINUOUS
 62
     1
 10
38.410510547
 20
93.616654317
 30
0.0
 11
38.359289209
 21
93.730428557
 31
0.0
  0
LINE
  8
0
  6
CONTINUOUS
 62
     1
 10
38.359289209
 20
93.730428557
 30
0.0
 11
38.289547149
 21
93.810903312
 31
0.0
  0
LINE
  8
0
  6
CONTINUOUS
 62
     1
 10
38.289547149
 20
93.810903312
 30
0.0
 11
38.210540742
 21
93.859646387
 31
0.0
  0
LINE
  8
0
  6
CONTINUOUS
 62
     1
 10
38.210540742
 20
93.859646387
 30
0.0
 11
38.110571737
 21
93.879998726
 31
0.0
  0
LINE
  8
0
  6
CONTINUOUS
 62
     1
 10
38.110571737
 20
93.879998726
 30
0.0
 11
38.010501201
 21
93.860268948
 31
0.0
  0
LINE
  8
0
  6
CONTINUOUS
 62
     1
 10
38.010501201
 20
93.860268948
 30
0.0
 11
37.930101483
 21
93.811005377
 31
0.0
  0
LINE
  8
0
  6
CONTINUOUS
 62
     1
 10
37.930101483
 20
93.811005377
 30
0.0
 11
37.860410337
 21
93.730694862
 31
0.0
  0
LINE
  8
0
  6
CONTINUOUS
 62
     1
 10
37.860410337
 20
93.730694862
 30
0.0
 11
37.8095307
 21
93.618405329
 31
0.0
  0
LINE
  8
0
  6
CONTINUOUS
 62
     1
 10
37.8095307
 20
93.618405329
 30
0.0
 11
37.789766711
 21
93.478406504
 31
0.0
  0
LINE
  8
0
  6
CONTINUOUS
 62
     1
 10
37.789766711
 20
93.478406504
 30
0.0
 11
37.809690028
 21
93.341055834
 31
0.0
  0
LINE
  8
0
  6
CONTINUOUS
 62
     1
 10
37.809690028
 20
93.341055834
 30
0.0
 11
37.859445364
 21
93.230812275
 31
0.0
  0
LINE
  8
0
  6
CONTINUOUS
 62
     1
 10
37.859445364
 20
93.230812275
 30
0.0
 11
37.93598436
 21
93.144122937
 31
0.0
  0
LINE
  8
0
  6
CONTINUOUS
 62
     1
 10
37.93598436
 20
93.144122937
 30
0.0
 11
38.024926469
 21
93.09431359
 31
0.0
  0
LINE
  8
0
  6
CONTINUOUS
 62
     1
 10
38.024926469
 20
93.09431359
 30
0.0
 11
38.109764222
 21
93.08
 31
0.0
  0
LINE
  8
0
  6
CONTINUOUS
 62
     1
 10
39.094692979
 20
93.727631895
 30
0.0
 11
39.060314642
 21
93.584954116
 31
0.0
  0
LINE
  8
0
  6
CONTINUOUS
 62
     1
 10
39.060314642
 20
93.584954116
 30
0.0
 11
39.033340333
 21
93.439200479
 31
0.0
  0
LINE
  8
0
  6
CONTINUOUS
 62
     1
 10
39.033340333
 20
93.439200479
 30
0.0
 11
39.014123205
 21
93.291168417
 31
0.0
  0
LINE
  8
0
  6
CONTINUOUS
 62
     1
 10
39.014123205
 20
93.291168417
 30
0.0
 11
39.002908353
 21
93.141704187
 31
0.0
  0
LINE
  8
0
  6
CONTINUOUS
 62
     1
 10
39.002908353
 20
93.141704187
 30
0.0
 11
38.999824949
 21
92.991683724
 31
0.0
  0
LINE
  8
0
  6
CONTINUOUS
 62
     1
 10
38.999824949
 20
92.991683724
 30
0.0
 11
39.004882439
 21
92.841992158
 31
0.0
  0
LINE
  8
0
  6
CONTINUOUS
 62
     1
 10
39.004882439
 20
92.841992158
 30
0.0
 11
39.017971024
 21
92.69350303
 31
0.0
  0
LINE
  8
0
  6
CONTINUOUS
 62
     1
 10
39.017971024
 20
92.69350303
 30
0.0
 11
39.038866358
 21
92.547058225
 31
0.0
  0
LINE
  8
0
  6
CONTINUOUS
 62
     1
 10
39.038866358
 20
92.547058225
 30
0.0
 11
39.06723811
 21
92.403449583
 31
0.0
  0
LINE
  8
0
  6
CONTINUOUS
 62
     1
 10
39.06723811
 20
92.403449583
 30
0.0
 11
39.102661819
 21
92.263402995
 31
0.0
  0
LINE
  8
0
  6
CONTINUOUS
 62
     1
 10
39.102661819
 20
92.263402995
 30
0.0
 11
39.161749623
 21
92.198126835
 31
0.0
  0
LINE
  8
0
  6
CONTINUOUS
 62
     1
 10
39.161749623
 20
92.198126835
 30
0.0
 11
39.236463496
 21
92.147517728
 31
0.0
  0
LINE
  8
0
  6
CONTINUOUS
 62
     1
 10
39.236463496
 20
92.147517728
 30
0.0
 11
39.361478348
 21
92.120005066
 31
0.0
  0
LINE
  8
0
  6
CONTINUOUS
 62
     1
 10
39.361478348
 20
92.120005066
 30
0.0
 11
39.463683888
 21
92.139258994
 31
0.0
  0
LINE
  8
0
  6
CONTINUOUS
 62
     1
 10
39.463683888
 20
92.139258994
 30
0.0
 11
39.556548122
 21
92.196983388
 31
0.0
  0
LINE
  8
0
  6
CONTINUOUS
 62
     1
 10
39.556548122
 20
92.196983388
 30
0.0
 11
39.606231228
 21
92.257179876
 31
0.0
  0
LINE
  8
0
  6
CONTINUOUS
 62
     1
 10
39.606231228
 20
92.257179876
 30
0.0
 11
39.652208452
 21
92.403086664
 31
0.0
  0
LINE
  8
0
  6
CONTINUOUS
 62
     1
 10
39.652208452
 20
92.403086664
 30
0.0
 11
39.679903738
 21
92.542623558
 31
0.0
  0
LINE
  8
0
  6
CONTINUOUS
 62
     1
 10
39.679903738
 20
92.542623558
 30
0.0
 11
39.701501165
 21
92.693016943
 31
0.0
  0
LINE
  8
0
  6
CONTINUOUS
 62
     1
 10
39.701501165
 20
92.693016943
 30
0.0
 11
39.71465952
 21
92.842215545
 31
0.0
  0
LINE
  8
0
  6
CONTINUOUS
 62
     1
 10
39.71465952
 20
92.842215545
 30
0.0
 11
39.719706871
 21
92.99221524
 31
0.0
  0
LINE
  8
0
  6
CONTINUOUS
 62
     1
 10
39.719706871
 20
92.99221524
 30
0.0
 11
39.716359467
 21
93.147048818
 31
0.0
  0
LINE
  8
0
  6
CONTINUOUS
 62
     1
 10
39.716359467
 20
93.147048818
 30
0.0
 11
39.705429494
 21
93.290930487
 31
0.0
  0
LINE
  8
0
  6
CONTINUOUS
 62
     1
 10
39.705429494
 20
93.290930487
 30
0.0
 11
39.686024891
 21
93.44023539
 31
0.0
  0
LINE
  8
0
  6
CONTINUOUS
 62
     1
 10
39.686024891
 20
93.44023539
 30
0.0
 11
39.659451161
 21
93.583838096
 31
0.0
  0
LINE
  8
0
  6
CONTINUOUS
 62
     1
 10
39.659451161
 20
93.583838096
 30
0.0
 11
39.623464121
 21
93.730674508
 31
0.0
  0
LINE
  8
0
  6
CONTINUOUS
 62
     1
 10
39.623464121
 20
93.730674508
 30
0.0
 11
39.571320702
 21
93.808352803
 31
0.0
  0
LINE
  8
0
  6
CONTINUOUS
 62
     1
 10
39.571320702
 20
93.808352803
 30
0.0
 11
39.48521188
 21
93.871462947
 31
0.0
  0
LINE
  8
0
  6
CONTINUOUS
 62
     1
 10
39.48521188
 20
93.871462947
 30
0.0
 11
39.370333854
 21
93.899807318
 31
0.0
  0
LINE
  8
0
  6
CONTINUOUS
 62
     1
 10
39.370333854
 20
93.899807318
 30
0.0
 11
39.236433084
 21
93.872467984
 31
0.0
  0
LINE
  8
0
  6
CONTINUOUS
 62
     1
 10
39.236433084
 20
93.872467984
 30
0.0
 11
39.146943341
 21
93.806995669
 31
0.0
  0
LINE
  8
0
  6
CONTINUOUS
 62
     1
 10
39.146943341
 20
93.806995669
 30
0.0
 11
39.094692979
 21
93.727631895
 31
0.0
  0
LINE
  8
0
  6
CONTINUOUS
 62
     1
 10
37.729764172
 20
82.6
 30
0.0
 11
37.747974547
 21
82.746810616
 31
0.0
  0
LINE
  8
0
  6
CONTINUOUS
 62
     1
 10
37.747974547
 20
82.746810616
 30
0.0
 11
37.7970165
 21
82.872645817
 31
0.0
  0
LINE
  8
0
  6
CONTINUOUS
 62
     1
 10
37.7970165
 20
82.872645817
 30
0.0
 11
37.871318309
 21
82.973740162
 31
0.0
  0
LINE
  8
0
  6
CONTINUOUS
 62
     1
 10
37.871318309
 20
82.973740162
 30
0.0
 11
37.971781782
 21
83.047237923
 31
0.0
  0
LINE
  8
0
  6
CONTINUOUS
 62
     1
 10
37.971781782
 20
83.047237923
 30
0.0
 11
38.096576342
 21
83.079710851
 31
0.0
  0
LINE
  8
0
  6
CONTINUOUS
 62
     1
 10
38.096576342
 20
83.079710851
 30
0.0
 11
38.25881598
 21
83.041533872
 31
0.0
  0
LINE
  8
0
  6
CONTINUOUS
 62
     1
 10
38.25881598
 20
83.041533872
 30
0.0
 11
38.344436399
 21
82.97753198
 31
0.0
  0
LINE
  8
0
  6
CONTINUOUS
 62
     1
 10
38.344436399
 20
82.97753198
 30
0.0
 11
38.423170778
 21
82.871435848
 31
0.0
  0
LINE
  8
0
  6
CONTINUOUS
 62
     1
 10
38.423170778
 20
82.871435848
 30
0.0
 11
38.470834044
 21
82.749611162
 31
0.0
  0
LINE
  8
0
  6
CONTINUOUS
 62
     1
 10
38.470834044
 20
82.749611162
 30
0.0
 11
38.489764045
 21
82.599607098
 31
0.0
  0
LINE
  8
0
  6
CONTINUOUS
 62
     1
 10
38.489764045
 20
82.599607098
 30
0.0
 11
38.478393893
 21
82.483459539
 31
0.0
  0
LINE
  8
0
  6
CONTINUOUS
 62
     1
 10
38.478393893
 20
82.483459539
 30
0.0
 11
38.43559267
 21
82.353002434
 31
0.0
  0
LINE
  8
0
  6
CONTINUOUS
 62
     1
 10
38.43559267
 20
82.353002434
 30
0.0
 11
38.347289541
 21
82.225325779
 31
0.0
  0
LINE
  8
0
  6
CONTINUOUS
 62
     1
 10
38.347289541
 20
82.225325779
 30
0.0
 11
38.265239712
 21
82.162014947
 31
0.0
  0
LINE
  8
0
  6
CONTINUOUS
 62
     1
 10
38.265239712
 20
82.162014947
 30
0.0
 11
38.100301513
 21
82.120148846
 31
0.0
  0
LINE
  8
0
  6
CONTINUOUS
 62
     1
 10
38.100301513
 20
82.120148846
 30
0.0
 11
37.978804603
 21
82.149405549
 31
0.0
  0
LINE
  8
0
  6
CONTINUOUS
 62
     1
 10
37.978804603
 20
82.149405549
 30
0.0
 11
37.869649823
 21
82.227968156
 31
0.0
  0
LINE
  8
0
  6
CONTINUOUS
 62
     1
 10
37.869649823
 20
82.227968156
 30
0.0
 11
37.792365727
 21
82.336068827
 31
0.0
  0
LINE
  8
0
  6
CONTINUOUS
 62
     1
 10
37.792365727
 20
82.336068827
 30
0.0
 11
37.744373373
 21
82.468185592
 31
0.0
  0
LINE
  8
0
  6
CONTINUOUS
 62
     1
 10
37.744373373
 20
82.468185592
 30
0.0
 11
37.735547143
 21
82.746557868
 31
0.0
  0
LINE
  8
0
  6
CONTINUOUS
 62
     1
 10
37.735547143
 20
82.746557868
 30
0.0
 11
37.749712706
 21
82.871681071
 31
0.0
  0
LINE
  8
0
  6
CONTINUOUS
 62
     1
 10
37.749712706
 20
82.871681071
 30
0.0
 11
37.777704912
 21
83.019572686
 31
0.0
  0
LINE
  8
0
  6
CONTINUOUS
 62
     1
 10
37.777704912
 20
83.019572686
 30
0.0
 11
37.819928782
 21
83.172086263
 31
0.0
  0
LINE
  8
0
  6
CONTINUOUS
 62
     1
 10
37.819928782
 20
83.172086263
 30
0.0
 11
37.867586958
 21
83.302641904
 31
0.0
  0
LINE
  8
0
  6
CONTINUOUS
 62
     1
 10
37.867586958
 20
83.302641904
 30
0.0
 11
37.922872234
 21
83.425270422
 31
0.0
  0
LINE
  8
0
  6
CONTINUOUS
 62
     1
 10
37.922872234
 20
83.425270422
 30
0.0
 11
37.98435944
 21
83.539295292
 31
0.0
  0
LINE
  8
0
  6
CONTINUOUS
 62
     1
 10
37.98435944
 20
83.539295292
 30
0.0
 11
38.050620705
 21
83.644335861
 31
0.0
  0
LINE
  8
0
  6
CONTINUOUS
 62
     1
 10
38.050620705
 20
83.644335861
 30
0.0
 11
38.120285702
 21
83.74027761
 31
0.0
  0
LINE
  8
0
  6
CONTINUOUS
 62
     1
 10
38.120285702
 20
83.74027761
 30
0.0
 11
38.242739895
 21
83.882624496
 31
0.0
  0
LINE
  8
0
  6
CONTINUOUS
 62
     1
 10
39.094692979
 20
83.727631895
 30
0.0
 11
39.060314642
 21
83.584954116
 31
0.0
  0
LINE
  8
0
  6
CONTINUOUS
 62
     1
 10
39.060314642
 20
83.584954116
 30
0.0
 11
39.033340333
 21
83.439200479
 31
0.0
  0
LINE
  8
0
  6
CONTINUOUS
 62
     1
 10
39.033340333
 20
83.439200479
 30
0.0
 11
39.014123205
 21
83.291168417
 31
0.0
  0
LINE
  8
0
  6
CONTINUOUS
 62
     1
 10
39.014123205
 20
83.291168417
 30
0.0
 11
39.002908353
 21
83.141704187
 31
0.0
  0
LINE
  8
0
  6
CONTINUOUS
 62
     1
 10
39.002908353
 20
83.141704187
 30
0.0
 11
38.999824949
 21
82.991683724
 31
0.0
  0
LINE
  8
0
  6
CONTINUOUS
 62
     1
 10
38.999824949
 20
82.991683724
 30
0.0
 11
39.004882439
 21
82.841992158
 31
0.0
  0
LINE
  8
0
  6
CONTINUOUS
 62
     1
 10
39.004882439
 20
82.841992158
 30
0.0
 11
39.017971024
 21
82.69350303
 31
0.0
  0
LINE
  8
0
  6
CONTINUOUS
 62
     1
 10
39.017971024
 20
82.69350303
 30
0.0
 11
39.038866358
 21
82.547058225
 31
0.0
  0
LINE
  8
0
  6
CONTINUOUS
 62
     1
 10
39.038866358
 20
82.547058225
 30
0.0
 11
39.06723811
 21
82.403449583
 31
0.0
  0
LINE
  8
0
  6
CONTINUOUS
 62
     1
 10
39.06723811
 20
82.403449583
 30
0.0
 11
39.102661819
 21
82.263402995
 31
0.0
  0
LINE
  8
0
  6
CONTINUOUS
 62
     1
 10
39.102661819
 20
82.263402995
 30
0.0
 11
39.161749623
 21
82.198126835
 31
0.0
  0
LINE
  8
0
  6
CONTINUOUS
 62
     1
 10
39.161749623
 20
82.198126835
 30
0.0
 11
39.236463496
 21
82.147517728
 31
0.0
  0
LINE
  8
0
  6
CONTINUOUS
 62
     1
 10
39.236463496
 20
82.147517728
 30
0.0
 11
39.361478348
 21
82.120005066
 31
0.0
  0
LINE
  8
0
  6
CONTINUOUS
 62
     1
 10
39.361478348
 20
82.120005066
 30
0.0
 11
39.463683888
 21
82.139258994
 31
0.0
  0
LINE
  8
0
  6
CONTINUOUS
 62
     1
 10
39.463683888
 20
82.139258994
 30
0.0
 11
39.556548122
 21
82.196983388
 31
0.0
  0
LINE
  8
0
  6
CONTINUOUS
 62
     1
 10
39.556548122
 20
82.196983388
 30
0.0
 11
39.606231228
 21
82.257179876
 31
0.0
  0
LINE
  8
0
  6
CONTINUOUS
 62
     1
 10
39.606231228
 20
82.257179876
 30
0.0
 11
39.652208452
 21
82.403086664
 31
0.0
  0
LINE
  8
0
  6
CONTINUOUS
 62
     1
 10
39.652208452
 20
82.403086664
 30
0.0
 11
39.679903738
 21
82.542623558
 31
0.0
  0
LINE
  8
0
  6
CONTINUOUS
 62
     1
 10
39.679903738
 20
82.542623558
 30
0.0
 11
39.701501165
 21
82.693016943
 31
0.0
  0
LINE
  8
0
  6
CONTINUOUS
 62
     1
 10
39.701501165
 20
82.693016943
 30
0.0
 11
39.71465952
 21
82.842215545
 31
0.0
  0
LINE
  8
0
  6
CONTINUOUS
 62
     1
 10
39.71465952
 20
82.842215545
 30
0.0
 11
39.719706871
 21
82.99221524
 31
0.0
  0
LINE
  8
0
  6
CONTINUOUS
 62
     1
 10
39.719706871
 20
82.99221524
 30
0.0
 11
39.716359467
 21
83.147048818
 31
0.0
  0
LINE
  8
0
  6
CONTINUOUS
 62
     1
 10
39.716359467
 20
83.147048818
 30
0.0
 11
39.705429494
 21
83.290930487
 31
0.0
  0
LINE
  8
0
  6
CONTINUOUS
 62
     1
 10
39.705429494
 20
83.290930487
 30
0.0
 11
39.686024891
 21
83.44023539
 31
0.0
  0
LINE
  8
0
  6
CONTINUOUS
 62
     1
 10
39.686024891
 20
83.44023539
 30
0.0
 11
39.659451161
 21
83.583838096
 31
0.0
  0
LINE
  8
0
  6
CONTINUOUS
 62
     1
 10
39.659451161
 20
83.583838096
 30
0.0
 11
39.623464121
 21
83.730674508
 31
0.0
  0
LINE
  8
0
  6
CONTINUOUS
 62
     1
 10
39.623464121
 20
83.730674508
 30
0.0
 11
39.571320702
 21
83.808352803
 31
0.0
  0
LINE
  8
0
  6
CONTINUOUS
 62
     1
 10
39.571320702
 20
83.808352803
 30
0.0
 11
39.48521188
 21
83.871462947
 31
0.0
  0
LINE
  8
0
  6
CONTINUOUS
 62
     1
 10
39.48521188
 20
83.871462947
 30
0.0
 11
39.370333854
 21
83.899807318
 31
0.0
  0
LINE
  8
0
  6
CONTINUOUS
 62
     1
 10
39.370333854
 20
83.899807318
 30
0.0
 11
39.236433084
 21
83.872467984
 31
0.0
  0
LINE
  8
0
  6
CONTINUOUS
 62
     1
 10
39.236433084
 20
83.872467984
 30
0.0
 11
39.146943341
 21
83.806995669
 31
0.0
  0
LINE
  8
0
  6
CONTINUOUS
 62
     1
 10
39.146943341
 20
83.806995669
 30
0.0
 11
39.094692979
 21
83.727631895
 31
0.0
  0
LINE
  8
0
  6
CONTINUOUS
 62
     1
 10
38.269764172
 20
72.12
 30
0.0
 11
38.269764172
 21
72.27
 31
0.0
  0
LINE
  8
0
  6
CONTINUOUS
 62
     1
 10
38.269764172
 20
72.27
 30
0.0
 11
38.269764172
 21
72.42
 31
0.0
  0
LINE
  8
0
  6
CONTINUOUS
 62
     1
 10
38.269764172
 20
72.42
 30
0.0
 11
38.269764172
 21
72.57
 31
0.0
  0
LINE
  8
0
  6
CONTINUOUS
 62
     1
 10
38.269764172
 20
72.57
 30
0.0
 11
38.269764172
 21
72.72
 31
0.0
  0
LINE
  8
0
  6
CONTINUOUS
 62
     1
 10
38.269764172
 20
72.72
 30
0.0
 11
38.269764172
 21
72.87
 31
0.0
  0
LINE
  8
0
  6
CONTINUOUS
 62
     1
 10
38.269764172
 20
72.87
 30
0.0
 11
38.269764172
 21
73.02
 31
0.0
  0
LINE
  8
0
  6
CONTINUOUS
 62
     1
 10
38.269764172
 20
73.02
 30
0.0
 11
38.269764172
 21
73.22
 31
0.0
  0
LINE
  8
0
  6
CONTINUOUS
 62
     1
 10
38.269764172
 20
73.22
 30
0.0
 11
38.269764172
 21
73.07
 31
0.0
  0
LINE
  8
0
  6
CONTINUOUS
 62
     1
 10
38.269764172
 20
73.07
 30
0.0
 11
38.269764172
 21
72.92
 31
0.0
  0
LINE
  8
0
  6
CONTINUOUS
 62
     1
 10
38.269764172
 20
72.92
 30
0.0
 11
38.269764172
 21
72.77
 31
0.0
  0
LINE
  8
0
  6
CONTINUOUS
 62
     1
 10
38.269764172
 20
72.77
 30
0.0
 11
38.269764172
 21
72.62
 31
0.0
  0
LINE
  8
0
  6
CONTINUOUS
 62
     1
 10
38.269764172
 20
72.62
 30
0.0
 11
38.269764172
 21
72.52
 31
0.0
  0
LINE
  8
0
  6
CONTINUOUS
 62
     1
 10
38.269764172
 20
72.52
 30
0.0
 11
38.469764172
 21
72.52
 31
0.0
  0
LINE
  8
0
  6
CONTINUOUS
 62
     1
 10
38.469764172
 20
72.52
 30
0.0
 11
38.319764172
 21
72.52
 31
0.0
  0
LINE
  8
0
  6
CONTINUOUS
 62
     1
 10
38.319764172
 20
72.52
 30
0.0
 11
38.169764172
 21
72.52
 31
0.0
  0
LINE
  8
0
  6
CONTINUOUS
 62
     1
 10
38.169764172
 20
72.52
 30
0.0
 11
38.019764172
 21
72.52
 31
0.0
  0
LINE
  8
0
  6
CONTINUOUS
 62
     1
 10
38.019764172
 20
72.52
 30
0.0
 11
37.869764172
 21
72.52
 31
0.0
  0
LINE
  8
0
  6
CONTINUOUS
 62
     1
 10
37.869764172
 20
72.52
 30
0.0
 11
37.749764172
 21
72.52
 31
0.0
  0
LINE
  8
0
  6
CONTINUOUS
 62
     1
 10
37.749764172
 20
72.52
 30
0.0
 11
37.784212448
 21
72.66162069
 31
0.0
  0
LINE
  8
0
  6
CONTINUOUS
 62
     1
 10
37.784212448
 20
72.66162069
 30
0.0
 11
37.818660724
 21
72.803241379
 31
0.0
  0
LINE
  8
0
  6
CONTINUOUS
 62
     1
 10
37.818660724
 20
72.803241379
 30
0.0
 11
37.853108999
 21
72.944862069
 31
0.0
  0
LINE
  8
0
  6
CONTINUOUS
 62
     1
 10
37.853108999
 20
72.944862069
 30
0.0
 11
37.887557275
 21
73.086482759
 31
0.0
  0
LINE
  8
0
  6
CONTINUOUS
 62
     1
 10
37.887557275
 20
73.086482759
 30
0.0
 11
37.922005551
 21
73.228103448
 31
0.0
  0
LINE
  8
0
  6
CONTINUOUS
 62
     1
 10
37.922005551
 20
73.228103448
 30
0.0
 11
37.956453827
 21
73.369724138
 31
0.0
  0
LINE
  8
0
  6
CONTINUOUS
 62
     1
 10
37.956453827
 20
73.369724138
 30
0.0
 11
37.990902103
 21
73.511344828
 31
0.0
  0
LINE
  8
0
  6
CONTINUOUS
 62
     1
 10
37.990902103
 20
73.511344828
 30
0.0
 11
38.025350379
 21
73.652965517
 31
0.0
  0
LINE
  8
0
  6
CONTINUOUS
 62
     1
 10
38.025350379
 20
73.652965517
 30
0.0
 11
38.059798655
 21
73.794586207
 31
0.0
  0
LINE
  8
0
  6
CONTINUOUS
 62
     1
 10
38.059798655
 20
73.794586207
 30
0.0
 11
38.081401982
 21
73.883399888
 31
0.0
  0
LINE
  8
0
  6
CONTINUOUS
 62
     1
 10
39.094692979
 20
73.727631895
 30
0.0
 11
39.060314642
 21
73.584954116
 31
0.0
  0
LINE
  8
0
  6
CONTINUOUS
 62
     1
 10
39.060314642
 20
73.584954116
 30
0.0
 11
39.033340333
 21
73.439200479
 31
0.0
  0
LINE
  8
0
  6
CONTINUOUS
 62
     1
 10
39.033340333
 20
73.439200479
 30
0.0
 11
39.014123205
 21
73.291168417
 31
0.0
  0
LINE
  8
0
  6
CONTINUOUS
 62
     1
 10
39.014123205
 20
73.291168417
 30
0.0
 11
39.002908353
 21
73.141704187
 31
0.0
  0
LINE
  8
0
  6
CONTINUOUS
 62
     1
 10
39.002908353
 20
73.141704187
 30
0.0
 11
38.999824949
 21
72.991683724
 31
0.0
  0
LINE
  8
0
  6
CONTINUOUS
 62
     1
 10
38.999824949
 20
72.991683724
 30
0.0
 11
39.004882439
 21
72.841992158
 31
0.0
  0
LINE
  8
0
  6
CONTINUOUS
 62
     1
 10
39.004882439
 20
72.841992158
 30
0.0
 11
39.017971024
 21
72.69350303
 31
0.0
  0
LINE
  8
0
  6
CONTINUOUS
 62
     1
 10
39.017971024
 20
72.69350303
 30
0.0
 11
39.038866358
 21
72.547058225
 31
0.0
  0
LINE
  8
0
  6
CONTINUOUS
 62
     1
 10
39.038866358
 20
72.547058225
 30
0.0
 11
39.06723811
 21
72.403449583
 31
0.0
  0
LINE
  8
0
  6
CONTINUOUS
 62
     1
 10
39.06723811
 20
72.403449583
 30
0.0
 11
39.102661819
 21
72.263402995
 31
0.0
  0
LINE
  8
0
  6
CONTINUOUS
 62
     1
 10
39.102661819
 20
72.263402995
 30
0.0
 11
39.161749623
 21
72.198126835
 31
0.0
  0
LINE
  8
0
  6
CONTINUOUS
 62
     1
 10
39.161749623
 20
72.198126835
 30
0.0
 11
39.236463496
 21
72.147517728
 31
0.0
  0
LINE
  8
0
  6
CONTINUOUS
 62
     1
 10
39.236463496
 20
72.147517728
 30
0.0
 11
39.361478348
 21
72.120005066
 31
0.0
  0
LINE
  8
0
  6
CONTINUOUS
 62
     1
 10
39.361478348
 20
72.120005066
 30
0.0
 11
39.463683888
 21
72.139258994
 31
0.0
  0
LINE
  8
0
  6
CONTINUOUS
 62
     1
 10
39.463683888
 20
72.139258994
 30
0.0
 11
39.556548122
 21
72.196983388
 31
0.0
  0
LINE
  8
0
  6
CONTINUOUS
 62
     1
 10
39.556548122
 20
72.196983388
 30
0.0
 11
39.606231228
 21
72.257179876
 31
0.0
  0
LINE
  8
0
  6
CONTINUOUS
 62
     1
 10
39.606231228
 20
72.257179876
 30
0.0
 11
39.652208452
 21
72.403086664
 31
0.0
  0
LINE
  8
0
  6
CONTINUOUS
 62
     1
 10
39.652208452
 20
72.403086664
 30
0.0
 11
39.679903738
 21
72.542623558
 31
0.0
  0
LINE
  8
0
  6
CONTINUOUS
 62
     1
 10
39.679903738
 20
72.542623558
 30
0.0
 11
39.701501165
 21
72.693016943
 31
0.0
  0
LINE
  8
0
  6
CONTINUOUS
 62
     1
 10
39.701501165
 20
72.693016943
 30
0.0
 11
39.71465952
 21
72.842215545
 31
0.0
  0
LINE
  8
0
  6
CONTINUOUS
 62
     1
 10
39.71465952
 20
72.842215545
 30
0.0
 11
39.719706871
 21
72.99221524
 31
0.0
  0
LINE
  8
0
  6
CONTINUOUS
 62
     1
 10
39.719706871
 20
72.99221524
 30
0.0
 11
39.716359467
 21
73.147048818
 31
0.0
  0
LINE
  8
0
  6
CONTINUOUS
 62
     1
 10
39.716359467
 20
73.147048818
 30
0.0
 11
39.705429494
 21
73.290930487
 31
0.0
  0
LINE
  8
0
  6
CONTINUOUS
 62
     1
 10
39.705429494
 20
73.290930487
 30
0.0
 11
39.686024891
 21
73.44023539
 31
0.0
  0
LINE
  8
0
  6
CONTINUOUS
 62
     1
 10
39.686024891
 20
73.44023539
 30
0.0
 11
39.659451161
 21
73.583838096
 31
0.0
  0
LINE
  8
0
  6
CONTINUOUS
 62
     1
 10
39.659451161
 20
73.583838096
 30
0.0
 11
39.623464121
 21
73.730674508
 31
0.0
  0
LINE
  8
0
  6
CONTINUOUS
 62
     1
 10
39.623464121
 20
73.730674508
 30
0.0
 11
39.571320702
 21
73.808352803
 31
0.0
  0
LINE
  8
0
  6
CONTINUOUS
 62
     1
 10
39.571320702
 20
73.808352803
 30
0.0
 11
39.48521188
 21
73.871462947
 31
0.0
  0
LINE
  8
0
  6
CONTINUOUS
 62
     1
 10
39.48521188
 20
73.871462947
 30
0.0
 11
39.370333854
 21
73.899807318
 31
0.0
  0
LINE
  8
0
  6
CONTINUOUS
 62
     1
 10
39.370333854
 20
73.899807318
 30
0.0
 11
39.236433084
 21
73.872467984
 31
0.0
  0
LINE
  8
0
  6
CONTINUOUS
 62
     1
 10
39.236433084
 20
73.872467984
 30
0.0
 11
39.146943341
 21
73.806995669
 31
0.0
  0
LINE
  8
0
  6
CONTINUOUS
 62
     1
 10
39.146943341
 20
73.806995669
 30
0.0
 11
39.094692979
 21
73.727631895
 31
0.0
  0
LINE
  8
0
  6
CONTINUOUS
 62
     1
 10
37.749764172
 20
63.52
 30
0.0
 11
37.758767416
 21
63.600007985
 31
0.0
  0
LINE
  8
0
  6
CONTINUOUS
 62
     1
 10
37.758767416
 20
63.600007985
 30
0.0
 11
37.784645955
 21
63.674590249
 31
0.0
  0
LINE
  8
0
  6
CONTINUOUS
 62
     1
 10
37.784645955
 20
63.674590249
 30
0.0
 11
37.820885354
 21
63.734823249
 31
0.0
  0
LINE
  8
0
  6
CONTINUOUS
 62
     1
 10
37.820885354
 20
63.734823249
 30
0.0
 11
37.868637044
 21
63.787315746
 31
0.0
  0
LINE
  8
0
  6
CONTINUOUS
 62
     1
 10
37.868637044
 20
63.787315746
 30
0.0
 11
37.924018831
 21
63.82838072
 31
0.0
  0
LINE
  8
0
  6
CONTINUOUS
 62
     1
 10
37.924018831
 20
63.82838072
 30
0.0
 11
37.996274157
 21
63.861643113
 31
0.0
  0
LINE
  8
0
  6
CONTINUOUS
 62
     1
 10
37.996274157
 20
63.861643113
 30
0.0
 11
38.096527536
 21
63.879756573
 31
0.0
  0
LINE
  8
0
  6
CONTINUOUS
 62
     1
 10
38.096527536
 20
63.879756573
 30
0.0
 11
38.200085795
 21
63.8684853
 31
0.0
  0
LINE
  8
0
  6
CONTINUOUS
 62
     1
 10
38.200085795
 20
63.8684853
 30
0.0
 11
38.273592125
 21
63.840562633
 31
0.0
  0
LINE
  8
0
  6
CONTINUOUS
 62
     1
 10
38.273592125
 20
63.840562633
 30
0.0
 11
38.332981344
 21
63.802443081
 31
0.0
  0
LINE
  8
0
  6
CONTINUOUS
 62
     1
 10
38.332981344
 20
63.802443081
 30
0.0
 11
38.383959051
 21
63.753274877
 31
0.0
  0
LINE
  8
0
  6
CONTINUOUS
 62
     1
 10
38.383959051
 20
63.753274877
 30
0.0
 11
38.423152592
 21
63.697165736
 31
0.0
  0
LINE
  8
0
  6
CONTINUOUS
 62
     1
 10
38.423152592
 20
63.697165736
 30
0.0
 11
38.454399121
 21
63.624051679
 31
0.0
  0
LINE
  8
0
  6
CONTINUOUS
 62
     1
 10
38.454399121
 20
63.624051679
 30
0.0
 11
38.468657389
 21
63.548207426
 31
0.0
  0
LINE
  8
0
  6
CONTINUOUS
 62
     1
 10
38.468657389
 20
63.548207426
 30
0.0
 11
38.466742818
 21
63.473457048
 31
0.0
  0
LINE
  8
0
  6
CONTINUOUS
 62
     1
 10
38.466742818
 20
63.473457048
 30
0.0
 11
38.447819689
 21
63.396232204
 31
0.0
  0
LINE
  8
0
  6
CONTINUOUS
 62
     1
 10
38.447819689
 20
63.396232204
 30
0.0
 11
38.413702444
 21
63.326534244
 31
0.0
  0
LINE
  8
0
  6
CONTINUOUS
 62
     1
 10
38.413702444
 20
63.326534244
 30
0.0
 11
38.370415824
 21
63.25209975
 31
0.0
  0
LINE
  8
0
  6
CONTINUOUS
 62
     1
 10
38.370415824
 20
63.25209975
 30
0.0
 11
38.305229965
 21
63.14000792
 31
0.0
  0
LINE
  8
0
  6
CONTINUOUS
 62
     1
 10
38.305229965
 20
63.14000792
 30
0.0
 11
38.240044106
 21
63.027916091
 31
0.0
  0
LINE
  8
0
  6
CONTINUOUS
 62
     1
 10
38.240044106
 20
63.027916091
 30
0.0
 11
38.174858247
 21
62.915824262
 31
0.0
  0
LINE
  8
0
  6
CONTINUOUS
 62
     1
 10
38.174858247
 20
62.915824262
 30
0.0
 11
38.109672388
 21
62.803732433
 31
0.0
  0
LINE
  8
0
  6
CONTINUOUS
 62
     1
 10
38.109672388
 20
62.803732433
 30
0.0
 11
38.044486529
 21
62.691640603
 31
0.0
  0
LINE
  8
0
  6
CONTINUOUS
 62
     1
 10
38.044486529
 20
62.691640603
 30
0.0
 11
37.97930067
 21
62.579548774
 31
0.0
  0
LINE
  8
0
  6
CONTINUOUS
 62
     1
 10
37.97930067
 20
62.579548774
 30
0.0
 11
37.914114812
 21
62.467456945
 31
0.0
  0
LINE
  8
0
  6
CONTINUOUS
 62
     1
 10
37.914114812
 20
62.467456945
 30
0.0
 11
37.848928953
 21
62.355365116
 31
0.0
  0
LINE
  8
0
  6
CONTINUOUS
 62
     1
 10
37.848928953
 20
62.355365116
 30
0.0
 11
37.783743094
 21
62.243273286
 31
0.0
  0
LINE
  8
0
  6
CONTINUOUS
 62
     1
 10
37.783743094
 20
62.243273286
 30
0.0
 11
37.712054772
 21
62.12
 31
0.0
  0
LINE
  8
0
  6
CONTINUOUS
 62
     1
 10
37.712054772
 20
62.12
 30
0.0
 11
37.862054772
 21
62.12
 31
0.0
  0
LINE
  8
0
  6
CONTINUOUS
 62
     1
 10
37.862054772
 20
62.12
 30
0.0
 11
38.012054772
 21
62.12
 31
0.0
  0
LINE
  8
0
  6
CONTINUOUS
 62
     1
 10
38.012054772
 20
62.12
 30
0.0
 11
38.162054772
 21
62.12
 31
0.0
  0
LINE
  8
0
  6
CONTINUOUS
 62
     1
 10
38.162054772
 20
62.12
 30
0.0
 11
38.312054772
 21
62.12
 31
0.0
  0
LINE
  8
0
  6
CONTINUOUS
 62
     1
 10
38.312054772
 20
62.12
 30
0.0
 11
38.469764181
 21
62.12
 31
0.0
  0
LINE
  8
0
  6
CONTINUOUS
 62
     1
 10
39.094692979
 20
63.727631895
 30
0.0
 11
39.060314642
 21
63.584954116
 31
0.0
  0
LINE
  8
0
  6
CONTINUOUS
 62
     1
 10
39.060314642
 20
63.584954116
 30
0.0
 11
39.033340333
 21
63.439200479
 31
0.0
  0
LINE
  8
0
  6
CONTINUOUS
 62
     1
 10
39.033340333
 20
63.439200479
 30
0.0
 11
39.014123205
 21
63.291168417
 31
0.0
  0
LINE
  8
0
  6
CONTINUOUS
 62
     1
 10
39.014123205
 20
63.291168417
 30
0.0
 11
39.002908353
 21
63.141704187
 31
0.0
  0
LINE
  8
0
  6
CONTINUOUS
 62
     1
 10
39.002908353
 20
63.141704187
 30
0.0
 11
38.999824949
 21
62.991683724
 31
0.0
  0
LINE
  8
0
  6
CONTINUOUS
 62
     1
 10
38.999824949
 20
62.991683724
 30
0.0
 11
39.004882439
 21
62.841992158
 31
0.0
  0
LINE
  8
0
  6
CONTINUOUS
 62
     1
 10
39.004882439
 20
62.841992158
 30
0.0
 11
39.017971024
 21
62.69350303
 31
0.0
  0
LINE
  8
0
  6
CONTINUOUS
 62
     1
 10
39.017971024
 20
62.69350303
 30
0.0
 11
39.038866358
 21
62.547058225
 31
0.0
  0
LINE
  8
0
  6
CONTINUOUS
 62
     1
 10
39.038866358
 20
62.547058225
 30
0.0
 11
39.06723811
 21
62.403449583
 31
0.0
  0
LINE
  8
0
  6
CONTINUOUS
 62
     1
 10
39.06723811
 20
62.403449583
 30
0.0
 11
39.102661819
 21
62.263402995
 31
0.0
  0
LINE
  8
0
  6
CONTINUOUS
 62
     1
 10
39.102661819
 20
62.263402995
 30
0.0
 11
39.161749623
 21
62.198126835
 31
0.0
  0
LINE
  8
0
  6
CONTINUOUS
 62
     1
 10
39.161749623
 20
62.198126835
 30
0.0
 11
39.236463496
 21
62.147517728
 31
0.0
  0
LINE
  8
0
  6
CONTINUOUS
 62
     1
 10
39.236463496
 20
62.147517728
 30
0.0
 11
39.361478348
 21
62.120005066
 31
0.0
  0
LINE
  8
0
  6
CONTINUOUS
 62
     1
 10
39.361478348
 20
62.120005066
 30
0.0
 11
39.463683888
 21
62.139258994
 31
0.0
  0
LINE
  8
0
  6
CONTINUOUS
 62
     1
 10
39.463683888
 20
62.139258994
 30
0.0
 11
39.556548122
 21
62.196983388
 31
0.0
  0
LINE
  8
0
  6
CONTINUOUS
 62
     1
 10
39.556548122
 20
62.196983388
 30
0.0
 11
39.606231228
 21
62.257179876
 31
0.0
  0
LINE
  8
0
  6
CONTINUOUS
 62
     1
 10
39.606231228
 20
62.257179876
 30
0.0
 11
39.652208452
 21
62.403086664
 31
0.0
  0
LINE
  8
0
  6
CONTINUOUS
 62
     1
 10
39.652208452
 20
62.403086664
 30
0.0
 11
39.679903738
 21
62.542623558
 31
0.0
  0
LINE
  8
0
  6
CONTINUOUS
 62
     1
 10
39.679903738
 20
62.542623558
 30
0.0
 11
39.701501165
 21
62.693016943
 31
0.0
  0
LINE
  8
0
  6
CONTINUOUS
 62
     1
 10
39.701501165
 20
62.693016943
 30
0.0
 11
39.71465952
 21
62.842215545
 31
0.0
  0
LINE
  8
0
  6
CONTINUOUS
 62
     1
 10
39.71465952
 20
62.842215545
 30
0.0
 11
39.719706871
 21
62.99221524
 31
0.0
  0
LINE
  8
0
  6
CONTINUOUS
 62
     1
 10
39.719706871
 20
62.99221524
 30
0.0
 11
39.716359467
 21
63.147048818
 31
0.0
  0
LINE
  8
0
  6
CONTINUOUS
 62
     1
 10
39.716359467
 20
63.147048818
 30
0.0
 11
39.705429494
 21
63.290930487
 31
0.0
  0
LINE
  8
0
  6
CONTINUOUS
 62
     1
 10
39.705429494
 20
63.290930487
 30
0.0
 11
39.686024891
 21
63.44023539
 31
0.0
  0
LINE
  8
0
  6
CONTINUOUS
 62
     1
 10
39.686024891
 20
63.44023539
 30
0.0
 11
39.659451161
 21
63.583838096
 31
0.0
  0
LINE
  8
0
  6
CONTINUOUS
 62
     1
 10
39.659451161
 20
63.583838096
 30
0.0
 11
39.623464121
 21
63.730674508
 31
0.0
  0
LINE
  8
0
  6
CONTINUOUS
 62
     1
 10
39.623464121
 20
63.730674508
 30
0.0
 11
39.571320702
 21
63.808352803
 31
0.0
  0
LINE
  8
0
  6
CONTINUOUS
 62
     1
 10
39.571320702
 20
63.808352803
 30
0.0
 11
39.48521188
 21
63.871462947
 31
0.0
  0
LINE
  8
0
  6
CONTINUOUS
 62
     1
 10
39.48521188
 20
63.871462947
 30
0.0
 11
39.370333854
 21
63.899807318
 31
0.0
  0
LINE
  8
0
  6
CONTINUOUS
 62
     1
 10
39.370333854
 20
63.899807318
 30
0.0
 11
39.236433084
 21
63.872467984
 31
0.0
  0
LINE
  8
0
  6
CONTINUOUS
 62
     1
 10
39.236433084
 20
63.872467984
 30
0.0
 11
39.146943341
 21
63.806995669
 31
0.0
  0
LINE
  8
0
  6
CONTINUOUS
 62
     1
 10
39.146943341
 20
63.806995669
 30
0.0
 11
39.094692979
 21
63.727631895
 31
0.0
  0
LINE
  8
0
  6
CONTINUOUS
 62
     1
 10
37.844692979
 20
53.727631895
 30
0.0
 11
37.810314642
 21
53.584954116
 31
0.0
  0
LINE
  8
0
  6
CONTINUOUS
 62
     1
 10
37.810314642
 20
53.584954116
 30
0.0
 11
37.783340333
 21
53.439200479
 31
0.0
  0
LINE
  8
0
  6
CONTINUOUS
 62
     1
 10
37.783340333
 20
53.439200479
 30
0.0
 11
37.764123205
 21
53.291168417
 31
0.0
  0
LINE
  8
0
  6
CONTINUOUS
 62
     1
 10
37.764123205
 20
53.291168417
 30
0.0
 11
37.752908353
 21
53.141704187
 31
0.0
  0
LINE
  8
0
  6
CONTINUOUS
 62
     1
 10
37.752908353
 20
53.141704187
 30
0.0
 11
37.749824949
 21
52.991683724
 31
0.0
  0
LINE
  8
0
  6
CONTINUOUS
 62
     1
 10
37.749824949
 20
52.991683724
 30
0.0
 11
37.754882439
 21
52.841992158
 31
0.0
  0
LINE
  8
0
  6
CONTINUOUS
 62
     1
 10
37.754882439
 20
52.841992158
 30
0.0
 11
37.767971024
 21
52.69350303
 31
0.0
  0
LINE
  8
0
  6
CONTINUOUS
 62
     1
 10
37.767971024
 20
52.69350303
 30
0.0
 11
37.788866358
 21
52.547058225
 31
0.0
  0
LINE
  8
0
  6
CONTINUOUS
 62
     1
 10
37.788866358
 20
52.547058225
 30
0.0
 11
37.81723811
 21
52.403449583
 31
0.0
  0
LINE
  8
0
  6
CONTINUOUS
 62
     1
 10
37.81723811
 20
52.403449583
 30
0.0
 11
37.852661819
 21
52.263402995
 31
0.0
  0
LINE
  8
0
  6
CONTINUOUS
 62
     1
 10
37.852661819
 20
52.263402995
 30
0.0
 11
37.911749623
 21
52.198126835
 31
0.0
  0
LINE
  8
0
  6
CONTINUOUS
 62
     1
 10
37.911749623
 20
52.198126835
 30
0.0
 11
37.986463496
 21
52.147517728
 31
0.0
  0
LINE
  8
0
  6
CONTINUOUS
 62
     1
 10
37.986463496
 20
52.147517728
 30
0.0
 11
38.111478348
 21
52.120005066
 31
0.0
  0
LINE
  8
0
  6
CONTINUOUS
 62
     1
 10
38.111478348
 20
52.120005066
 30
0.0
 11
38.213683888
 21
52.139258994
 31
0.0
  0
LINE
  8
0
  6
CONTINUOUS
 62
     1
 10
38.213683888
 20
52.139258994
 30
0.0
 11
38.306548122
 21
52.196983388
 31
0.0
  0
LINE
  8
0
  6
CONTINUOUS
 62
     1
 10
38.306548122
 20
52.196983388
 30
0.0
 11
38.356231228
 21
52.257179876
 31
0.0
  0
LINE
  8
0
  6
CONTINUOUS
 62
     1
 10
38.356231228
 20
52.257179876
 30
0.0
 11
38.402208452
 21
52.403086664
 31
0.0
  0
LINE
  8
0
  6
CONTINUOUS
 62
     1
 10
38.402208452
 20
52.403086664
 30
0.0
 11
38.429903738
 21
52.542623558
 31
0.0
  0
LINE
  8
0
  6
CONTINUOUS
 62
     1
 10
38.429903738
 20
52.542623558
 30
0.0
 11
38.451501165
 21
52.693016943
 31
0.0
  0
LINE
  8
0
  6
CONTINUOUS
 62
     1
 10
38.451501165
 20
52.693016943
 30
0.0
 11
38.46465952
 21
52.842215545
 31
0.0
  0
LINE
  8
0
  6
CONTINUOUS
 62
     1
 10
38.46465952
 20
52.842215545
 30
0.0
 11
38.469706871
 21
52.99221524
 31
0.0
  0
LINE
  8
0
  6
CONTINUOUS
 62
     1
 10
38.469706871
 20
52.99221524
 30
0.0
 11
38.466359467
 21
53.147048818
 31
0.0
  0
LINE
  8
0
  6
CONTINUOUS
 62
     1
 10
38.466359467
 20
53.147048818
 30
0.0
 11
38.455429494
 21
53.290930487
 31
0.0
  0
LINE
  8
0
  6
CONTINUOUS
 62
     1
 10
38.455429494
 20
53.290930487
 30
0.0
 11
38.436024891
 21
53.44023539
 31
0.0
  0
LINE
  8
0
  6
CONTINUOUS
 62
     1
 10
38.436024891
 20
53.44023539
 30
0.0
 11
38.409451161
 21
53.583838096
 31
0.0
  0
LINE
  8
0
  6
CONTINUOUS
 62
     1
 10
38.409451161
 20
53.583838096
 30
0.0
 11
38.373464121
 21
53.730674508
 31
0.0
  0
LINE
  8
0
  6
CONTINUOUS
 62
     1
 10
38.373464121
 20
53.730674508
 30
0.0
 11
38.321320702
 21
53.808352803
 31
0.0
  0
LINE
  8
0
  6
CONTINUOUS
 62
     1
 10
38.321320702
 20
53.808352803
 30
0.0
 11
38.23521188
 21
53.871462947
 31
0.0
  0
LINE
  8
0
  6
CONTINUOUS
 62
     1
 10
38.23521188
 20
53.871462947
 30
0.0
 11
38.120333854
 21
53.899807318
 31
0.0
  0
LINE
  8
0
  6
CONTINUOUS
 62
     1
 10
38.120333854
 20
53.899807318
 30
0.0
 11
37.986433084
 21
53.872467984
 31
0.0
  0
LINE
  8
0
  6
CONTINUOUS
 62
     1
 10
37.986433084
 20
53.872467984
 30
0.0
 11
37.896943341
 21
53.806995669
 31
0.0
  0
LINE
  8
0
  6
CONTINUOUS
 62
     1
 10
37.896943341
 20
53.806995669
 30
0.0
 11
37.844692979
 21
53.727631895
 31
0.0
  0
LINE
  8
0
  6
CONTINUOUS
 62
     1
 10
189.65
 20
134.8
 30
0.0
 11
197.65
 21
134.8
 31
0.0
  0
LINE
  8
0
  6
CONTINUOUS
 62
     1
 10
197.65
 20
134.8
 30
0.0
 11
197.65
 21
164.8
 31
0.0
  0
LINE
  8
0
  6
CONTINUOUS
 62
     1
 10
197.65
 20
164.8
 30
0.0
 11
189.65
 21
164.8
 31
0.0
  0
LINE
  8
0
  6
CONTINUOUS
 62
     1
 10
189.65
 20
164.8
 30
0.0
 11
189.65
 21
134.8
 31
0.0
  0
ARC
  8
0
  6
CONTINUOUS
 62
     1
 10
61.75
 20
116.75
 30
0.0
 40
0.75
 50
90.0
 51
180.0
  0
LINE
  8
0
  6
CONTINUOUS
 62
     1
 10
65.75
 20
117.5
 30
0.0
 11
61.75
 21
117.5
 31
0.0
  0
LINE
  8
0
  6
CONTINUOUS
 62
     1
 10
160.0
 20
115.75
 30
0.0
 11
160.0
 21
116.25
 31
0.0
  0
LINE
  8
0
  6
CONTINUOUS
 62
     1
 10
66.0
 20
117.5
 30
0.0
 11
65.75
 21
117.5
 31
0.0
  0
ARC
  8
0
  6
CONTINUOUS
 62
     1
 10
61.75
 20
43.25
 30
0.0
 40
0.75
 50
180.0
 51
270.0
  0
LINE
  8
0
  6
CONTINUOUS
 62
     1
 10
65.75
 20
42.5
 30
0.0
 11
61.75
 21
42.5
 31
0.0
  0
LINE
  8
0
  6
CONTINUOUS
 62
     1
 10
160.0
 20
44.25
 30
0.0
 11
160.0
 21
43.75
 31
0.0
  0
LINE
  8
0
  6
CONTINUOUS
 62
     1
 10
151.0
 20
43.75
 30
0.0
 11
71.8
 21
43.75
 31
0.0
  0
LINE
  8
0
  6
CONTINUOUS
 62
     1
 10
66.0
 20
42.5
 30
0.0
 11
65.75
 21
42.5
 31
0.0
  0
LINE
  8
0
  6
CONTINUOUS
 62
     1
 10
161.5
 20
44.25
 30
0.0
 11
161.5
 21
115.75
 31
0.0
  0
LINE
  8
0
  6
CONTINUOUS
 62
     1
 10
72.7
 20
116.25
 30
0.0
 11
72.7
 21
121.25
 31
0.0
  0
LINE
  8
0
  6
CONTINUOUS
 62
     1
 10
72.7
 20
121.25
 30
0.0
 11
73.5
 21
121.25
 31
0.0
  0
LINE
  8
0
  6
CONTINUOUS
 62
     1
 10
73.5
 20
121.25
 30
0.0
 11
73.5
 21
116.25
 31
0.0
  0
LINE
  8
0
  6
CONTINUOUS
 62
     1
 10
73.5
 20
121.25
 30
0.0
 11
74.3
 21
121.25
 31
0.0
  0
LINE
  8
0
  6
CONTINUOUS
 62
     1
 10
74.3
 20
121.25
 30
0.0
 11
74.3
 21
117.05
 31
0.0
  0
LINE
  8
0
  6
CONTINUOUS
 62
     1
 10
74.3
 20
117.05
 30
0.0
 11
151.9
 21
117.05
 31
0.0
  0
LINE
  8
0
  6
CONTINUOUS
 62
     1
 10
152.7
 20
116.25
 30
0.0
 11
73.5
 21
116.25
 31
0.0
  0
LINE
  8
0
  6
CONTINUOUS
 62
     1
 10
68.5
 20
123.0
 30
0.0
 11
68.5
 21
116.75
 31
0.0
  0
LINE
  8
0
  6
CONTINUOUS
 62
     1
 10
68.5
 20
116.75
 30
0.0
 11
66.0
 21
116.75
 31
0.0
  0
LINE
  8
0
  6
CONTINUOUS
 62
     1
 10
66.0
 20
116.75
 30
0.0
 11
66.0
 21
123.5
 31
0.0
  0
LINE
  8
0
  6
CONTINUOUS
 62
     1
 10
68.5
 20
123.0
 30
0.0
 11
68.34375
 21
122.9
 31
0.0
  0
LINE
  8
0
  6
CONTINUOUS
 62
     1
 10
68.34375
 20
122.9
 30
0.0
 11
68.2
 21
122.8
 31
0.0
  0
LINE
  8
0
  6
CONTINUOUS
 62
     1
 10
68.2
 20
122.8
 30
0.0
 11
68.09375
 21
122.69375
 31
0.0
  0
LINE
  8
0
  6
CONTINUOUS
 62
     1
 10
68.09375
 20
122.69375
 30
0.0
 11
68.0
 21
122.6
 31
0.0
  0
LINE
  8
0
  6
CONTINUOUS
 62
     1
 10
68.0
 20
122.6
 30
0.0
 11
67.90625
 21
122.525
 31
0.0
  0
LINE
  8
0
  6
CONTINUOUS
 62
     1
 10
67.90625
 20
122.525
 30
0.0
 11
67.8
 21
122.5
 31
0.0
  0
LINE
  8
0
  6
CONTINUOUS
 62
     1
 10
67.8
 20
122.5
 30
0.0
 11
67.65625
 21
122.58125
 31
0.0
  0
LINE
  8
0
  6
CONTINUOUS
 62
     1
 10
67.65625
 20
122.58125
 30
0.0
 11
67.5
 21
122.7
 31
0.0
  0
LINE
  8
0
  6
CONTINUOUS
 62
     1
 10
67.5
 20
122.7
 30
0.0
 11
67.3375
 21
122.8
 31
0.0
  0
LINE
  8
0
  6
CONTINUOUS
 62
     1
 10
67.3375
 20
122.8
 30
0.0
 11
67.2
 21
122.9
 31
0.0
  0
LINE
  8
0
  6
CONTINUOUS
 62
     1
 10
67.2
 20
122.9
 30
0.0
 11
67.15625
 21
123.025
 31
0.0
  0
LINE
  8
0
  6
CONTINUOUS
 62
     1
 10
67.15625
 20
123.025
 30
0.0
 11
67.1
 21
123.1
 31
0.0
  0
LINE
  8
0
  6
CONTINUOUS
 62
     1
 10
67.1
 20
123.1
 30
0.0
 11
66.9
 21
123.01875
 31
0.0
  0
LINE
  8
0
  6
CONTINUOUS
 62
     1
 10
66.9
 20
123.01875
 30
0.0
 11
66.7
 21
122.9
 31
0.0
  0
LINE
  8
0
  6
CONTINUOUS
 62
     1
 10
66.7
 20
122.9
 30
0.0
 11
66.6375
 21
122.8375
 31
0.0
  0
LINE
  8
0
  6
CONTINUOUS
 62
     1
 10
66.6375
 20
122.8375
 30
0.0
 11
66.6
 21
122.8
 31
0.0
  0
LINE
  8
0
  6
CONTINUOUS
 62
     1
 10
66.6
 20
122.8
 30
0.0
 11
66.50625
 21
122.7625
 31
0.0
  0
LINE
  8
0
  6
CONTINUOUS
 62
     1
 10
66.50625
 20
122.7625
 30
0.0
 11
66.4
 21
122.8
 31
0.0
  0
LINE
  8
0
  6
CONTINUOUS
 62
     1
 10
66.4
 20
122.8
 30
0.0
 11
66.3
 21
123.0375
 31
0.0
  0
LINE
  8
0
  6
CONTINUOUS
 62
     1
 10
66.3
 20
123.0375
 30
0.0
 11
66.2
 21
123.3
 31
0.0
  0
LINE
  8
0
  6
CONTINUOUS
 62
     1
 10
66.2
 20
123.3
 30
0.0
 11
66.1
 21
123.41875
 31
0.0
  0
LINE
  8
0
  6
CONTINUOUS
 62
     1
 10
66.1
 20
123.41875
 30
0.0
 11
66.0
 21
123.5
 31
0.0
  0
LINE
  8
0
  6
CONTINUOUS
 62
     1
 10
68.5
 20
118.8
 30
0.0
 11
68.5
 21
119.9
 31
0.0
  0
POINT
  8
0
  6
CONTINUOUS
 62
     1
 10
68.5
 20
120.15
 30
0.0
  0
LINE
  8
0
  6
CONTINUOUS
 62
     1
 10
68.75
 20
120.4
 30
0.0
 11
68.5
 21
120.15
 31
0.0
  0
POINT
  8
0
  6
CONTINUOUS
 62
     1
 10
68.5
 20
118.15
 30
0.0
  0
LINE
  8
0
  6
CONTINUOUS
 62
     1
 10
68.5
 20
118.15
 30
0.0
 11
68.5
 21
120.15
 31
0.0
  0
LINE
  8
0
  6
CONTINUOUS
 62
     1
 10
68.75
 20
117.9
 30
0.0
 11
68.5
 21
118.15
 31
0.0
  0
LINE
  8
0
  6
CONTINUOUS
 62
     1
 10
158.25
 20
120.5
 30
0.0
 11
158.5
 21
120.25
 31
0.0
  0
LINE
  8
0
  6
CONTINUOUS
 62
     1
 10
158.5
 20
118.25
 30
0.0
 11
158.25
 21
118.0
 31
0.0
  0
LINE
  8
0
  6
CONTINUOUS
 62
     1
 10
158.5
 20
120.25
 30
0.0
 11
158.5
 21
118.25
 31
0.0
  0
LINE
  8
0
  6
CONTINUOUS
 62
     1
 10
74.3
 20
120.4
 30
0.0
 11
151.9
 21
120.4
 31
0.0
  0
LINE
  8
0
  6
CONTINUOUS
 62
     1
 10
74.3
 20
117.9
 30
0.0
 11
151.9
 21
117.9
 31
0.0
  0
LINE
  8
0
  6
CONTINUOUS
 62
     1
 10
68.75
 20
120.4
 30
0.0
 11
72.7
 21
120.4
 31
0.0
  0
LINE
  8
0
  6
CONTINUOUS
 62
     1
 10
68.75
 20
117.9
 30
0.0
 11
72.7
 21
117.9
 31
0.0
  0
LINE
  8
0
  6
CONTINUOUS
 62
     1
 10
160.0
 20
116.25
 30
0.0
 11
66.0
 21
116.25
 31
0.0
  0
LINE
  8
0
  6
CONTINUOUS
 62
     1
 10
65.75
 20
44.25
 30
0.0
 11
65.75
 21
44.25
 31
0.0
  0
LINE
  8
0
  6
CONTINUOUS
 62
     1
 10
161.5
 20
44.25
 30
0.0
 11
66.0
 21
44.25
 31
0.0
  0
LINE
  8
0
  6
CONTINUOUS
 62
     1
 10
160.0
 20
43.75
 30
0.0
 11
66.0
 21
43.75
 31
0.0
  0
LINE
  8
0
  6
CONTINUOUS
 62
     1
 10
65.75
 20
115.75
 30
0.0
 11
65.75
 21
115.75
 31
0.0
  0
LINE
  8
0
  6
CONTINUOUS
 62
     1
 10
161.5
 20
115.75
 30
0.0
 11
66.0
 21
115.75
 31
0.0
  0
LINE
  8
0
  6
CONTINUOUS
 62
     1
 10
61.0
 20
116.75
 30
0.0
 11
61.0
 21
43.25
 31
0.0
  0
ARC
  8
0
  6
CONTINUOUS
 62
     1
 10
176.0
 20
78.0
 30
0.0
 40
119.0
 50
165.102334344
 51
194.897665656
  0
LINE
  8
0
  6
CONTINUOUS
 62
     1
 10
151.9
 20
121.25
 30
0.0
 11
152.7
 21
121.25
 31
0.0
  0
LINE
  8
0
  6
CONTINUOUS
 62
     1
 10
151.9
 20
117.05
 30
0.0
 11
151.9
 21
121.25
 31
0.0
  0
LINE
  8
0
  6
CONTINUOUS
 62
     1
 10
154.7
 20
121.5
 30
0.0
 11
152.7
 21
121.5
 31
0.0
  0
LINE
  8
0
  6
CONTINUOUS
 62
     1
 10
154.7
 20
117.0
 30
0.0
 11
154.7
 21
121.5
 31
0.0
  0
LINE
  8
0
  6
CONTINUOUS
 62
     1
 10
152.7
 20
117.0
 30
0.0
 11
154.7
 21
117.0
 31
0.0
  0
LINE
  8
0
  6
CONTINUOUS
 62
     1
 10
152.7
 20
120.375
 30
0.0
 11
154.3
 21
120.375
 31
0.0
  0
LINE
  8
0
  6
CONTINUOUS
 62
     1
 10
154.3
 20
118.125
 30
0.0
 11
152.7
 21
118.125
 31
0.0
  0
LINE
  8
0
  6
CONTINUOUS
 62
     1
 10
154.7
 20
120.5
 30
0.0
 11
158.25
 21
120.5
 31
0.0
  0
LINE
  8
0
  6
CONTINUOUS
 62
     1
 10
158.25
 20
118.0
 30
0.0
 11
154.7
 21
118.0
 31
0.0
  0
LINE
  8
0
  6
CONTINUOUS
 62
     1
 10
152.7
 20
121.5
 30
0.0
 11
152.7
 21
116.25
 31
0.0
  0
LINE
  8
0
  6
CONTINUOUS
 62
     1
 10
66.0
 20
42.5
 30
0.0
 11
65.75
 21
42.5
 31
0.0
  0
LINE
  8
0
  6
CONTINUOUS
 62
     1
 10
72.7
 20
43.75
 30
0.0
 11
72.7
 21
38.75
 31
0.0
  0
LINE
  8
0
  6
CONTINUOUS
 62
     1
 10
72.7
 20
38.75
 30
0.0
 11
73.5
 21
38.75
 31
0.0
  0
LINE
  8
0
  6
CONTINUOUS
 62
     1
 10
73.5
 20
38.75
 30
0.0
 11
73.5
 21
43.75
 31
0.0
  0
LINE
  8
0
  6
CONTINUOUS
 62
     1
 10
73.5
 20
38.75
 30
0.0
 11
74.3
 21
38.75
 31
0.0
  0
LINE
  8
0
  6
CONTINUOUS
 62
     1
 10
74.3
 20
38.75
 30
0.0
 11
74.3
 21
42.95
 31
0.0
  0
LINE
  8
0
  6
CONTINUOUS
 62
     1
 10
74.3
 20
42.95
 30
0.0
 11
151.9
 21
42.95
 31
0.0
  0
LINE
  8
0
  6
CONTINUOUS
 62
     1
 10
152.7
 20
43.75
 30
0.0
 11
73.5
 21
43.75
 31
0.0
  0
LINE
  8
0
  6
CONTINUOUS
 62
     1
 10
68.5
 20
37.0
 30
0.0
 11
68.5
 21
43.25
 31
0.0
  0
LINE
  8
0
  6
CONTINUOUS
 62
     1
 10
68.5
 20
43.25
 30
0.0
 11
66.0
 21
43.25
 31
0.0
  0
LINE
  8
0
  6
CONTINUOUS
 62
     1
 10
66.0
 20
43.25
 30
0.0
 11
66.0
 21
36.5
 31
0.0
  0
LINE
  8
0
  6
CONTINUOUS
 62
     1
 10
68.5
 20
37.0
 30
0.0
 11
68.34375
 21
37.1
 31
0.0
  0
LINE
  8
0
  6
CONTINUOUS
 62
     1
 10
68.34375
 20
37.1
 30
0.0
 11
68.2
 21
37.2
 31
0.0
  0
LINE
  8
0
  6
CONTINUOUS
 62
     1
 10
68.2
 20
37.2
 30
0.0
 11
68.09375
 21
37.30625
 31
0.0
  0
LINE
  8
0
  6
CONTINUOUS
 62
     1
 10
68.09375
 20
37.30625
 30
0.0
 11
68.0
 21
37.4
 31
0.0
  0
LINE
  8
0
  6
CONTINUOUS
 62
     1
 10
68.0
 20
37.4
 30
0.0
 11
67.90625
 21
37.475
 31
0.0
  0
LINE
  8
0
  6
CONTINUOUS
 62
     1
 10
67.90625
 20
37.475
 30
0.0
 11
67.8
 21
37.5
 31
0.0
  0
LINE
  8
0
  6
CONTINUOUS
 62
     1
 10
67.8
 20
37.5
 30
0.0
 11
67.65625
 21
37.41875
 31
0.0
  0
LINE
  8
0
  6
CONTINUOUS
 62
     1
 10
67.65625
 20
37.41875
 30
0.0
 11
67.5
 21
37.3
 31
0.0
  0
LINE
  8
0
  6
CONTINUOUS
 62
     1
 10
67.5
 20
37.3
 30
0.0
 11
67.3375
 21
37.2
 31
0.0
  0
LINE
  8
0
  6
CONTINUOUS
 62
     1
 10
67.3375
 20
37.2
 30
0.0
 11
67.2
 21
37.1
 31
0.0
  0
LINE
  8
0
  6
CONTINUOUS
 62
     1
 10
67.2
 20
37.1
 30
0.0
 11
67.15625
 21
36.975
 31
0.0
  0
LINE
  8
0
  6
CONTINUOUS
 62
     1
 10
67.15625
 20
36.975
 30
0.0
 11
67.1
 21
36.9
 31
0.0
  0
LINE
  8
0
  6
CONTINUOUS
 62
     1
 10
67.1
 20
36.9
 30
0.0
 11
66.9
 21
36.98125
 31
0.0
  0
LINE
  8
0
  6
CONTINUOUS
 62
     1
 10
66.9
 20
36.98125
 30
0.0
 11
66.7
 21
37.1
 31
0.0
  0
LINE
  8
0
  6
CONTINUOUS
 62
     1
 10
66.7
 20
37.1
 30
0.0
 11
66.6375
 21
37.1625
 31
0.0
  0
LINE
  8
0
  6
CONTINUOUS
 62
     1
 10
66.6375
 20
37.1625
 30
0.0
 11
66.6
 21
37.2
 31
0.0
  0
LINE
  8
0
  6
CONTINUOUS
 62
     1
 10
66.6
 20
37.2
 30
0.0
 11
66.50625
 21
37.2375
 31
0.0
  0
LINE
  8
0
  6
CONTINUOUS
 62
     1
 10
66.50625
 20
37.2375
 30
0.0
 11
66.4
 21
37.2
 31
0.0
  0
LINE
  8
0
  6
CONTINUOUS
 62
     1
 10
66.4
 20
37.2
 30
0.0
 11
66.3
 21
36.9625
 31
0.0
  0
LINE
  8
0
  6
CONTINUOUS
 62
     1
 10
66.3
 20
36.9625
 30
0.0
 11
66.2
 21
36.7
 31
0.0
  0
LINE
  8
0
  6
CONTINUOUS
 62
     1
 10
66.2
 20
36.7
 30
0.0
 11
66.1
 21
36.58125
 31
0.0
  0
LINE
  8
0
  6
CONTINUOUS
 62
     1
 10
66.1
 20
36.58125
 30
0.0
 11
66.0
 21
36.5
 31
0.0
  0
LINE
  8
0
  6
CONTINUOUS
 62
     1
 10
68.5
 20
41.2
 30
0.0
 11
68.5
 21
40.1
 31
0.0
  0
POINT
  8
0
  6
CONTINUOUS
 62
     1
 10
68.5
 20
39.85
 30
0.0
  0
LINE
  8
0
  6
CONTINUOUS
 62
     1
 10
68.75
 20
39.6
 30
0.0
 11
68.5
 21
39.85
 31
0.0
  0
POINT
  8
0
  6
CONTINUOUS
 62
     1
 10
68.5
 20
41.85
 30
0.0
  0
LINE
  8
0
  6
CONTINUOUS
 62
     1
 10
68.5
 20
41.85
 30
0.0
 11
68.5
 21
39.85
 31
0.0
  0
LINE
  8
0
  6
CONTINUOUS
 62
     1
 10
68.75
 20
42.1
 30
0.0
 11
68.5
 21
41.85
 31
0.0
  0
LINE
  8
0
  6
CONTINUOUS
 62
     1
 10
158.25
 20
39.5
 30
0.0
 11
158.5
 21
39.75
 31
0.0
  0
LINE
  8
0
  6
CONTINUOUS
 62
     1
 10
158.5
 20
41.75
 30
0.0
 11
158.25
 21
42.0
 31
0.0
  0
LINE
  8
0
  6
CONTINUOUS
 62
     1
 10
158.5
 20
39.75
 30
0.0
 11
158.5
 21
41.75
 31
0.0
  0
LINE
  8
0
  6
CONTINUOUS
 62
     1
 10
74.3
 20
39.6
 30
0.0
 11
151.9
 21
39.6
 31
0.0
  0
LINE
  8
0
  6
CONTINUOUS
 62
     1
 10
74.3
 20
42.1
 30
0.0
 11
151.9
 21
42.1
 31
0.0
  0
LINE
  8
0
  6
CONTINUOUS
 62
     1
 10
68.75
 20
39.6
 30
0.0
 11
72.7
 21
39.6
 31
0.0
  0
LINE
  8
0
  6
CONTINUOUS
 62
     1
 10
68.75
 20
42.1
 30
0.0
 11
72.7
 21
42.1
 31
0.0
  0
LINE
  8
0
  6
CONTINUOUS
 62
     1
 10
160.0
 20
43.75
 30
0.0
 11
66.0
 21
43.75
 31
0.0
  0
LINE
  8
0
  6
CONTINUOUS
 62
     1
 10
151.9
 20
38.75
 30
0.0
 11
152.7
 21
38.75
 31
0.0
  0
LINE
  8
0
  6
CONTINUOUS
 62
     1
 10
151.9
 20
42.95
 30
0.0
 11
151.9
 21
38.75
 31
0.0
  0
LINE
  8
0
  6
CONTINUOUS
 62
     1
 10
154.7
 20
38.5
 30
0.0
 11
152.7
 21
38.5
 31
0.0
  0
LINE
  8
0
  6
CONTINUOUS
 62
     1
 10
154.7
 20
43.0
 30
0.0
 11
154.7
 21
38.5
 31
0.0
  0
LINE
  8
0
  6
CONTINUOUS
 62
     1
 10
152.7
 20
43.0
 30
0.0
 11
154.7
 21
43.0
 31
0.0
  0
LINE
  8
0
  6
CONTINUOUS
 62
     1
 10
152.7
 20
39.625
 30
0.0
 11
154.3
 21
39.625
 31
0.0
  0
LINE
  8
0
  6
CONTINUOUS
 62
     1
 10
154.3
 20
41.875
 30
0.0
 11
152.7
 21
41.875
 31
0.0
  0
LINE
  8
0
  6
CONTINUOUS
 62
     1
 10
154.7
 20
39.5
 30
0.0
 11
158.25
 21
39.5
 31
0.0
  0
LINE
  8
0
  6
CONTINUOUS
 62
     1
 10
158.25
 20
42.0
 30
0.0
 11
154.7
 21
42.0
 31
0.0
  0
LINE
  8
0
  6
CONTINUOUS
 62
     1
 10
152.7
 20
38.5
 30
0.0
 11
152.7
 21
43.75
 31
0.0
  0
LINE
  8
0
  6
CONTINUOUS
 62
     1
 10
161.5
 20
87.3
 30
0.0
 11
161.5
 21
48.2
 31
0.0
  0
LINE
  8
0
  6
CONTINUOUS
 62
     1
 10
161.5
 20
48.2
 30
0.0
 11
164.25
 21
48.2
 31
0.0
  0
LINE
  8
0
  6
CONTINUOUS
 62
     1
 10
164.25
 20
48.2
 30
0.0
 11
164.25
 21
52.3
 31
0.0
  0
LINE
  8
0
  6
CONTINUOUS
 62
     1
 10
164.25
 20
52.3
 30
0.0
 11
170.75
 21
52.3
 31
0.0
  0
LINE
  8
0
  6
CONTINUOUS
 62
     1
 10
170.75
 20
52.3
 30
0.0
 11
170.75
 21
53.2
 31
0.0
  0
LINE
  8
0
  6
CONTINUOUS
 62
     1
 10
170.75
 20
53.2
 30
0.0
 11
164.25
 21
53.2
 31
0.0
  0
LINE
  8
0
  6
CONTINUOUS
 62
     1
 10
164.25
 20
48.2
 30
0.0
 11
166.25
 21
48.2
 31
0.0
  0
LINE
  8
0
  6
CONTINUOUS
 62
     1
 10
164.25
 20
53.2
 30
0.0
 11
164.25
 21
57.3
 31
0.0
  0
LINE
  8
0
  6
CONTINUOUS
 62
     1
 10
164.25
 20
53.2
 30
0.0
 11
166.25
 21
53.2
 31
0.0
  0
LINE
  8
0
  6
CONTINUOUS
 62
     1
 10
164.25
 20
57.3
 30
0.0
 11
170.75
 21
57.3
 31
0.0
  0
LINE
  8
0
  6
CONTINUOUS
 62
     1
 10
170.75
 20
57.3
 30
0.0
 11
170.75
 21
58.2
 31
0.0
  0
LINE
  8
0
  6
CONTINUOUS
 62
     1
 10
170.75
 20
58.2
 30
0.0
 11
164.25
 21
58.2
 31
0.0
  0
LINE
  8
0
  6
CONTINUOUS
 62
     1
 10
164.25
 20
58.2
 30
0.0
 11
164.25
 21
62.3
 31
0.0
  0
LINE
  8
0
  6
CONTINUOUS
 62
     1
 10
164.25
 20
62.3
 30
0.0
 11
170.75
 21
62.3
 31
0.0
  0
LINE
  8
0
  6
CONTINUOUS
 62
     1
 10
170.75
 20
62.3
 30
0.0
 11
170.75
 21
63.2
 31
0.0
  0
LINE
  8
0
  6
CONTINUOUS
 62
     1
 10
170.75
 20
63.2
 30
0.0
 11
164.25
 21
63.2
 31
0.0
  0
LINE
  8
0
  6
CONTINUOUS
 62
     1
 10
164.25
 20
63.2
 30
0.0
 11
164.25
 21
67.3
 31
0.0
  0
LINE
  8
0
  6
CONTINUOUS
 62
     1
 10
164.25
 20
67.3
 30
0.0
 11
170.75
 21
67.3
 31
0.0
  0
LINE
  8
0
  6
CONTINUOUS
 62
     1
 10
170.75
 20
67.3
 30
0.0
 11
170.75
 21
68.2
 31
0.0
  0
LINE
  8
0
  6
CONTINUOUS
 62
     1
 10
170.75
 20
68.2
 30
0.0
 11
164.25
 21
68.2
 31
0.0
  0
LINE
  8
0
  6
CONTINUOUS
 62
     1
 10
164.25
 20
68.2
 30
0.0
 11
164.25
 21
72.3
 31
0.0
  0
LINE
  8
0
  6
CONTINUOUS
 62
     1
 10
164.25
 20
72.3
 30
0.0
 11
170.75
 21
72.3
 31
0.0
  0
LINE
  8
0
  6
CONTINUOUS
 62
     1
 10
170.75
 20
72.3
 30
0.0
 11
170.75
 21
73.2
 31
0.0
  0
LINE
  8
0
  6
CONTINUOUS
 62
     1
 10
170.75
 20
73.2
 30
0.0
 11
164.25
 21
73.2
 31
0.0
  0
LINE
  8
0
  6
CONTINUOUS
 62
     1
 10
164.25
 20
73.2
 30
0.0
 11
164.25
 21
77.3
 31
0.0
  0
LINE
  8
0
  6
CONTINUOUS
 62
     1
 10
164.25
 20
77.3
 30
0.0
 11
170.75
 21
77.3
 31
0.0
  0
LINE
  8
0
  6
CONTINUOUS
 62
     1
 10
170.75
 20
77.3
 30
0.0
 11
170.75
 21
78.2
 31
0.0
  0
LINE
  8
0
  6
CONTINUOUS
 62
     1
 10
170.75
 20
78.2
 30
0.0
 11
164.25
 21
78.2
 31
0.0
  0
LINE
  8
0
  6
CONTINUOUS
 62
     1
 10
164.25
 20
78.2
 30
0.0
 11
164.25
 21
82.3
 31
0.0
  0
LINE
  8
0
  6
CONTINUOUS
 62
     1
 10
164.25
 20
82.3
 30
0.0
 11
170.75
 21
82.3
 31
0.0
  0
LINE
  8
0
  6
CONTINUOUS
 62
     1
 10
170.75
 20
82.3
 30
0.0
 11
170.75
 21
83.2
 31
0.0
  0
LINE
  8
0
  6
CONTINUOUS
 62
     1
 10
170.75
 20
83.2
 30
0.0
 11
164.25
 21
83.2
 31
0.0
  0
LINE
  8
0
  6
CONTINUOUS
 62
     1
 10
161.5
 20
87.3
 30
0.0
 11
164.25
 21
87.3
 31
0.0
  0
LINE
  8
0
  6
CONTINUOUS
 62
     1
 10
164.25
 20
87.3
 30
0.0
 11
164.25
 21
83.2
 31
0.0
  0
LINE
  8
0
  6
CONTINUOUS
 62
     1
 10
164.25
 20
87.3
 30
0.0
 11
166.25
 21
87.3
 31
0.0
  0
LINE
  8
0
  6
CONTINUOUS
 62
     1
 10
160.0
 20
164.425
 30
0.0
 11
160.0
 21
146.575
 31
0.0
  0
LINE
  8
0
  6
CONTINUOUS
 62
     1
 10
61.0
 20
165.5
 30
0.0
 11
61.0
 21
145.5
 31
0.0
  0
ARC
  8
0
  6
CONTINUOUS
 62
     1
 10
161.0
 20
165.0
 30
0.0
 40
0.5
 50
0.0
 51
90.0
  0
ARC
  8
0
  6
CONTINUOUS
 62
     1
 10
161.0
 20
146.0
 30
0.0
 40
0.5
 50
270.0
 51
0.0
  0
LINE
  8
0
  6
CONTINUOUS
 62
     1
 10
160.5
 20
155.75
 30
0.0
 11
161.5
 21
155.75
 31
0.0
  0
LINE
  8
0
  6
CONTINUOUS
 62
     1
 10
161.5
 20
155.75
 30
0.0
 11
161.5
 21
165.0
 31
0.0
  0
LINE
  8
0
  6
CONTINUOUS
 62
     1
 10
161.5
 20
155.25
 30
0.0
 11
160.5
 21
155.25
 31
0.0
  0
LINE
  8
0
  6
CONTINUOUS
 62
     1
 10
161.5
 20
146.0
 30
0.0
 11
161.5
 21
155.25
 31
0.0
  0
LINE
  8
0
  6
CONTINUOUS
 62
     1
 10
160.5
 20
155.25
 30
0.0
 11
160.5
 21
146.5
 31
0.0
  0
LINE
  8
0
  6
CONTINUOUS
 62
     1
 10
160.5
 20
164.5
 30
0.0
 11
160.5
 21
155.75
 31
0.0
  0
LINE
  8
0
  6
CONTINUOUS
 62
     1
 10
63.5
 20
150.25
 30
0.0
 11
63.5
 21
160.75
 31
0.0
  0
LINE
  8
0
  6
CONTINUOUS
 62
     1
 10
65.75
 20
150.25
 30
0.0
 11
65.75
 21
146.75
 31
0.0
  0
LINE
  8
0
  6
CONTINUOUS
 62
     1
 10
63.5
 20
150.25
 30
0.0
 11
65.75
 21
150.25
 31
0.0
  0
LINE
  8
0
  6
CONTINUOUS
 62
     1
 10
65.75
 20
146.75
 30
0.0
 11
61.0
 21
146.75
 31
0.0
  0
LINE
  8
0
  6
CONTINUOUS
 62
     1
 10
61.0
 20
145.5
 30
0.0
 11
65.75
 21
145.5
 31
0.0
  0
LINE
  8
0
  6
CONTINUOUS
 62
     1
 10
61.0
 20
146.5
 30
0.0
 11
65.75
 21
146.5
 31
0.0
  0
LINE
  8
0
  6
CONTINUOUS
 62
     1
 10
65.75
 20
160.75
 30
0.0
 11
65.75
 21
164.25
 31
0.0
  0
LINE
  8
0
  6
CONTINUOUS
 62
     1
 10
65.75
 20
160.5
 30
0.0
 11
66.0
 21
160.5
 31
0.0
  0
LINE
  8
0
  6
CONTINUOUS
 62
     1
 10
63.5
 20
160.75
 30
0.0
 11
65.75
 21
160.75
 31
0.0
  0
LINE
  8
0
  6
CONTINUOUS
 62
     1
 10
65.75
 20
164.25
 30
0.0
 11
61.0
 21
164.25
 31
0.0
  0
LINE
  8
0
  6
CONTINUOUS
 62
     1
 10
65.75
 20
164.5
 30
0.0
 11
61.0
 21
164.5
 31
0.0
  0
LINE
  8
0
  6
CONTINUOUS
 62
     1
 10
65.75
 20
165.5
 30
0.0
 11
61.0
 21
165.5
 31
0.0
  0
LINE
  8
0
  6
CONTINUOUS
 62
     1
 10
160.5
 20
164.5
 30
0.0
 11
66.0
 21
164.5
 31
0.0
  0
LINE
  8
0
  6
CONTINUOUS
 62
     1
 10
161.0
 20
165.5
 30
0.0
 11
66.0
 21
165.5
 31
0.0
  0
LINE
  8
0
  6
CONTINUOUS
 62
     1
 10
70.75
 20
146.5
 30
0.0
 11
70.75
 21
150.5
 31
0.0
  0
LINE
  8
0
  6
CONTINUOUS
 62
     1
 10
74.3
 20
151.25
 30
0.0
 11
74.3
 21
159.75
 31
0.0
  0
LINE
  8
0
  6
CONTINUOUS
 62
     1
 10
152.7
 20
151.25
 30
0.0
 11
152.7
 21
151.25
 31
0.0
  0
LINE
  8
0
  6
CONTINUOUS
 62
     1
 10
73.5
 20
151.25
 30
0.0
 11
152.7
 21
151.25
 31
0.0
  0
LINE
  8
0
  6
CONTINUOUS
 62
     1
 10
152.7
 20
151.25
 30
0.0
 11
152.7
 21
159.75
 31
0.0
  0
LINE
  8
0
  6
CONTINUOUS
 62
     1
 10
152.7
 20
159.75
 30
0.0
 11
73.5
 21
159.75
 31
0.0
  0
LINE
  8
0
  6
CONTINUOUS
 62
     1
 10
151.9
 20
159.75
 30
0.0
 11
151.9
 21
151.25
 31
0.0
  0
LINE
  8
0
  6
CONTINUOUS
 62
     1
 10
71.0
 20
148.5
 30
0.0
 11
71.0
 21
152.0
 31
0.0
  0
LINE
  8
0
  6
CONTINUOUS
 62
     1
 10
71.0
 20
152.0
 30
0.0
 11
72.7
 21
152.0
 31
0.0
  0
LINE
  8
0
  6
CONTINUOUS
 62
     1
 10
71.0
 20
148.5
 30
0.0
 11
73.5
 21
148.5
 31
0.0
  0
LINE
  8
0
  6
CONTINUOUS
 62
     1
 10
73.5
 20
148.5
 30
0.0
 11
73.5
 21
149.25
 31
0.0
  0
LINE
  8
0
  6
CONTINUOUS
 62
     1
 10
73.5
 20
149.25
 30
0.0
 11
72.7
 21
149.25
 31
0.0
  0
LINE
  8
0
  6
CONTINUOUS
 62
     1
 10
72.7
 20
149.25
 30
0.0
 11
73.5
 21
149.25
 31
0.0
  0
LINE
  8
0
  6
CONTINUOUS
 62
     1
 10
72.7
 20
149.25
 30
0.0
 11
72.7
 21
161.75
 31
0.0
  0
LINE
  8
0
  6
CONTINUOUS
 62
     1
 10
73.5
 20
159.75
 30
0.0
 11
152.7
 21
159.75
 31
0.0
  0
LINE
  8
0
  6
CONTINUOUS
 62
     1
 10
71.0
 20
162.5
 30
0.0
 11
71.0
 21
159.0
 31
0.0
  0
LINE
  8
0
  6
CONTINUOUS
 62
     1
 10
71.0
 20
159.0
 30
0.0
 11
72.7
 21
159.0
 31
0.0
  0
LINE
  8
0
  6
CONTINUOUS
 62
     1
 10
71.0
 20
162.5
 30
0.0
 11
73.5
 21
162.5
 31
0.0
  0
LINE
  8
0
  6
CONTINUOUS
 62
     1
 10
73.5
 20
162.5
 30
0.0
 11
73.5
 21
161.75
 31
0.0
  0
LINE
  8
0
  6
CONTINUOUS
 62
     1
 10
73.5
 20
161.75
 30
0.0
 11
72.7
 21
161.75
 31
0.0
  0
LINE
  8
0
  6
CONTINUOUS
 62
     1
 10
72.7
 20
161.75
 30
0.0
 11
73.5
 21
161.75
 31
0.0
  0
LINE
  8
0
  6
CONTINUOUS
 62
     1
 10
72.7
 20
161.75
 30
0.0
 11
72.7
 21
149.25
 31
0.0
  0
LINE
  8
0
  6
CONTINUOUS
 62
     1
 10
73.5
 20
149.25
 30
0.0
 11
73.5
 21
161.75
 31
0.0
  0
LINE
  8
0
  6
CONTINUOUS
 62
     1
 10
70.75
 20
164.5
 30
0.0
 11
70.75
 21
160.5
 31
0.0
  0
LINE
  8
0
  6
CONTINUOUS
 62
     1
 10
70.75
 20
160.5
 30
0.0
 11
66.0
 21
160.5
 31
0.0
  0
POINT
  8
0
  6
CONTINUOUS
 62
     1
 10
68.5
 20
156.5
 30
0.0
  0
LINE
  8
0
  6
CONTINUOUS
 62
     1
 10
68.75
 20
156.75
 30
0.0
 11
68.5
 21
156.5
 31
0.0
  0
POINT
  8
0
  6
CONTINUOUS
 62
     1
 10
68.5
 20
154.5
 30
0.0
  0
LINE
  8
0
  6
CONTINUOUS
 62
     1
 10
68.5
 20
154.5
 30
0.0
 11
68.5
 21
156.5
 31
0.0
  0
LINE
  8
0
  6
CONTINUOUS
 62
     1
 10
68.75
 20
154.25
 30
0.0
 11
68.5
 21
154.5
 31
0.0
  0
POINT
  8
0
  6
CONTINUOUS
 62
     1
 10
158.0
 20
155.25
 30
0.0
  0
LINE
  8
0
  6
CONTINUOUS
 62
     1
 10
158.25
 20
156.75
 30
0.0
 11
158.5
 21
156.5
 31
0.0
  0
LINE
  8
0
  6
CONTINUOUS
 62
     1
 10
158.5
 20
154.5
 30
0.0
 11
158.25
 21
154.25
 31
0.0
  0
LINE
  8
0
  6
CONTINUOUS
 62
     1
 10
158.5
 20
156.5
 30
0.0
 11
158.5
 21
154.5
 31
0.0
  0
LINE
  8
0
  6
CONTINUOUS
 62
     1
 10
68.75
 20
156.75
 30
0.0
 11
72.7
 21
156.75
 31
0.0
  0
LINE
  8
0
  6
CONTINUOUS
 62
     1
 10
68.75
 20
154.25
 30
0.0
 11
72.7
 21
154.25
 31
0.0
  0
LINE
  8
0
  6
CONTINUOUS
 62
     1
 10
74.3
 20
156.75
 30
0.0
 11
151.9
 21
156.75
 31
0.0
  0
LINE
  8
0
  6
CONTINUOUS
 62
     1
 10
74.3
 20
154.25
 30
0.0
 11
151.9
 21
154.25
 31
0.0
  0
LINE
  8
0
  6
CONTINUOUS
 62
     1
 10
65.75
 20
146.5
 30
0.0
 11
65.75
 21
146.5
 31
0.0
  0
LINE
  8
0
  6
CONTINUOUS
 62
     1
 10
152.7
 20
157.448557159
 30
0.0
 11
154.7
 21
157.448557159
 31
0.0
  0
LINE
  8
0
  6
CONTINUOUS
 62
     1
 10
154.7
 20
157.448557159
 30
0.0
 11
154.7
 21
153.551442841
 31
0.0
  0
LINE
  8
0
  6
CONTINUOUS
 62
     1
 10
154.7
 20
153.551442841
 30
0.0
 11
152.7
 21
153.551442841
 31
0.0
  0
LINE
  8
0
  6
CONTINUOUS
 62
     1
 10
158.25
 20
154.25
 30
0.0
 11
154.7
 21
154.25
 31
0.0
  0
LINE
  8
0
  6
CONTINUOUS
 62
     1
 10
154.7
 20
156.75
 30
0.0
 11
158.25
 21
156.75
 31
0.0
  0
LINE
  8
0
  6
CONTINUOUS
 62
     1
 10
152.7
 20
155.5
 30
0.0
 11
154.3
 21
155.5
 31
0.0
  0
LINE
  8
0
  6
CONTINUOUS
 62
     1
 10
61.0
 20
164.25
 30
0.0
 11
57.0
 21
164.25
 31
0.0
  0
LINE
  8
0
  6
CONTINUOUS
 62
     1
 10
57.0
 20
164.25
 30
0.0
 11
57.0
 21
146.75
 31
0.0
  0
LINE
  8
0
  6
CONTINUOUS
 62
     1
 10
57.0
 20
146.75
 30
0.0
 11
61.0
 21
146.75
 31
0.0
  0
LINE
  8
0
  6
CONTINUOUS
 62
     1
 10
65.75
 20
145.5
 30
0.0
 11
161.0
 21
145.5
 31
0.0
  0
LINE
  8
0
  6
CONTINUOUS
 62
     1
 10
65.75
 20
146.5
 30
0.0
 11
160.5
 21
146.5
 31
0.0
  0
LINE
  8
0
  6
CONTINUOUS
 62
     1
 10
70.75
 20
150.5
 30
0.0
 11
65.75
 21
150.5
 31
0.0
  0
LINE
  8
0
  6
CONTINUOUS
 62
     1
 10
65.75
 20
150.5
 30
0.0
 11
65.75
 21
146.75
 31
0.0
  0
LINE
  8
0
  6
CONTINUOUS
 62
     1
 10
66.0
 20
150.5
 30
0.0
 11
66.0
 21
160.75
 31
0.0
  0
LINE
  8
0
  6
CONTINUOUS
 62
     2
 10
46.0
 20
118.5
 30
0.0
 11
46.0
 21
125.5
 31
0.0
  0
LINE
  8
0
  6
CONTINUOUS
 62
     2
 10
46.0
 20
123.5
 30
0.0
 11
43.585185434
 21
124.147047613
 31
0.0
  0
LINE
  8
0
  6
CONTINUOUS
 62
     2
 10
46.0
 20
123.5
 30
0.0
 11
43.585185434
 21
122.852952387
 31
0.0
  0
LINE
  8
0
  6
CONTINUOUS
 62
     2
 10
46.0
 20
123.5
 30
0.0
 11
26.0
 21
123.5
 31
0.0
  0
LINE
  8
0
  6
CONTINUOUS
 62
     2
 10
26.0
 20
123.5
 30
0.0
 11
28.414814566
 21
122.852952387
 31
0.0
  0
LINE
  8
0
  6
CONTINUOUS
 62
     2
 10
26.0
 20
123.5
 30
0.0
 11
28.414814566
 21
124.147047613
 31
0.0
  0
LINE
  8
0
  6
CONTINUOUS
 62
     2
 10
26.0
 20
118.5
 30
0.0
 11
26.0
 21
125.5
 31
0.0
  0
TEXT
  8
0
  6
CONTINUOUS
 62
     2
 10
34.05
 20
124.5
 30
0.3
 40
3.0
  1
４０
 50
0.0
 41
0.6
 51
0.0
  7
KANJI0
  0
LINE
  8
0
  6
CONTINUOUS
 62
     2
 10
16.0
 20
117.5
 30
0.0
 11
15.352952387
 21
115.085185434
 31
0.0
  0
LINE
  8
0
  6
CONTINUOUS
 62
     2
 10
16.0
 20
117.5
 30
0.0
 11
16.647047613
 21
115.085185434
 31
0.0
  0
LINE
  8
0
  6
CONTINUOUS
 62
     2
 10
16.0
 20
117.5
 30
0.0
 11
16.0
 21
107.25
 31
0.0
  0
LINE
  8
0
  6
CONTINUOUS
 62
     2
 10
16.0
 20
107.25
 30
0.0
 11
16.647047613
 21
109.664814566
 31
0.0
  0
LINE
  8
0
  6
CONTINUOUS
 62
     2
 10
16.0
 20
107.25
 30
0.0
 11
15.352952387
 21
109.664814566
 31
0.0
  0
TEXT
  8
0
  6
CONTINUOUS
 62
     2
 10
15.0
 20
108.325
 30
0.3
 40
3.0
  1
２０．５
 50
90.0
 41
0.6
 51
0.0
  7
KANJI0
  0
LINE
  8
0
  6
CONTINUOUS
 62
     2
 10
16.0
 20
42.5
 30
0.0
 11
16.647047613
 21
44.914814566
 31
0.0
  0
LINE
  8
0
  6
CONTINUOUS
 62
     2
 10
16.0
 20
42.5
 30
0.0
 11
15.352952387
 21
44.914814566
 31
0.0
  0
LINE
  8
0
  6
CONTINUOUS
 62
     2
 10
16.0
 20
42.5
 30
0.0
 11
16.0
 21
48.75
 31
0.0
  0
LINE
  8
0
  6
CONTINUOUS
 62
     2
 10
16.0
 20
48.75
 30
0.0
 11
15.352952387
 21
46.335185434
 31
0.0
  0
LINE
  8
0
  6
CONTINUOUS
 62
     2
 10
16.0
 20
48.75
 30
0.0
 11
16.647047613
 21
46.335185434
 31
0.0
  0
LINE
  8
0
  6
CONTINUOUS
 62
     2
 10
23.5
 20
107.25
 30
0.0
 11
14.0
 21
107.25
 31
0.0
  0
LINE
  8
0
  6
CONTINUOUS
 62
     2
 10
24.0
 20
117.5
 30
0.0
 11
14.0
 21
117.5
 31
0.0
  0
LINE
  8
0
  6
CONTINUOUS
 62
     2
 10
23.5
 20
48.75
 30
0.0
 11
14.0
 21
48.75
 31
0.0
  0
LINE
  8
0
  6
CONTINUOUS
 62
     2
 10
24.0
 20
42.5
 30
0.0
 11
14.0
 21
42.5
 31
0.0
  0
TEXT
  8
0
  6
CONTINUOUS
 62
     2
 10
28.95
 20
110.25
 30
0.3
 40
3.0
  1
（名称板）
 50
0.0
 41
0.9
 51
0.0
  7
KANJI1
  0
TEXT
  8
0
  6
CONTINUOUS
 62
     2
 10
29.45
 20
44.25
 30
0.3
 40
3.0
  1
（ＴＡＧ板）
 50
0.0
 41
0.9
 51
0.0
  7
KANJI1
  0
LINE
  8
0
  6
CONTINUOUS
 62
     2
 10
28.0
 20
106.0
 30
0.0
 11
28.0
 21
50.25
 31
0.0
  0
LINE
  8
0
  6
CONTINUOUS
 62
     2
 10
44.0
 20
50.25
 30
0.0
 11
44.0
 21
106.0
 31
0.0
  0
LINE
  8
0
  6
CONTINUOUS
 62
     2
 10
28.0
 20
50.25
 30
0.0
 11
44.0
 21
50.25
 31
0.0
  0
LINE
  8
0
  6
CONTINUOUS
 62
     2
 10
44.0
 20
106.0
 30
0.0
 11
28.0
 21
106.0
 31
0.0
  0
LINE
  8
0
  6
CONTINUOUS
 62
     2
 10
34.0
 20
106.0
 30
0.0
 11
34.0
 21
50.25
 31
0.0
  0
LINE
  8
0
  6
CONTINUOUS
 62
     2
 10
36.9125
 20
53.075
 30
0.0
 11
36.9125
 21
52.925
 31
0.0
  0
LINE
  8
0
  6
CONTINUOUS
 62
     2
 10
34.0
 20
57.925
 30
0.0
 11
34.0
 21
58.075
 31
0.0
  0
LINE
  8
0
  6
CONTINUOUS
 62
     2
 10
36.9125
 20
58.075
 30
0.0
 11
36.9125
 21
57.925
 31
0.0
  0
LINE
  8
0
  6
CONTINUOUS
 62
     2
 10
34.0
 20
62.925
 30
0.0
 11
34.0
 21
63.075
 31
0.0
  0
LINE
  8
0
  6
CONTINUOUS
 62
     2
 10
36.9125
 20
63.075
 30
0.0
 11
36.9125
 21
62.925
 31
0.0
  0
LINE
  8
0
  6
CONTINUOUS
 62
     2
 10
34.0
 20
67.925
 30
0.0
 11
34.0
 21
68.075
 31
0.0
  0
LINE
  8
0
  6
CONTINUOUS
 62
     2
 10
36.9125
 20
68.075
 30
0.0
 11
36.9125
 21
67.925
 31
0.0
  0
LINE
  8
0
  6
CONTINUOUS
 62
     2
 10
34.0
 20
72.925
 30
0.0
 11
34.0
 21
73.075
 31
0.0
  0
LINE
  8
0
  6
CONTINUOUS
 62
     2
 10
36.9125
 20
73.075
 30
0.0
 11
36.9125
 21
72.925
 31
0.0
  0
LINE
  8
0
  6
CONTINUOUS
 62
     2
 10
34.0
 20
77.925
 30
0.0
 11
34.0
 21
78.075
 31
0.0
  0
LINE
  8
0
  6
CONTINUOUS
 62
     2
 10
36.9125
 20
78.075
 30
0.0
 11
36.9125
 21
77.925
 31
0.0
  0
LINE
  8
0
  6
CONTINUOUS
 62
     2
 10
34.0
 20
82.925
 30
0.0
 11
34.0
 21
83.075
 31
0.0
  0
LINE
  8
0
  6
CONTINUOUS
 62
     2
 10
36.9125
 20
83.075
 30
0.0
 11
36.9125
 21
82.925
 31
0.0
  0
LINE
  8
0
  6
CONTINUOUS
 62
     2
 10
34.0
 20
87.925
 30
0.0
 11
34.0
 21
88.075
 31
0.0
  0
LINE
  8
0
  6
CONTINUOUS
 62
     2
 10
36.9125
 20
88.075
 30
0.0
 11
36.9125
 21
87.925
 31
0.0
  0
LINE
  8
0
  6
CONTINUOUS
 62
     2
 10
34.0
 20
92.925
 30
0.0
 11
34.0
 21
93.075
 31
0.0
  0
LINE
  8
0
  6
CONTINUOUS
 62
     2
 10
36.9125
 20
93.075
 30
0.0
 11
36.9125
 21
92.925
 31
0.0
  0
LINE
  8
0
  6
CONTINUOUS
 62
     2
 10
34.0
 20
97.925
 30
0.0
 11
34.0
 21
98.075
 31
0.0
  0
LINE
  8
0
  6
CONTINUOUS
 62
     2
 10
36.9125
 20
98.075
 30
0.0
 11
36.9125
 21
97.925
 31
0.0
  0
LINE
  8
0
  6
CONTINUOUS
 62
     2
 10
34.0
 20
102.925
 30
0.0
 11
34.0
 21
103.075
 31
0.0
  0
LINE
  8
0
  6
CONTINUOUS
 62
     2
 10
36.9125
 20
103.075
 30
0.0
 11
36.9125
 21
102.925
 31
0.0
  0
ARC
  8
0
  6
CONTINUOUS
 62
     2
 10
31.04
 20
78.4
 30
0.0
 40
1.056
 50
337.467174552
 51
22.511176732
  0
ARC
  8
0
  6
CONTINUOUS
 62
     2
 10
31.04
 20
78.4
 30
0.0
 40
1.032
 50
337.684584171
 51
22.324706219
  0
ARC
  8
0
  6
CONTINUOUS
 62
     2
 10
31.04
 20
78.4
 30
0.0
 40
1.008
 50
337.549614612
 51
22.453599418
  0
ARC
  8
0
  6
CONTINUOUS
 62
     2
 10
31.04
 20
78.4
 30
0.0
 40
0.984
 50
337.442033402
 51
22.554911701
  0
ARC
  8
0
  6
CONTINUOUS
 62
     2
 10
31.04
 20
78.4
 30
0.0
 40
0.96
 50
337.452380695
 51
22.564315364
  0
ARC
  8
0
  6
CONTINUOUS
 62
     2
 10
32.48
 20
78.4
 30
0.0
 40
1.056
 50
157.488823268
 51
202.532825448
  0
ARC
  8
0
  6
CONTINUOUS
 62
     2
 10
32.48
 20
78.4
 30
0.0
 40
1.032
 50
157.675293781
 51
202.315415829
  0
ARC
  8
0
  6
CONTINUOUS
 62
     2
 10
32.48
 20
78.4
 30
0.0
 40
1.008
 50
157.546400582
 51
202.450385388
  0
ARC
  8
0
  6
CONTINUOUS
 62
     2
 10
32.48
 20
78.4
 30
0.0
 40
0.984
 50
157.445088299
 51
202.557966598
  0
ARC
  8
0
  6
CONTINUOUS
 62
     2
 10
32.48
 20
78.4
 30
0.0
 40
0.96
 50
157.435684636
 51
202.547619305
  0
ARC
  8
0
  6
CONTINUOUS
 62
     2
 10
31.76
 20
78.7
 30
0.0
 40
0.18
 50
22.323602445
 51
157.676397555
  0
ARC
  8
0
  6
CONTINUOUS
 62
     2
 10
31.76
 20
78.7
 30
0.0
 40
0.204
 50
22.306563269
 51
157.693436731
  0
ARC
  8
0
  6
CONTINUOUS
 62
     2
 10
31.76
 20
78.7
 30
0.0
 40
0.228
 50
21.884823963
 51
158.115176037
  0
ARC
  8
0
  6
CONTINUOUS
 62
     2
 10
31.76
 20
78.7
 30
0.0
 40
0.252
 50
21.411238642
 51
158.588761358
  0
ARC
  8
0
  6
CONTINUOUS
 62
     2
 10
31.76
 20
78.7
 30
0.0
 40
0.276
 50
22.204019072
 51
157.795980928
  0
ARC
  8
0
  6
CONTINUOUS
 62
     2
 10
31.76
 20
78.1
 30
0.0
 40
0.18
 50
202.234559129
 51
337.765440871
  0
ARC
  8
0
  6
CONTINUOUS
 62
     2
 10
31.76
 20
78.1
 30
0.0
 40
0.204
 50
202.321298355
 51
337.678701645
  0
ARC
  8
0
  6
CONTINUOUS
 62
     2
 10
31.76
 20
78.1
 30
0.0
 40
0.228
 50
201.870616205
 51
338.129383795
  0
ARC
  8
0
  6
CONTINUOUS
 62
     2
 10
31.76
 20
78.1
 30
0.0
 40
0.252
 50
201.373203871
 51
338.626796129
  0
ARC
  8
0
  6
CONTINUOUS
 62
     2
 10
31.76
 20
78.1
 30
0.0
 40
0.276
 50
202.286846658
 51
337.713153342
  0
ARC
  8
0
  6
CONTINUOUS
 62
     2
 10
32.32
 20
77.6
 30
0.0
 40
1.056
 50
337.467174552
 51
22.511176732
  0
ARC
  8
0
  6
CONTINUOUS
 62
     2
 10
32.32
 20
77.6
 30
0.0
 40
1.032
 50
337.684584171
 51
22.324706219
  0
ARC
  8
0
  6
CONTINUOUS
 62
     2
 10
32.32
 20
77.6
 30
0.0
 40
1.008
 50
337.549614612
 51
22.453599418
  0
ARC
  8
0
  6
CONTINUOUS
 62
     2
 10
32.32
 20
77.6
 30
0.0
 40
0.984
 50
337.442033402
 51
22.554911701
  0
ARC
  8
0
  6
CONTINUOUS
 62
     2
 10
32.32
 20
77.6
 30
0.0
 40
0.96
 50
337.452380695
 51
22.564315364
  0
ARC
  8
0
  6
CONTINUOUS
 62
     2
 10
33.76
 20
77.6
 30
0.0
 40
1.056
 50
157.488823268
 51
202.532825448
  0
ARC
  8
0
  6
CONTINUOUS
 62
     2
 10
33.76
 20
77.6
 30
0.0
 40
1.032
 50
157.675293781
 51
202.315415829
  0
ARC
  8
0
  6
CONTINUOUS
 62
     2
 10
33.76
 20
77.6
 30
0.0
 40
1.008
 50
157.546400582
 51
202.450385388
  0
ARC
  8
0
  6
CONTINUOUS
 62
     2
 10
33.76
 20
77.6
 30
0.0
 40
0.984
 50
157.445088299
 51
202.557966598
  0
ARC
  8
0
  6
CONTINUOUS
 62
     2
 10
33.76
 20
77.6
 30
0.0
 40
0.96
 50
157.435684636
 51
202.547619305
  0
ARC
  8
0
  6
CONTINUOUS
 62
     2
 10
33.04
 20
77.9
 30
0.0
 40
0.18
 50
22.323602445
 51
157.676397555
  0
ARC
  8
0
  6
CONTINUOUS
 62
     2
 10
33.04
 20
77.9
 30
0.0
 40
0.204
 50
22.306563269
 51
157.693436731
  0
ARC
  8
0
  6
CONTINUOUS
 62
     2
 10
33.04
 20
77.9
 30
0.0
 40
0.228
 50
21.884823963
 51
158.115176037
  0
ARC
  8
0
  6
CONTINUOUS
 62
     2
 10
33.04
 20
77.9
 30
0.0
 40
0.252
 50
21.411238642
 51
158.588761358
  0
ARC
  8
0
  6
CONTINUOUS
 62
     2
 10
33.04
 20
77.9
 30
0.0
 40
0.276
 50
22.204019072
 51
157.795980928
  0
ARC
  8
0
  6
CONTINUOUS
 62
     2
 10
33.04
 20
77.3
 30
0.0
 40
0.18
 50
202.234559129
 51
337.765440871
  0
ARC
  8
0
  6
CONTINUOUS
 62
     2
 10
33.04
 20
77.3
 30
0.0
 40
0.204
 50
202.321298355
 51
337.678701645
  0
ARC
  8
0
  6
CONTINUOUS
 62
     2
 10
33.04
 20
77.3
 30
0.0
 40
0.228
 50
201.870616205
 51
338.129383795
  0
ARC
  8
0
  6
CONTINUOUS
 62
     2
 10
33.04
 20
77.3
 30
0.0
 40
0.252
 50
201.373203871
 51
338.626796129
  0
ARC
  8
0
  6
CONTINUOUS
 62
     2
 10
33.04
 20
77.3
 30
0.0
 40
0.276
 50
202.286846658
 51
337.713153342
  0
LINE
  8
0
  6
CONTINUOUS
 62
     2
 10
33.215454591
 20
78.897146195
 30
0.0
 11
31.658085676
 21
77.041146195
 31
0.0
  0
LINE
  8
0
  6
CONTINUOUS
 62
     2
 10
33.141914324
 20
78.958853805
 30
0.0
 11
31.584545409
 21
77.102853805
 31
0.0
  0
LINE
  8
0
  6
CONTINUOUS
 62
     2
 10
31.639700609
 20
77.056573097
 30
0.0
 11
33.197069524
 21
78.912573097
 31
0.0
  0
LINE
  8
0
  6
CONTINUOUS
 62
     2
 10
31.602930476
 20
77.087426903
 30
0.0
 11
33.160299391
 21
78.943426903
 31
0.0
  0
LINE
  8
0
  6
CONTINUOUS
 62
     2
 10
33.178684458
 20
78.928
 30
0.0
 11
31.621315542
 21
77.072
 31
0.0
  0
ARC
  8
0
  6
CONTINUOUS
 62
     2
 10
31.621315542
 20
77.072
 30
0.0
 40
0.024
 50
140.0
 51
320.0
  0
ARC
  8
0
  6
CONTINUOUS
 62
     2
 10
31.621315542
 20
77.072
 30
0.0
 40
0.048
 50
140.0
 51
320.0
  0
ARC
  8
0
  6
CONTINUOUS
 62
     2
 10
33.178684458
 20
78.928
 30
0.0
 40
0.024
 50
320.0
 51
140.0
  0
ARC
  8
0
  6
CONTINUOUS
 62
     2
 10
33.178684458
 20
78.928
 30
0.0
 40
0.048
 50
320.0
 51
140.0
  0
LINE
  8
0
  6
CONTINUOUS
 62
     2
 10
34.125
 20
53.0
 30
0.0
 11
36.7875
 21
53.0
 31
0.0
  0
LINE
  8
0
  6
CONTINUOUS
 62
     2
 10
34.125
 20
58.0
 30
0.0
 11
36.7875
 21
58.0
 31
0.0
  0
LINE
  8
0
  6
CONTINUOUS
 62
     2
 10
34.125
 20
63.0
 30
0.0
 11
36.7875
 21
63.0
 31
0.0
  0
LINE
  8
0
  6
CONTINUOUS
 62
     2
 10
34.125
 20
68.0
 30
0.0
 11
36.7875
 21
68.0
 31
0.0
  0
LINE
  8
0
  6
CONTINUOUS
 62
     2
 10
34.125
 20
73.0
 30
0.0
 11
36.7875
 21
73.0
 31
0.0
  0
LINE
  8
0
  6
CONTINUOUS
 62
     2
 10
34.125
 20
78.0
 30
0.0
 11
36.7875
 21
78.0
 31
0.0
  0
LINE
  8
0
  6
CONTINUOUS
 62
     2
 10
34.125
 20
83.0
 30
0.0
 11
36.7875
 21
83.0
 31
0.0
  0
LINE
  8
0
  6
CONTINUOUS
 62
     2
 10
34.125
 20
88.0
 30
0.0
 11
36.7875
 21
88.0
 31
0.0
  0
LINE
  8
0
  6
CONTINUOUS
 62
     2
 10
34.125
 20
93.0
 30
0.0
 11
36.7875
 21
93.0
 31
0.0
  0
LINE
  8
0
  6
CONTINUOUS
 62
     2
 10
34.125
 20
98.0
 30
0.0
 11
36.7875
 21
98.0
 31
0.0
  0
LINE
  8
0
  6
CONTINUOUS
 62
     2
 10
34.125
 20
103.0
 30
0.0
 11
36.7875
 21
103.0
 31
0.0
  0
LINE
  8
0
  6
CONTINUOUS
 62
     2
 10
34.0
 20
53.075
 30
0.0
 11
36.9125
 21
53.075
 31
0.0
  0
LINE
  8
0
  6
CONTINUOUS
 62
     2
 10
36.9125
 20
52.925
 30
0.0
 11
34.0
 21
52.925
 31
0.0
  0
LINE
  8
0
  6
CONTINUOUS
 62
     2
 10
34.0
 20
54.0
 30
0.0
 11
35.9125
 21
54.0
 31
0.0
  0
LINE
  8
0
  6
CONTINUOUS
 62
     2
 10
35.9125
 20
54.0
 30
0.0
 11
34.0
 21
54.0
 31
0.0
  0
LINE
  8
0
  6
CONTINUOUS
 62
     2
 10
34.0
 20
55.0
 30
0.0
 11
35.9125
 21
55.0
 31
0.0
  0
LINE
  8
0
  6
CONTINUOUS
 62
     2
 10
35.9125
 20
55.0
 30
0.0
 11
34.0
 21
55.0
 31
0.0
  0
LINE
  8
0
  6
CONTINUOUS
 62
     2
 10
34.0
 20
56.0
 30
0.0
 11
35.9125
 21
56.0
 31
0.0
  0
LINE
  8
0
  6
CONTINUOUS
 62
     2
 10
35.9125
 20
56.0
 30
0.0
 11
34.0
 21
56.0
 31
0.0
  0
LINE
  8
0
  6
CONTINUOUS
 62
     2
 10
34.0
 20
57.0
 30
0.0
 11
35.9125
 21
57.0
 31
0.0
  0
LINE
  8
0
  6
CONTINUOUS
 62
     2
 10
35.9125
 20
57.0
 30
0.0
 11
34.0
 21
57.0
 31
0.0
  0
LINE
  8
0
  6
CONTINUOUS
 62
     2
 10
34.0
 20
58.075
 30
0.0
 11
36.9125
 21
58.075
 31
0.0
  0
LINE
  8
0
  6
CONTINUOUS
 62
     2
 10
36.9125
 20
57.925
 30
0.0
 11
34.0
 21
57.925
 31
0.0
  0
LINE
  8
0
  6
CONTINUOUS
 62
     2
 10
34.0
 20
63.075
 30
0.0
 11
36.9125
 21
63.075
 31
0.0
  0
LINE
  8
0
  6
CONTINUOUS
 62
     2
 10
36.9125
 20
62.925
 30
0.0
 11
34.0
 21
62.925
 31
0.0
  0
LINE
  8
0
  6
CONTINUOUS
 62
     2
 10
34.0
 20
68.075
 30
0.0
 11
36.9125
 21
68.075
 31
0.0
  0
LINE
  8
0
  6
CONTINUOUS
 62
     2
 10
36.9125
 20
67.925
 30
0.0
 11
34.0
 21
67.925
 31
0.0
  0
LINE
  8
0
  6
CONTINUOUS
 62
     2
 10
34.0
 20
73.075
 30
0.0
 11
36.9125
 21
73.075
 31
0.0
  0
LINE
  8
0
  6
CONTINUOUS
 62
     2
 10
36.9125
 20
72.925
 30
0.0
 11
34.0
 21
72.925
 31
0.0
  0
LINE
  8
0
  6
CONTINUOUS
 62
     2
 10
34.0
 20
78.075
 30
0.0
 11
36.9125
 21
78.075
 31
0.0
  0
LINE
  8
0
  6
CONTINUOUS
 62
     2
 10
36.9125
 20
77.925
 30
0.0
 11
34.0
 21
77.925
 31
0.0
  0
LINE
  8
0
  6
CONTINUOUS
 62
     2
 10
34.0
 20
83.075
 30
0.0
 11
36.9125
 21
83.075
 31
0.0
  0
LINE
  8
0
  6
CONTINUOUS
 62
     2
 10
36.9125
 20
82.925
 30
0.0
 11
34.0
 21
82.925
 31
0.0
  0
LINE
  8
0
  6
CONTINUOUS
 62
     2
 10
34.0
 20
88.075
 30
0.0
 11
36.9125
 21
88.075
 31
0.0
  0
LINE
  8
0
  6
CONTINUOUS
 62
     2
 10
36.9125
 20
87.925
 30
0.0
 11
34.0
 21
87.925
 31
0.0
  0
LINE
  8
0
  6
CONTINUOUS
 62
     2
 10
34.0
 20
93.075
 30
0.0
 11
36.9125
 21
93.075
 31
0.0
  0
LINE
  8
0
  6
CONTINUOUS
 62
     2
 10
36.9125
 20
92.925
 30
0.0
 11
34.0
 21
92.925
 31
0.0
  0
LINE
  8
0
  6
CONTINUOUS
 62
     2
 10
34.0
 20
98.075
 30
0.0
 11
36.9125
 21
98.075
 31
0.0
  0
LINE
  8
0
  6
CONTINUOUS
 62
     2
 10
36.9125
 20
97.925
 30
0.0
 11
34.0
 21
97.925
 31
0.0
  0
LINE
  8
0
  6
CONTINUOUS
 62
     2
 10
34.0
 20
103.075
 30
0.0
 11
36.9125
 21
103.075
 31
0.0
  0
LINE
  8
0
  6
CONTINUOUS
 62
     2
 10
36.9125
 20
102.925
 30
0.0
 11
34.0
 21
102.925
 31
0.0
  0
LINE
  8
0
  6
CONTINUOUS
 62
     2
 10
34.0
 20
59.0
 30
0.0
 11
35.9125
 21
59.0
 31
0.0
  0
LINE
  8
0
  6
CONTINUOUS
 62
     2
 10
35.9125
 20
59.0
 30
0.0
 11
34.0
 21
59.0
 31
0.0
  0
LINE
  8
0
  6
CONTINUOUS
 62
     2
 10
34.0
 20
60.0
 30
0.0
 11
35.9125
 21
60.0
 31
0.0
  0
LINE
  8
0
  6
CONTINUOUS
 62
     2
 10
35.9125
 20
60.0
 30
0.0
 11
34.0
 21
60.0
 31
0.0
  0
LINE
  8
0
  6
CONTINUOUS
 62
     2
 10
34.0
 20
61.0
 30
0.0
 11
35.9125
 21
61.0
 31
0.0
  0
LINE
  8
0
  6
CONTINUOUS
 62
     2
 10
35.9125
 20
61.0
 30
0.0
 11
34.0
 21
61.0
 31
0.0
  0
LINE
  8
0
  6
CONTINUOUS
 62
     2
 10
34.0
 20
62.0
 30
0.0
 11
35.9125
 21
62.0
 31
0.0
  0
LINE
  8
0
  6
CONTINUOUS
 62
     2
 10
35.9125
 20
62.0
 30
0.0
 11
34.0
 21
62.0
 31
0.0
  0
LINE
  8
0
  6
CONTINUOUS
 62
     2
 10
34.0
 20
64.0
 30
0.0
 11
35.9125
 21
64.0
 31
0.0
  0
LINE
  8
0
  6
CONTINUOUS
 62
     2
 10
35.9125
 20
64.0
 30
0.0
 11
34.0
 21
64.0
 31
0.0
  0
LINE
  8
0
  6
CONTINUOUS
 62
     2
 10
34.0
 20
65.0
 30
0.0
 11
35.9125
 21
65.0
 31
0.0
  0
LINE
  8
0
  6
CONTINUOUS
 62
     2
 10
35.9125
 20
65.0
 30
0.0
 11
34.0
 21
65.0
 31
0.0
  0
LINE
  8
0
  6
CONTINUOUS
 62
     2
 10
34.0
 20
66.0
 30
0.0
 11
35.9125
 21
66.0
 31
0.0
  0
LINE
  8
0
  6
CONTINUOUS
 62
     2
 10
35.9125
 20
66.0
 30
0.0
 11
34.0
 21
66.0
 31
0.0
  0
LINE
  8
0
  6
CONTINUOUS
 62
     2
 10
34.0
 20
67.0
 30
0.0
 11
35.9125
 21
67.0
 31
0.0
  0
LINE
  8
0
  6
CONTINUOUS
 62
     2
 10
35.9125
 20
67.0
 30
0.0
 11
34.0
 21
67.0
 31
0.0
  0
LINE
  8
0
  6
CONTINUOUS
 62
     2
 10
34.0
 20
69.0
 30
0.0
 11
35.9125
 21
69.0
 31
0.0
  0
LINE
  8
0
  6
CONTINUOUS
 62
     2
 10
35.9125
 20
69.0
 30
0.0
 11
34.0
 21
69.0
 31
0.0
  0
LINE
  8
0
  6
CONTINUOUS
 62
     2
 10
34.0
 20
70.0
 30
0.0
 11
35.9125
 21
70.0
 31
0.0
  0
LINE
  8
0
  6
CONTINUOUS
 62
     2
 10
35.9125
 20
70.0
 30
0.0
 11
34.0
 21
70.0
 31
0.0
  0
LINE
  8
0
  6
CONTINUOUS
 62
     2
 10
34.0
 20
71.0
 30
0.0
 11
35.9125
 21
71.0
 31
0.0
  0
LINE
  8
0
  6
CONTINUOUS
 62
     2
 10
35.9125
 20
71.0
 30
0.0
 11
34.0
 21
71.0
 31
0.0
  0
LINE
  8
0
  6
CONTINUOUS
 62
     2
 10
34.0
 20
72.0
 30
0.0
 11
35.9125
 21
72.0
 31
0.0
  0
LINE
  8
0
  6
CONTINUOUS
 62
     2
 10
35.9125
 20
72.0
 30
0.0
 11
34.0
 21
72.0
 31
0.0
  0
LINE
  8
0
  6
CONTINUOUS
 62
     2
 10
34.0
 20
74.0
 30
0.0
 11
35.9125
 21
74.0
 31
0.0
  0
LINE
  8
0
  6
CONTINUOUS
 62
     2
 10
35.9125
 20
74.0
 30
0.0
 11
34.0
 21
74.0
 31
0.0
  0
LINE
  8
0
  6
CONTINUOUS
 62
     2
 10
34.0
 20
75.0
 30
0.0
 11
35.9125
 21
75.0
 31
0.0
  0
LINE
  8
0
  6
CONTINUOUS
 62
     2
 10
35.9125
 20
75.0
 30
0.0
 11
34.0
 21
75.0
 31
0.0
  0
LINE
  8
0
  6
CONTINUOUS
 62
     2
 10
34.0
 20
76.0
 30
0.0
 11
35.9125
 21
76.0
 31
0.0
  0
LINE
  8
0
  6
CONTINUOUS
 62
     2
 10
35.9125
 20
76.0
 30
0.0
 11
34.0
 21
76.0
 31
0.0
  0
LINE
  8
0
  6
CONTINUOUS
 62
     2
 10
34.0
 20
77.0
 30
0.0
 11
35.9125
 21
77.0
 31
0.0
  0
LINE
  8
0
  6
CONTINUOUS
 62
     2
 10
35.9125
 20
77.0
 30
0.0
 11
34.0
 21
77.0
 31
0.0
  0
LINE
  8
0
  6
CONTINUOUS
 62
     2
 10
34.0
 20
79.0
 30
0.0
 11
35.9125
 21
79.0
 31
0.0
  0
LINE
  8
0
  6
CONTINUOUS
 62
     2
 10
35.9125
 20
79.0
 30
0.0
 11
34.0
 21
79.0
 31
0.0
  0
LINE
  8
0
  6
CONTINUOUS
 62
     2
 10
34.0
 20
80.0
 30
0.0
 11
35.9125
 21
80.0
 31
0.0
  0
LINE
  8
0
  6
CONTINUOUS
 62
     2
 10
35.9125
 20
80.0
 30
0.0
 11
34.0
 21
80.0
 31
0.0
  0
LINE
  8
0
  6
CONTINUOUS
 62
     2
 10
34.0
 20
81.0
 30
0.0
 11
35.9125
 21
81.0
 31
0.0
  0
LINE
  8
0
  6
CONTINUOUS
 62
     2
 10
35.9125
 20
81.0
 30
0.0
 11
34.0
 21
81.0
 31
0.0
  0
LINE
  8
0
  6
CONTINUOUS
 62
     2
 10
34.0
 20
82.0
 30
0.0
 11
35.9125
 21
82.0
 31
0.0
  0
LINE
  8
0
  6
CONTINUOUS
 62
     2
 10
35.9125
 20
82.0
 30
0.0
 11
34.0
 21
82.0
 31
0.0
  0
LINE
  8
0
  6
CONTINUOUS
 62
     2
 10
34.0
 20
84.0
 30
0.0
 11
35.9125
 21
84.0
 31
0.0
  0
LINE
  8
0
  6
CONTINUOUS
 62
     2
 10
35.9125
 20
84.0
 30
0.0
 11
34.0
 21
84.0
 31
0.0
  0
LINE
  8
0
  6
CONTINUOUS
 62
     2
 10
34.0
 20
85.0
 30
0.0
 11
35.9125
 21
85.0
 31
0.0
  0
LINE
  8
0
  6
CONTINUOUS
 62
     2
 10
35.9125
 20
85.0
 30
0.0
 11
34.0
 21
85.0
 31
0.0
  0
LINE
  8
0
  6
CONTINUOUS
 62
     2
 10
34.0
 20
86.0
 30
0.0
 11
35.9125
 21
86.0
 31
0.0
  0
LINE
  8
0
  6
CONTINUOUS
 62
     2
 10
35.9125
 20
86.0
 30
0.0
 11
34.0
 21
86.0
 31
0.0
  0
LINE
  8
0
  6
CONTINUOUS
 62
     2
 10
34.0
 20
87.0
 30
0.0
 11
35.9125
 21
87.0
 31
0.0
  0
LINE
  8
0
  6
CONTINUOUS
 62
     2
 10
35.9125
 20
87.0
 30
0.0
 11
34.0
 21
87.0
 31
0.0
  0
LINE
  8
0
  6
CONTINUOUS
 62
     2
 10
34.0
 20
89.0
 30
0.0
 11
35.9125
 21
89.0
 31
0.0
  0
LINE
  8
0
  6
CONTINUOUS
 62
     2
 10
35.9125
 20
89.0
 30
0.0
 11
34.0
 21
89.0
 31
0.0
  0
LINE
  8
0
  6
CONTINUOUS
 62
     2
 10
34.0
 20
90.0
 30
0.0
 11
35.9125
 21
90.0
 31
0.0
  0
LINE
  8
0
  6
CONTINUOUS
 62
     2
 10
35.9125
 20
90.0
 30
0.0
 11
34.0
 21
90.0
 31
0.0
  0
LINE
  8
0
  6
CONTINUOUS
 62
     2
 10
34.0
 20
91.0
 30
0.0
 11
35.9125
 21
91.0
 31
0.0
  0
LINE
  8
0
  6
CONTINUOUS
 62
     2
 10
35.9125
 20
91.0
 30
0.0
 11
34.0
 21
91.0
 31
0.0
  0
LINE
  8
0
  6
CONTINUOUS
 62
     2
 10
34.0
 20
92.0
 30
0.0
 11
35.9125
 21
92.0
 31
0.0
  0
LINE
  8
0
  6
CONTINUOUS
 62
     2
 10
35.9125
 20
92.0
 30
0.0
 11
34.0
 21
92.0
 31
0.0
  0
LINE
  8
0
  6
CONTINUOUS
 62
     2
 10
34.0
 20
94.0
 30
0.0
 11
35.9125
 21
94.0
 31
0.0
  0
LINE
  8
0
  6
CONTINUOUS
 62
     2
 10
35.9125
 20
94.0
 30
0.0
 11
34.0
 21
94.0
 31
0.0
  0
LINE
  8
0
  6
CONTINUOUS
 62
     2
 10
34.0
 20
95.0
 30
0.0
 11
35.9125
 21
95.0
 31
0.0
  0
LINE
  8
0
  6
CONTINUOUS
 62
     2
 10
35.9125
 20
95.0
 30
0.0
 11
34.0
 21
95.0
 31
0.0
  0
LINE
  8
0
  6
CONTINUOUS
 62
     2
 10
34.0
 20
96.0
 30
0.0
 11
35.9125
 21
96.0
 31
0.0
  0
LINE
  8
0
  6
CONTINUOUS
 62
     2
 10
35.9125
 20
96.0
 30
0.0
 11
34.0
 21
96.0
 31
0.0
  0
LINE
  8
0
  6
CONTINUOUS
 62
     2
 10
34.0
 20
97.0
 30
0.0
 11
35.9125
 21
97.0
 31
0.0
  0
LINE
  8
0
  6
CONTINUOUS
 62
     2
 10
35.9125
 20
97.0
 30
0.0
 11
34.0
 21
97.0
 31
0.0
  0
LINE
  8
0
  6
CONTINUOUS
 62
     2
 10
34.0
 20
99.0
 30
0.0
 11
35.9125
 21
99.0
 31
0.0
  0
LINE
  8
0
  6
CONTINUOUS
 62
     2
 10
35.9125
 20
99.0
 30
0.0
 11
34.0
 21
99.0
 31
0.0
  0
LINE
  8
0
  6
CONTINUOUS
 62
     2
 10
34.0
 20
100.0
 30
0.0
 11
35.9125
 21
100.0
 31
0.0
  0
LINE
  8
0
  6
CONTINUOUS
 62
     2
 10
35.9125
 20
100.0
 30
0.0
 11
34.0
 21
100.0
 31
0.0
  0
LINE
  8
0
  6
CONTINUOUS
 62
     2
 10
34.0
 20
101.0
 30
0.0
 11
35.9125
 21
101.0
 31
0.0
  0
LINE
  8
0
  6
CONTINUOUS
 62
     2
 10
35.9125
 20
101.0
 30
0.0
 11
34.0
 21
101.0
 31
0.0
  0
LINE
  8
0
  6
CONTINUOUS
 62
     2
 10
34.0
 20
102.0
 30
0.0
 11
35.9125
 21
102.0
 31
0.0
  0
LINE
  8
0
  6
CONTINUOUS
 62
     2
 10
35.9125
 20
102.0
 30
0.0
 11
34.0
 21
102.0
 31
0.0
  0
TEXT
  8
0
  6
CONTINUOUS
 62
     2
 10
15.1
 20
26.15
 30
0.3
 40
3.0
  1
目盛長　１００ｍｍ
 50
0.0
 41
0.9
 51
0.0
  7
KANJI1
  0
LINE
  8
0
  6
CONTINUOUS
 62
     2
 10
33.75
 20
53.15
 30
0.0
 11
30.5
 21
54.65
 31
0.0
  0
LINE
  8
0
  6
CONTINUOUS
 62
     2
 10
30.5
 20
51.65
 30
0.0
 11
33.75
 21
53.15
 31
0.0
  0
LINE
  8
0
  6
CONTINUOUS
 62
     2
 10
30.5
 20
54.65
 30
0.0
 11
29.961781772
 21
54.65
 31
0.0
  0
LINE
  8
0
  6
CONTINUOUS
 62
     2
 10
29.715183291
 20
54.441099747
 30
0.0
 11
29.5
 21
53.15
 31
0.0
  0
ARC
  8
0
  6
CONTINUOUS
 62
     2
 10
29.961781772
 20
54.4
 30
0.0
 40
0.25
 50
90.0
 51
170.537677792
  0
LINE
  8
0
  6
CONTINUOUS
 62
     2
 10
29.5
 20
53.15
 30
0.0
 11
29.715183291
 21
51.858900253
 31
0.0
  0
LINE
  8
0
  6
CONTINUOUS
 62
     2
 10
29.961781772
 20
51.65
 30
0.0
 11
30.5
 21
51.65
 31
0.0
  0
ARC
  8
0
  6
CONTINUOUS
 62
     2
 10
29.961781772
 20
51.9
 30
0.0
 40
0.25
 50
189.462322208
 51
270.0
  0
LINE
  8
0
  6
CONTINUOUS
 62
     2
 10
30.75
 20
51.765384615
 30
0.0
 11
30.75
 21
50.25
 31
0.0
  0
LINE
  8
0
  6
CONTINUOUS
 62
     2
 10
30.75
 20
106.0
 30
0.0
 11
30.75
 21
54.534615385
 31
0.0
  0
LINE
  8
0
  6
CONTINUOUS
 62
     2
 10
29.65
 20
54.065384615
 30
0.0
 11
28.94123746
 21
56.462811499
 31
0.0
  0
LINE
  8
0
  6
CONTINUOUS
 62
     2
 10
29.65
 20
54.065384615
 30
0.0
 11
27.837480194
 21
55.787235931
 31
0.0
  0
LINE
  8
0
  6
CONTINUOUS
 62
     2
 10
29.65
 20
54.065384615
 30
0.0
 11
22.55
 21
65.665384615
 31
0.0
  0
LINE
  8
0
  6
CONTINUOUS
 62
     2
 10
22.55
 20
65.665384615
 30
0.0
 11
13.95
 21
65.665384615
 31
0.0
  0
TEXT
  8
0
  6
CONTINUOUS
 62
     2
 10
15.85
 20
66.665384615
 30
0.3
 40
3.0
  1
指針
 50
0.0
 41
0.9
 51
0.0
  7
KANJI1
  0
LINE
  8
0
  6
CONTINUOUS
 62
     2
 10
188.65
 20
164.8
 30
0.0
 11
182.65
 21
164.8
 31
0.0
  0
LINE
  8
0
  6
CONTINUOUS
 62
     2
 10
184.65
 20
164.8
 30
0.0
 11
184.002952387
 21
162.385185434
 31
0.0
  0
LINE
  8
0
  6
CONTINUOUS
 62
     2
 10
184.65
 20
164.8
 30
0.0
 11
185.297047613
 21
162.385185434
 31
0.0
  0
LINE
  8
0
  6
CONTINUOUS
 62
     2
 10
184.65
 20
164.8
 30
0.0
 11
184.65
 21
134.8
 31
0.0
  0
LINE
  8
0
  6
CONTINUOUS
 62
     2
 10
188.65
 20
134.8
 30
0.0
 11
182.65
 21
134.8
 31
0.0
  0
TEXT
  8
0
  6
CONTINUOUS
 62
     2
 10
183.65
 20
145.63
 30
0.3
 40
3.0
  1
１４６
 50
90.0
 41
0.6
 51
0.0
  7
KANJI0
  0
TEXT
  8
0
  6
CONTINUOUS
 62
     2
 10
183.65
 20
152.08
 30
0.18
 40
1.8
  1
－０
 50
90.0
 41
0.6
 51
0.0
  7
KANJI2
  0
TEXT
  8
0
  6
CONTINUOUS
 62
     2
 10
181.85
 20
152.08
 30
0.18
 40
1.8
  1
＋１
 50
90.0
 41
0.6
 51
0.0
  7
KANJI2
  0
TEXT
  8
0
  6
CONTINUOUS
 62
     2
 10
193.5
 20
162.8
 30
0.3
 40
3.0
  1
パネルカット寸法
 50
0.0
 41
0.9
 51
0.0
  7
KANJI3
  0
LINE
  8
0
  6
LTYPE1
 62
     2
 10
184.65
 20
149.8
 30
0.0
 11
189.65
 21
149.8
 31
0.0
  0
LINE
  8
0
  6
LTYPE1
 62
     2
 10
197.65
 20
149.8
 30
0.0
 11
202.65
 21
149.8
 31
0.0
  0
LINE
  8
0
  6
CONTINUOUS
 62
     2
 10
189.65
 20
173.8
 30
0.0
 11
187.235185434
 21
174.447047613
 31
0.0
  0
LINE
  8
0
  6
CONTINUOUS
 62
     2
 10
189.65
 20
173.8
 30
0.0
 11
187.235185434
 21
173.152952387
 31
0.0
  0
LINE
  8
0
  6
CONTINUOUS
 62
     2
 10
185.9
 20
173.8
 30
0.0
 11
189.65
 21
173.8
 31
0.0
  0
LINE
  8
0
  6
CONTINUOUS
 62
     2
 10
189.65
 20
173.8
 30
0.0
 11
197.65
 21
173.8
 31
0.0
  0
LINE
  8
0
  6
CONTINUOUS
 62
     2
 10
197.65
 20
173.8
 30
0.0
 11
200.064814566
 21
173.152952387
 31
0.0
  0
LINE
  8
0
  6
CONTINUOUS
 62
     2
 10
197.65
 20
173.8
 30
0.0
 11
200.064814566
 21
174.447047613
 31
0.0
  0
LINE
  8
0
  6
CONTINUOUS
 62
     2
 10
197.65
 20
173.8
 30
0.0
 11
206.95
 21
173.8
 31
0.0
  0
LINE
  8
0
  6
CONTINUOUS
 62
     2
 10
203.0
 20
168.8
 30
0.0
 11
202.352952387
 21
166.385185434
 31
0.0
  0
LINE
  8
0
  6
CONTINUOUS
 62
     2
 10
203.0
 20
168.8
 30
0.0
 11
203.647047613
 21
166.385185434
 31
0.0
  0
LINE
  8
0
  6
CONTINUOUS
 62
     2
 10
203.0
 20
168.8
 30
0.0
 11
203.0
 21
130.8
 31
0.0
  0
LINE
  8
0
  6
CONTINUOUS
 62
     2
 10
203.0
 20
130.8
 30
0.0
 11
203.647047613
 21
133.214814566
 31
0.0
  0
LINE
  8
0
  6
CONTINUOUS
 62
     2
 10
203.0
 20
130.8
 30
0.0
 11
202.352952387
 21
133.214814566
 31
0.0
  0
LINE
  8
0
  6
CONTINUOUS
 62
     2
 10
198.0
 20
130.8
 30
0.0
 11
205.0
 21
130.8
 31
0.0
  0
LINE
  8
0
  6
CONTINUOUS
 62
     2
 10
197.65
 20
168.8
 30
0.0
 11
205.0
 21
168.8
 31
0.0
  0
LINE
  8
0
  6
LTYPE2
 62
     2
 10
197.65
 20
168.8
 30
0.0
 11
189.65
 21
168.8
 31
0.0
  0
LINE
  8
0
  6
CONTINUOUS
 62
     2
 10
189.65
 20
168.8
 30
0.0
 11
189.65
 21
175.8
 31
0.0
  0
LINE
  8
0
  6
CONTINUOUS
 62
     2
 10
197.65
 20
168.8
 30
0.0
 11
197.65
 21
175.8
 31
0.0
  0
LINE
  8
0
  6
LTYPE2
 62
     2
 10
189.65
 20
168.8
 30
0.0
 11
189.65
 21
164.8
 31
0.0
  0
LINE
  8
0
  6
LTYPE2
 62
     2
 10
197.65
 20
168.8
 30
0.0
 11
197.65
 21
164.8
 31
0.0
  0
LINE
  8
0
  6
LTYPE2
 62
     2
 10
189.65
 20
134.8
 30
0.0
 11
189.65
 21
130.8
 31
0.0
  0
LINE
  8
0
  6
LTYPE2
 62
     2
 10
189.65
 20
130.8
 30
0.0
 11
197.65
 21
130.8
 31
0.0
  0
LINE
  8
0
  6
LTYPE2
 62
     2
 10
197.65
 20
130.8
 30
0.0
 11
197.65
 21
134.8
 31
0.0
  0
TEXT
  8
0
  6
CONTINUOUS
 62
     2
 10
207.0
 20
139.7
 30
0.3
 40
3.0
  1
（裏側取付スペース）
 50
90.0
 41
0.6
 51
0.0
  7
KANJI0
  0
TEXT
  8
0
  6
CONTINUOUS
 62
     2
 10
165.9
 20
18.1
 30
0.25
 40
2.5
  1
２　　－
 50
0.0
 41
0.9
 51
0.0
  7
KANJI4
  0
TEXT
  8
0
  6
CONTINUOUS
 62
     2
 10
171.5
 20
23.1
 30
0.16
 40
2.0
  1
ＬＥＦＴ
 50
0.0
 41
0.8
 51
0.0
  7
KANJI5
  0
TEXT
  8
0
  6
CONTINUOUS
 62
     2
 10
170.5
 20
20.6
 30
0.16
 40
2.0
  1
ＩＮＰＵＴ
 50
0.0
 41
0.8
 51
0.0
  7
KANJI5
  0
ARC
  8
0
  6
CONTINUOUS
 62
     2
 10
179.9
 20
18.8
 30
0.0
 40
1.0
 50
270.0
 51
0.0
  0
ARC
  8
0
  6
CONTINUOUS
 62
     2
 10
181.9
 20
23.8
 30
0.0
 40
1.0
 50
180.0
 51
270.0
  0
ARC
  8
0
  6
CONTINUOUS
 62
     2
 10
181.9
 20
21.8
 30
0.0
 40
1.0
 50
90.0
 51
180.0
  0
LINE
  8
0
  6
CONTINUOUS
 62
     2
 10
180.9
 20
26.8
 30
0.0
 11
180.9
 21
23.8
 31
0.0
  0
LINE
  8
0
  6
CONTINUOUS
 62
     2
 10
180.9
 20
21.8
 30
0.0
 11
180.9
 21
18.8
 31
0.0
  0
TEXT
  8
0
  6
CONTINUOUS
 62
     2
 10
182.9
 20
21.3
 30
0.3
 40
3.0
  1
計器入力
 50
0.0
 41
0.9
 51
0.0
  7
KANJI1
  0
LINE
  8
0
  6
LTYPE1
 62
     2
 10
193.65
 20
134.8
 30
0.0
 11
193.65
 21
129.8
 31
0.0
  0
TEXT
  8
0
  6
CONTINUOUS
 62
     2
 10
199.17
 20
174.8
 30
0.3
 40
3.0
  1
４０．２×Ｎ＋１．５
 50
0.0
 41
0.6
 51
0.0
  7
KANJI0
  0
TEXT
  8
0
  6
CONTINUOUS
 62
     2
 10
222.2
 20
174.479491924
 30
0.3
 40
3.0
  1
Ｎは連結台数
 50
0.0
 41
0.9
 51
0.0
  7
KANJI1
  0
LINE
  8
0
  6
CONTINUOUS
 62
     2
 10
52.0
 20
117.5
 30
0.0
 11
51.352952387
 21
115.085185434
 31
0.0
  0
LINE
  8
0
  6
CONTINUOUS
 62
     2
 10
52.0
 20
117.5
 30
0.0
 11
52.647047613
 21
115.085185434
 31
0.0
  0
LINE
  8
0
  6
CONTINUOUS
 62
     2
 10
52.0
 20
117.5
 30
0.0
 11
52.0
 21
42.5
 31
0.0
  0
LINE
  8
0
  6
CONTINUOUS
 62
     2
 10
52.0
 20
42.5
 30
0.0
 11
52.647047613
 21
44.914814566
 31
0.0
  0
LINE
  8
0
  6
CONTINUOUS
 62
     2
 10
52.0
 20
42.5
 30
0.0
 11
51.352952387
 21
44.914814566
 31
0.0
  0
TEXT
  8
0
  6
CONTINUOUS
 62
     2
 10
51.0
 20
77.0
 30
0.3
 40
3.0
  1
１５０
 50
90.0
 41
0.6
 51
0.0
  7
KANJI0
  0
LINE
  8
0
  6
CONTINUOUS
 62
     2
 10
47.0
 20
117.5
 30
0.0
 11
54.0
 21
117.5
 31
0.0
  0
LINE
  8
0
  6
CONTINUOUS
 62
     2
 10
47.0
 20
42.5
 30
0.0
 11
54.0
 21
42.5
 31
0.0
  0
LINE
  8
0
  6
CONTINUOUS
 62
     2
 10
71.477297077
 20
112.73986021
 30
0.0
 11
71.76013979
 21
113.022702923
 31
0.0
  0
LINE
  8
0
  6
CONTINUOUS
 62
     2
 10
70.522702923
 20
114.26013979
 30
0.0
 11
70.23986021
 21
113.977297077
 31
0.0
  0
LINE
  8
0
  6
CONTINUOUS
 62
     2
 10
71.76013979
 20
113.977297077
 30
0.0
 11
71.477297077
 21
114.26013979
 31
0.0
  0
LINE
  8
0
  6
CONTINUOUS
 62
     2
 10
70.23986021
 20
113.022702923
 30
0.0
 11
70.522702923
 21
112.73986021
 31
0.0
  0
LINE
  8
0
  6
CONTINUOUS
 62
     2
 10
70.823223305
 20
113.959619408
 30
0.0
 11
70.522702923
 21
114.26013979
 31
0.0
  0
LINE
  8
0
  6
CONTINUOUS
 62
     2
 10
71.477297077
 20
114.26013979
 30
0.0
 11
71.176776695
 21
113.959619408
 31
0.0
  0
ARC
  8
0
  6
CONTINUOUS
 62
     2
 10
71.0
 20
114.136396103
 30
0.0
 40
0.25
 50
225.0
 51
315.0
  0
LINE
  8
0
  6
CONTINUOUS
 62
     2
 10
70.23986021
 20
113.977297077
 30
0.0
 11
70.540380592
 21
113.676776695
 31
0.0
  0
LINE
  8
0
  6
CONTINUOUS
 62
     2
 10
70.540380592
 20
113.323223305
 30
0.0
 11
70.23986021
 21
113.022702923
 31
0.0
  0
ARC
  8
0
  6
CONTINUOUS
 62
     2
 10
70.363603897
 20
113.5
 30
0.0
 40
0.25
 50
315.0
 51
45.0
  0
LINE
  8
0
  6
CONTINUOUS
 62
     2
 10
71.176776695
 20
113.040380592
 30
0.0
 11
71.477297077
 21
112.73986021
 31
0.0
  0
LINE
  8
0
  6
CONTINUOUS
 62
     2
 10
70.522702923
 20
112.73986021
 30
0.0
 11
70.823223305
 21
113.040380592
 31
0.0
  0
ARC
  8
0
  6
CONTINUOUS
 62
     2
 10
71.0
 20
112.863603897
 30
0.0
 40
0.25
 50
45.0
 51
135.0
  0
LINE
  8
0
  6
CONTINUOUS
 62
     2
 10
71.76013979
 20
113.022702923
 30
0.0
 11
71.459619408
 21
113.323223305
 31
0.0
  0
LINE
  8
0
  6
CONTINUOUS
 62
     2
 10
71.459619408
 20
113.676776695
 30
0.0
 11
71.76013979
 21
113.977297077
 31
0.0
  0
ARC
  8
0
  6
CONTINUOUS
 62
     2
 10
71.636396103
 20
113.5
 30
0.0
 40
0.25
 50
135.0
 51
225.0
  0
CIRCLE
  8
0
  6
CONTINUOUS
 62
     2
 10
71.0
 20
113.5
 30
0.0
 40
1.5
  0
LINE
  8
0
  6
CONTINUOUS
 62
     2
 10
111.477297077
 20
112.73986021
 30
0.0
 11
111.76013979
 21
113.022702923
 31
0.0
  0
LINE
  8
0
  6
CONTINUOUS
 62
     2
 10
110.522702923
 20
114.26013979
 30
0.0
 11
110.23986021
 21
113.977297077
 31
0.0
  0
LINE
  8
0
  6
CONTINUOUS
 62
     2
 10
111.76013979
 20
113.977297077
 30
0.0
 11
111.477297077
 21
114.26013979
 31
0.0
  0
LINE
  8
0
  6
CONTINUOUS
 62
     2
 10
110.23986021
 20
113.022702923
 30
0.0
 11
110.522702923
 21
112.73986021
 31
0.0
  0
LINE
  8
0
  6
CONTINUOUS
 62
     2
 10
110.823223305
 20
113.959619408
 30
0.0
 11
110.522702923
 21
114.26013979
 31
0.0
  0
LINE
  8
0
  6
CONTINUOUS
 62
     2
 10
111.477297077
 20
114.26013979
 30
0.0
 11
111.176776695
 21
113.959619408
 31
0.0
  0
ARC
  8
0
  6
CONTINUOUS
 62
     2
 10
111.0
 20
114.136396103
 30
0.0
 40
0.25
 50
225.0
 51
315.0
  0
LINE
  8
0
  6
CONTINUOUS
 62
     2
 10
110.23986021
 20
113.977297077
 30
0.0
 11
110.540380592
 21
113.676776695
 31
0.0
  0
LINE
  8
0
  6
CONTINUOUS
 62
     2
 10
110.540380592
 20
113.323223305
 30
0.0
 11
110.23986021
 21
113.022702923
 31
0.0
  0
ARC
  8
0
  6
CONTINUOUS
 62
     2
 10
110.363603897
 20
113.5
 30
0.0
 40
0.25
 50
315.0
 51
45.0
  0
LINE
  8
0
  6
CONTINUOUS
 62
     2
 10
111.176776695
 20
113.040380592
 30
0.0
 11
111.477297077
 21
112.73986021
 31
0.0
  0
LINE
  8
0
  6
CONTINUOUS
 62
     2
 10
110.522702923
 20
112.73986021
 30
0.0
 11
110.823223305
 21
113.040380592
 31
0.0
  0
ARC
  8
0
  6
CONTINUOUS
 62
     2
 10
111.0
 20
112.863603897
 30
0.0
 40
0.25
 50
45.0
 51
135.0
  0
LINE
  8
0
  6
CONTINUOUS
 62
     2
 10
111.76013979
 20
113.022702923
 30
0.0
 11
111.459619408
 21
113.323223305
 31
0.0
  0
LINE
  8
0
  6
CONTINUOUS
 62
     2
 10
111.459619408
 20
113.676776695
 30
0.0
 11
111.76013979
 21
113.977297077
 31
0.0
  0
ARC
  8
0
  6
CONTINUOUS
 62
     2
 10
111.636396103
 20
113.5
 30
0.0
 40
0.25
 50
135.0
 51
225.0
  0
CIRCLE
  8
0
  6
CONTINUOUS
 62
     2
 10
111.0
 20
113.5
 30
0.0
 40
1.5
  0
LINE
  8
0
  6
CONTINUOUS
 62
     2
 10
151.477297077
 20
112.73986021
 30
0.0
 11
151.76013979
 21
113.022702923
 31
0.0
  0
LINE
  8
0
  6
CONTINUOUS
 62
     2
 10
150.522702923
 20
114.26013979
 30
0.0
 11
150.23986021
 21
113.977297077
 31
0.0
  0
LINE
  8
0
  6
CONTINUOUS
 62
     2
 10
151.76013979
 20
113.977297077
 30
0.0
 11
151.477297077
 21
114.26013979
 31
0.0
  0
LINE
  8
0
  6
CONTINUOUS
 62
     2
 10
150.23986021
 20
113.022702923
 30
0.0
 11
150.522702923
 21
112.73986021
 31
0.0
  0
LINE
  8
0
  6
CONTINUOUS
 62
     2
 10
150.823223305
 20
113.959619408
 30
0.0
 11
150.522702923
 21
114.26013979
 31
0.0
  0
LINE
  8
0
  6
CONTINUOUS
 62
     2
 10
151.477297077
 20
114.26013979
 30
0.0
 11
151.176776695
 21
113.959619408
 31
0.0
  0
ARC
  8
0
  6
CONTINUOUS
 62
     2
 10
151.0
 20
114.136396103
 30
0.0
 40
0.25
 50
225.0
 51
315.0
  0
LINE
  8
0
  6
CONTINUOUS
 62
     2
 10
150.23986021
 20
113.977297077
 30
0.0
 11
150.540380592
 21
113.676776695
 31
0.0
  0
LINE
  8
0
  6
CONTINUOUS
 62
     2
 10
150.540380592
 20
113.323223305
 30
0.0
 11
150.23986021
 21
113.022702923
 31
0.0
  0
ARC
  8
0
  6
CONTINUOUS
 62
     2
 10
150.363603897
 20
113.5
 30
0.0
 40
0.25
 50
315.0
 51
45.0
  0
LINE
  8
0
  6
CONTINUOUS
 62
     2
 10
151.176776695
 20
113.040380592
 30
0.0
 11
151.477297077
 21
112.73986021
 31
0.0
  0
LINE
  8
0
  6
CONTINUOUS
 62
     2
 10
150.522702923
 20
112.73986021
 30
0.0
 11
150.823223305
 21
113.040380592
 31
0.0
  0
ARC
  8
0
  6
CONTINUOUS
 62
     2
 10
151.0
 20
112.863603897
 30
0.0
 40
0.25
 50
45.0
 51
135.0
  0
LINE
  8
0
  6
CONTINUOUS
 62
     2
 10
151.76013979
 20
113.022702923
 30
0.0
 11
151.459619408
 21
113.323223305
 31
0.0
  0
LINE
  8
0
  6
CONTINUOUS
 62
     2
 10
151.459619408
 20
113.676776695
 30
0.0
 11
151.76013979
 21
113.977297077
 31
0.0
  0
ARC
  8
0
  6
CONTINUOUS
 62
     2
 10
151.636396103
 20
113.5
 30
0.0
 40
0.25
 50
135.0
 51
225.0
  0
CIRCLE
  8
0
  6
CONTINUOUS
 62
     2
 10
151.0
 20
113.5
 30
0.0
 40
1.5
  0
LINE
  8
0
  6
CONTINUOUS
 62
     2
 10
71.477297077
 20
47.26013979
 30
0.0
 11
71.76013979
 21
46.977297077
 31
0.0
  0
LINE
  8
0
  6
CONTINUOUS
 62
     2
 10
70.522702923
 20
45.73986021
 30
0.0
 11
70.23986021
 21
46.022702923
 31
0.0
  0
LINE
  8
0
  6
CONTINUOUS
 62
     2
 10
71.76013979
 20
46.022702923
 30
0.0
 11
71.477297077
 21
45.73986021
 31
0.0
  0
LINE
  8
0
  6
CONTINUOUS
 62
     2
 10
70.23986021
 20
46.977297077
 30
0.0
 11
70.522702923
 21
47.26013979
 31
0.0
  0
LINE
  8
0
  6
CONTINUOUS
 62
     2
 10
70.823223305
 20
46.040380592
 30
0.0
 11
70.522702923
 21
45.73986021
 31
0.0
  0
LINE
  8
0
  6
CONTINUOUS
 62
     2
 10
71.477297077
 20
45.73986021
 30
0.0
 11
71.176776695
 21
46.040380592
 31
0.0
  0
ARC
  8
0
  6
CONTINUOUS
 62
     2
 10
71.0
 20
45.863603897
 30
0.0
 40
0.25
 50
45.0
 51
135.0
  0
LINE
  8
0
  6
CONTINUOUS
 62
     2
 10
70.23986021
 20
46.022702923
 30
0.0
 11
70.540380592
 21
46.323223305
 31
0.0
  0
LINE
  8
0
  6
CONTINUOUS
 62
     2
 10
70.540380592
 20
46.676776695
 30
0.0
 11
70.23986021
 21
46.977297077
 31
0.0
  0
ARC
  8
0
  6
CONTINUOUS
 62
     2
 10
70.363603897
 20
46.5
 30
0.0
 40
0.25
 50
315.0
 51
45.0
  0
LINE
  8
0
  6
CONTINUOUS
 62
     2
 10
71.176776695
 20
46.959619408
 30
0.0
 11
71.477297077
 21
47.26013979
 31
0.0
  0
LINE
  8
0
  6
CONTINUOUS
 62
     2
 10
70.522702923
 20
47.26013979
 30
0.0
 11
70.823223305
 21
46.959619408
 31
0.0
  0
ARC
  8
0
  6
CONTINUOUS
 62
     2
 10
71.0
 20
47.136396103
 30
0.0
 40
0.25
 50
225.0
 51
315.0
  0
LINE
  8
0
  6
CONTINUOUS
 62
     2
 10
71.76013979
 20
46.977297077
 30
0.0
 11
71.459619408
 21
46.676776695
 31
0.0
  0
LINE
  8
0
  6
CONTINUOUS
 62
     2
 10
71.459619408
 20
46.323223305
 30
0.0
 11
71.76013979
 21
46.022702923
 31
0.0
  0
ARC
  8
0
  6
CONTINUOUS
 62
     2
 10
71.636396103
 20
46.5
 30
0.0
 40
0.25
 50
135.0
 51
225.0
  0
CIRCLE
  8
0
  6
CONTINUOUS
 62
     2
 10
71.0
 20
46.5
 30
0.0
 40
1.5
  0
LINE
  8
0
  6
CONTINUOUS
 62
     2
 10
111.477297077
 20
47.26013979
 30
0.0
 11
111.76013979
 21
46.977297077
 31
0.0
  0
LINE
  8
0
  6
CONTINUOUS
 62
     2
 10
110.522702923
 20
45.73986021
 30
0.0
 11
110.23986021
 21
46.022702923
 31
0.0
  0
LINE
  8
0
  6
CONTINUOUS
 62
     2
 10
111.76013979
 20
46.022702923
 30
0.0
 11
111.477297077
 21
45.73986021
 31
0.0
  0
LINE
  8
0
  6
CONTINUOUS
 62
     2
 10
110.23986021
 20
46.977297077
 30
0.0
 11
110.522702923
 21
47.26013979
 31
0.0
  0
LINE
  8
0
  6
CONTINUOUS
 62
     2
 10
110.823223305
 20
46.040380592
 30
0.0
 11
110.522702923
 21
45.73986021
 31
0.0
  0
LINE
  8
0
  6
CONTINUOUS
 62
     2
 10
111.477297077
 20
45.73986021
 30
0.0
 11
111.176776695
 21
46.040380592
 31
0.0
  0
ARC
  8
0
  6
CONTINUOUS
 62
     2
 10
111.0
 20
45.863603897
 30
0.0
 40
0.25
 50
45.0
 51
135.0
  0
LINE
  8
0
  6
CONTINUOUS
 62
     2
 10
110.23986021
 20
46.022702923
 30
0.0
 11
110.540380592
 21
46.323223305
 31
0.0
  0
LINE
  8
0
  6
CONTINUOUS
 62
     2
 10
110.540380592
 20
46.676776695
 30
0.0
 11
110.23986021
 21
46.977297077
 31
0.0
  0
ARC
  8
0
  6
CONTINUOUS
 62
     2
 10
110.363603897
 20
46.5
 30
0.0
 40
0.25
 50
315.0
 51
45.0
  0
LINE
  8
0
  6
CONTINUOUS
 62
     2
 10
111.176776695
 20
46.959619408
 30
0.0
 11
111.477297077
 21
47.26013979
 31
0.0
  0
LINE
  8
0
  6
CONTINUOUS
 62
     2
 10
110.522702923
 20
47.26013979
 30
0.0
 11
110.823223305
 21
46.959619408
 31
0.0
  0
ARC
  8
0
  6
CONTINUOUS
 62
     2
 10
111.0
 20
47.136396103
 30
0.0
 40
0.25
 50
225.0
 51
315.0
  0
LINE
  8
0
  6
CONTINUOUS
 62
     2
 10
111.76013979
 20
46.977297077
 30
0.0
 11
111.459619408
 21
46.676776695
 31
0.0
  0
LINE
  8
0
  6
CONTINUOUS
 62
     2
 10
111.459619408
 20
46.323223305
 30
0.0
 11
111.76013979
 21
46.022702923
 31
0.0
  0
ARC
  8
0
  6
CONTINUOUS
 62
     2
 10
111.636396103
 20
46.5
 30
0.0
 40
0.25
 50
135.0
 51
225.0
  0
CIRCLE
  8
0
  6
CONTINUOUS
 62
     2
 10
111.0
 20
46.5
 30
0.0
 40
1.5
  0
LINE
  8
0
  6
CONTINUOUS
 62
     2
 10
151.477297077
 20
47.26013979
 30
0.0
 11
151.76013979
 21
46.977297077
 31
0.0
  0
LINE
  8
0
  6
CONTINUOUS
 62
     2
 10
150.522702923
 20
45.73986021
 30
0.0
 11
150.23986021
 21
46.022702923
 31
0.0
  0
LINE
  8
0
  6
CONTINUOUS
 62
     2
 10
151.76013979
 20
46.022702923
 30
0.0
 11
151.477297077
 21
45.73986021
 31
0.0
  0
LINE
  8
0
  6
CONTINUOUS
 62
     2
 10
150.23986021
 20
46.977297077
 30
0.0
 11
150.522702923
 21
47.26013979
 31
0.0
  0
LINE
  8
0
  6
CONTINUOUS
 62
     2
 10
150.823223305
 20
46.040380592
 30
0.0
 11
150.522702923
 21
45.73986021
 31
0.0
  0
LINE
  8
0
  6
CONTINUOUS
 62
     2
 10
151.477297077
 20
45.73986021
 30
0.0
 11
151.176776695
 21
46.040380592
 31
0.0
  0
ARC
  8
0
  6
CONTINUOUS
 62
     2
 10
151.0
 20
45.863603897
 30
0.0
 40
0.25
 50
45.0
 51
135.0
  0
LINE
  8
0
  6
CONTINUOUS
 62
     2
 10
150.23986021
 20
46.022702923
 30
0.0
 11
150.540380592
 21
46.323223305
 31
0.0
  0
LINE
  8
0
  6
CONTINUOUS
 62
     2
 10
150.540380592
 20
46.676776695
 30
0.0
 11
150.23986021
 21
46.977297077
 31
0.0
  0
ARC
  8
0
  6
CONTINUOUS
 62
     2
 10
150.363603897
 20
46.5
 30
0.0
 40
0.25
 50
315.0
 51
45.0
  0
LINE
  8
0
  6
CONTINUOUS
 62
     2
 10
151.176776695
 20
46.959619408
 30
0.0
 11
151.477297077
 21
47.26013979
 31
0.0
  0
LINE
  8
0
  6
CONTINUOUS
 62
     2
 10
150.522702923
 20
47.26013979
 30
0.0
 11
150.823223305
 21
46.959619408
 31
0.0
  0
ARC
  8
0
  6
CONTINUOUS
 62
     2
 10
151.0
 20
47.136396103
 30
0.0
 40
0.25
 50
225.0
 51
315.0
  0
LINE
  8
0
  6
CONTINUOUS
 62
     2
 10
151.76013979
 20
46.977297077
 30
0.0
 11
151.459619408
 21
46.676776695
 31
0.0
  0
LINE
  8
0
  6
CONTINUOUS
 62
     2
 10
151.459619408
 20
46.323223305
 30
0.0
 11
151.76013979
 21
46.022702923
 31
0.0
  0
ARC
  8
0
  6
CONTINUOUS
 62
     2
 10
151.636396103
 20
46.5
 30
0.0
 40
0.25
 50
135.0
 51
225.0
  0
CIRCLE
  8
0
  6
CONTINUOUS
 62
     2
 10
151.0
 20
46.5
 30
0.0
 40
1.5
  0
LINE
  8
0
  6
CONTINUOUS
 62
     2
 10
68.75
 20
120.4
 30
0.0
 11
68.75
 21
117.9
 31
0.0
  0
LINE
  8
0
  6
CONTINUOUS
 62
     2
 10
77.5
 20
120.4
 30
0.0
 11
77.5
 21
117.9
 31
0.0
  0
LINE
  8
0
  6
CONTINUOUS
 62
     2
 10
137.5
 20
120.4
 30
0.0
 11
137.5
 21
117.9
 31
0.0
  0
LINE
  8
0
  6
CONTINUOUS
 62
     2
 10
158.25
 20
118.0
 30
0.0
 11
158.25
 21
120.5
 31
0.0
  0
LINE
  8
0
  6
CONTINUOUS
 62
     2
 10
137.5
 20
120.15
 30
0.0
 11
151.9
 21
120.15
 31
0.0
  0
LINE
  8
0
  6
CONTINUOUS
 62
     2
 10
151.9
 20
118.15
 30
0.0
 11
137.4875
 21
118.15
 31
0.0
  0
LINE
  8
0
  6
CONTINUOUS
 62
     2
 10
77.5
 20
120.15
 30
0.0
 11
74.3
 21
120.15
 31
0.0
  0
LINE
  8
0
  6
CONTINUOUS
 62
     2
 10
74.3
 20
118.15
 30
0.0
 11
77.5
 21
118.15
 31
0.0
  0
LINE
  8
0
  6
CONTINUOUS
 62
     2
 10
68.5
 20
120.15
 30
0.0
 11
72.7
 21
120.15
 31
0.0
  0
LINE
  8
0
  6
CONTINUOUS
 62
     2
 10
68.5
 20
118.15
 30
0.0
 11
72.7
 21
118.15
 31
0.0
  0
LINE
  8
0
  6
CONTINUOUS
 62
     2
 10
66.0
 20
42.5
 30
0.0
 11
66.0
 21
117.5
 31
0.0
  0
LINE
  8
0
  6
CONTINUOUS
 62
     2
 10
65.75
 20
42.5
 30
0.0
 11
65.75
 21
117.5
 31
0.0
  0
LINE
  8
0
  6
CONTINUOUS
 62
     2
 10
60.849118357
 20
108.021233433
 30
0.0
 11
63.022587759
 21
106.785907258
 31
0.0
  0
LINE
  8
0
  6
CONTINUOUS
 62
     2
 10
60.849118357
 20
108.021233433
 30
0.0
 11
63.349061161
 21
108.038144284
 31
0.0
  0
TEXT
  8
0
  6
CONTINUOUS
 62
     2
 10
97.452279273
 20
99.511771549
 30
0.3
 40
3.0
  1
Ｒ２４０（カバー面）
 50
345.387571118
 41
0.6
 51
0.0
  7
KANJI0
  0
LINE
  8
0
  6
CONTINUOUS
 62
     2
 10
65.385888117
 20
101.0
 30
0.0
 11
67.393131457
 21
99.509706682
 31
0.0
  0
LINE
  8
0
  6
CONTINUOUS
 62
     2
 10
65.385888117
 20
101.0
 30
0.0
 11
67.8693585
 21
100.712989798
 31
0.0
  0
LINE
  8
0
  6
CONTINUOUS
 62
     2
 10
65.385888117
 20
101.0
 30
0.0
 11
123.5
 21
78.0
 31
0.0
  0
TEXT
  8
0
  6
CONTINUOUS
 62
     2
 10
82.968
 20
95.116944022
 30
0.3
 40
3.0
  1
Ｒ１２５（指針）
 50
338.407675128
 41
0.6
 51
0.0
  7
KANJI0
  0
LINE
  8
0
  6
LTYPE3
 62
     2
 10
118.5
 20
78.0
 30
0.0
 11
128.5
 21
78.0
 31
0.0
  0
LINE
  8
0
  6
CONTINUOUS
 62
     2
 10
123.5
 20
78.0
 30
0.0
 11
67.132899667
 21
51.0
 31
0.0
  0
ARC
  8
0
  6
CONTINUOUS
 62
     2
 10
123.5
 20
78.0
 30
0.0
 40
62.5
 50
155.741033199
 51
207.524275948
  0
LINE
  8
0
  6
CONTINUOUS
 62
     2
 10
60.849118357
 20
108.021233433
 30
0.0
 11
176.0
 21
78.0
 31
0.0
  0
LINE
  8
0
  6
LTYPE3
 62
     2
 10
176.0
 20
80.5
 30
0.0
 11
176.0
 21
75.5
 31
0.0
  0
LINE
  8
0
  6
CONTINUOUS
 62
     2
 10
86.85
 20
39.6
 30
0.0
 11
87.497047613
 21
37.185185434
 31
0.0
  0
LINE
  8
0
  6
CONTINUOUS
 62
     2
 10
86.85
 20
39.6
 30
0.0
 11
88.617766953
 21
37.832233047
 31
0.0
  0
LINE
  8
0
  6
CONTINUOUS
 62
     2
 10
86.85
 20
39.6
 30
0.0
 11
93.922540798
 21
27.35
 31
0.0
  0
LINE
  8
0
  6
CONTINUOUS
 62
     2
 10
93.922540798
 20
27.35
 30
0.0
 11
117.622540798
 21
27.35
 31
0.0
  0
TEXT
  8
0
  6
CONTINUOUS
 62
     2
 10
93.922540798
 20
28.35
 30
0.3
 40
3.0
  1
取付金具（Ｍ５）
 50
0.0
 41
0.9
 51
0.0
  7
KANJI1
  0
LINE
  8
0
  6
LTYPE3
 62
     2
 10
71.0
 20
44.0
 30
0.0
 11
71.0
 21
49.0
 31
0.0
  0
LINE
  8
0
  6
LTYPE3
 62
     2
 10
68.5
 20
46.5
 30
0.0
 11
73.5
 21
46.5
 31
0.0
  0
LINE
  8
0
  6
LTYPE3
 62
     2
 10
111.0
 20
44.0
 30
0.0
 11
111.0
 21
49.0
 31
0.0
  0
LINE
  8
0
  6
LTYPE3
 62
     2
 10
108.5
 20
46.5
 30
0.0
 11
113.5
 21
46.5
 31
0.0
  0
LINE
  8
0
  6
LTYPE3
 62
     2
 10
151.0
 20
44.0
 30
0.0
 11
151.0
 21
49.0
 31
0.0
  0
LINE
  8
0
  6
LTYPE3
 62
     2
 10
148.5
 20
46.5
 30
0.0
 11
153.5
 21
46.5
 31
0.0
  0
LINE
  8
0
  6
LTYPE3
 62
     2
 10
151.0
 20
111.0
 30
0.0
 11
151.0
 21
116.0
 31
0.0
  0
LINE
  8
0
  6
LTYPE3
 62
     2
 10
148.5
 20
113.5
 30
0.0
 11
153.5
 21
113.5
 31
0.0
  0
LINE
  8
0
  6
LTYPE3
 62
     2
 10
111.0
 20
111.0
 30
0.0
 11
111.0
 21
116.0
 31
0.0
  0
LINE
  8
0
  6
LTYPE3
 62
     2
 10
108.5
 20
113.5
 30
0.0
 11
113.5
 21
113.5
 31
0.0
  0
LINE
  8
0
  6
LTYPE3
 62
     2
 10
71.0
 20
111.0
 30
0.0
 11
71.0
 21
116.0
 31
0.0
  0
LINE
  8
0
  6
LTYPE3
 62
     2
 10
68.5
 20
113.5
 30
0.0
 11
73.5
 21
113.5
 31
0.0
  0
LINE
  8
0
  6
LTYPE3
 62
     2
 10
173.5
 20
78.0
 30
0.0
 11
178.5
 21
78.0
 31
0.0
  0
LINE
  8
0
  6
CONTINUOUS
 62
     2
 10
61.0
 20
117.75
 30
0.0
 11
61.0
 21
130.0
 31
0.0
  0
LINE
  8
0
  6
CONTINUOUS
 62
     2
 10
66.0
 20
119.75
 30
0.0
 11
66.0
 21
130.0
 31
0.0
  0
LINE
  8
0
  6
CONTINUOUS
 62
     2
 10
57.0
 20
79.0
 30
0.0
 11
57.0
 21
130.0
 31
0.0
  0
LINE
  8
0
  6
CONTINUOUS
 62
     2
 10
161.5
 20
116.75
 30
0.0
 11
161.5
 21
130.0
 31
0.0
  0
LINE
  8
0
  6
CONTINUOUS
 62
     2
 10
161.0
 20
116.25
 30
0.0
 11
181.5
 21
116.25
 31
0.0
  0
LINE
  8
0
  6
CONTINUOUS
 62
     2
 10
179.5
 20
116.25
 30
0.0
 11
178.852952387
 21
113.835185434
 31
0.0
  0
LINE
  8
0
  6
CONTINUOUS
 62
     2
 10
179.5
 20
116.25
 30
0.0
 11
180.147047613
 21
113.835185434
 31
0.0
  0
LINE
  8
0
  6
CONTINUOUS
 62
     2
 10
179.5
 20
116.25
 30
0.0
 11
179.5
 21
43.75
 31
0.0
  0
LINE
  8
0
  6
CONTINUOUS
 62
     2
 10
179.5
 20
43.75
 30
0.0
 11
180.147047613
 21
46.164814566
 31
0.0
  0
LINE
  8
0
  6
CONTINUOUS
 62
     2
 10
179.5
 20
43.75
 30
0.0
 11
178.852952387
 21
46.164814566
 31
0.0
  0
LINE
  8
0
  6
CONTINUOUS
 62
     2
 10
161.0
 20
43.75
 30
0.0
 11
181.5
 21
43.75
 31
0.0
  0
TEXT
  8
0
  6
CONTINUOUS
 62
     2
 10
178.5
 20
81.0
 30
0.3
 40
3.0
  1
１４５
 50
90.0
 41
0.6
 51
0.0
  7
KANJI0
  0
ARC
  8
0
  6
CONTINUOUS
 62
     2
 10
152.91796875
 20
119.25
 30
0.0
 40
1.78203125
 50
320.853748339
 51
39.146251661
  0
ARC
  8
0
  6
CONTINUOUS
 62
     2
 10
152.91796875
 20
117.0
 30
0.0
 40
1.78203125
 50
0.0
 51
39.146251661
  0
ARC
  8
0
  6
CONTINUOUS
 62
     2
 10
152.91796875
 20
121.5
 30
0.0
 40
1.78203125
 50
320.853748339
 51
360.0
  0
LINE
  8
0
  6
CONTINUOUS
 62
     2
 10
154.7
 20
120.25
 30
0.0
 11
158.5
 21
120.25
 31
0.0
  0
LINE
  8
0
  6
CONTINUOUS
 62
     2
 10
158.5
 20
118.25
 30
0.0
 11
154.7
 21
118.25
 31
0.0
  0
LINE
  8
0
  6
CONTINUOUS
 62
     2
 10
68.75
 20
39.6
 30
0.0
 11
68.75
 21
42.1
 31
0.0
  0
LINE
  8
0
  6
CONTINUOUS
 62
     2
 10
77.5
 20
39.6
 30
0.0
 11
77.5
 21
42.1
 31
0.0
  0
LINE
  8
0
  6
CONTINUOUS
 62
     2
 10
137.5
 20
39.6
 30
0.0
 11
137.5
 21
42.1
 31
0.0
  0
LINE
  8
0
  6
CONTINUOUS
 62
     2
 10
158.25
 20
42.0
 30
0.0
 11
158.25
 21
39.5
 31
0.0
  0
LINE
  8
0
  6
CONTINUOUS
 62
     2
 10
137.5
 20
39.85
 30
0.0
 11
151.9
 21
39.85
 31
0.0
  0
LINE
  8
0
  6
CONTINUOUS
 62
     2
 10
151.9
 20
41.85
 30
0.0
 11
137.4875
 21
41.85
 31
0.0
  0
LINE
  8
0
  6
CONTINUOUS
 62
     2
 10
77.5
 20
39.85
 30
0.0
 11
74.3
 21
39.85
 31
0.0
  0
LINE
  8
0
  6
CONTINUOUS
 62
     2
 10
74.3
 20
41.85
 30
0.0
 11
77.5
 21
41.85
 31
0.0
  0
LINE
  8
0
  6
CONTINUOUS
 62
     2
 10
68.5
 20
39.85
 30
0.0
 11
72.7
 21
39.85
 31
0.0
  0
LINE
  8
0
  6
CONTINUOUS
 62
     2
 10
68.5
 20
41.85
 30
0.0
 11
72.7
 21
41.85
 31
0.0
  0
ARC
  8
0
  6
CONTINUOUS
 62
     2
 10
152.91796875
 20
40.75
 30
0.0
 40
1.78203125
 50
320.853748339
 51
39.146251661
  0
ARC
  8
0
  6
CONTINUOUS
 62
     2
 10
152.91796875
 20
43.0
 30
0.0
 40
1.78203125
 50
320.853748339
 51
360.0
  0
ARC
  8
0
  6
CONTINUOUS
 62
     2
 10
152.91796875
 20
38.5
 30
0.0
 40
1.78203125
 50
0.0
 51
39.146251661
  0
LINE
  8
0
  6
CONTINUOUS
 62
     2
 10
154.7
 20
39.75
 30
0.0
 11
158.5
 21
39.75
 31
0.0
  0
LINE
  8
0
  6
CONTINUOUS
 62
     2
 10
158.5
 20
41.75
 30
0.0
 11
154.7
 21
41.75
 31
0.0
  0
LINE
  8
0
  6
CONTINUOUS
 62
     2
 10
179.5
 20
43.75
 30
0.0
 11
180.147047613
 21
46.164814566
 31
0.0
  0
LINE
  8
0
  6
CONTINUOUS
 62
     2
 10
179.5
 20
43.75
 30
0.0
 11
178.852952387
 21
46.164814566
 31
0.0
  0
LINE
  8
0
  6
CONTINUOUS
 62
     2
 10
179.5
 20
47.5
 30
0.0
 11
179.5
 21
43.75
 31
0.0
  0
LINE
  8
0
  6
CONTINUOUS
 62
     2
 10
179.5
 20
43.75
 30
0.0
 11
179.5
 21
38.75
 31
0.0
  0
LINE
  8
0
  6
CONTINUOUS
 62
     2
 10
179.5
 20
38.75
 30
0.0
 11
179.5
 21
35.0
 31
0.0
  0
LINE
  8
0
  6
CONTINUOUS
 62
     2
 10
179.5
 20
38.75
 30
0.0
 11
178.852952387
 21
36.335185434
 31
0.0
  0
LINE
  8
0
  6
CONTINUOUS
 62
     2
 10
179.5
 20
38.75
 30
0.0
 11
180.147047613
 21
36.335185434
 31
0.0
  0
LINE
  8
0
  6
CONTINUOUS
 62
     2
 10
155.7
 20
38.75
 30
0.0
 11
181.5
 21
38.75
 31
0.0
  0
TEXT
  8
0
  6
CONTINUOUS
 62
     2
 10
178.5
 20
39.3
 30
0.3
 40
3.0
  1
１０
 50
90.0
 41
0.6
 51
0.0
  7
KANJI0
  0
LINE
  8
0
  6
CONTINUOUS
 62
     2
 10
66.0
 20
35.75
 30
0.0
 11
66.0
 21
31.75
 31
0.0
  0
LINE
  8
0
  6
CONTINUOUS
 62
     2
 10
66.0
 20
33.75
 30
0.0
 11
63.585185434
 21
34.397047613
 31
0.0
  0
LINE
  8
0
  6
CONTINUOUS
 62
     2
 10
66.0
 20
33.75
 30
0.0
 11
63.585185434
 21
33.102952387
 31
0.0
  0
LINE
  8
0
  6
CONTINUOUS
 62
     2
 10
62.25
 20
33.75
 30
0.0
 11
66.0
 21
33.75
 31
0.0
  0
LINE
  8
0
  6
CONTINUOUS
 62
     2
 10
66.0
 20
33.75
 30
0.0
 11
68.5
 21
33.75
 31
0.0
  0
LINE
  8
0
  6
CONTINUOUS
 62
     2
 10
68.5
 20
33.75
 30
0.0
 11
80.35
 21
33.75
 31
0.0
  0
LINE
  8
0
  6
CONTINUOUS
 62
     2
 10
68.5
 20
33.75
 30
0.0
 11
70.914814566
 21
33.102952387
 31
0.0
  0
LINE
  8
0
  6
CONTINUOUS
 62
     2
 10
68.5
 20
33.75
 30
0.0
 11
70.914814566
 21
34.397047613
 31
0.0
  0
LINE
  8
0
  6
CONTINUOUS
 62
     2
 10
68.5
 20
36.25
 30
0.0
 11
68.5
 21
31.75
 31
0.0
  0
TEXT
  8
0
  6
CONTINUOUS
 62
     2
 10
72.25
 20
34.75
 30
0.3
 40
3.0
  1
８　ｍａｘ．
 50
0.0
 41
0.6
 51
0.0
  7
KANJI0
  0
LINE
  8
0
  6
CONTINUOUS
 62
     2
 10
161.5
 20
88.5
 30
0.0
 11
163.0
 21
88.7
 31
0.0
  0
LINE
  8
0
  6
CONTINUOUS
 62
     2
 10
163.0
 20
87.7
 30
0.0
 11
161.5
 21
87.5
 31
0.0
  0
LINE
  8
0
  6
CONTINUOUS
 62
     2
 10
163.0
 20
87.7
 30
0.0
 11
163.0
 21
88.7
 31
0.0
  0
LINE
  8
0
  6
CONTINUOUS
 62
     2
 10
161.5
 20
90.0
 30
0.0
 11
162.5
 21
90.0
 31
0.0
  0
LINE
  8
0
  6
CONTINUOUS
 62
     2
 10
162.5
 20
90.0
 30
0.0
 11
162.5
 21
100.0
 31
0.0
  0
LINE
  8
0
  6
CONTINUOUS
 62
     2
 10
162.5
 20
100.0
 30
0.0
 11
161.5
 21
100.0
 31
0.0
  0
LINE
  8
0
  6
CONTINUOUS
 62
     2
 10
163.019648985
 20
88.602619865
 30
0.0
 11
164.119648985
 21
90.502619865
 31
0.0
  0
ARC
  8
0
  6
CONTINUOUS
 62
     2
 10
151.547612459
 20
95.824978177
 30
0.0
 40
13.652237927
 50
337.054681693
 51
32.200337832
  0
LINE
  8
0
  6
CONTINUOUS
 62
     2
 10
163.1
 20
103.1
 30
0.0
 11
161.5
 21
104.4
 31
0.0
  0
LINE
  8
0
  6
CONTINUOUS
 62
     2
 10
163.711990013
 20
88.201790848
 30
0.0
 11
164.836582082
 21
90.144268057
 31
0.0
  0
ARC
  8
0
  6
CONTINUOUS
 62
     2
 10
151.547612459
 20
95.824978177
 30
0.0
 40
14.452237927
 50
336.854474688
 51
32.729950107
  0
LINE
  8
0
  6
CONTINUOUS
 62
     2
 10
163.711990013
 20
88.201790848
 30
0.0
 11
163.011990013
 21
87.801790848
 31
0.0
  0
LINE
  8
0
  6
CONTINUOUS
 62
     2
 10
163.705243543
 20
103.639016028
 30
0.0
 11
161.5
 21
105.430776406
 31
0.0
  0
TEXT
  8
0
  6
CONTINUOUS
 62
     2
 10
61.55
 20
129.0
 30
0.3
 40
3.0
  1
１０
 50
0.0
 41
0.6
 51
0.0
  7
KANJI0
  0
LINE
  8
0
  6
CONTINUOUS
 62
     2
 10
61.0
 20
128.0
 30
0.0
 11
57.0
 21
128.0
 31
0.0
  0
LINE
  8
0
  6
CONTINUOUS
 62
     2
 10
57.0
 20
128.0
 30
0.0
 11
53.25
 21
128.0
 31
0.0
  0
LINE
  8
0
  6
CONTINUOUS
 62
     2
 10
57.0
 20
128.0
 30
0.0
 11
54.585185434
 21
128.647047613
 31
0.0
  0
LINE
  8
0
  6
CONTINUOUS
 62
     2
 10
57.0
 20
128.0
 30
0.0
 11
54.585185434
 21
127.352952387
 31
0.0
  0
TEXT
  8
0
  6
CONTINUOUS
 62
     2
 10
58.1
 20
129.0
 30
0.3
 40
3.0
  1
８
 50
0.0
 41
0.6
 51
0.0
  7
KANJI0
  0
LINE
  8
0
  6
CONTINUOUS
 62
     2
 10
161.5
 20
128.0
 30
0.0
 11
159.085185434
 21
128.647047613
 31
0.0
  0
LINE
  8
0
  6
CONTINUOUS
 62
     2
 10
161.5
 20
128.0
 30
0.0
 11
159.085185434
 21
127.352952387
 31
0.0
  0
LINE
  8
0
  6
CONTINUOUS
 62
     2
 10
161.5
 20
128.0
 30
0.0
 11
66.0
 21
128.0
 31
0.0
  0
LINE
  8
0
  6
CONTINUOUS
 62
     2
 10
66.0
 20
128.0
 30
0.0
 11
68.414814566
 21
127.352952387
 31
0.0
  0
LINE
  8
0
  6
CONTINUOUS
 62
     2
 10
66.0
 20
128.0
 30
0.0
 11
68.414814566
 21
128.647047613
 31
0.0
  0
TEXT
  8
0
  6
CONTINUOUS
 62
     2
 10
110.75
 20
129.0
 30
0.3
 40
3.0
  1
１９１
 50
0.0
 41
0.6
 51
0.0
  7
KANJI0
  0
LINE
  8
0
  6
CONTINUOUS
 62
     2
 10
61.0
 20
128.0
 30
0.0
 11
66.0
 21
128.0
 31
0.0
  0
CIRCLE
  8
0
  6
CONTINUOUS
 62
     2
 10
61.0
 20
128.0
 30
0.0
 40
0.3
  0
LINE
  8
0
  6
CONTINUOUS
 62
     2
 10
57.0
 20
129.0
 30
0.0
 11
57.0
 21
135.0
 31
0.0
  0
LINE
  8
0
  6
CONTINUOUS
 62
     2
 10
57.0
 20
133.0
 30
0.0
 11
59.414814566
 21
132.352952387
 31
0.0
  0
LINE
  8
0
  6
CONTINUOUS
 62
     2
 10
57.0
 20
133.0
 30
0.0
 11
59.414814566
 21
133.647047613
 31
0.0
  0
LINE
  8
0
  6
CONTINUOUS
 62
     2
 10
161.5
 20
128.0
 30
0.0
 11
163.914814566
 21
127.352952387
 31
0.0
  0
LINE
  8
0
  6
CONTINUOUS
 62
     2
 10
161.5
 20
128.0
 30
0.0
 11
163.914814566
 21
128.647047613
 31
0.0
  0
LINE
  8
0
  6
CONTINUOUS
 62
     2
 10
166.25
 20
87.3
 30
0.0
 11
166.25
 21
83.2
 31
0.0
  0
LINE
  8
0
  6
CONTINUOUS
 62
     2
 10
166.65
 20
83.2
 30
0.0
 11
166.65
 21
87.3
 31
0.0
  0
LINE
  8
0
  6
CONTINUOUS
 62
     2
 10
166.65
 20
87.3
 30
0.0
 11
166.25
 21
87.3
 31
0.0
  0
LINE
  8
0
  6
CONTINUOUS
 62
     2
 10
166.25
 20
86.5
 30
0.0
 11
166.65
 21
86.5
 31
0.0
  0
LINE
  8
0
  6
CONTINUOUS
 62
     2
 10
166.25
 20
84.0
 30
0.0
 11
166.65
 21
84.0
 31
0.0
  0
LINE
  8
0
  6
CONTINUOUS
 62
     2
 10
166.25
 20
48.2
 30
0.0
 11
166.25
 21
52.3
 31
0.0
  0
LINE
  8
0
  6
CONTINUOUS
 62
     2
 10
166.65
 20
52.3
 30
0.0
 11
166.65
 21
48.2
 31
0.0
  0
LINE
  8
0
  6
CONTINUOUS
 62
     2
 10
166.65
 20
48.2
 30
0.0
 11
166.25
 21
48.2
 31
0.0
  0
LINE
  8
0
  6
CONTINUOUS
 62
     2
 10
166.25
 20
49.0
 30
0.0
 11
166.65
 21
49.0
 31
0.0
  0
LINE
  8
0
  6
CONTINUOUS
 62
     2
 10
166.25
 20
51.5
 30
0.0
 11
166.65
 21
51.5
 31
0.0
  0
LINE
  8
0
  6
CONTINUOUS
 62
     2
 10
166.25
 20
53.2
 30
0.0
 11
166.25
 21
57.3
 31
0.0
  0
LINE
  8
0
  6
CONTINUOUS
 62
     2
 10
166.65
 20
57.3
 30
0.0
 11
166.65
 21
53.2
 31
0.0
  0
LINE
  8
0
  6
CONTINUOUS
 62
     2
 10
166.65
 20
53.2
 30
0.0
 11
166.25
 21
53.2
 31
0.0
  0
LINE
  8
0
  6
CONTINUOUS
 62
     2
 10
166.25
 20
54.0
 30
0.0
 11
166.65
 21
54.0
 31
0.0
  0
LINE
  8
0
  6
CONTINUOUS
 62
     2
 10
166.25
 20
56.5
 30
0.0
 11
166.65
 21
56.5
 31
0.0
  0
LINE
  8
0
  6
CONTINUOUS
 62
     2
 10
166.25
 20
58.2
 30
0.0
 11
166.25
 21
62.3
 31
0.0
  0
LINE
  8
0
  6
CONTINUOUS
 62
     2
 10
166.65
 20
62.3
 30
0.0
 11
166.65
 21
58.2
 31
0.0
  0
LINE
  8
0
  6
CONTINUOUS
 62
     2
 10
166.25
 20
59.0
 30
0.0
 11
166.65
 21
59.0
 31
0.0
  0
LINE
  8
0
  6
CONTINUOUS
 62
     2
 10
166.25
 20
61.5
 30
0.0
 11
166.65
 21
61.5
 31
0.0
  0
LINE
  8
0
  6
CONTINUOUS
 62
     2
 10
166.25
 20
63.2
 30
0.0
 11
166.25
 21
67.3
 31
0.0
  0
LINE
  8
0
  6
CONTINUOUS
 62
     2
 10
166.65
 20
67.3
 30
0.0
 11
166.65
 21
63.2
 31
0.0
  0
LINE
  8
0
  6
CONTINUOUS
 62
     2
 10
166.25
 20
64.0
 30
0.0
 11
166.65
 21
64.0
 31
0.0
  0
LINE
  8
0
  6
CONTINUOUS
 62
     2
 10
166.25
 20
66.5
 30
0.0
 11
166.65
 21
66.5
 31
0.0
  0
LINE
  8
0
  6
CONTINUOUS
 62
     2
 10
166.25
 20
68.2
 30
0.0
 11
166.25
 21
72.3
 31
0.0
  0
LINE
  8
0
  6
CONTINUOUS
 62
     2
 10
166.65
 20
72.3
 30
0.0
 11
166.65
 21
68.2
 31
0.0
  0
LINE
  8
0
  6
CONTINUOUS
 62
     2
 10
166.25
 20
69.0
 30
0.0
 11
166.65
 21
69.0
 31
0.0
  0
LINE
  8
0
  6
CONTINUOUS
 62
     2
 10
166.25
 20
71.5
 30
0.0
 11
166.65
 21
71.5
 31
0.0
  0
LINE
  8
0
  6
CONTINUOUS
 62
     2
 10
166.25
 20
73.2
 30
0.0
 11
166.25
 21
77.3
 31
0.0
  0
LINE
  8
0
  6
CONTINUOUS
 62
     2
 10
166.65
 20
77.3
 30
0.0
 11
166.65
 21
73.2
 31
0.0
  0
LINE
  8
0
  6
CONTINUOUS
 62
     2
 10
166.25
 20
74.0
 30
0.0
 11
166.65
 21
74.0
 31
0.0
  0
LINE
  8
0
  6
CONTINUOUS
 62
     2
 10
166.25
 20
76.5
 30
0.0
 11
166.65
 21
76.5
 31
0.0
  0
LINE
  8
0
  6
CONTINUOUS
 62
     2
 10
166.25
 20
78.2
 30
0.0
 11
166.25
 21
82.3
 31
0.0
  0
LINE
  8
0
  6
CONTINUOUS
 62
     2
 10
166.65
 20
82.3
 30
0.0
 11
166.65
 21
78.2
 31
0.0
  0
LINE
  8
0
  6
CONTINUOUS
 62
     2
 10
166.25
 20
79.0
 30
0.0
 11
166.65
 21
79.0
 31
0.0
  0
LINE
  8
0
  6
CONTINUOUS
 62
     2
 10
166.25
 20
81.5
 30
0.0
 11
166.65
 21
81.5
 31
0.0
  0
LINE
  8
0
  6
CONTINUOUS
 62
     2
 10
169.35
 20
52.3
 30
0.0
 11
169.35
 21
53.2
 31
0.0
  0
LINE
  8
0
  6
CONTINUOUS
 62
     2
 10
169.85
 20
53.2
 30
0.0
 11
169.85
 21
52.3
 31
0.0
  0
LINE
  8
0
  6
CONTINUOUS
 62
     2
 10
168.75
 20
52.3
 30
0.0
 11
168.75
 21
53.2
 31
0.0
  0
LINE
  8
0
  6
CONTINUOUS
 62
     2
 10
169.35
 20
57.3
 30
0.0
 11
169.35
 21
58.2
 31
0.0
  0
LINE
  8
0
  6
CONTINUOUS
 62
     2
 10
169.85
 20
58.2
 30
0.0
 11
169.85
 21
57.3
 31
0.0
  0
LINE
  8
0
  6
CONTINUOUS
 62
     2
 10
168.75
 20
57.3
 30
0.0
 11
168.75
 21
58.2
 31
0.0
  0
LINE
  8
0
  6
CONTINUOUS
 62
     2
 10
169.35
 20
62.3
 30
0.0
 11
169.35
 21
63.2
 31
0.0
  0
LINE
  8
0
  6
CONTINUOUS
 62
     2
 10
169.85
 20
63.2
 30
0.0
 11
169.85
 21
62.3
 31
0.0
  0
LINE
  8
0
  6
CONTINUOUS
 62
     2
 10
168.75
 20
62.3
 30
0.0
 11
168.75
 21
63.2
 31
0.0
  0
LINE
  8
0
  6
CONTINUOUS
 62
     2
 10
169.35
 20
67.3
 30
0.0
 11
169.35
 21
68.2
 31
0.0
  0
LINE
  8
0
  6
CONTINUOUS
 62
     2
 10
169.85
 20
68.2
 30
0.0
 11
169.85
 21
67.3
 31
0.0
  0
LINE
  8
0
  6
CONTINUOUS
 62
     2
 10
168.75
 20
67.3
 30
0.0
 11
168.75
 21
68.2
 31
0.0
  0
LINE
  8
0
  6
CONTINUOUS
 62
     2
 10
169.35
 20
72.3
 30
0.0
 11
169.35
 21
73.2
 31
0.0
  0
LINE
  8
0
  6
CONTINUOUS
 62
     2
 10
169.85
 20
73.2
 30
0.0
 11
169.85
 21
72.3
 31
0.0
  0
LINE
  8
0
  6
CONTINUOUS
 62
     2
 10
168.75
 20
72.3
 30
0.0
 11
168.75
 21
73.2
 31
0.0
  0
LINE
  8
0
  6
CONTINUOUS
 62
     2
 10
169.35
 20
77.3
 30
0.0
 11
169.35
 21
78.2
 31
0.0
  0
LINE
  8
0
  6
CONTINUOUS
 62
     2
 10
169.85
 20
78.2
 30
0.0
 11
169.85
 21
77.3
 31
0.0
  0
LINE
  8
0
  6
CONTINUOUS
 62
     2
 10
168.75
 20
77.3
 30
0.0
 11
168.75
 21
78.2
 31
0.0
  0
LINE
  8
0
  6
CONTINUOUS
 62
     2
 10
169.35
 20
82.3
 30
0.0
 11
169.35
 21
83.2
 31
0.0
  0
LINE
  8
0
  6
CONTINUOUS
 62
     2
 10
169.85
 20
83.2
 30
0.0
 11
169.85
 21
82.3
 31
0.0
  0
LINE
  8
0
  6
CONTINUOUS
 62
     2
 10
168.75
 20
82.3
 30
0.0
 11
168.75
 21
83.2
 31
0.0
  0
LINE
  8
0
  6
LTYPE3
 62
     2
 10
169.45
 20
55.25
 30
0.0
 11
162.5
 21
55.25
 31
0.0
  0
LINE
  8
0
  6
LTYPE3
 62
     2
 10
169.45
 20
60.25
 30
0.0
 11
162.5
 21
60.25
 31
0.0
  0
LINE
  8
0
  6
LTYPE3
 62
     2
 10
169.45
 20
65.25
 30
0.0
 11
162.5
 21
65.25
 31
0.0
  0
LINE
  8
0
  6
LTYPE3
 62
     2
 10
169.45
 20
70.25
 30
0.0
 11
162.5
 21
70.25
 31
0.0
  0
LINE
  8
0
  6
LTYPE3
 62
     2
 10
169.45
 20
75.25
 30
0.0
 11
162.5
 21
75.25
 31
0.0
  0
LINE
  8
0
  6
LTYPE3
 62
     2
 10
169.45
 20
80.25
 30
0.0
 11
162.5
 21
80.25
 31
0.0
  0
LINE
  8
0
  6
LTYPE3
 62
     2
 10
169.45
 20
85.25
 30
0.0
 11
162.5
 21
85.25
 31
0.0
  0
LINE
  8
0
  6
LTYPE3
 62
     2
 10
169.45
 20
50.25
 30
0.0
 11
162.5
 21
50.25
 31
0.0
  0
LINE
  8
0
  6
CONTINUOUS
 62
     2
 10
171.2
 20
83.35
 30
0.0
 11
171.2
 21
52.15
 31
0.0
  0
LINE
  8
0
  6
CONTINUOUS
 62
     2
 10
171.2
 20
52.15
 30
0.0
 11
169.5
 21
52.15
 31
0.0
  0
LINE
  8
0
  6
CONTINUOUS
 62
     2
 10
169.5
 20
52.15
 30
0.0
 11
169.5
 21
83.35
 31
0.0
  0
LINE
  8
0
  6
CONTINUOUS
 62
     2
 10
169.5
 20
83.35
 30
0.0
 11
171.2
 21
83.35
 31
0.0
  0
LINE
  8
0
  6
CONTINUOUS
 62
     2
 10
175.75
 20
53.2
 30
0.0
 11
175.102952387
 21
50.785185434
 31
0.0
  0
LINE
  8
0
  6
CONTINUOUS
 62
     2
 10
175.75
 20
53.2
 30
0.0
 11
176.397047613
 21
50.785185434
 31
0.0
  0
LINE
  8
0
  6
CONTINUOUS
 62
     2
 10
175.75
 20
49.45
 30
0.0
 11
175.75
 21
53.2
 31
0.0
  0
LINE
  8
0
  6
CONTINUOUS
 62
     2
 10
175.75
 20
53.2
 30
0.0
 11
175.75
 21
57.3
 31
0.0
  0
LINE
  8
0
  6
CONTINUOUS
 62
     2
 10
175.75
 20
57.3
 30
0.0
 11
175.75
 21
61.05
 31
0.0
  0
LINE
  8
0
  6
CONTINUOUS
 62
     2
 10
175.75
 20
57.3
 30
0.0
 11
176.397047613
 21
59.714814566
 31
0.0
  0
LINE
  8
0
  6
CONTINUOUS
 62
     2
 10
175.75
 20
57.3
 30
0.0
 11
175.102952387
 21
59.714814566
 31
0.0
  0
TEXT
  8
0
  6
CONTINUOUS
 62
     2
 10
174.75
 20
53.25
 30
0.2
 40
3.0
  1
８．２
 50
90.0
 41
0.5
 51
0.0
  7
KANJI6
  0
LINE
  8
0
  6
CONTINUOUS
 62
     2
 10
171.75
 20
57.3
 30
0.0
 11
177.75
 21
57.3
 31
0.0
  0
LINE
  8
0
  6
CONTINUOUS
 62
     2
 10
171.75
 20
53.2
 30
0.0
 11
177.75
 21
53.2
 31
0.0
  0
LINE
  8
0
  6
CONTINUOUS
 62
     2
 10
171.2
 20
84.25
 30
0.0
 11
171.2
 21
130.0
 31
0.0
  0
LINE
  8
0
  6
CONTINUOUS
 62
     2
 10
171.2
 20
128.0
 30
0.0
 11
168.785185434
 21
128.647047613
 31
0.0
  0
LINE
  8
0
  6
CONTINUOUS
 62
     2
 10
171.2
 20
128.0
 30
0.0
 11
168.785185434
 21
127.352952387
 31
0.0
  0
LINE
  8
0
  6
CONTINUOUS
 62
     2
 10
161.0
 20
128.0
 30
0.0
 11
171.2
 21
128.0
 31
0.0
  0
LINE
  8
0
  6
CONTINUOUS
 62
     2
 10
171.2
 20
133.0
 30
0.0
 11
168.785185434
 21
133.647047613
 31
0.0
  0
LINE
  8
0
  6
CONTINUOUS
 62
     2
 10
171.2
 20
133.0
 30
0.0
 11
168.785185434
 21
132.352952387
 31
0.0
  0
LINE
  8
0
  6
CONTINUOUS
 62
     2
 10
171.2
 20
129.0
 30
0.0
 11
171.2
 21
135.0
 31
0.0
  0
LINE
  8
0
  6
CONTINUOUS
 62
     2
 10
57.0
 20
133.0
 30
0.0
 11
171.2
 21
133.0
 31
0.0
  0
TEXT
  8
0
  6
CONTINUOUS
 62
     2
 10
165.9
 20
25.1
 30
0.25
 40
2.5
  1
１　　＋
 50
0.0
 41
0.9
 51
0.0
  7
KANJI4
  0
ARC
  8
0
  6
CONTINUOUS
 62
     2
 10
179.9
 20
26.8
 30
0.0
 40
1.0
 50
0.0
 51
90.0
  0
TEXT
  8
0
  6
CONTINUOUS
 62
     2
 10
162.9
 20
29.1
 30
0.3
 40
3.0
  1
端子記号
 50
0.0
 41
0.9
 51
0.0
  7
KANJI7
  0
LINE
  8
0
  6
CONTINUOUS
 62
     2
 10
184.65
 20
134.8
 30
0.0
 11
185.297047613
 21
137.214814566
 31
0.0
  0
LINE
  8
0
  6
CONTINUOUS
 62
     2
 10
184.65
 20
134.8
 30
0.0
 11
184.002952387
 21
137.214814566
 31
0.0
  0
LINE
  8
0
  6
CONTINUOUS
 62
     2
 10
171.2
 20
66.48660254
 30
0.0
 11
171.847047613
 21
64.071787975
 31
0.0
  0
LINE
  8
0
  6
CONTINUOUS
 62
     2
 10
171.2
 20
66.48660254
 30
0.0
 11
172.967766953
 21
64.718835587
 31
0.0
  0
LINE
  8
0
  6
CONTINUOUS
 62
     2
 10
171.2
 20
66.48660254
 30
0.0
 11
174.144486373
 21
61.38660254
 31
0.0
  0
LINE
  8
0
  6
CONTINUOUS
 62
     2
 10
68.75
 20
156.75
 30
0.0
 11
68.75
 21
154.25
 31
0.0
  0
LINE
  8
0
  6
CONTINUOUS
 62
     2
 10
77.5
 20
154.25
 30
0.0
 11
77.5
 21
156.75
 31
0.0
  0
LINE
  8
0
  6
CONTINUOUS
 62
     2
 10
158.25
 20
154.25
 30
0.0
 11
158.25
 21
156.75
 31
0.0
  0
LINE
  8
0
  6
CONTINUOUS
 62
     2
 10
137.5
 20
154.25
 30
0.0
 11
137.5
 21
156.75
 31
0.0
  0
LINE
  8
0
  6
CONTINUOUS
 62
     2
 10
74.3
 20
156.5
 30
0.0
 11
77.5
 21
156.5
 31
0.0
  0
LINE
  8
0
  6
CONTINUOUS
 62
     2
 10
74.3
 20
154.5
 30
0.0
 11
77.5
 21
154.5
 31
0.0
  0
LINE
  8
0
  6
CONTINUOUS
 62
     2
 10
68.5
 20
156.5
 30
0.0
 11
72.7
 21
156.5
 31
0.0
  0
LINE
  8
0
  6
CONTINUOUS
 62
     2
 10
68.5
 20
154.5
 30
0.0
 11
72.7
 21
154.5
 31
0.0
  0
LINE
  8
0
  6
CONTINUOUS
 62
     2
 10
151.9
 20
154.5
 30
0.0
 11
137.5
 21
154.5
 31
0.0
  0
LINE
  8
0
  6
CONTINUOUS
 62
     2
 10
137.5
 20
156.5
 30
0.0
 11
151.9
 21
156.5
 31
0.0
  0
LINE
  8
0
  6
CONTINUOUS
 62
     2
 10
60.0
 20
165.5
 30
0.0
 11
54.0
 21
165.5
 31
0.0
  0
LINE
  8
0
  6
CONTINUOUS
 62
     2
 10
56.0
 20
165.5
 30
0.0
 11
55.352952387
 21
163.085185434
 31
0.0
  0
LINE
  8
0
  6
CONTINUOUS
 62
     2
 10
56.0
 20
165.5
 30
0.0
 11
56.647047613
 21
163.085185434
 31
0.0
  0
LINE
  8
0
  6
CONTINUOUS
 62
     2
 10
56.0
 20
161.75
 30
0.0
 11
56.0
 21
165.5
 31
0.0
  0
LINE
  8
0
  6
CONTINUOUS
 62
     2
 10
56.0
 20
165.5
 30
0.0
 11
56.0
 21
167.0
 31
0.0
  0
LINE
  8
0
  6
CONTINUOUS
 62
     2
 10
56.0
 20
167.0
 30
0.0
 11
56.0
 21
172.55
 31
0.0
  0
LINE
  8
0
  6
CONTINUOUS
 62
     2
 10
56.0
 20
167.0
 30
0.0
 11
56.647047613
 21
169.414814566
 31
0.0
  0
LINE
  8
0
  6
CONTINUOUS
 62
     2
 10
56.0
 20
167.0
 30
0.0
 11
55.352952387
 21
169.414814566
 31
0.0
  0
TEXT
  8
0
  6
CONTINUOUS
 62
     2
 10
55.0
 20
170.75
 30
0.3
 40
3.0
  1
３
 50
90.0
 41
0.6
 51
0.0
  7
KANJI0
  0
ARC
  8
0
  6
CONTINUOUS
 62
     2
 10
152.91796875
 20
154.375
 30
0.0
 40
1.78203125
 50
332.474380886
 51
39.146251661
  0
ARC
  8
0
  6
CONTINUOUS
 62
     2
 10
152.91796875
 20
156.625
 30
0.0
 40
1.78203125
 50
320.853748339
 51
27.525619114
  0
LINE
  8
0
  6
CONTINUOUS
 62
     2
 10
154.7
 20
156.5
 30
0.0
 11
158.5
 21
156.5
 31
0.0
  0
LINE
  8
0
  6
CONTINUOUS
 62
     2
 10
158.5
 20
154.5
 30
0.0
 11
154.7
 21
154.5
 31
0.0
  0
LINE
  8
0
  6
LTYPE3
 62
     2
 10
53.0
 20
155.5
 30
0.0
 11
172.0
 21
155.5
 31
0.0
  0
LINE
  8
0
  6
CONTINUOUS
 62
     2
 10
158.15
 20
163.95
 30
0.0
 11
160.06677682
 21
165.554981814
 31
0.0
  0
LINE
  8
0
  6
CONTINUOUS
 62
     2
 10
158.15
 20
163.95
 30
0.0
 11
159.007486512
 21
166.298343433
 31
0.0
  0
LINE
  8
0
  6
CONTINUOUS
 62
     2
 10
126.900877193
 20
174.05
 30
0.0
 11
165.237719298
 21
174.05
 31
0.0
  0
LINE
  8
0
  6
CONTINUOUS
 62
     2
 10
158.15
 20
163.95
 30
0.0
 11
165.237719298
 21
174.05
 31
0.0
  0
TEXT
  8
0
  6
CONTINUOUS
 62
     2
 10
69.607050808
 20
175.0
 30
0.3
 40
3.0
  1
エスカッション
 50
0.0
 41
0.9
 51
0.0
  7
KANJI1
  0
LINE
  8
0
  6
CONTINUOUS
 62
     2
 10
69.916451884
 20
174.0
 30
0.0
 11
90.307050808
 21
174.0
 31
0.0
  0
LINE
  8
0
  6
CONTINUOUS
 62
     2
 10
167.04
 20
86.58
 30
0.0
 11
167.04
 21
83.92
 31
0.0
  0
LINE
  8
0
  6
CONTINUOUS
 62
     2
 10
167.35
 20
83.94
 30
0.0
 11
167.04
 21
83.92
 31
0.0
  0
LINE
  8
0
  6
CONTINUOUS
 62
     2
 10
167.04
 20
86.58
 30
0.0
 11
167.35
 21
86.58
 31
0.0
  0
LINE
  8
0
  6
CONTINUOUS
 62
     2
 10
168.09
 20
85.83
 30
0.0
 11
168.09
 21
84.67
 31
0.0
  0
ARC
  8
0
  6
CONTINUOUS
 62
     2
 10
167.34
 20
85.83
 30
0.0
 40
0.75
 50
0.0
 51
90.0
  0
ARC
  8
0
  6
CONTINUOUS
 62
     2
 10
167.34
 20
84.67
 30
0.0
 40
0.75
 50
268.472474559
 51
0.0
  0
LINE
  8
0
  6
CONTINUOUS
 62
     2
 10
167.03
 20
86.6
 30
0.0
 11
166.65
 21
86.6
 31
0.0
  0
LINE
  8
0
  6
CONTINUOUS
 62
     2
 10
166.65
 20
86.6
 30
0.0
 11
166.65
 21
83.92
 31
0.0
  0
LINE
  8
0
  6
CONTINUOUS
 62
     2
 10
166.65
 20
83.92
 30
0.0
 11
167.03
 21
83.92
 31
0.0
  0
LINE
  8
0
  6
CONTINUOUS
 62
     2
 10
166.65
 20
85.13
 30
0.0
 11
167.03
 21
85.44
 31
0.0
  0
LINE
  8
0
  6
CONTINUOUS
 62
     2
 10
166.65
 20
84.89
 30
0.0
 11
167.04
 21
85.18
 31
0.0
  0
LINE
  8
0
  6
CONTINUOUS
 62
     2
 10
168.09
 20
85.46
 30
0.0
 11
168.02
 21
85.46
 31
0.0
  0
LINE
  8
0
  6
CONTINUOUS
 62
     2
 10
168.02
 20
85.47
 30
0.0
 11
168.02
 21
85.09
 31
0.0
  0
LINE
  8
0
  6
CONTINUOUS
 62
     2
 10
168.02
 20
85.09
 30
0.0
 11
168.08
 21
85.09
 31
0.0
  0
LINE
  8
0
  6
CONTINUOUS
 62
     2
 10
167.04
 20
81.58
 30
0.0
 11
167.04
 21
78.92
 31
0.0
  0
LINE
  8
0
  6
CONTINUOUS
 62
     2
 10
167.35
 20
78.94
 30
0.0
 11
167.04
 21
78.92
 31
0.0
  0
LINE
  8
0
  6
CONTINUOUS
 62
     2
 10
167.04
 20
81.58
 30
0.0
 11
167.35
 21
81.58
 31
0.0
  0
LINE
  8
0
  6
CONTINUOUS
 62
     2
 10
168.09
 20
80.83
 30
0.0
 11
168.09
 21
79.67
 31
0.0
  0
ARC
  8
0
  6
CONTINUOUS
 62
     2
 10
167.34
 20
80.83
 30
0.0
 40
0.75
 50
0.0
 51
90.0
  0
ARC
  8
0
  6
CONTINUOUS
 62
     2
 10
167.34
 20
79.67
 30
0.0
 40
0.75
 50
268.472474559
 51
0.0
  0
LINE
  8
0
  6
CONTINUOUS
 62
     2
 10
167.03
 20
81.6
 30
0.0
 11
166.65
 21
81.6
 31
0.0
  0
LINE
  8
0
  6
CONTINUOUS
 62
     2
 10
166.65
 20
81.6
 30
0.0
 11
166.65
 21
78.92
 31
0.0
  0
LINE
  8
0
  6
CONTINUOUS
 62
     2
 10
166.65
 20
78.92
 30
0.0
 11
167.03
 21
78.92
 31
0.0
  0
LINE
  8
0
  6
CONTINUOUS
 62
     2
 10
166.65
 20
80.13
 30
0.0
 11
167.03
 21
80.44
 31
0.0
  0
LINE
  8
0
  6
CONTINUOUS
 62
     2
 10
166.65
 20
79.89
 30
0.0
 11
167.04
 21
80.18
 31
0.0
  0
LINE
  8
0
  6
CONTINUOUS
 62
     2
 10
168.09
 20
80.46
 30
0.0
 11
168.02
 21
80.46
 31
0.0
  0
LINE
  8
0
  6
CONTINUOUS
 62
     2
 10
168.02
 20
80.47
 30
0.0
 11
168.02
 21
80.09
 31
0.0
  0
LINE
  8
0
  6
CONTINUOUS
 62
     2
 10
168.02
 20
80.09
 30
0.0
 11
168.08
 21
80.09
 31
0.0
  0
LINE
  8
0
  6
CONTINUOUS
 62
     2
 10
167.04
 20
76.58
 30
0.0
 11
167.04
 21
73.92
 31
0.0
  0
LINE
  8
0
  6
CONTINUOUS
 62
     2
 10
167.35
 20
73.94
 30
0.0
 11
167.04
 21
73.92
 31
0.0
  0
LINE
  8
0
  6
CONTINUOUS
 62
     2
 10
167.04
 20
76.58
 30
0.0
 11
167.35
 21
76.58
 31
0.0
  0
LINE
  8
0
  6
CONTINUOUS
 62
     2
 10
168.09
 20
75.83
 30
0.0
 11
168.09
 21
74.67
 31
0.0
  0
ARC
  8
0
  6
CONTINUOUS
 62
     2
 10
167.34
 20
75.83
 30
0.0
 40
0.75
 50
0.0
 51
90.0
  0
ARC
  8
0
  6
CONTINUOUS
 62
     2
 10
167.34
 20
74.67
 30
0.0
 40
0.75
 50
268.472474559
 51
0.0
  0
LINE
  8
0
  6
CONTINUOUS
 62
     2
 10
167.03
 20
76.6
 30
0.0
 11
166.65
 21
76.6
 31
0.0
  0
LINE
  8
0
  6
CONTINUOUS
 62
     2
 10
166.65
 20
76.6
 30
0.0
 11
166.65
 21
73.92
 31
0.0
  0
LINE
  8
0
  6
CONTINUOUS
 62
     2
 10
166.65
 20
73.92
 30
0.0
 11
167.03
 21
73.92
 31
0.0
  0
LINE
  8
0
  6
CONTINUOUS
 62
     2
 10
166.65
 20
75.13
 30
0.0
 11
167.03
 21
75.44
 31
0.0
  0
LINE
  8
0
  6
CONTINUOUS
 62
     2
 10
166.65
 20
74.89
 30
0.0
 11
167.04
 21
75.18
 31
0.0
  0
LINE
  8
0
  6
CONTINUOUS
 62
     2
 10
168.09
 20
75.46
 30
0.0
 11
168.02
 21
75.46
 31
0.0
  0
LINE
  8
0
  6
CONTINUOUS
 62
     2
 10
168.02
 20
75.47
 30
0.0
 11
168.02
 21
75.09
 31
0.0
  0
LINE
  8
0
  6
CONTINUOUS
 62
     2
 10
168.02
 20
75.09
 30
0.0
 11
168.08
 21
75.09
 31
0.0
  0
LINE
  8
0
  6
CONTINUOUS
 62
     2
 10
168.25
 20
74.85
 30
0.0
 11
168.897047613
 21
72.435185434
 31
0.0
  0
LINE
  8
0
  6
CONTINUOUS
 62
     2
 10
168.25
 20
74.85
 30
0.0
 11
170.017766953
 21
73.082233047
 31
0.0
  0
LINE
  8
0
  6
CONTINUOUS
 62
     2
 10
168.25
 20
74.85
 30
0.0
 11
172.291451884
 21
67.85
 31
0.0
  0
TEXT
  8
0
  6
CONTINUOUS
 62
     2
 10
172.291451884
 20
64.35
 30
0.3
 40
3.0
  1
ネジ
 50
0.0
 41
0.9
 51
0.0
  7
KANJI1
  0
LINE
  8
0
  6
CONTINUOUS
 62
     2
 10
172.291451884
 20
67.85
 30
0.0
 11
178.291451884
 21
67.85
 31
0.0
  0
TEXT
  8
0
  6
CONTINUOUS
 62
     2
 10
172.291451884
 20
68.85
 30
0.3
 40
3.0
  1
Ｍ３
 50
0.0
 41
0.9
 51
0.0
  7
KANJI1
  0
LINE
  8
0
  6
CONTINUOUS
 62
     2
 10
167.04
 20
51.58
 30
0.0
 11
167.04
 21
48.92
 31
0.0
  0
LINE
  8
0
  6
CONTINUOUS
 62
     2
 10
167.35
 20
48.94
 30
0.0
 11
167.04
 21
48.92
 31
0.0
  0
LINE
  8
0
  6
CONTINUOUS
 62
     2
 10
167.04
 20
51.58
 30
0.0
 11
167.35
 21
51.58
 31
0.0
  0
LINE
  8
0
  6
CONTINUOUS
 62
     2
 10
168.09
 20
50.83
 30
0.0
 11
168.09
 21
49.67
 31
0.0
  0
ARC
  8
0
  6
CONTINUOUS
 62
     2
 10
167.34
 20
50.83
 30
0.0
 40
0.75
 50
0.0
 51
90.0
  0
ARC
  8
0
  6
CONTINUOUS
 62
     2
 10
167.34
 20
49.67
 30
0.0
 40
0.75
 50
268.472474559
 51
0.0
  0
LINE
  8
0
  6
CONTINUOUS
 62
     2
 10
167.03
 20
51.6
 30
0.0
 11
166.65
 21
51.6
 31
0.0
  0
LINE
  8
0
  6
CONTINUOUS
 62
     2
 10
166.65
 20
51.6
 30
0.0
 11
166.65
 21
48.92
 31
0.0
  0
LINE
  8
0
  6
CONTINUOUS
 62
     2
 10
166.65
 20
48.92
 30
0.0
 11
167.03
 21
48.92
 31
0.0
  0
LINE
  8
0
  6
CONTINUOUS
 62
     2
 10
166.65
 20
50.13
 30
0.0
 11
167.03
 21
50.44
 31
0.0
  0
LINE
  8
0
  6
CONTINUOUS
 62
     2
 10
166.65
 20
49.89
 30
0.0
 11
167.04
 21
50.18
 31
0.0
  0
LINE
  8
0
  6
CONTINUOUS
 62
     2
 10
168.09
 20
50.46
 30
0.0
 11
168.02
 21
50.46
 31
0.0
  0
LINE
  8
0
  6
CONTINUOUS
 62
     2
 10
168.02
 20
50.47
 30
0.0
 11
168.02
 21
50.09
 31
0.0
  0
LINE
  8
0
  6
CONTINUOUS
 62
     2
 10
168.02
 20
50.09
 30
0.0
 11
168.08
 21
50.09
 31
0.0
  0
LINE
  8
0
  6
LTYPE2
 62
     5
 10
156.5
 20
147.0
 30
0.0
 11
159.0
 21
147.0
 31
0.0
  0
LINE
  8
0
  6
LTYPE2
 62
     5
 10
159.0
 20
147.0
 30
0.0
 11
159.0
 21
164.0
 31
0.0
  0
LINE
  8
0
  6
LTYPE2
 62
     5
 10
159.0
 20
164.0
 30
0.0
 11
156.5
 21
164.0
 31
0.0
  0
LINE
  8
0
  6
LTYPE2
 62
     5
 10
156.5
 20
154.25
 30
0.0
 11
156.5
 21
147.0
 31
0.0
  0
LINE
  8
0
  6
LTYPE2
 62
     5
 10
156.5
 20
164.0
 30
0.0
 11
156.5
 21
156.75
 31
0.0
  0
TEXT
  8
0
  6
CONTINUOUS
 62
     2
 10
127.55
 20
175.05
 30
0.3
 40
3.0
  1
ＴＡＧ　ＮＯ．　２枚表示の場合
 50
0.0
 41
0.9
 51
0.0
  7
KANJI1
  0
TEXT
  8
0
  6
CONTINUOUS
 62
     2
 10
15.0
 20
42.575
 30
0.2
 40
3.0
  1
１２．５
 50
90.0
 41
0.5
 51
0.0
  7
KANJI6
  0
TEXT
  8
0
  6
CONTINUOUS
 62
     2
 10
162.0
 20
129.0
 30
0.3
 40
3.0
  1
１９．５
 50
0.0
 41
0.6
 51
0.0
  7
KANJI0
  0
TEXT
  8
0
  6
CONTINUOUS
 62
     2
 10
109.5
 20
134.0
 30
0.3
 40
3.0
  1
２２８．５
 50
0.0
 41
0.6
 51
0.0
  7
KANJI0
  0
LINE
  8
0
  6
CONTINUOUS
 62
     2
 10
66.0
 20
160.5
 30
0.0
 11
66.0
 21
167.0
 31
0.0
  0
LINE
  8
0
  6
CONTINUOUS
 62
     2
 10
66.0
 20
167.0
 30
0.0
 11
65.75
 21
167.0
 31
0.0
  0
LINE
  8
0
  6
CONTINUOUS
 62
     2
 10
65.75
 20
167.0
 30
0.0
 11
65.75
 21
160.5
 31
0.0
  0
LINE
  8
0
  6
CONTINUOUS
 62
     2
 10
64.75
 20
167.0
 30
0.0
 11
54.0
 21
167.0
 31
0.0
  0
LINE
  8
0
  6
CONTINUOUS
 62
     2
 10
65.875
 20
167.0
 30
0.0
 11
67.642766953
 21
168.767766953
 31
0.0
  0
LINE
  8
0
  6
CONTINUOUS
 62
     2
 10
65.875
 20
167.0
 30
0.0
 11
66.522047613
 21
169.414814566
 31
0.0
  0
LINE
  8
0
  6
CONTINUOUS
 62
     2
 10
65.875
 20
167.0
 30
0.0
 11
69.916451884
 21
174.0
 31
0.0
  0
LINE
  8
0
  6
CONTINUOUS
 62
     2
 10
66.0
 20
150.5
 30
0.0
 11
66.0
 21
144.0
 31
0.0
  0
LINE
  8
0
  6
CONTINUOUS
 62
     2
 10
66.0
 20
144.0
 30
0.0
 11
65.75
 21
144.0
 31
0.0
  0
LINE
  8
0
  6
CONTINUOUS
 62
     2
 10
65.75
 20
144.0
 30
0.0
 11
65.75
 21
150.5
 31
0.0
  0
LINE
  8
0
  6
CONTINUOUS
 62
     1
 10
46.0
 20
117.5
 30
0.0
 11
46.5
 21
117.5
 31
0.0
  0
LINE
  8
0
  6
CONTINUOUS
 62
     1
 10
47.5
 20
116.5
 30
0.0
 11
47.5
 21
43.5
 31
0.0
  0
ARC
  8
0
  6
CONTINUOUS
 62
     1
 10
46.5
 20
116.5
 30
0.0
 40
1.0
 50
0.0
 51
90.0
  0
LINE
  8
0
  6
CONTINUOUS
 62
     1
 10
46.5
 20
42.5
 30
0.0
 11
46.0
 21
42.5
 31
0.0
  0
ARC
  8
0
  6
CONTINUOUS
 62
     1
 10
46.5
 20
43.5
 30
0.0
 40
1.0
 50
270.0
 51
0.0
  0
LINE
  8
0
  6
LTYPE3
 62
     2
 10
36.0
 20
110.1
 30
0.0
 11
36.0
 21
47.6
 31
0.0
  0
LINE
  8
0
  6
LTYPE3
 62
     2
 10
36.0
 20
122.5
 30
0.0
 11
36.0
 21
113.1
 31
0.0
  0
LINE
  8
0
  6
CONTINUOUS
 62
     1
 10
161.5
 20
162.0
 30
0.0
 11
161.5
 21
153.5
 31
0.0
  0
LINE
  8
0
  6
CONTINUOUS
 62
     1
 10
161.5
 20
162.0
 30
0.0
 11
164.25
 21
162.0
 31
0.0
  0
LINE
  8
0
  6
CONTINUOUS
 62
     1
 10
166.154993762
 20
160.754750312
 30
0.0
 11
164.25
 21
160.85
 31
0.0
  0
ARC
  8
0
  6
CONTINUOUS
 62
     1
 10
166.15
 20
160.654875078
 30
0.0
 40
0.1
 50
360.0
 51
87.137594774
  0
LINE
  8
0
  6
CONTINUOUS
 62
     1
 10
166.25
 20
160.654875078
 30
0.0
 11
166.25
 21
154.845124922
 31
0.0
  0
ARC
  8
0
  6
CONTINUOUS
 62
     1
 10
166.15
 20
154.845124922
 30
0.0
 40
0.1
 50
272.862405226
 51
0.0
  0
LINE
  8
0
  6
CONTINUOUS
 62
     1
 10
164.25
 20
162.0
 30
0.0
 11
164.25
 21
160.85
 31
0.0
  0
LINE
  8
0
  6
CONTINUOUS
 62
     1
 10
164.25
 20
153.5
 30
0.0
 11
161.5
 21
153.5
 31
0.0
  0
LINE
  8
0
  6
CONTINUOUS
 62
     1
 10
164.25
 20
162.0
 30
0.0
 11
168.701937515
 21
162.0
 31
0.0
  0
ARC
  8
0
  6
CONTINUOUS
 62
     1
 10
168.701937515
 20
161.9
 30
0.0
 40
0.1
 50
38.659808254
 51
90.0
  0
LINE
  8
0
  6
CONTINUOUS
 62
     1
 10
169.319975604
 20
161.287530495
 30
0.0
 11
168.780024396
 21
161.962469505
 31
0.0
  0
ARC
  8
0
  6
CONTINUOUS
 62
     1
 10
169.398062485
 20
161.35
 30
0.0
 40
0.1
 50
218.659808254
 51
270.0
  0
LINE
  8
0
  6
CONTINUOUS
 62
     1
 10
169.75
 20
161.25
 30
0.0
 11
169.398062485
 21
161.25
 31
0.0
  0
ARC
  8
0
  6
CONTINUOUS
 62
     1
 10
169.75
 20
161.35
 30
0.0
 40
0.1
 50
270.0
 51
0.0
  0
LINE
  8
0
  6
CONTINUOUS
 62
     1
 10
169.85
 20
161.9
 30
0.0
 11
169.85
 21
161.35
 31
0.0
  0
ARC
  8
0
  6
CONTINUOUS
 62
     1
 10
169.95
 20
161.9
 30
0.0
 40
0.1
 50
90.0
 51
180.0
  0
LINE
  8
0
  6
CONTINUOUS
 62
     1
 10
169.95
 20
162.0
 30
0.0
 11
170.65
 21
162.0
 31
0.0
  0
ARC
  8
0
  6
CONTINUOUS
 62
     1
 10
170.65
 20
161.9
 30
0.0
 40
0.1
 50
0.0
 51
90.0
  0
LINE
  8
0
  6
CONTINUOUS
 62
     1
 10
164.25
 20
153.5
 30
0.0
 11
168.701937515
 21
153.5
 31
0.0
  0
ARC
  8
0
  6
CONTINUOUS
 62
     1
 10
168.701937515
 20
153.6
 30
0.0
 40
0.1
 50
270.0
 51
321.340191746
  0
LINE
  8
0
  6
CONTINUOUS
 62
     1
 10
169.319975604
 20
154.212469505
 30
0.0
 11
168.780024396
 21
153.537530495
 31
0.0
  0
ARC
  8
0
  6
CONTINUOUS
 62
     1
 10
169.398062485
 20
154.15
 30
0.0
 40
0.1
 50
90.0
 51
141.340191746
  0
LINE
  8
0
  6
CONTINUOUS
 62
     1
 10
169.75
 20
154.25
 30
0.0
 11
169.398062485
 21
154.25
 31
0.0
  0
ARC
  8
0
  6
CONTINUOUS
 62
     1
 10
169.75
 20
154.15
 30
0.0
 40
0.1
 50
0.0
 51
90.0
  0
LINE
  8
0
  6
CONTINUOUS
 62
     1
 10
170.75
 20
161.9
 30
0.0
 11
170.75
 21
153.6
 31
0.0
  0
LINE
  8
0
  6
CONTINUOUS
 62
     1
 10
169.85
 20
154.15
 30
0.0
 11
169.85
 21
153.6
 31
0.0
  0
ARC
  8
0
  6
CONTINUOUS
 62
     1
 10
169.95
 20
153.6
 30
0.0
 40
0.1
 50
180.0
 51
270.0
  0
LINE
  8
0
  6
CONTINUOUS
 62
     1
 10
169.95
 20
153.5
 30
0.0
 11
170.65
 21
153.5
 31
0.0
  0
ARC
  8
0
  6
CONTINUOUS
 62
     1
 10
170.65
 20
153.6
 30
0.0
 40
0.1
 50
270.0
 51
0.0
  0
LINE
  8
0
  6
CONTINUOUS
 62
     2
 10
166.25
 20
159.9
 30
0.0
 11
166.3
 21
159.9
 31
0.0
  0
ARC
  8
0
  6
CONTINUOUS
 62
     2
 10
166.3
 20
159.55
 30
0.0
 40
0.35
 50
0.0
 51
90.0
  0
LINE
  8
0
  6
CONTINUOUS
 62
     2
 10
166.3
 20
155.6
 30
0.0
 11
166.25
 21
155.6
 31
0.0
  0
LINE
  8
0
  6
CONTINUOUS
 62
     2
 10
166.65
 20
159.55
 30
0.0
 11
166.65
 21
155.95
 31
0.0
  0
ARC
  8
0
  6
CONTINUOUS
 62
     2
 10
166.3
 20
155.95
 30
0.0
 40
0.35
 50
270.0
 51
0.0
  0
LINE
  8
0
  6
CONTINUOUS
 62
     2
 10
169.650003081
 20
153.65
 30
0.0
 11
169.750003081
 21
153.7
 31
0.0
  0
LINE
  8
0
  6
CONTINUOUS
 62
     2
 10
169.750003081
 20
153.7
 30
0.0
 11
169.85
 21
153.6
 31
0.0
  0
LINE
  8
0
  6
CONTINUOUS
 62
     2
 10
169.950003081
 20
153.05
 30
0.0
 11
170.65
 21
153.05
 31
0.0
  0
ARC
  8
0
  6
CONTINUOUS
 62
     2
 10
170.65
 20
153.6
 30
0.0
 40
0.55
 50
270.0
 51
0.0
  0
ARC
  8
0
  6
CONTINUOUS
 62
     2
 10
170.100003081
 20
153.5
 30
0.0
 40
0.474341649
 50
161.565051177
 51
251.565051177
  0
LINE
  8
0
  6
CONTINUOUS
 62
     2
 10
171.2
 20
153.6
 30
0.0
 11
171.2
 21
161.9
 31
0.0
  0
LINE
  8
0
  6
CONTINUOUS
 62
     2
 10
169.950003081
 20
162.45
 30
0.0
 11
170.65
 21
162.45
 31
0.0
  0
ARC
  8
0
  6
CONTINUOUS
 62
     2
 10
170.65
 20
161.9
 30
0.0
 40
0.55
 50
360.0
 51
90.0
  0
LINE
  8
0
  6
CONTINUOUS
 62
     2
 10
169.650003081
 20
161.85
 30
0.0
 11
169.750003081
 21
161.8
 31
0.0
  0
LINE
  8
0
  6
CONTINUOUS
 62
     2
 10
169.750003081
 20
161.8
 30
0.0
 11
169.85
 21
161.9
 31
0.0
  0
ARC
  8
0
  6
CONTINUOUS
 62
     2
 10
170.100003081
 20
162.0
 30
0.0
 40
0.474341649
 50
108.434948823
 51
198.434948823
  0
LINE
  8
0
  6
CONTINUOUS
 62
     2
 10
167.04
 20
159.08
 30
0.0
 11
167.04
 21
156.42
 31
0.0
  0
LINE
  8
0
  6
CONTINUOUS
 62
     2
 10
167.35
 20
156.44
 30
0.0
 11
167.04
 21
156.42
 31
0.0
  0
LINE
  8
0
  6
CONTINUOUS
 62
     2
 10
167.04
 20
159.08
 30
0.0
 11
167.35
 21
159.08
 31
0.0
  0
LINE
  8
0
  6
CONTINUOUS
 62
     2
 10
168.09
 20
158.33
 30
0.0
 11
168.09
 21
157.17
 31
0.0
  0
ARC
  8
0
  6
CONTINUOUS
 62
     2
 10
167.34
 20
158.33
 30
0.0
 40
0.75
 50
0.0
 51
90.0
  0
ARC
  8
0
  6
CONTINUOUS
 62
     2
 10
167.34
 20
157.17
 30
0.0
 40
0.75
 50
268.472474559
 51
0.0
  0
LINE
  8
0
  6
CONTINUOUS
 62
     2
 10
167.03
 20
159.1
 30
0.0
 11
166.65
 21
159.1
 31
0.0
  0
LINE
  8
0
  6
CONTINUOUS
 62
     2
 10
166.65
 20
159.1
 30
0.0
 11
166.65
 21
156.42
 31
0.0
  0
LINE
  8
0
  6
CONTINUOUS
 62
     2
 10
166.65
 20
156.42
 30
0.0
 11
167.03
 21
156.42
 31
0.0
  0
LINE
  8
0
  6
CONTINUOUS
 62
     2
 10
166.65
 20
157.63
 30
0.0
 11
167.03
 21
157.94
 31
0.0
  0
LINE
  8
0
  6
CONTINUOUS
 62
     2
 10
166.65
 20
157.39
 30
0.0
 11
167.04
 21
157.68
 31
0.0
  0
LINE
  8
0
  6
CONTINUOUS
 62
     2
 10
168.09
 20
157.96
 30
0.0
 11
168.02
 21
157.96
 31
0.0
  0
LINE
  8
0
  6
CONTINUOUS
 62
     2
 10
168.02
 20
157.97
 30
0.0
 11
168.02
 21
157.59
 31
0.0
  0
LINE
  8
0
  6
CONTINUOUS
 62
     2
 10
168.02
 20
157.59
 30
0.0
 11
168.08
 21
157.59
 31
0.0
  0
ARC
  8
0
  6
CONTINUOUS
 62
     2
 10
165.599998634
 20
157.166665
 30
0.0
 40
0.333333
 50
270.0
 51
90.0
  0
ARC
  8
0
  6
CONTINUOUS
 62
     2
 10
165.599998634
 20
156.499999
 30
0.0
 40
0.333333
 50
270.0
 51
90.0
  0
ARC
  8
0
  6
CONTINUOUS
 62
     2
 10
165.599998634
 20
155.833333
 30
0.0
 40
0.333333
 50
270.0
 51
90.0
  0
ARC
  8
0
  6
CONTINUOUS
 62
     2
 10
165.599998634
 20
155.166667
 30
0.0
 40
0.333333
 50
270.0
 51
90.0
  0
ARC
  8
0
  6
CONTINUOUS
 62
     2
 10
165.599998634
 20
154.500001
 30
0.0
 40
0.333333
 50
270.0
 51
90.0
  0
ARC
  8
0
  6
CONTINUOUS
 62
     2
 10
165.599998634
 20
153.833335
 30
0.0
 40
0.333333
 50
270.0
 51
90.0
  0
LINE
  8
0
  6
CONTINUOUS
 62
     2
 10
161.5
 20
153.5
 30
0.0
 11
165.6
 21
153.5
 31
0.0
  0
LINE
  8
0
  6
CONTINUOUS
 62
     2
 10
161.5
 20
154.166666
 30
0.0
 11
165.6
 21
154.166666
 31
0.0
  0
LINE
  8
0
  6
CONTINUOUS
 62
     2
 10
161.5
 20
154.833332
 30
0.0
 11
165.6
 21
154.833332
 31
0.0
  0
LINE
  8
0
  6
CONTINUOUS
 62
     2
 10
161.5
 20
155.499998
 30
0.0
 11
165.6
 21
155.499998
 31
0.0
  0
LINE
  8
0
  6
CONTINUOUS
 62
     2
 10
161.5
 20
156.166664
 30
0.0
 11
165.6
 21
156.166664
 31
0.0
  0
LINE
  8
0
  6
CONTINUOUS
 62
     2
 10
161.5
 20
156.83333
 30
0.0
 11
165.6
 21
156.83333
 31
0.0
  0
LINE
  8
0
  6
CONTINUOUS
 62
     2
 10
161.5
 20
157.499996
 30
0.0
 11
165.6
 21
157.499996
 31
0.0
  0
LINE
  8
0
  6
CONTINUOUS
 62
     1
 10
166.154993762
 20
154.745249688
 30
0.0
 11
165.841665487
 21
154.729583274
 31
0.0
  0
LINE
  8
0
  6
LTYPE3
 62
     2
 10
166.25
 20
157.75
 30
0.0
 11
169.25
 21
157.75
 31
0.0
  0
TEXT
  8
0
  6
CONTINUOUS
 62
     2
 10
180.144486373
 20
62.38660254
 30
0.0
 40
3.0
  1
端子カバー
 50
0.0
 41
0.833333333
 51
0.0
  7
KANJI8
  0
LINE
  8
0
  6
CONTINUOUS
 62
     2
 10
174.144486373
 20
61.38660254
 30
0.0
 11
192.6
 21
61.38660254
 31
0.0
  0
LINE
  8
0
  6
CONTINUOUS
 62
     1
 10
214.5
 20
115.75
 30
0.0
 11
194.5
 21
115.75
 31
0.0
  0
LINE
  8
0
  6
CONTINUOUS
 62
     1
 10
194.5
 20
115.75
 30
0.0
 11
194.5
 21
44.25
 31
0.0
  0
LINE
  8
0
  6
CONTINUOUS
 62
     1
 10
214.5
 20
44.25
 30
0.0
 11
214.5
 21
115.75
 31
0.0
  0
LINE
  8
0
  6
CONTINUOUS
 62
     1
 10
195.5
 20
115.75
 30
0.0
 11
195.5
 21
116.25
 31
0.0
  0
LINE
  8
0
  6
CONTINUOUS
 62
     1
 10
195.5
 20
116.25
 30
0.0
 11
213.5
 21
116.25
 31
0.0
  0
LINE
  8
0
  6
CONTINUOUS
 62
     1
 10
213.5
 20
116.25
 30
0.0
 11
213.5
 21
115.75
 31
0.0
  0
LINE
  8
0
  6
CONTINUOUS
 62
     1
 10
195.5
 20
44.25
 30
0.0
 11
195.5
 21
43.75
 31
0.0
  0
LINE
  8
0
  6
CONTINUOUS
 62
     1
 10
195.5
 20
43.75
 30
0.0
 11
213.5
 21
43.75
 31
0.0
  0
LINE
  8
0
  6
CONTINUOUS
 62
     1
 10
213.5
 20
43.75
 30
0.0
 11
213.5
 21
44.25
 31
0.0
  0
LINE
  8
0
  6
CONTINUOUS
 62
     1
 10
204.25
 20
115.75
 30
0.0
 11
204.25
 21
115.4
 31
0.0
  0
LINE
  8
0
  6
CONTINUOUS
 62
     1
 10
204.75
 20
115.75
 30
0.0
 11
204.75
 21
115.4
 31
0.0
  0
LINE
  8
0
  6
CONTINUOUS
 62
     1
 10
198.25
 20
121.25
 30
0.0
 11
198.25
 21
116.25
 31
0.0
  0
LINE
  8
0
  6
CONTINUOUS
 62
     1
 10
210.75
 20
121.25
 30
0.0
 11
210.75
 21
116.25
 31
0.0
  0
CIRCLE
  8
0
  6
CONTINUOUS
 62
     1
 10
204.5
 20
119.25
 30
0.0
 40
1.275
  0
LINE
  8
0
  6
CONTINUOUS
 62
     1
 10
200.25
 20
121.25
 30
0.0
 11
200.25
 21
116.25
 31
0.0
  0
LINE
  8
0
  6
CONTINUOUS
 62
     1
 10
208.75
 20
121.25
 30
0.0
 11
208.75
 21
116.25
 31
0.0
  0
LINE
  8
0
  6
CONTINUOUS
 62
     1
 10
198.25
 20
117.5
 30
0.0
 11
195.5
 21
117.5
 31
0.0
  0
LINE
  8
0
  6
CONTINUOUS
 62
     1
 10
195.5
 20
117.5
 30
0.0
 11
195.5
 21
116.25
 31
0.0
  0
LINE
  8
0
  6
CONTINUOUS
 62
     1
 10
194.5
 20
115.75
 30
0.0
 11
194.5
 21
117.5
 31
0.0
  0
LINE
  8
0
  6
CONTINUOUS
 62
     1
 10
194.5
 20
117.5
 30
0.0
 11
195.5
 21
117.5
 31
0.0
  0
LINE
  8
0
  6
CONTINUOUS
 62
     1
 10
214.5
 20
115.75
 30
0.0
 11
214.5
 21
117.5
 31
0.0
  0
LINE
  8
0
  6
CONTINUOUS
 62
     1
 10
214.5
 20
117.5
 30
0.0
 11
213.5
 21
117.5
 31
0.0
  0
LINE
  8
0
  6
CONTINUOUS
 62
     1
 10
213.5
 20
116.25
 30
0.0
 11
213.5
 21
117.5
 31
0.0
  0
LINE
  8
0
  6
CONTINUOUS
 62
     1
 10
213.5
 20
117.5
 30
0.0
 11
210.75
 21
117.5
 31
0.0
  0
LINE
  8
0
  6
CONTINUOUS
 62
     1
 10
198.25
 20
38.75
 30
0.0
 11
198.25
 21
43.75
 31
0.0
  0
LINE
  8
0
  6
CONTINUOUS
 62
     1
 10
210.75
 20
38.75
 30
0.0
 11
210.75
 21
43.75
 31
0.0
  0
LINE
  8
0
  6
CONTINUOUS
 62
     1
 10
200.25
 20
38.75
 30
0.0
 11
200.25
 21
43.75
 31
0.0
  0
LINE
  8
0
  6
CONTINUOUS
 62
     1
 10
208.75
 20
38.75
 30
0.0
 11
208.75
 21
43.75
 31
0.0
  0
LINE
  8
0
  6
CONTINUOUS
 62
     1
 10
198.25
 20
42.5
 30
0.0
 11
195.5
 21
42.5
 31
0.0
  0
LINE
  8
0
  6
CONTINUOUS
 62
     1
 10
195.5
 20
42.5
 30
0.0
 11
195.5
 21
43.75
 31
0.0
  0
LINE
  8
0
  6
CONTINUOUS
 62
     1
 10
194.5
 20
44.25
 30
0.0
 11
194.5
 21
42.5
 31
0.0
  0
LINE
  8
0
  6
CONTINUOUS
 62
     1
 10
194.5
 20
42.5
 30
0.0
 11
195.5
 21
42.5
 31
0.0
  0
LINE
  8
0
  6
CONTINUOUS
 62
     1
 10
214.5
 20
44.25
 30
0.0
 11
214.5
 21
42.5
 31
0.0
  0
LINE
  8
0
  6
CONTINUOUS
 62
     1
 10
214.5
 20
42.5
 30
0.0
 11
213.5
 21
42.5
 31
0.0
  0
LINE
  8
0
  6
CONTINUOUS
 62
     1
 10
213.5
 20
43.75
 30
0.0
 11
213.5
 21
42.5
 31
0.0
  0
LINE
  8
0
  6
CONTINUOUS
 62
     1
 10
213.5
 20
42.5
 30
0.0
 11
210.75
 21
42.5
 31
0.0
  0
LINE
  8
0
  6
CONTINUOUS
 62
     1
 10
204.5
 20
121.500000962
 30
0.0
 11
202.551442841
 21
120.375000962
 31
0.0
  0
LINE
  8
0
  6
CONTINUOUS
 62
     1
 10
202.551442841
 20
120.375000962
 30
0.0
 11
202.551442841
 21
118.125000962
 31
0.0
  0
LINE
  8
0
  6
CONTINUOUS
 62
     1
 10
202.551442841
 20
118.125000962
 30
0.0
 11
204.5
 21
117.000000962
 31
0.0
  0
LINE
  8
0
  6
CONTINUOUS
 62
     1
 10
204.5
 20
117.000000962
 30
0.0
 11
206.448557159
 21
118.125000962
 31
0.0
  0
LINE
  8
0
  6
CONTINUOUS
 62
     1
 10
206.448557159
 20
118.125000962
 30
0.0
 11
206.448557159
 21
120.375000962
 31
0.0
  0
LINE
  8
0
  6
CONTINUOUS
 62
     1
 10
206.448557159
 20
120.375000962
 30
0.0
 11
204.5
 21
121.500000962
 31
0.0
  0
LINE
  8
0
  6
CONTINUOUS
 62
     1
 10
204.933014368
 20
121.25
 30
0.0
 11
210.75
 21
121.25
 31
0.0
  0
LINE
  8
0
  6
CONTINUOUS
 62
     1
 10
198.25
 20
121.25
 30
0.0
 11
204.066985632
 21
121.25
 31
0.0
  0
CIRCLE
  8
0
  6
CONTINUOUS
 62
     1
 10
204.5
 20
40.75
 30
0.0
 40
1.275
  0
LINE
  8
0
  6
CONTINUOUS
 62
     1
 10
204.5
 20
38.499999038
 30
0.0
 11
202.551442841
 21
39.624999038
 31
0.0
  0
LINE
  8
0
  6
CONTINUOUS
 62
     1
 10
202.551442841
 20
39.624999038
 30
0.0
 11
202.551442841
 21
41.874999038
 31
0.0
  0
LINE
  8
0
  6
CONTINUOUS
 62
     1
 10
202.551442841
 20
41.874999038
 30
0.0
 11
204.5
 21
42.999999038
 31
0.0
  0
LINE
  8
0
  6
CONTINUOUS
 62
     1
 10
204.5
 20
42.999999038
 30
0.0
 11
206.448557159
 21
41.874999038
 31
0.0
  0
LINE
  8
0
  6
CONTINUOUS
 62
     1
 10
206.448557159
 20
41.874999038
 30
0.0
 11
206.448557159
 21
39.624999038
 31
0.0
  0
LINE
  8
0
  6
CONTINUOUS
 62
     1
 10
206.448557159
 20
39.624999038
 30
0.0
 11
204.5
 21
38.499999038
 31
0.0
  0
LINE
  8
0
  6
CONTINUOUS
 62
     1
 10
204.933014368
 20
38.75
 30
0.0
 11
210.75
 21
38.75
 31
0.0
  0
LINE
  8
0
  6
CONTINUOUS
 62
     1
 10
198.25
 20
38.75
 30
0.0
 11
204.066985632
 21
38.75
 31
0.0
  0
LINE
  8
0
  6
CONTINUOUS
 62
     1
 10
204.25
 20
115.75
 30
0.0
 11
194.5
 21
115.75
 31
0.0
  0
LINE
  8
0
  6
CONTINUOUS
 62
     1
 10
204.25
 20
105.5
 30
0.0
 11
196.5
 21
105.5
 31
0.0
  0
LINE
  8
0
  6
CONTINUOUS
 62
     1
 10
196.5
 20
105.5
 30
0.0
 11
196.5
 21
89.75
 31
0.0
  0
LINE
  8
0
  6
CONTINUOUS
 62
     1
 10
194.5
 20
44.25
 30
0.0
 11
204.25
 21
44.25
 31
0.0
  0
LINE
  8
0
  6
CONTINUOUS
 62
     1
 10
204.75
 20
115.75
 30
0.0
 11
214.5
 21
115.75
 31
0.0
  0
LINE
  8
0
  6
CONTINUOUS
 62
     1
 10
204.75
 20
105.5
 30
0.0
 11
212.5
 21
105.5
 31
0.0
  0
LINE
  8
0
  6
CONTINUOUS
 62
     1
 10
212.5
 20
105.5
 30
0.0
 11
212.5
 21
89.75
 31
0.0
  0
LINE
  8
0
  6
CONTINUOUS
 62
     1
 10
214.5
 20
44.25
 30
0.0
 11
204.75
 21
44.25
 31
0.0
  0
LINE
  8
0
  6
CONTINUOUS
 62
     1
 10
196.5
 20
89.75
 30
0.0
 11
202.5
 21
89.75
 31
0.0
  0
LINE
  8
0
  6
CONTINUOUS
 62
     1
 10
202.5
 20
88.75
 30
0.0
 11
200.75
 21
88.75
 31
0.0
  0
LINE
  8
0
  6
CONTINUOUS
 62
     1
 10
206.5
 20
88.75
 30
0.0
 11
208.25
 21
88.75
 31
0.0
  0
LINE
  8
0
  6
CONTINUOUS
 62
     1
 10
212.5
 20
89.75
 30
0.0
 11
206.5
 21
89.75
 31
0.0
  0
LINE
  8
0
  6
CONTINUOUS
 62
     1
 10
204.75
 20
115.4
 30
0.0
 11
204.75
 21
115.75
 31
0.0
  0
LINE
  8
0
  6
CONTINUOUS
 62
     1
 10
204.75
 20
105.5
 30
0.0
 11
204.75
 21
105.9
 31
0.0
  0
LINE
  8
0
  6
CONTINUOUS
 62
     1
 10
204.25
 20
115.4
 30
0.0
 11
204.25
 21
115.75
 31
0.0
  0
LINE
  8
0
  6
CONTINUOUS
 62
     1
 10
204.25
 20
105.5
 30
0.0
 11
204.25
 21
105.9
 31
0.0
  0
LINE
  8
0
  6
CONTINUOUS
 62
     1
 10
204.75
 20
44.25
 30
0.0
 11
204.75
 21
44.75
 31
0.0
  0
LINE
  8
0
  6
CONTINUOUS
 62
     1
 10
204.25
 20
44.25
 30
0.0
 11
204.25
 21
44.75
 31
0.0
  0
LINE
  8
0
  6
CONTINUOUS
 62
     1
 10
208.25
 20
88.75
 30
0.0
 11
208.25
 21
87.3
 31
0.0
  0
LINE
  8
0
  6
LTYPE3
 62
     2
 10
198.3
 20
80.0
 30
0.0
 11
189.5
 21
80.0
 31
0.0
  0
LINE
  8
0
  6
CONTINUOUS
 62
     2
 10
196.75
 20
115.4
 30
0.0
 11
196.75
 21
105.9
 31
0.0
  0
LINE
  8
0
  6
CONTINUOUS
 62
     2
 10
212.25
 20
115.4
 30
0.0
 11
196.75
 21
115.4
 31
0.0
  0
LINE
  8
0
  6
CONTINUOUS
 62
     2
 10
212.25
 20
115.4
 30
0.0
 11
212.25
 21
105.9
 31
0.0
  0
LINE
  8
0
  6
CONTINUOUS
 62
     2
 10
196.75
 20
105.9
 30
0.0
 11
212.25
 21
105.9
 31
0.0
  0
ARC
  8
0
  6
CONTINUOUS
 62
     2
 10
202.833333
 20
87.65
 30
0.0
 40
0.333333
 50
180.0
 51
0.0
  0
ARC
  8
0
  6
CONTINUOUS
 62
     2
 10
203.499999
 20
87.65
 30
0.0
 40
0.333333
 50
180.0
 51
0.0
  0
ARC
  8
0
  6
CONTINUOUS
 62
     2
 10
204.166665
 20
87.65
 30
0.0
 40
0.333333
 50
180.0
 51
0.0
  0
ARC
  8
0
  6
CONTINUOUS
 62
     2
 10
204.833331
 20
87.65
 30
0.0
 40
0.333333
 50
180.0
 51
0.0
  0
ARC
  8
0
  6
CONTINUOUS
 62
     2
 10
205.499997
 20
87.65
 30
0.0
 40
0.333333
 50
180.0
 51
0.0
  0
ARC
  8
0
  6
CONTINUOUS
 62
     2
 10
206.166663
 20
87.65
 30
0.0
 40
0.333333
 50
180.0
 51
0.0
  0
TEXT
  8
0
  6
CONTINUOUS
 62
     2
 10
198.5
 20
111.4
 30
0.3
 40
3.0
  1
貼　銘　板
 50
0.0
 41
0.9
 51
0.0
  7
KANJI1
  0
TEXT
  8
0
  6
CONTINUOUS
 62
     2
 10
196.9
 20
107.4
 30
0.3
 40
3.0
  1
（表示事項）
 50
0.0
 41
0.9
 51
0.0
  7
KANJI1
  0
ARC
  8
0
  6
CONTINUOUS
 62
     2
 10
202.833333
 20
104.9
 30
0.0
 40
0.333333
 50
0.0
 51
180.0
  0
ARC
  8
0
  6
CONTINUOUS
 62
     2
 10
203.499999
 20
104.9
 30
0.0
 40
0.333333
 50
0.0
 51
180.0
  0
ARC
  8
0
  6
CONTINUOUS
 62
     2
 10
204.166665
 20
104.9
 30
0.0
 40
0.333333
 50
0.0
 51
180.0
  0
ARC
  8
0
  6
CONTINUOUS
 62
     2
 10
204.833331
 20
104.9
 30
0.0
 40
0.333333
 50
0.0
 51
180.0
  0
ARC
  8
0
  6
CONTINUOUS
 62
     2
 10
205.499997
 20
104.9
 30
0.0
 40
0.333333
 50
0.0
 51
180.0
  0
ARC
  8
0
  6
CONTINUOUS
 62
     2
 10
206.166663
 20
104.9
 30
0.0
 40
0.333333
 50
0.0
 51
180.0
  0
LINE
  8
0
  6
CONTINUOUS
 62
     2
 10
202.5
 20
87.65
 30
0.0
 11
202.5
 21
104.9
 31
0.0
  0
LINE
  8
0
  6
CONTINUOUS
 62
     2
 10
206.5
 20
104.9
 30
0.0
 11
206.5
 21
87.65
 31
0.0
  0
LINE
  8
0
  6
CONTINUOUS
 62
     2
 10
220.5
 20
60.25
 30
0.0
 11
221.147047613
 21
62.664814566
 31
0.0
  0
LINE
  8
0
  6
CONTINUOUS
 62
     2
 10
220.5
 20
60.25
 30
0.0
 11
219.852952387
 21
62.664814566
 31
0.0
  0
LINE
  8
0
  6
CONTINUOUS
 62
     2
 10
220.5
 20
64.0
 30
0.0
 11
220.5
 21
60.25
 31
0.0
  0
LINE
  8
0
  6
CONTINUOUS
 62
     2
 10
220.5
 20
60.25
 30
0.0
 11
220.5
 21
55.25
 31
0.0
  0
LINE
  8
0
  6
CONTINUOUS
 62
     2
 10
220.5
 20
55.25
 30
0.0
 11
220.5
 21
51.5
 31
0.0
  0
LINE
  8
0
  6
CONTINUOUS
 62
     2
 10
220.5
 20
55.25
 30
0.0
 11
219.852952387
 21
52.835185434
 31
0.0
  0
LINE
  8
0
  6
CONTINUOUS
 62
     2
 10
220.5
 20
55.25
 30
0.0
 11
221.147047613
 21
52.835185434
 31
0.0
  0
TEXT
  8
0
  6
CONTINUOUS
 62
     2
 10
219.5
 20
56.15
 30
0.3
 40
3.0
  1
１０
 50
90.0
 41
0.6
 51
0.0
  7
KANJI0
  0
LINE
  8
0
  6
CONTINUOUS
 62
     2
 10
197.65
 20
44.75
 30
0.0
 11
196.155449671
 21
42.745924324
 31
0.0
  0
LINE
  8
0
  6
CONTINUOUS
 62
     2
 10
197.65
 20
44.75
 30
0.0
 11
197.357719286
 21
42.267144389
 31
0.0
  0
LINE
  8
0
  6
CONTINUOUS
 62
     2
 10
217.05
 20
33.45
 30
0.0
 11
193.15
 21
33.45
 31
0.0
  0
LINE
  8
0
  6
CONTINUOUS
 62
     2
 10
197.65
 20
44.75
 30
0.0
 11
193.15
 21
33.45
 31
0.0
  0
ARC
  8
0
  6
CONTINUOUS
 62
     2
 10
204.5
 20
119.25
 30
0.0
 40
1.02
 50
23.088831181
 51
156.911168819
  0
ARC
  8
0
  6
CONTINUOUS
 62
     2
 10
204.5
 20
119.25
 30
0.0
 40
1.02
 50
203.088731761
 51
336.911268239
  0
LINE
  8
0
  6
CONTINUOUS
 62
     2
 10
203.289370317
 20
119.650000962
 30
0.0
 11
205.710629683
 21
119.650000962
 31
0.0
  0
LINE
  8
0
  6
CONTINUOUS
 62
     2
 10
203.289369681
 20
118.850000962
 30
0.0
 11
205.710630319
 21
118.850000962
 31
0.0
  0
ARC
  8
0
  6
CONTINUOUS
 62
     2
 10
204.5
 20
40.75
 30
0.0
 40
1.02
 50
203.088831181
 51
336.911168819
  0
ARC
  8
0
  6
CONTINUOUS
 62
     2
 10
204.5
 20
40.75
 30
0.0
 40
1.02
 50
23.088731761
 51
156.911268239
  0
LINE
  8
0
  6
CONTINUOUS
 62
     2
 10
203.289370317
 20
40.349999038
 30
0.0
 11
205.710629683
 21
40.349999038
 31
0.0
  0
LINE
  8
0
  6
CONTINUOUS
 62
     2
 10
203.289369681
 20
41.149999038
 30
0.0
 11
205.710630319
 21
41.149999038
 31
0.0
  0
LINE
  8
0
  6
CONTINUOUS
 62
     2
 10
206.75
 20
60.25
 30
0.0
 11
222.5
 21
60.25
 31
0.0
  0
LINE
  8
0
  6
CONTINUOUS
 62
     2
 10
206.75
 20
55.25
 30
0.0
 11
222.5
 21
55.25
 31
0.0
  0
LINE
  8
0
  6
LTYPE2
 62
     5
 10
196.0
 20
44.75
 30
0.0
 11
213.0
 21
44.75
 31
0.0
  0
LINE
  8
0
  6
LTYPE2
 62
     5
 10
213.0
 20
44.75
 30
0.0
 11
213.0
 21
47.25
 31
0.0
  0
LINE
  8
0
  6
LTYPE2
 62
     5
 10
213.0
 20
47.25
 30
0.0
 11
196.0
 21
47.25
 31
0.0
  0
LINE
  8
0
  6
LTYPE2
 62
     5
 10
196.0
 20
47.25
 30
0.0
 11
196.0
 21
44.75
 31
0.0
  0
TEXT
  8
0
  6
CONTINUOUS
 62
     2
 10
195.15
 20
34.45
 30
0.3
 40
3.0
  1
ＴＡＧ　ＮＯ．ラベル
 50
0.0
 41
0.9
 51
0.0
  7
KANJI1
  0
LINE
  8
0
  6
LTYPE3
 62
     2
 10
204.5
 20
114.4
 30
0.0
 11
204.5
 21
125.75
 31
0.0
  0
LINE
  8
0
  6
CONTINUOUS
 62
     1
 10
194.5
 20
117.5
 30
0.0
 11
194.0
 21
117.5
 31
0.0
  0
LINE
  8
0
  6
CONTINUOUS
 62
     1
 10
193.0
 20
116.5
 30
0.0
 11
193.0
 21
43.5
 31
0.0
  0
ARC
  8
0
  6
CONTINUOUS
 62
     1
 10
194.0
 20
116.5
 30
0.0
 40
1.0
 50
90.0
 51
180.0
  0
LINE
  8
0
  6
CONTINUOUS
 62
     1
 10
214.5
 20
117.5
 30
0.0
 11
215.0
 21
117.5
 31
0.0
  0
LINE
  8
0
  6
CONTINUOUS
 62
     1
 10
216.0
 20
116.5
 30
0.0
 11
216.0
 21
43.5
 31
0.0
  0
ARC
  8
0
  6
CONTINUOUS
 62
     1
 10
215.0
 20
116.5
 30
0.0
 40
1.0
 50
0.0
 51
90.0
  0
LINE
  8
0
  6
CONTINUOUS
 62
     1
 10
214.5
 20
42.5
 30
0.0
 11
215.0
 21
42.5
 31
0.0
  0
ARC
  8
0
  6
CONTINUOUS
 62
     1
 10
215.0
 20
43.5
 30
0.0
 40
1.0
 50
270.0
 51
0.0
  0
LINE
  8
0
  6
CONTINUOUS
 62
     1
 10
194.5
 20
42.5
 30
0.0
 11
194.0
 21
42.5
 31
0.0
  0
ARC
  8
0
  6
CONTINUOUS
 62
     1
 10
194.0
 20
43.5
 30
0.0
 40
1.0
 50
180.0
 51
270.0
  0
LINE
  8
0
  6
LTYPE3
 62
     2
 10
204.5
 20
37.3
 30
0.0
 11
204.5
 21
111.4
 31
0.0
  0
LINE
  8
0
  6
CONTINUOUS
 62
     1
 10
203.75
 20
48.2
 30
0.0
 11
203.75
 21
52.3
 31
0.0
  0
LINE
  8
0
  6
CONTINUOUS
 62
     1
 10
209.75
 20
52.3
 30
0.0
 11
209.75
 21
48.2
 31
0.0
  0
LINE
  8
0
  6
CONTINUOUS
 62
     1
 10
202.5
 20
48.2
 30
0.0
 11
211.0
 21
48.2
 31
0.0
  0
LINE
  8
0
  6
CONTINUOUS
 62
     1
 10
211.0
 20
53.2
 30
0.0
 11
211.0
 21
52.3
 31
0.0
  0
LINE
  8
0
  6
CONTINUOUS
 62
     1
 10
202.5
 20
53.2
 30
0.0
 11
202.5
 21
52.3
 31
0.0
  0
LINE
  8
0
  6
CONTINUOUS
 62
     1
 10
202.5
 20
52.3
 30
0.0
 11
202.5
 21
48.2
 31
0.0
  0
LINE
  8
0
  6
CONTINUOUS
 62
     1
 10
211.0
 20
48.2
 30
0.0
 11
211.0
 21
52.3
 31
0.0
  0
LINE
  8
0
  6
CONTINUOUS
 62
     1
 10
203.75
 20
53.2
 30
0.0
 11
203.75
 21
57.3
 31
0.0
  0
LINE
  8
0
  6
CONTINUOUS
 62
     1
 10
209.75
 20
57.3
 30
0.0
 11
209.75
 21
53.2
 31
0.0
  0
LINE
  8
0
  6
CONTINUOUS
 62
     1
 10
211.0
 20
57.3
 30
0.0
 11
202.5
 21
57.3
 31
0.0
  0
LINE
  8
0
  6
CONTINUOUS
 62
     1
 10
202.5
 20
58.2
 30
0.0
 11
211.0
 21
58.2
 31
0.0
  0
LINE
  8
0
  6
CONTINUOUS
 62
     1
 10
211.0
 20
58.2
 30
0.0
 11
211.0
 21
57.3
 31
0.0
  0
LINE
  8
0
  6
CONTINUOUS
 62
     1
 10
202.5
 20
58.2
 30
0.0
 11
202.5
 21
57.3
 31
0.0
  0
LINE
  8
0
  6
CONTINUOUS
 62
     1
 10
202.5
 20
57.3
 30
0.0
 11
202.5
 21
53.2
 31
0.0
  0
LINE
  8
0
  6
CONTINUOUS
 62
     1
 10
211.0
 20
53.2
 30
0.0
 11
211.0
 21
57.3
 31
0.0
  0
LINE
  8
0
  6
CONTINUOUS
 62
     1
 10
203.75
 20
52.3
 30
0.0
 11
203.75
 21
48.2
 31
0.0
  0
LINE
  8
0
  6
CONTINUOUS
 62
     1
 10
203.75
 20
58.2
 30
0.0
 11
203.75
 21
62.3
 31
0.0
  0
LINE
  8
0
  6
CONTINUOUS
 62
     1
 10
209.75
 20
62.3
 30
0.0
 11
209.75
 21
58.2
 31
0.0
  0
LINE
  8
0
  6
CONTINUOUS
 62
     1
 10
211.0
 20
62.3
 30
0.0
 11
202.5
 21
62.3
 31
0.0
  0
LINE
  8
0
  6
CONTINUOUS
 62
     1
 10
202.5
 20
63.2
 30
0.0
 11
211.0
 21
63.2
 31
0.0
  0
LINE
  8
0
  6
CONTINUOUS
 62
     1
 10
211.0
 20
63.2
 30
0.0
 11
211.0
 21
62.3
 31
0.0
  0
LINE
  8
0
  6
CONTINUOUS
 62
     1
 10
202.5
 20
63.2
 30
0.0
 11
202.5
 21
62.3
 31
0.0
  0
LINE
  8
0
  6
CONTINUOUS
 62
     1
 10
202.5
 20
62.3
 30
0.0
 11
202.5
 21
58.2
 31
0.0
  0
LINE
  8
0
  6
CONTINUOUS
 62
     1
 10
211.0
 20
58.2
 30
0.0
 11
211.0
 21
62.3
 31
0.0
  0
LINE
  8
0
  6
CONTINUOUS
 62
     1
 10
203.75
 20
63.2
 30
0.0
 11
203.75
 21
67.3
 31
0.0
  0
LINE
  8
0
  6
CONTINUOUS
 62
     1
 10
209.75
 20
67.3
 30
0.0
 11
209.75
 21
63.2
 31
0.0
  0
LINE
  8
0
  6
CONTINUOUS
 62
     1
 10
211.0
 20
67.3
 30
0.0
 11
202.5
 21
67.3
 31
0.0
  0
LINE
  8
0
  6
CONTINUOUS
 62
     1
 10
202.5
 20
68.2
 30
0.0
 11
211.0
 21
68.2
 31
0.0
  0
LINE
  8
0
  6
CONTINUOUS
 62
     1
 10
211.0
 20
68.2
 30
0.0
 11
211.0
 21
67.3
 31
0.0
  0
LINE
  8
0
  6
CONTINUOUS
 62
     1
 10
202.5
 20
68.2
 30
0.0
 11
202.5
 21
67.3
 31
0.0
  0
LINE
  8
0
  6
CONTINUOUS
 62
     1
 10
202.5
 20
67.3
 30
0.0
 11
202.5
 21
63.2
 31
0.0
  0
LINE
  8
0
  6
CONTINUOUS
 62
     1
 10
211.0
 20
63.2
 30
0.0
 11
211.0
 21
67.3
 31
0.0
  0
LINE
  8
0
  6
CONTINUOUS
 62
     1
 10
203.75
 20
68.2
 30
0.0
 11
203.75
 21
72.3
 31
0.0
  0
LINE
  8
0
  6
CONTINUOUS
 62
     1
 10
209.75
 20
72.3
 30
0.0
 11
209.75
 21
68.2
 31
0.0
  0
LINE
  8
0
  6
CONTINUOUS
 62
     1
 10
211.0
 20
72.3
 30
0.0
 11
202.5
 21
72.3
 31
0.0
  0
LINE
  8
0
  6
CONTINUOUS
 62
     1
 10
202.5
 20
73.2
 30
0.0
 11
211.0
 21
73.2
 31
0.0
  0
LINE
  8
0
  6
CONTINUOUS
 62
     1
 10
211.0
 20
73.2
 30
0.0
 11
211.0
 21
72.3
 31
0.0
  0
LINE
  8
0
  6
CONTINUOUS
 62
     1
 10
202.5
 20
73.2
 30
0.0
 11
202.5
 21
72.3
 31
0.0
  0
LINE
  8
0
  6
CONTINUOUS
 62
     1
 10
202.5
 20
72.3
 30
0.0
 11
202.5
 21
68.2
 31
0.0
  0
LINE
  8
0
  6
CONTINUOUS
 62
     1
 10
211.0
 20
68.2
 30
0.0
 11
211.0
 21
72.3
 31
0.0
  0
LINE
  8
0
  6
CONTINUOUS
 62
     1
 10
203.75
 20
73.2
 30
0.0
 11
203.75
 21
77.3
 31
0.0
  0
LINE
  8
0
  6
CONTINUOUS
 62
     1
 10
209.75
 20
77.3
 30
0.0
 11
209.75
 21
73.2
 31
0.0
  0
LINE
  8
0
  6
CONTINUOUS
 62
     1
 10
211.0
 20
77.3
 30
0.0
 11
202.5
 21
77.3
 31
0.0
  0
LINE
  8
0
  6
CONTINUOUS
 62
     1
 10
202.5
 20
78.2
 30
0.0
 11
211.0
 21
78.2
 31
0.0
  0
LINE
  8
0
  6
CONTINUOUS
 62
     1
 10
211.0
 20
78.2
 30
0.0
 11
211.0
 21
77.3
 31
0.0
  0
LINE
  8
0
  6
CONTINUOUS
 62
     1
 10
202.5
 20
78.2
 30
0.0
 11
202.5
 21
77.3
 31
0.0
  0
LINE
  8
0
  6
CONTINUOUS
 62
     1
 10
202.5
 20
77.3
 30
0.0
 11
202.5
 21
73.2
 31
0.0
  0
LINE
  8
0
  6
CONTINUOUS
 62
     1
 10
211.0
 20
73.2
 30
0.0
 11
211.0
 21
77.3
 31
0.0
  0
LINE
  8
0
  6
CONTINUOUS
 62
     1
 10
203.75
 20
78.2
 30
0.0
 11
203.75
 21
82.3
 31
0.0
  0
LINE
  8
0
  6
CONTINUOUS
 62
     1
 10
209.75
 20
82.3
 30
0.0
 11
209.75
 21
78.2
 31
0.0
  0
LINE
  8
0
  6
CONTINUOUS
 62
     1
 10
211.0
 20
82.3
 30
0.0
 11
202.5
 21
82.3
 31
0.0
  0
LINE
  8
0
  6
CONTINUOUS
 62
     1
 10
202.5
 20
83.2
 30
0.0
 11
211.0
 21
83.2
 31
0.0
  0
LINE
  8
0
  6
CONTINUOUS
 62
     1
 10
211.0
 20
83.2
 30
0.0
 11
211.0
 21
82.3
 31
0.0
  0
LINE
  8
0
  6
CONTINUOUS
 62
     1
 10
202.5
 20
83.2
 30
0.0
 11
202.5
 21
82.3
 31
0.0
  0
LINE
  8
0
  6
CONTINUOUS
 62
     1
 10
202.5
 20
82.3
 30
0.0
 11
202.5
 21
78.2
 31
0.0
  0
LINE
  8
0
  6
CONTINUOUS
 62
     1
 10
211.0
 20
78.2
 30
0.0
 11
211.0
 21
82.3
 31
0.0
  0
LINE
  8
0
  6
CONTINUOUS
 62
     1
 10
202.5
 20
53.2
 30
0.0
 11
211.0
 21
53.2
 31
0.0
  0
LINE
  8
0
  6
CONTINUOUS
 62
     1
 10
203.75
 20
87.3
 30
0.0
 11
203.75
 21
83.2
 31
0.0
  0
LINE
  8
0
  6
CONTINUOUS
 62
     1
 10
209.75
 20
83.2
 30
0.0
 11
209.75
 21
87.3
 31
0.0
  0
LINE
  8
0
  6
CONTINUOUS
 62
     1
 10
202.5
 20
87.3
 30
0.0
 11
211.0
 21
87.3
 31
0.0
  0
LINE
  8
0
  6
CONTINUOUS
 62
     1
 10
202.5
 20
83.2
 30
0.0
 11
202.5
 21
87.3
 31
0.0
  0
LINE
  8
0
  6
CONTINUOUS
 62
     1
 10
211.0
 20
87.3
 30
0.0
 11
211.0
 21
83.2
 31
0.0
  0
LINE
  8
0
  6
CONTINUOUS
 62
     1
 10
203.75
 20
83.2
 30
0.0
 11
203.75
 21
87.3
 31
0.0
  0
LINE
  8
0
  6
CONTINUOUS
 62
     1
 10
211.0
 20
52.3
 30
0.0
 11
202.5
 21
52.3
 31
0.0
  0
LINE
  8
0
  6
CONTINUOUS
 62
     2
 10
205.0
 20
48.45
 30
0.0
 11
205.0
 21
49.0
 31
0.0
  0
LINE
  8
0
  6
CONTINUOUS
 62
     2
 10
205.0
 20
48.45
 30
0.0
 11
205.25
 21
48.2
 31
0.0
  0
LINE
  8
0
  6
CONTINUOUS
 62
     2
 10
205.0
 20
51.5
 30
0.0
 11
205.0
 21
52.05
 31
0.0
  0
LINE
  8
0
  6
CONTINUOUS
 62
     2
 10
205.0
 20
52.05
 30
0.0
 11
205.25
 21
52.3
 31
0.0
  0
LINE
  8
0
  6
CONTINUOUS
 62
     2
 10
208.5
 20
51.5
 30
0.0
 11
208.5
 21
52.05
 31
0.0
  0
LINE
  8
0
  6
CONTINUOUS
 62
     2
 10
208.25
 20
52.3
 30
0.0
 11
208.5
 21
52.05
 31
0.0
  0
LINE
  8
0
  6
CONTINUOUS
 62
     2
 10
208.5
 20
48.45
 30
0.0
 11
208.5
 21
49.0
 31
0.0
  0
LINE
  8
0
  6
CONTINUOUS
 62
     2
 10
205.25
 20
48.2
 30
0.0
 11
208.25
 21
48.2
 31
0.0
  0
LINE
  8
0
  6
CONTINUOUS
 62
     2
 10
208.5
 20
48.45
 30
0.0
 11
208.25
 21
48.2
 31
0.0
  0
LINE
  8
0
  6
CONTINUOUS
 62
     2
 10
204.6
 20
49.0
 30
0.0
 11
205.0
 21
49.0
 31
0.0
  0
LINE
  8
0
  6
CONTINUOUS
 62
     2
 10
204.6
 20
49.0
 30
0.0
 11
204.6
 21
51.5
 31
0.0
  0
LINE
  8
0
  6
CONTINUOUS
 62
     2
 10
204.6
 20
51.5
 30
0.0
 11
205.0
 21
51.5
 31
0.0
  0
LINE
  8
0
  6
CONTINUOUS
 62
     2
 10
208.9
 20
49.0
 30
0.0
 11
208.5
 21
49.0
 31
0.0
  0
LINE
  8
0
  6
CONTINUOUS
 62
     2
 10
208.9
 20
49.0
 30
0.0
 11
208.9
 21
51.5
 31
0.0
  0
LINE
  8
0
  6
CONTINUOUS
 62
     2
 10
208.9
 20
51.5
 30
0.0
 11
208.5
 21
51.5
 31
0.0
  0
LINE
  8
0
  6
CONTINUOUS
 62
     2
 10
208.9
 20
51.6
 30
0.0
 11
208.5
 21
51.6
 31
0.0
  0
ARC
  8
0
  6
CONTINUOUS
 62
     2
 10
208.9
 20
51.5
 30
0.0
 40
0.1
 50
0.0
 51
90.0
  0
LINE
  8
0
  6
CONTINUOUS
 62
     2
 10
208.5
 20
48.9
 30
0.0
 11
208.9
 21
48.9
 31
0.0
  0
LINE
  8
0
  6
CONTINUOUS
 62
     2
 10
209.0
 20
49.0
 30
0.0
 11
209.0
 21
51.5
 31
0.0
  0
ARC
  8
0
  6
CONTINUOUS
 62
     2
 10
208.9
 20
49.0
 30
0.0
 40
0.1
 50
270.0
 51
0.0
  0
LINE
  8
0
  6
CONTINUOUS
 62
     2
 10
204.6
 20
51.6
 30
0.0
 11
205.0
 21
51.6
 31
0.0
  0
ARC
  8
0
  6
CONTINUOUS
 62
     2
 10
204.6
 20
51.5
 30
0.0
 40
0.1
 50
90.0
 51
180.0
  0
LINE
  8
0
  6
CONTINUOUS
 62
     2
 10
205.0
 20
48.9
 30
0.0
 11
204.6
 21
48.9
 31
0.0
  0
ARC
  8
0
  6
CONTINUOUS
 62
     2
 10
204.6
 20
49.0
 30
0.0
 40
0.1
 50
180.0
 51
270.0
  0
LINE
  8
0
  6
CONTINUOUS
 62
     2
 10
204.5
 20
49.0
 30
0.0
 11
204.5
 21
51.5
 31
0.0
  0
LINE
  8
0
  6
CONTINUOUS
 62
     2
 10
205.0
 20
53.45
 30
0.0
 11
205.0
 21
54.0
 31
0.0
  0
LINE
  8
0
  6
CONTINUOUS
 62
     2
 10
205.0
 20
53.45
 30
0.0
 11
205.25
 21
53.2
 31
0.0
  0
LINE
  8
0
  6
CONTINUOUS
 62
     2
 10
205.0
 20
56.5
 30
0.0
 11
205.0
 21
57.05
 31
0.0
  0
LINE
  8
0
  6
CONTINUOUS
 62
     2
 10
205.0
 20
57.05
 30
0.0
 11
205.25
 21
57.3
 31
0.0
  0
LINE
  8
0
  6
CONTINUOUS
 62
     2
 10
208.25
 20
57.3
 30
0.0
 11
205.25
 21
57.3
 31
0.0
  0
LINE
  8
0
  6
CONTINUOUS
 62
     2
 10
208.5
 20
56.5
 30
0.0
 11
208.5
 21
57.05
 31
0.0
  0
LINE
  8
0
  6
CONTINUOUS
 62
     2
 10
208.25
 20
57.3
 30
0.0
 11
208.5
 21
57.05
 31
0.0
  0
LINE
  8
0
  6
CONTINUOUS
 62
     2
 10
208.5
 20
53.45
 30
0.0
 11
208.5
 21
54.0
 31
0.0
  0
LINE
  8
0
  6
CONTINUOUS
 62
     2
 10
205.25
 20
53.2
 30
0.0
 11
208.25
 21
53.2
 31
0.0
  0
LINE
  8
0
  6
CONTINUOUS
 62
     2
 10
208.5
 20
53.45
 30
0.0
 11
208.25
 21
53.2
 31
0.0
  0
LINE
  8
0
  6
CONTINUOUS
 62
     2
 10
204.6
 20
54.0
 30
0.0
 11
205.0
 21
54.0
 31
0.0
  0
LINE
  8
0
  6
CONTINUOUS
 62
     2
 10
204.6
 20
54.0
 30
0.0
 11
204.6
 21
56.5
 31
0.0
  0
LINE
  8
0
  6
CONTINUOUS
 62
     2
 10
204.6
 20
56.5
 30
0.0
 11
205.0
 21
56.5
 31
0.0
  0
LINE
  8
0
  6
CONTINUOUS
 62
     2
 10
208.9
 20
54.0
 30
0.0
 11
208.5
 21
54.0
 31
0.0
  0
LINE
  8
0
  6
CONTINUOUS
 62
     2
 10
208.9
 20
54.0
 30
0.0
 11
208.9
 21
56.5
 31
0.0
  0
LINE
  8
0
  6
CONTINUOUS
 62
     2
 10
208.9
 20
56.5
 30
0.0
 11
208.5
 21
56.5
 31
0.0
  0
LINE
  8
0
  6
CONTINUOUS
 62
     2
 10
208.9
 20
56.6
 30
0.0
 11
208.5
 21
56.6
 31
0.0
  0
ARC
  8
0
  6
CONTINUOUS
 62
     2
 10
208.9
 20
56.5
 30
0.0
 40
0.1
 50
0.0
 51
90.0
  0
LINE
  8
0
  6
CONTINUOUS
 62
     2
 10
208.5
 20
53.9
 30
0.0
 11
208.9
 21
53.9
 31
0.0
  0
LINE
  8
0
  6
CONTINUOUS
 62
     2
 10
209.0
 20
54.0
 30
0.0
 11
209.0
 21
56.5
 31
0.0
  0
ARC
  8
0
  6
CONTINUOUS
 62
     2
 10
208.9
 20
54.0
 30
0.0
 40
0.1
 50
270.0
 51
0.0
  0
LINE
  8
0
  6
CONTINUOUS
 62
     2
 10
204.6
 20
56.6
 30
0.0
 11
205.0
 21
56.6
 31
0.0
  0
ARC
  8
0
  6
CONTINUOUS
 62
     2
 10
204.6
 20
56.5
 30
0.0
 40
0.1
 50
90.0
 51
180.0
  0
LINE
  8
0
  6
CONTINUOUS
 62
     2
 10
205.0
 20
53.9
 30
0.0
 11
204.6
 21
53.9
 31
0.0
  0
ARC
  8
0
  6
CONTINUOUS
 62
     2
 10
204.6
 20
54.0
 30
0.0
 40
0.1
 50
180.0
 51
270.0
  0
LINE
  8
0
  6
CONTINUOUS
 62
     2
 10
204.5
 20
54.0
 30
0.0
 11
204.5
 21
56.5
 31
0.0
  0
LINE
  8
0
  6
CONTINUOUS
 62
     2
 10
205.0
 20
58.45
 30
0.0
 11
205.0
 21
59.0
 31
0.0
  0
LINE
  8
0
  6
CONTINUOUS
 62
     2
 10
205.0
 20
58.45
 30
0.0
 11
205.25
 21
58.2
 31
0.0
  0
LINE
  8
0
  6
CONTINUOUS
 62
     2
 10
205.0
 20
61.5
 30
0.0
 11
205.0
 21
62.05
 31
0.0
  0
LINE
  8
0
  6
CONTINUOUS
 62
     2
 10
205.0
 20
62.05
 30
0.0
 11
205.25
 21
62.3
 31
0.0
  0
LINE
  8
0
  6
CONTINUOUS
 62
     2
 10
208.25
 20
62.3
 30
0.0
 11
205.25
 21
62.3
 31
0.0
  0
LINE
  8
0
  6
CONTINUOUS
 62
     2
 10
208.5
 20
61.5
 30
0.0
 11
208.5
 21
62.05
 31
0.0
  0
LINE
  8
0
  6
CONTINUOUS
 62
     2
 10
208.25
 20
62.3
 30
0.0
 11
208.5
 21
62.05
 31
0.0
  0
LINE
  8
0
  6
CONTINUOUS
 62
     2
 10
208.5
 20
58.45
 30
0.0
 11
208.5
 21
59.0
 31
0.0
  0
LINE
  8
0
  6
CONTINUOUS
 62
     2
 10
205.25
 20
58.2
 30
0.0
 11
208.25
 21
58.2
 31
0.0
  0
LINE
  8
0
  6
CONTINUOUS
 62
     2
 10
208.5
 20
58.45
 30
0.0
 11
208.25
 21
58.2
 31
0.0
  0
LINE
  8
0
  6
CONTINUOUS
 62
     2
 10
204.6
 20
59.0
 30
0.0
 11
205.0
 21
59.0
 31
0.0
  0
LINE
  8
0
  6
CONTINUOUS
 62
     2
 10
204.6
 20
59.0
 30
0.0
 11
204.6
 21
61.5
 31
0.0
  0
LINE
  8
0
  6
CONTINUOUS
 62
     2
 10
204.6
 20
61.5
 30
0.0
 11
205.0
 21
61.5
 31
0.0
  0
LINE
  8
0
  6
CONTINUOUS
 62
     2
 10
208.9
 20
59.0
 30
0.0
 11
208.5
 21
59.0
 31
0.0
  0
LINE
  8
0
  6
CONTINUOUS
 62
     2
 10
208.9
 20
59.0
 30
0.0
 11
208.9
 21
61.5
 31
0.0
  0
LINE
  8
0
  6
CONTINUOUS
 62
     2
 10
208.9
 20
61.5
 30
0.0
 11
208.5
 21
61.5
 31
0.0
  0
LINE
  8
0
  6
CONTINUOUS
 62
     2
 10
208.9
 20
61.6
 30
0.0
 11
208.5
 21
61.6
 31
0.0
  0
ARC
  8
0
  6
CONTINUOUS
 62
     2
 10
208.9
 20
61.5
 30
0.0
 40
0.1
 50
0.0
 51
90.0
  0
LINE
  8
0
  6
CONTINUOUS
 62
     2
 10
208.5
 20
58.9
 30
0.0
 11
208.9
 21
58.9
 31
0.0
  0
LINE
  8
0
  6
CONTINUOUS
 62
     2
 10
209.0
 20
59.0
 30
0.0
 11
209.0
 21
61.5
 31
0.0
  0
ARC
  8
0
  6
CONTINUOUS
 62
     2
 10
208.9
 20
59.0
 30
0.0
 40
0.1
 50
270.0
 51
0.0
  0
LINE
  8
0
  6
CONTINUOUS
 62
     2
 10
204.6
 20
61.6
 30
0.0
 11
205.0
 21
61.6
 31
0.0
  0
ARC
  8
0
  6
CONTINUOUS
 62
     2
 10
204.6
 20
61.5
 30
0.0
 40
0.1
 50
90.0
 51
180.0
  0
LINE
  8
0
  6
CONTINUOUS
 62
     2
 10
205.0
 20
58.9
 30
0.0
 11
204.6
 21
58.9
 31
0.0
  0
ARC
  8
0
  6
CONTINUOUS
 62
     2
 10
204.6
 20
59.0
 30
0.0
 40
0.1
 50
180.0
 51
270.0
  0
LINE
  8
0
  6
CONTINUOUS
 62
     2
 10
204.5
 20
59.0
 30
0.0
 11
204.5
 21
61.5
 31
0.0
  0
LINE
  8
0
  6
CONTINUOUS
 62
     2
 10
205.0
 20
63.45
 30
0.0
 11
205.0
 21
64.0
 31
0.0
  0
LINE
  8
0
  6
CONTINUOUS
 62
     2
 10
205.0
 20
63.45
 30
0.0
 11
205.25
 21
63.2
 31
0.0
  0
LINE
  8
0
  6
CONTINUOUS
 62
     2
 10
205.0
 20
66.5
 30
0.0
 11
205.0
 21
67.05
 31
0.0
  0
LINE
  8
0
  6
CONTINUOUS
 62
     2
 10
205.0
 20
67.05
 30
0.0
 11
205.25
 21
67.3
 31
0.0
  0
LINE
  8
0
  6
CONTINUOUS
 62
     2
 10
208.25
 20
67.3
 30
0.0
 11
205.25
 21
67.3
 31
0.0
  0
LINE
  8
0
  6
CONTINUOUS
 62
     2
 10
208.5
 20
66.5
 30
0.0
 11
208.5
 21
67.05
 31
0.0
  0
LINE
  8
0
  6
CONTINUOUS
 62
     2
 10
208.25
 20
67.3
 30
0.0
 11
208.5
 21
67.05
 31
0.0
  0
LINE
  8
0
  6
CONTINUOUS
 62
     2
 10
208.5
 20
63.45
 30
0.0
 11
208.5
 21
64.0
 31
0.0
  0
LINE
  8
0
  6
CONTINUOUS
 62
     2
 10
205.25
 20
63.2
 30
0.0
 11
208.25
 21
63.2
 31
0.0
  0
LINE
  8
0
  6
CONTINUOUS
 62
     2
 10
208.5
 20
63.45
 30
0.0
 11
208.25
 21
63.2
 31
0.0
  0
LINE
  8
0
  6
CONTINUOUS
 62
     2
 10
204.6
 20
64.0
 30
0.0
 11
205.0
 21
64.0
 31
0.0
  0
LINE
  8
0
  6
CONTINUOUS
 62
     2
 10
204.6
 20
64.0
 30
0.0
 11
204.6
 21
66.5
 31
0.0
  0
LINE
  8
0
  6
CONTINUOUS
 62
     2
 10
204.6
 20
66.5
 30
0.0
 11
205.0
 21
66.5
 31
0.0
  0
LINE
  8
0
  6
CONTINUOUS
 62
     2
 10
208.9
 20
64.0
 30
0.0
 11
208.5
 21
64.0
 31
0.0
  0
LINE
  8
0
  6
CONTINUOUS
 62
     2
 10
208.9
 20
64.0
 30
0.0
 11
208.9
 21
66.5
 31
0.0
  0
LINE
  8
0
  6
CONTINUOUS
 62
     2
 10
208.9
 20
66.5
 30
0.0
 11
208.5
 21
66.5
 31
0.0
  0
LINE
  8
0
  6
CONTINUOUS
 62
     2
 10
208.9
 20
66.6
 30
0.0
 11
208.5
 21
66.6
 31
0.0
  0
ARC
  8
0
  6
CONTINUOUS
 62
     2
 10
208.9
 20
66.5
 30
0.0
 40
0.1
 50
0.0
 51
90.0
  0
LINE
  8
0
  6
CONTINUOUS
 62
     2
 10
208.5
 20
63.9
 30
0.0
 11
208.9
 21
63.9
 31
0.0
  0
LINE
  8
0
  6
CONTINUOUS
 62
     2
 10
209.0
 20
64.0
 30
0.0
 11
209.0
 21
66.5
 31
0.0
  0
ARC
  8
0
  6
CONTINUOUS
 62
     2
 10
208.9
 20
64.0
 30
0.0
 40
0.1
 50
270.0
 51
0.0
  0
LINE
  8
0
  6
CONTINUOUS
 62
     2
 10
204.6
 20
66.6
 30
0.0
 11
205.0
 21
66.6
 31
0.0
  0
ARC
  8
0
  6
CONTINUOUS
 62
     2
 10
204.6
 20
66.5
 30
0.0
 40
0.1
 50
90.0
 51
180.0
  0
LINE
  8
0
  6
CONTINUOUS
 62
     2
 10
205.0
 20
63.9
 30
0.0
 11
204.6
 21
63.9
 31
0.0
  0
ARC
  8
0
  6
CONTINUOUS
 62
     2
 10
204.6
 20
64.0
 30
0.0
 40
0.1
 50
180.0
 51
270.0
  0
LINE
  8
0
  6
CONTINUOUS
 62
     2
 10
204.5
 20
64.0
 30
0.0
 11
204.5
 21
66.5
 31
0.0
  0
LINE
  8
0
  6
CONTINUOUS
 62
     2
 10
205.0
 20
68.45
 30
0.0
 11
205.0
 21
69.0
 31
0.0
  0
LINE
  8
0
  6
CONTINUOUS
 62
     2
 10
205.0
 20
68.45
 30
0.0
 11
205.25
 21
68.2
 31
0.0
  0
LINE
  8
0
  6
CONTINUOUS
 62
     2
 10
205.0
 20
71.5
 30
0.0
 11
205.0
 21
72.05
 31
0.0
  0
LINE
  8
0
  6
CONTINUOUS
 62
     2
 10
205.0
 20
72.05
 30
0.0
 11
205.25
 21
72.3
 31
0.0
  0
LINE
  8
0
  6
CONTINUOUS
 62
     2
 10
208.25
 20
72.3
 30
0.0
 11
205.25
 21
72.3
 31
0.0
  0
LINE
  8
0
  6
CONTINUOUS
 62
     2
 10
208.5
 20
71.5
 30
0.0
 11
208.5
 21
72.05
 31
0.0
  0
LINE
  8
0
  6
CONTINUOUS
 62
     2
 10
208.25
 20
72.3
 30
0.0
 11
208.5
 21
72.05
 31
0.0
  0
LINE
  8
0
  6
CONTINUOUS
 62
     2
 10
208.5
 20
68.45
 30
0.0
 11
208.5
 21
69.0
 31
0.0
  0
LINE
  8
0
  6
CONTINUOUS
 62
     2
 10
205.25
 20
68.2
 30
0.0
 11
208.25
 21
68.2
 31
0.0
  0
LINE
  8
0
  6
CONTINUOUS
 62
     2
 10
208.5
 20
68.45
 30
0.0
 11
208.25
 21
68.2
 31
0.0
  0
LINE
  8
0
  6
CONTINUOUS
 62
     2
 10
204.6
 20
69.0
 30
0.0
 11
205.0
 21
69.0
 31
0.0
  0
LINE
  8
0
  6
CONTINUOUS
 62
     2
 10
204.6
 20
69.0
 30
0.0
 11
204.6
 21
71.5
 31
0.0
  0
LINE
  8
0
  6
CONTINUOUS
 62
     2
 10
204.6
 20
71.5
 30
0.0
 11
205.0
 21
71.5
 31
0.0
  0
LINE
  8
0
  6
CONTINUOUS
 62
     2
 10
208.9
 20
69.0
 30
0.0
 11
208.5
 21
69.0
 31
0.0
  0
LINE
  8
0
  6
CONTINUOUS
 62
     2
 10
208.9
 20
69.0
 30
0.0
 11
208.9
 21
71.5
 31
0.0
  0
LINE
  8
0
  6
CONTINUOUS
 62
     2
 10
208.9
 20
71.5
 30
0.0
 11
208.5
 21
71.5
 31
0.0
  0
LINE
  8
0
  6
CONTINUOUS
 62
     2
 10
208.9
 20
71.6
 30
0.0
 11
208.5
 21
71.6
 31
0.0
  0
ARC
  8
0
  6
CONTINUOUS
 62
     2
 10
208.9
 20
71.5
 30
0.0
 40
0.1
 50
0.0
 51
90.0
  0
LINE
  8
0
  6
CONTINUOUS
 62
     2
 10
208.5
 20
68.9
 30
0.0
 11
208.9
 21
68.9
 31
0.0
  0
LINE
  8
0
  6
CONTINUOUS
 62
     2
 10
209.0
 20
69.0
 30
0.0
 11
209.0
 21
71.5
 31
0.0
  0
ARC
  8
0
  6
CONTINUOUS
 62
     2
 10
208.9
 20
69.0
 30
0.0
 40
0.1
 50
270.0
 51
0.0
  0
LINE
  8
0
  6
CONTINUOUS
 62
     2
 10
204.6
 20
71.6
 30
0.0
 11
205.0
 21
71.6
 31
0.0
  0
ARC
  8
0
  6
CONTINUOUS
 62
     2
 10
204.6
 20
71.5
 30
0.0
 40
0.1
 50
90.0
 51
180.0
  0
LINE
  8
0
  6
CONTINUOUS
 62
     2
 10
205.0
 20
68.9
 30
0.0
 11
204.6
 21
68.9
 31
0.0
  0
ARC
  8
0
  6
CONTINUOUS
 62
     2
 10
204.6
 20
69.0
 30
0.0
 40
0.1
 50
180.0
 51
270.0
  0
LINE
  8
0
  6
CONTINUOUS
 62
     2
 10
204.5
 20
69.0
 30
0.0
 11
204.5
 21
71.5
 31
0.0
  0
LINE
  8
0
  6
CONTINUOUS
 62
     2
 10
205.0
 20
73.45
 30
0.0
 11
205.0
 21
74.0
 31
0.0
  0
LINE
  8
0
  6
CONTINUOUS
 62
     2
 10
205.0
 20
73.45
 30
0.0
 11
205.25
 21
73.2
 31
0.0
  0
LINE
  8
0
  6
CONTINUOUS
 62
     2
 10
205.0
 20
76.5
 30
0.0
 11
205.0
 21
77.05
 31
0.0
  0
LINE
  8
0
  6
CONTINUOUS
 62
     2
 10
205.0
 20
77.05
 30
0.0
 11
205.25
 21
77.3
 31
0.0
  0
LINE
  8
0
  6
CONTINUOUS
 62
     2
 10
208.25
 20
77.3
 30
0.0
 11
205.25
 21
77.3
 31
0.0
  0
LINE
  8
0
  6
CONTINUOUS
 62
     2
 10
208.5
 20
76.5
 30
0.0
 11
208.5
 21
77.05
 31
0.0
  0
LINE
  8
0
  6
CONTINUOUS
 62
     2
 10
208.25
 20
77.3
 30
0.0
 11
208.5
 21
77.05
 31
0.0
  0
LINE
  8
0
  6
CONTINUOUS
 62
     2
 10
208.5
 20
73.45
 30
0.0
 11
208.5
 21
74.0
 31
0.0
  0
LINE
  8
0
  6
CONTINUOUS
 62
     2
 10
205.25
 20
73.2
 30
0.0
 11
208.25
 21
73.2
 31
0.0
  0
LINE
  8
0
  6
CONTINUOUS
 62
     2
 10
208.5
 20
73.45
 30
0.0
 11
208.25
 21
73.2
 31
0.0
  0
LINE
  8
0
  6
CONTINUOUS
 62
     2
 10
204.6
 20
74.0
 30
0.0
 11
205.0
 21
74.0
 31
0.0
  0
LINE
  8
0
  6
CONTINUOUS
 62
     2
 10
204.6
 20
74.0
 30
0.0
 11
204.6
 21
76.5
 31
0.0
  0
LINE
  8
0
  6
CONTINUOUS
 62
     2
 10
204.6
 20
76.5
 30
0.0
 11
205.0
 21
76.5
 31
0.0
  0
LINE
  8
0
  6
CONTINUOUS
 62
     2
 10
208.9
 20
74.0
 30
0.0
 11
208.5
 21
74.0
 31
0.0
  0
LINE
  8
0
  6
CONTINUOUS
 62
     2
 10
208.9
 20
74.0
 30
0.0
 11
208.9
 21
76.5
 31
0.0
  0
LINE
  8
0
  6
CONTINUOUS
 62
     2
 10
208.9
 20
76.5
 30
0.0
 11
208.5
 21
76.5
 31
0.0
  0
LINE
  8
0
  6
CONTINUOUS
 62
     2
 10
208.9
 20
76.6
 30
0.0
 11
208.5
 21
76.6
 31
0.0
  0
ARC
  8
0
  6
CONTINUOUS
 62
     2
 10
208.9
 20
76.5
 30
0.0
 40
0.1
 50
0.0
 51
90.0
  0
LINE
  8
0
  6
CONTINUOUS
 62
     2
 10
208.5
 20
73.9
 30
0.0
 11
208.9
 21
73.9
 31
0.0
  0
LINE
  8
0
  6
CONTINUOUS
 62
     2
 10
209.0
 20
74.0
 30
0.0
 11
209.0
 21
76.5
 31
0.0
  0
ARC
  8
0
  6
CONTINUOUS
 62
     2
 10
208.9
 20
74.0
 30
0.0
 40
0.1
 50
270.0
 51
0.0
  0
LINE
  8
0
  6
CONTINUOUS
 62
     2
 10
204.6
 20
76.6
 30
0.0
 11
205.0
 21
76.6
 31
0.0
  0
ARC
  8
0
  6
CONTINUOUS
 62
     2
 10
204.6
 20
76.5
 30
0.0
 40
0.1
 50
90.0
 51
180.0
  0
LINE
  8
0
  6
CONTINUOUS
 62
     2
 10
205.0
 20
73.9
 30
0.0
 11
204.6
 21
73.9
 31
0.0
  0
ARC
  8
0
  6
CONTINUOUS
 62
     2
 10
204.6
 20
74.0
 30
0.0
 40
0.1
 50
180.0
 51
270.0
  0
LINE
  8
0
  6
CONTINUOUS
 62
     2
 10
204.5
 20
74.0
 30
0.0
 11
204.5
 21
76.5
 31
0.0
  0
LINE
  8
0
  6
CONTINUOUS
 62
     2
 10
205.0
 20
78.45
 30
0.0
 11
205.0
 21
79.0
 31
0.0
  0
LINE
  8
0
  6
CONTINUOUS
 62
     2
 10
205.0
 20
78.45
 30
0.0
 11
205.25
 21
78.2
 31
0.0
  0
LINE
  8
0
  6
CONTINUOUS
 62
     2
 10
205.0
 20
81.5
 30
0.0
 11
205.0
 21
82.05
 31
0.0
  0
LINE
  8
0
  6
CONTINUOUS
 62
     2
 10
205.0
 20
82.05
 30
0.0
 11
205.25
 21
82.3
 31
0.0
  0
LINE
  8
0
  6
CONTINUOUS
 62
     2
 10
208.25
 20
82.3
 30
0.0
 11
205.25
 21
82.3
 31
0.0
  0
LINE
  8
0
  6
CONTINUOUS
 62
     2
 10
208.5
 20
81.5
 30
0.0
 11
208.5
 21
82.05
 31
0.0
  0
LINE
  8
0
  6
CONTINUOUS
 62
     2
 10
208.25
 20
82.3
 30
0.0
 11
208.5
 21
82.05
 31
0.0
  0
LINE
  8
0
  6
CONTINUOUS
 62
     2
 10
208.5
 20
78.45
 30
0.0
 11
208.5
 21
79.0
 31
0.0
  0
LINE
  8
0
  6
CONTINUOUS
 62
     2
 10
205.25
 20
78.2
 30
0.0
 11
208.25
 21
78.2
 31
0.0
  0
LINE
  8
0
  6
CONTINUOUS
 62
     2
 10
208.5
 20
78.45
 30
0.0
 11
208.25
 21
78.2
 31
0.0
  0
LINE
  8
0
  6
CONTINUOUS
 62
     2
 10
204.6
 20
79.0
 30
0.0
 11
205.0
 21
79.0
 31
0.0
  0
LINE
  8
0
  6
CONTINUOUS
 62
     2
 10
204.6
 20
79.0
 30
0.0
 11
204.6
 21
81.5
 31
0.0
  0
LINE
  8
0
  6
CONTINUOUS
 62
     2
 10
204.6
 20
81.5
 30
0.0
 11
205.0
 21
81.5
 31
0.0
  0
LINE
  8
0
  6
CONTINUOUS
 62
     2
 10
208.9
 20
79.0
 30
0.0
 11
208.5
 21
79.0
 31
0.0
  0
LINE
  8
0
  6
CONTINUOUS
 62
     2
 10
208.9
 20
79.0
 30
0.0
 11
208.9
 21
81.5
 31
0.0
  0
LINE
  8
0
  6
CONTINUOUS
 62
     2
 10
208.9
 20
81.5
 30
0.0
 11
208.5
 21
81.5
 31
0.0
  0
LINE
  8
0
  6
CONTINUOUS
 62
     2
 10
208.9
 20
81.6
 30
0.0
 11
208.5
 21
81.6
 31
0.0
  0
ARC
  8
0
  6
CONTINUOUS
 62
     2
 10
208.9
 20
81.5
 30
0.0
 40
0.1
 50
0.0
 51
90.0
  0
LINE
  8
0
  6
CONTINUOUS
 62
     2
 10
208.5
 20
78.9
 30
0.0
 11
208.9
 21
78.9
 31
0.0
  0
LINE
  8
0
  6
CONTINUOUS
 62
     2
 10
209.0
 20
79.0
 30
0.0
 11
209.0
 21
81.5
 31
0.0
  0
ARC
  8
0
  6
CONTINUOUS
 62
     2
 10
208.9
 20
79.0
 30
0.0
 40
0.1
 50
270.0
 51
0.0
  0
LINE
  8
0
  6
CONTINUOUS
 62
     2
 10
204.6
 20
81.6
 30
0.0
 11
205.0
 21
81.6
 31
0.0
  0
ARC
  8
0
  6
CONTINUOUS
 62
     2
 10
204.6
 20
81.5
 30
0.0
 40
0.1
 50
90.0
 51
180.0
  0
LINE
  8
0
  6
CONTINUOUS
 62
     2
 10
205.0
 20
78.9
 30
0.0
 11
204.6
 21
78.9
 31
0.0
  0
ARC
  8
0
  6
CONTINUOUS
 62
     2
 10
204.6
 20
79.0
 30
0.0
 40
0.1
 50
180.0
 51
270.0
  0
LINE
  8
0
  6
CONTINUOUS
 62
     2
 10
204.5
 20
79.0
 30
0.0
 11
204.5
 21
81.5
 31
0.0
  0
LINE
  8
0
  6
CONTINUOUS
 62
     2
 10
205.0
 20
87.05
 30
0.0
 11
205.0
 21
86.5
 31
0.0
  0
LINE
  8
0
  6
CONTINUOUS
 62
     2
 10
205.0
 20
87.05
 30
0.0
 11
205.25
 21
87.3
 31
0.0
  0
LINE
  8
0
  6
CONTINUOUS
 62
     2
 10
205.0
 20
84.0
 30
0.0
 11
205.0
 21
83.45
 31
0.0
  0
LINE
  8
0
  6
CONTINUOUS
 62
     2
 10
205.0
 20
83.45
 30
0.0
 11
205.25
 21
83.2
 31
0.0
  0
LINE
  8
0
  6
CONTINUOUS
 62
     2
 10
208.25
 20
83.2
 30
0.0
 11
205.25
 21
83.2
 31
0.0
  0
LINE
  8
0
  6
CONTINUOUS
 62
     2
 10
208.5
 20
84.0
 30
0.0
 11
208.5
 21
83.45
 31
0.0
  0
LINE
  8
0
  6
CONTINUOUS
 62
     2
 10
208.25
 20
83.2
 30
0.0
 11
208.5
 21
83.45
 31
0.0
  0
LINE
  8
0
  6
CONTINUOUS
 62
     2
 10
208.5
 20
87.05
 30
0.0
 11
208.5
 21
86.5
 31
0.0
  0
LINE
  8
0
  6
CONTINUOUS
 62
     2
 10
205.25
 20
87.3
 30
0.0
 11
208.25
 21
87.3
 31
0.0
  0
LINE
  8
0
  6
CONTINUOUS
 62
     2
 10
208.5
 20
87.05
 30
0.0
 11
208.25
 21
87.3
 31
0.0
  0
LINE
  8
0
  6
CONTINUOUS
 62
     2
 10
204.6
 20
86.5
 30
0.0
 11
205.0
 21
86.5
 31
0.0
  0
LINE
  8
0
  6
CONTINUOUS
 62
     2
 10
204.6
 20
86.5
 30
0.0
 11
204.6
 21
84.0
 31
0.0
  0
LINE
  8
0
  6
CONTINUOUS
 62
     2
 10
204.6
 20
84.0
 30
0.0
 11
205.0
 21
84.0
 31
0.0
  0
LINE
  8
0
  6
CONTINUOUS
 62
     2
 10
208.9
 20
86.5
 30
0.0
 11
208.5
 21
86.5
 31
0.0
  0
LINE
  8
0
  6
CONTINUOUS
 62
     2
 10
208.9
 20
86.5
 30
0.0
 11
208.9
 21
84.0
 31
0.0
  0
LINE
  8
0
  6
CONTINUOUS
 62
     2
 10
208.9
 20
84.0
 30
0.0
 11
208.5
 21
84.0
 31
0.0
  0
LINE
  8
0
  6
CONTINUOUS
 62
     2
 10
208.9
 20
83.9
 30
0.0
 11
208.5
 21
83.9
 31
0.0
  0
ARC
  8
0
  6
CONTINUOUS
 62
     2
 10
208.9
 20
84.0
 30
0.0
 40
0.1
 50
270.0
 51
0.0
  0
LINE
  8
0
  6
CONTINUOUS
 62
     2
 10
208.5
 20
86.6
 30
0.0
 11
208.9
 21
86.6
 31
0.0
  0
LINE
  8
0
  6
CONTINUOUS
 62
     2
 10
209.0
 20
86.5
 30
0.0
 11
209.0
 21
84.0
 31
0.0
  0
ARC
  8
0
  6
CONTINUOUS
 62
     2
 10
208.9
 20
86.5
 30
0.0
 40
0.1
 50
0.0
 51
90.0
  0
LINE
  8
0
  6
CONTINUOUS
 62
     2
 10
204.6
 20
83.9
 30
0.0
 11
205.0
 21
83.9
 31
0.0
  0
ARC
  8
0
  6
CONTINUOUS
 62
     2
 10
204.6
 20
84.0
 30
0.0
 40
0.1
 50
180.0
 51
270.0
  0
LINE
  8
0
  6
CONTINUOUS
 62
     2
 10
205.0
 20
86.6
 30
0.0
 11
204.6
 21
86.6
 31
0.0
  0
ARC
  8
0
  6
CONTINUOUS
 62
     2
 10
204.6
 20
86.5
 30
0.0
 40
0.1
 50
90.0
 51
180.0
  0
LINE
  8
0
  6
CONTINUOUS
 62
     2
 10
204.5
 20
86.5
 30
0.0
 11
204.5
 21
84.0
 31
0.0
  0
LINE
  8
0
  6
CONTINUOUS
 62
     2
 10
208.25
 20
52.3
 30
0.0
 11
205.25
 21
52.3
 31
0.0
  0
LINE
  8
0
  6
LTYPE3
 62
     2
 10
206.75
 20
53.0
 30
0.0
 11
206.75
 21
57.5
 31
0.0
  0
LINE
  8
0
  6
LTYPE3
 62
     2
 10
204.5
 20
55.25
 30
0.0
 11
209.0
 21
55.25
 31
0.0
  0
LINE
  8
0
  6
LTYPE3
 62
     2
 10
206.75
 20
58.0
 30
0.0
 11
206.75
 21
62.5
 31
0.0
  0
LINE
  8
0
  6
LTYPE3
 62
     2
 10
204.5
 20
60.25
 30
0.0
 11
209.0
 21
60.25
 31
0.0
  0
LINE
  8
0
  6
LTYPE3
 62
     2
 10
206.75
 20
63.0
 30
0.0
 11
206.75
 21
67.5
 31
0.0
  0
LINE
  8
0
  6
LTYPE3
 62
     2
 10
204.5
 20
65.25
 30
0.0
 11
209.0
 21
65.25
 31
0.0
  0
LINE
  8
0
  6
LTYPE3
 62
     2
 10
206.75
 20
68.0
 30
0.0
 11
206.75
 21
72.5
 31
0.0
  0
LINE
  8
0
  6
LTYPE3
 62
     2
 10
204.5
 20
70.25
 30
0.0
 11
209.0
 21
70.25
 31
0.0
  0
LINE
  8
0
  6
LTYPE3
 62
     2
 10
206.75
 20
73.0
 30
0.0
 11
206.75
 21
77.5
 31
0.0
  0
LINE
  8
0
  6
LTYPE3
 62
     2
 10
204.5
 20
75.25
 30
0.0
 11
209.0
 21
75.25
 31
0.0
  0
LINE
  8
0
  6
LTYPE3
 62
     2
 10
206.75
 20
78.0
 30
0.0
 11
206.75
 21
82.5
 31
0.0
  0
LINE
  8
0
  6
LTYPE3
 62
     2
 10
204.5
 20
80.25
 30
0.0
 11
209.0
 21
80.25
 31
0.0
  0
LINE
  8
0
  6
LTYPE3
 62
     2
 10
206.75
 20
48.0
 30
0.0
 11
206.75
 21
52.5
 31
0.0
  0
LINE
  8
0
  6
LTYPE3
 62
     2
 10
204.5
 20
50.25
 30
0.0
 11
209.0
 21
50.25
 31
0.0
  0
LINE
  8
0
  6
LTYPE3
 62
     2
 10
206.75
 20
83.0
 30
0.0
 11
206.75
 21
87.5
 31
0.0
  0
LINE
  8
0
  6
LTYPE3
 62
     2
 10
204.5
 20
85.25
 30
0.0
 11
209.0
 21
85.25
 31
0.0
  0
LINE
  8
0
  6
CONTINUOUS
 62
     2
 10
211.5
 20
52.2
 30
0.0
 11
211.5
 21
83.3
 31
0.0
  0
LINE
  8
0
  6
CONTINUOUS
 62
     2
 10
211.5
 20
83.3
 30
0.0
 11
202.0
 21
83.3
 31
0.0
  0
LINE
  8
0
  6
CONTINUOUS
 62
     2
 10
202.0
 20
83.3
 30
0.0
 11
202.0
 21
52.2
 31
0.0
  0
LINE
  8
0
  6
CONTINUOUS
 62
     2
 10
202.0
 20
52.2
 30
0.0
 11
211.5
 21
52.2
 31
0.0
  0
CIRCLE
  8
0
  6
CONTINUOUS
 62
     2
 10
206.75
 20
85.25
 30
0.0
 40
1.5
  0
LINE
  8
0
  6
CONTINUOUS
 62
     2
 10
206.55
 20
84.375
 30
0.0
 11
206.55
 21
84.85
 31
0.0
  0
ARC
  8
0
  6
CONTINUOUS
 62
     2
 10
206.35
 20
84.85
 30
0.0
 40
0.2
 50
0.0
 51
90.0
  0
LINE
  8
0
  6
CONTINUOUS
 62
     2
 10
206.35
 20
85.05
 30
0.0
 11
205.875
 21
85.05
 31
0.0
  0
LINE
  8
0
  6
CONTINUOUS
 62
     2
 10
205.875
 20
85.05
 30
0.0
 11
205.875
 21
85.45
 31
0.0
  0
LINE
  8
0
  6
CONTINUOUS
 62
     2
 10
205.875
 20
85.45
 30
0.0
 11
206.35
 21
85.45
 31
0.0
  0
ARC
  8
0
  6
CONTINUOUS
 62
     2
 10
206.35
 20
85.65
 30
0.0
 40
0.2
 50
270.0
 51
0.0
  0
LINE
  8
0
  6
CONTINUOUS
 62
     2
 10
206.55
 20
85.65
 30
0.0
 11
206.55
 21
86.125
 31
0.0
  0
LINE
  8
0
  6
CONTINUOUS
 62
     2
 10
206.55
 20
86.125
 30
0.0
 11
206.95
 21
86.125
 31
0.0
  0
LINE
  8
0
  6
CONTINUOUS
 62
     2
 10
206.95
 20
86.125
 30
0.0
 11
206.95
 21
85.65
 31
0.0
  0
ARC
  8
0
  6
CONTINUOUS
 62
     2
 10
207.15
 20
85.65
 30
0.0
 40
0.2
 50
180.0
 51
270.0
  0
LINE
  8
0
  6
CONTINUOUS
 62
     2
 10
207.15
 20
85.45
 30
0.0
 11
207.625
 21
85.45
 31
0.0
  0
LINE
  8
0
  6
CONTINUOUS
 62
     2
 10
207.625
 20
85.45
 30
0.0
 11
207.625
 21
85.05
 31
0.0
  0
LINE
  8
0
  6
CONTINUOUS
 62
     2
 10
207.625
 20
85.05
 30
0.0
 11
207.15
 21
85.05
 31
0.0
  0
ARC
  8
0
  6
CONTINUOUS
 62
     2
 10
207.15
 20
84.85
 30
0.0
 40
0.2
 50
90.0
 51
180.0
  0
LINE
  8
0
  6
CONTINUOUS
 62
     2
 10
206.95
 20
84.85
 30
0.0
 11
206.95
 21
84.375
 31
0.0
  0
LINE
  8
0
  6
CONTINUOUS
 62
     2
 10
206.95
 20
84.375
 30
0.0
 11
206.55
 21
84.375
 31
0.0
  0
CIRCLE
  8
0
  6
CONTINUOUS
 62
     2
 10
206.75
 20
80.25
 30
0.0
 40
1.5
  0
LINE
  8
0
  6
CONTINUOUS
 62
     2
 10
206.55
 20
79.375
 30
0.0
 11
206.55
 21
79.85
 31
0.0
  0
ARC
  8
0
  6
CONTINUOUS
 62
     2
 10
206.35
 20
79.85
 30
0.0
 40
0.2
 50
0.0
 51
90.0
  0
LINE
  8
0
  6
CONTINUOUS
 62
     2
 10
206.35
 20
80.05
 30
0.0
 11
205.875
 21
80.05
 31
0.0
  0
LINE
  8
0
  6
CONTINUOUS
 62
     2
 10
205.875
 20
80.05
 30
0.0
 11
205.875
 21
80.45
 31
0.0
  0
LINE
  8
0
  6
CONTINUOUS
 62
     2
 10
205.875
 20
80.45
 30
0.0
 11
206.35
 21
80.45
 31
0.0
  0
ARC
  8
0
  6
CONTINUOUS
 62
     2
 10
206.35
 20
80.65
 30
0.0
 40
0.2
 50
270.0
 51
0.0
  0
LINE
  8
0
  6
CONTINUOUS
 62
     2
 10
206.55
 20
80.65
 30
0.0
 11
206.55
 21
81.125
 31
0.0
  0
LINE
  8
0
  6
CONTINUOUS
 62
     2
 10
206.55
 20
81.125
 30
0.0
 11
206.95
 21
81.125
 31
0.0
  0
LINE
  8
0
  6
CONTINUOUS
 62
     2
 10
206.95
 20
81.125
 30
0.0
 11
206.95
 21
80.65
 31
0.0
  0
ARC
  8
0
  6
CONTINUOUS
 62
     2
 10
207.15
 20
80.65
 30
0.0
 40
0.2
 50
180.0
 51
270.0
  0
LINE
  8
0
  6
CONTINUOUS
 62
     2
 10
207.15
 20
80.45
 30
0.0
 11
207.625
 21
80.45
 31
0.0
  0
LINE
  8
0
  6
CONTINUOUS
 62
     2
 10
207.625
 20
80.45
 30
0.0
 11
207.625
 21
80.05
 31
0.0
  0
LINE
  8
0
  6
CONTINUOUS
 62
     2
 10
207.625
 20
80.05
 30
0.0
 11
207.15
 21
80.05
 31
0.0
  0
ARC
  8
0
  6
CONTINUOUS
 62
     2
 10
207.15
 20
79.85
 30
0.0
 40
0.2
 50
90.0
 51
180.0
  0
LINE
  8
0
  6
CONTINUOUS
 62
     2
 10
206.95
 20
79.85
 30
0.0
 11
206.95
 21
79.375
 31
0.0
  0
LINE
  8
0
  6
CONTINUOUS
 62
     2
 10
206.95
 20
79.375
 30
0.0
 11
206.55
 21
79.375
 31
0.0
  0
CIRCLE
  8
0
  6
CONTINUOUS
 62
     2
 10
206.75
 20
75.25
 30
0.0
 40
1.5
  0
LINE
  8
0
  6
CONTINUOUS
 62
     2
 10
206.55
 20
74.375
 30
0.0
 11
206.55
 21
74.85
 31
0.0
  0
ARC
  8
0
  6
CONTINUOUS
 62
     2
 10
206.35
 20
74.85
 30
0.0
 40
0.2
 50
0.0
 51
90.0
  0
LINE
  8
0
  6
CONTINUOUS
 62
     2
 10
206.35
 20
75.05
 30
0.0
 11
205.875
 21
75.05
 31
0.0
  0
LINE
  8
0
  6
CONTINUOUS
 62
     2
 10
205.875
 20
75.05
 30
0.0
 11
205.875
 21
75.45
 31
0.0
  0
LINE
  8
0
  6
CONTINUOUS
 62
     2
 10
205.875
 20
75.45
 30
0.0
 11
206.35
 21
75.45
 31
0.0
  0
ARC
  8
0
  6
CONTINUOUS
 62
     2
 10
206.35
 20
75.65
 30
0.0
 40
0.2
 50
270.0
 51
0.0
  0
LINE
  8
0
  6
CONTINUOUS
 62
     2
 10
206.55
 20
75.65
 30
0.0
 11
206.55
 21
76.125
 31
0.0
  0
LINE
  8
0
  6
CONTINUOUS
 62
     2
 10
206.55
 20
76.125
 30
0.0
 11
206.95
 21
76.125
 31
0.0
  0
LINE
  8
0
  6
CONTINUOUS
 62
     2
 10
206.95
 20
76.125
 30
0.0
 11
206.95
 21
75.65
 31
0.0
  0
ARC
  8
0
  6
CONTINUOUS
 62
     2
 10
207.15
 20
75.65
 30
0.0
 40
0.2
 50
180.0
 51
270.0
  0
LINE
  8
0
  6
CONTINUOUS
 62
     2
 10
207.15
 20
75.45
 30
0.0
 11
207.625
 21
75.45
 31
0.0
  0
LINE
  8
0
  6
CONTINUOUS
 62
     2
 10
207.625
 20
75.45
 30
0.0
 11
207.625
 21
75.05
 31
0.0
  0
LINE
  8
0
  6
CONTINUOUS
 62
     2
 10
207.625
 20
75.05
 30
0.0
 11
207.15
 21
75.05
 31
0.0
  0
ARC
  8
0
  6
CONTINUOUS
 62
     2
 10
207.15
 20
74.85
 30
0.0
 40
0.2
 50
90.0
 51
180.0
  0
LINE
  8
0
  6
CONTINUOUS
 62
     2
 10
206.95
 20
74.85
 30
0.0
 11
206.95
 21
74.375
 31
0.0
  0
LINE
  8
0
  6
CONTINUOUS
 62
     2
 10
206.95
 20
74.375
 30
0.0
 11
206.55
 21
74.375
 31
0.0
  0
CIRCLE
  8
0
  6
CONTINUOUS
 62
     2
 10
206.75
 20
50.25
 30
0.0
 40
1.5
  0
LINE
  8
0
  6
CONTINUOUS
 62
     2
 10
206.55
 20
49.375
 30
0.0
 11
206.55
 21
49.85
 31
0.0
  0
ARC
  8
0
  6
CONTINUOUS
 62
     2
 10
206.35
 20
49.85
 30
0.0
 40
0.2
 50
0.0
 51
90.0
  0
LINE
  8
0
  6
CONTINUOUS
 62
     2
 10
206.35
 20
50.05
 30
0.0
 11
205.875
 21
50.05
 31
0.0
  0
LINE
  8
0
  6
CONTINUOUS
 62
     2
 10
205.875
 20
50.05
 30
0.0
 11
205.875
 21
50.45
 31
0.0
  0
LINE
  8
0
  6
CONTINUOUS
 62
     2
 10
205.875
 20
50.45
 30
0.0
 11
206.35
 21
50.45
 31
0.0
  0
ARC
  8
0
  6
CONTINUOUS
 62
     2
 10
206.35
 20
50.65
 30
0.0
 40
0.2
 50
270.0
 51
0.0
  0
LINE
  8
0
  6
CONTINUOUS
 62
     2
 10
206.55
 20
50.65
 30
0.0
 11
206.55
 21
51.125
 31
0.0
  0
LINE
  8
0
  6
CONTINUOUS
 62
     2
 10
206.55
 20
51.125
 30
0.0
 11
206.95
 21
51.125
 31
0.0
  0
LINE
  8
0
  6
CONTINUOUS
 62
     2
 10
206.95
 20
51.125
 30
0.0
 11
206.95
 21
50.65
 31
0.0
  0
ARC
  8
0
  6
CONTINUOUS
 62
     2
 10
207.15
 20
50.65
 30
0.0
 40
0.2
 50
180.0
 51
270.0
  0
LINE
  8
0
  6
CONTINUOUS
 62
     2
 10
207.15
 20
50.45
 30
0.0
 11
207.625
 21
50.45
 31
0.0
  0
LINE
  8
0
  6
CONTINUOUS
 62
     2
 10
207.625
 20
50.45
 30
0.0
 11
207.625
 21
50.05
 31
0.0
  0
LINE
  8
0
  6
CONTINUOUS
 62
     2
 10
207.625
 20
50.05
 30
0.0
 11
207.15
 21
50.05
 31
0.0
  0
ARC
  8
0
  6
CONTINUOUS
 62
     2
 10
207.15
 20
49.85
 30
0.0
 40
0.2
 50
90.0
 51
180.0
  0
LINE
  8
0
  6
CONTINUOUS
 62
     2
 10
206.95
 20
49.85
 30
0.0
 11
206.95
 21
49.375
 31
0.0
  0
LINE
  8
0
  6
CONTINUOUS
 62
     2
 10
206.95
 20
49.375
 30
0.0
 11
206.55
 21
49.375
 31
0.0
  0
LINE
  8
0
  6
CONTINUOUS
 62
     1
 10
204.25
 20
48.2
 30
0.0
 11
204.25
 21
47.25
 31
0.0
  0
LINE
  8
0
  6
CONTINUOUS
 62
     1
 10
204.75
 20
47.25
 30
0.0
 11
204.75
 21
48.2
 31
0.0
  0
LINE
  8
0
  6
CONTINUOUS
 62
     5
 10
200.1
 20
82.95
 30
0.0
 11
196.1
 21
82.95
 31
0.0
  0
LINE
  8
0
  6
CONTINUOUS
 62
     5
 10
196.35
 20
79.85
 30
0.0
 11
196.35
 21
75.85
 31
0.0
  0
LINE
  8
0
  6
CONTINUOUS
 62
     5
 10
196.35
 20
79.85
 30
0.0
 11
197.1
 21
80.45
 31
0.0
  0
LINE
  8
0
  6
CONTINUOUS
 62
     5
 10
196.35
 20
75.85
 30
0.0
 11
197.1
 21
75.25
 31
0.0
  0
TEXT
  8
0
  6
CONTINUOUS
 62
     5
 10
197.35
 20
79.7
 30
0.1
 40
1.5
  1
１＋
 50
0.0
 41
0.666666667
 51
0.0
  7
KANJI9
  0
TEXT
  8
0
  6
CONTINUOUS
 62
     5
 10
197.35
 20
74.45
 30
0.1
 40
1.5
  1
２－
 50
0.0
 41
0.666666667
 51
0.0
  7
KANJI9
  0
TEXT
  8
0
  6
CONTINUOUS
 62
     5
 10
196.2
 20
76.75
 30
0.05
 40
1.0
  1
ＩＮＰＵＴ
 50
0.0
 41
0.75
 51
0.0
  7
KANJI10
  0
TEXT
  8
0
  6
CONTINUOUS
 62
     5
 10
196.5
 20
78.15
 30
0.05
 40
1.0
  1
ＬＥＦＴ
 50
0.0
 41
0.75
 51
0.0
  7
KANJI10
  0
LINE
  8
0
  6
CONTINUOUS
 62
     5
 10
196.1
 20
72.95
 30
0.0
 11
196.1
 21
82.95
 31
0.0
  0
LINE
  8
0
  6
CONTINUOUS
 62
     5
 10
200.1
 20
82.95
 30
0.0
 11
200.1
 21
72.95
 31
0.0
  0
LINE
  8
0
  6
CONTINUOUS
 62
     5
 10
196.1
 20
72.95
 30
0.0
 11
200.1
 21
72.95
 31
0.0
  0
LINE
  8
0
  6
CONTINUOUS
 62
     1
 10
200.75
 20
88.75
 30
0.0
 11
200.75
 21
87.25
 31
0.0
  0
LINE
  8
0
  6
CONTINUOUS
 62
     1
 10
200.75
 20
87.25
 30
0.0
 11
202.5
 21
87.25
 31
0.0
  0
LINE
  8
0
  6
CONTINUOUS
 62
     2
 10
212.75
 20
38.75
 30
0.0
 11
225.5
 21
38.75
 31
0.0
  0
LINE
  8
0
  6
CONTINUOUS
 62
     2
 10
223.5
 20
38.75
 30
0.0
 11
224.147047613
 21
41.164814566
 31
0.0
  0
LINE
  8
0
  6
CONTINUOUS
 62
     2
 10
223.5
 20
38.75
 30
0.0
 11
222.852952387
 21
41.164814566
 31
0.0
  0
LINE
  8
0
  6
CONTINUOUS
 62
     2
 10
223.5
 20
38.75
 30
0.0
 11
223.5
 21
121.25
 31
0.0
  0
LINE
  8
0
  6
CONTINUOUS
 62
     2
 10
223.5
 20
121.25
 30
0.0
 11
222.852952387
 21
118.835185434
 31
0.0
  0
LINE
  8
0
  6
CONTINUOUS
 62
     2
 10
223.5
 20
121.25
 30
0.0
 11
224.147047613
 21
118.835185434
 31
0.0
  0
LINE
  8
0
  6
CONTINUOUS
 62
     2
 10
212.75
 20
121.25
 30
0.0
 11
225.5
 21
121.25
 31
0.0
  0
LINE
  8
0
  6
LTYPE3
 62
     2
 10
218.25
 20
80.0
 30
0.0
 11
198.3
 21
80.0
 31
0.0
  0
TEXT
  8
0
  6
CONTINUOUS
 62
     2
 10
222.5
 20
77.0
 30
0.3
 40
3.0
  1
１６５
 50
90.0
 41
0.6
 51
0.0
  7
KANJI0
  0
TEXT
  8
0
  6
CONTINUOUS
 62
     3
 10
235.0
 20
12.0
 30
0.2
 40
5.8
  1
ＭＳ－１２２０７
 50
0.0
 41
0.827586207
 51
0.0
  7
KANJI11
  0
LINE
  8
0
  6
CONTINUOUS
 62
     2
 10
226.0
 20
121.25
 30
0.0
 11
226.306
 21
121.25
 31
0.0
  0
TEXT
  8
0
  6
CONTINUOUS
 62
     2
 10
202.0
 20
149.7
 30
0.3
 40
3.0
  1
（１７５）
 50
90.0
 41
0.6
 51
0.0
  7
KANJI0
  0
LINE
  8
0
  6
CONTINUOUS
 62
     2
 10
206.55
 20
54.375
 30
0.0
 11
206.55
 21
54.85
 31
0.0
  0
ARC
  8
0
  6
CONTINUOUS
 62
     2
 10
206.35
 20
54.85
 30
0.0
 40
0.2
 50
0.0
 51
90.0
  0
LINE
  8
0
  6
CONTINUOUS
 62
     2
 10
206.35
 20
55.05
 30
0.0
 11
205.875
 21
55.05
 31
0.0
  0
LINE
  8
0
  6
CONTINUOUS
 62
     2
 10
205.875
 20
55.05
 30
0.0
 11
205.875
 21
55.45
 31
0.0
  0
LINE
  8
0
  6
CONTINUOUS
 62
     2
 10
205.875
 20
55.45
 30
0.0
 11
206.35
 21
55.45
 31
0.0
  0
ARC
  8
0
  6
CONTINUOUS
 62
     2
 10
206.35
 20
55.65
 30
0.0
 40
0.2
 50
270.0
 51
0.0
  0
LINE
  8
0
  6
CONTINUOUS
 62
     2
 10
206.55
 20
55.65
 30
0.0
 11
206.55
 21
56.125
 31
0.0
  0
LINE
  8
0
  6
CONTINUOUS
 62
     2
 10
206.55
 20
56.125
 30
0.0
 11
206.95
 21
56.125
 31
0.0
  0
LINE
  8
0
  6
CONTINUOUS
 62
     2
 10
206.95
 20
56.125
 30
0.0
 11
206.95
 21
55.65
 31
0.0
  0
ARC
  8
0
  6
CONTINUOUS
 62
     2
 10
207.15
 20
55.65
 30
0.0
 40
0.2
 50
180.0
 51
270.0
  0
LINE
  8
0
  6
CONTINUOUS
 62
     2
 10
207.15
 20
55.45
 30
0.0
 11
207.625
 21
55.45
 31
0.0
  0
LINE
  8
0
  6
CONTINUOUS
 62
     2
 10
207.625
 20
55.45
 30
0.0
 11
207.625
 21
55.05
 31
0.0
  0
LINE
  8
0
  6
CONTINUOUS
 62
     2
 10
207.625
 20
55.05
 30
0.0
 11
207.15
 21
55.05
 31
0.0
  0
ARC
  8
0
  6
CONTINUOUS
 62
     2
 10
207.15
 20
54.85
 30
0.0
 40
0.2
 50
90.0
 51
180.0
  0
LINE
  8
0
  6
CONTINUOUS
 62
     2
 10
206.95
 20
54.85
 30
0.0
 11
206.95
 21
54.375
 31
0.0
  0
LINE
  8
0
  6
CONTINUOUS
 62
     2
 10
206.95
 20
54.375
 30
0.0
 11
206.55
 21
54.375
 31
0.0
  0
LINE
  8
0
  6
CONTINUOUS
 62
     2
 10
206.55
 20
59.375
 30
0.0
 11
206.55
 21
59.85
 31
0.0
  0
ARC
  8
0
  6
CONTINUOUS
 62
     2
 10
206.35
 20
59.85
 30
0.0
 40
0.2
 50
0.0
 51
90.0
  0
LINE
  8
0
  6
CONTINUOUS
 62
     2
 10
206.35
 20
60.05
 30
0.0
 11
205.875
 21
60.05
 31
0.0
  0
LINE
  8
0
  6
CONTINUOUS
 62
     2
 10
205.875
 20
60.05
 30
0.0
 11
205.875
 21
60.45
 31
0.0
  0
LINE
  8
0
  6
CONTINUOUS
 62
     2
 10
205.875
 20
60.45
 30
0.0
 11
206.35
 21
60.45
 31
0.0
  0
ARC
  8
0
  6
CONTINUOUS
 62
     2
 10
206.35
 20
60.65
 30
0.0
 40
0.2
 50
270.0
 51
0.0
  0
LINE
  8
0
  6
CONTINUOUS
 62
     2
 10
206.55
 20
60.65
 30
0.0
 11
206.55
 21
61.125
 31
0.0
  0
LINE
  8
0
  6
CONTINUOUS
 62
     2
 10
206.55
 20
61.125
 30
0.0
 11
206.95
 21
61.125
 31
0.0
  0
LINE
  8
0
  6
CONTINUOUS
 62
     2
 10
206.95
 20
61.125
 30
0.0
 11
206.95
 21
60.65
 31
0.0
  0
ARC
  8
0
  6
CONTINUOUS
 62
     2
 10
207.15
 20
60.65
 30
0.0
 40
0.2
 50
180.0
 51
270.0
  0
LINE
  8
0
  6
CONTINUOUS
 62
     2
 10
207.15
 20
60.45
 30
0.0
 11
207.625
 21
60.45
 31
0.0
  0
LINE
  8
0
  6
CONTINUOUS
 62
     2
 10
207.625
 20
60.45
 30
0.0
 11
207.625
 21
60.05
 31
0.0
  0
LINE
  8
0
  6
CONTINUOUS
 62
     2
 10
207.625
 20
60.05
 30
0.0
 11
207.15
 21
60.05
 31
0.0
  0
ARC
  8
0
  6
CONTINUOUS
 62
     2
 10
207.15
 20
59.85
 30
0.0
 40
0.2
 50
90.0
 51
180.0
  0
LINE
  8
0
  6
CONTINUOUS
 62
     2
 10
206.95
 20
59.85
 30
0.0
 11
206.95
 21
59.375
 31
0.0
  0
LINE
  8
0
  6
CONTINUOUS
 62
     2
 10
206.95
 20
59.375
 30
0.0
 11
206.55
 21
59.375
 31
0.0
  0
LINE
  8
0
  6
CONTINUOUS
 62
     2
 10
206.55
 20
64.375
 30
0.0
 11
206.55
 21
64.85
 31
0.0
  0
ARC
  8
0
  6
CONTINUOUS
 62
     2
 10
206.35
 20
64.85
 30
0.0
 40
0.2
 50
0.0
 51
90.0
  0
LINE
  8
0
  6
CONTINUOUS
 62
     2
 10
206.35
 20
65.05
 30
0.0
 11
205.875
 21
65.05
 31
0.0
  0
LINE
  8
0
  6
CONTINUOUS
 62
     2
 10
205.875
 20
65.05
 30
0.0
 11
205.875
 21
65.45
 31
0.0
  0
LINE
  8
0
  6
CONTINUOUS
 62
     2
 10
205.875
 20
65.45
 30
0.0
 11
206.35
 21
65.45
 31
0.0
  0
ARC
  8
0
  6
CONTINUOUS
 62
     2
 10
206.35
 20
65.65
 30
0.0
 40
0.2
 50
270.0
 51
0.0
  0
LINE
  8
0
  6
CONTINUOUS
 62
     2
 10
206.55
 20
65.65
 30
0.0
 11
206.55
 21
66.125
 31
0.0
  0
LINE
  8
0
  6
CONTINUOUS
 62
     2
 10
206.55
 20
66.125
 30
0.0
 11
206.95
 21
66.125
 31
0.0
  0
LINE
  8
0
  6
CONTINUOUS
 62
     2
 10
206.95
 20
66.125
 30
0.0
 11
206.95
 21
65.65
 31
0.0
  0
ARC
  8
0
  6
CONTINUOUS
 62
     2
 10
207.15
 20
65.65
 30
0.0
 40
0.2
 50
180.0
 51
270.0
  0
LINE
  8
0
  6
CONTINUOUS
 62
     2
 10
207.15
 20
65.45
 30
0.0
 11
207.625
 21
65.45
 31
0.0
  0
LINE
  8
0
  6
CONTINUOUS
 62
     2
 10
207.625
 20
65.45
 30
0.0
 11
207.625
 21
65.05
 31
0.0
  0
LINE
  8
0
  6
CONTINUOUS
 62
     2
 10
207.625
 20
65.05
 30
0.0
 11
207.15
 21
65.05
 31
0.0
  0
ARC
  8
0
  6
CONTINUOUS
 62
     2
 10
207.15
 20
64.85
 30
0.0
 40
0.2
 50
90.0
 51
180.0
  0
LINE
  8
0
  6
CONTINUOUS
 62
     2
 10
206.95
 20
64.85
 30
0.0
 11
206.95
 21
64.375
 31
0.0
  0
LINE
  8
0
  6
CONTINUOUS
 62
     2
 10
206.95
 20
64.375
 30
0.0
 11
206.55
 21
64.375
 31
0.0
  0
LINE
  8
0
  6
CONTINUOUS
 62
     2
 10
206.55
 20
69.375
 30
0.0
 11
206.55
 21
69.85
 31
0.0
  0
ARC
  8
0
  6
CONTINUOUS
 62
     2
 10
206.35
 20
69.85
 30
0.0
 40
0.2
 50
0.0
 51
90.0
  0
LINE
  8
0
  6
CONTINUOUS
 62
     2
 10
206.35
 20
70.05
 30
0.0
 11
205.875
 21
70.05
 31
0.0
  0
LINE
  8
0
  6
CONTINUOUS
 62
     2
 10
205.875
 20
70.05
 30
0.0
 11
205.875
 21
70.45
 31
0.0
  0
LINE
  8
0
  6
CONTINUOUS
 62
     2
 10
205.875
 20
70.45
 30
0.0
 11
206.35
 21
70.45
 31
0.0
  0
ARC
  8
0
  6
CONTINUOUS
 62
     2
 10
206.35
 20
70.65
 30
0.0
 40
0.2
 50
270.0
 51
0.0
  0
LINE
  8
0
  6
CONTINUOUS
 62
     2
 10
206.55
 20
70.65
 30
0.0
 11
206.55
 21
71.125
 31
0.0
  0
LINE
  8
0
  6
CONTINUOUS
 62
     2
 10
206.55
 20
71.125
 30
0.0
 11
206.95
 21
71.125
 31
0.0
  0
LINE
  8
0
  6
CONTINUOUS
 62
     2
 10
206.95
 20
71.125
 30
0.0
 11
206.95
 21
70.65
 31
0.0
  0
ARC
  8
0
  6
CONTINUOUS
 62
     2
 10
207.15
 20
70.65
 30
0.0
 40
0.2
 50
180.0
 51
270.0
  0
LINE
  8
0
  6
CONTINUOUS
 62
     2
 10
207.15
 20
70.45
 30
0.0
 11
207.625
 21
70.45
 31
0.0
  0
LINE
  8
0
  6
CONTINUOUS
 62
     2
 10
207.625
 20
70.45
 30
0.0
 11
207.625
 21
70.05
 31
0.0
  0
LINE
  8
0
  6
CONTINUOUS
 62
     2
 10
207.625
 20
70.05
 30
0.0
 11
207.15
 21
70.05
 31
0.0
  0
ARC
  8
0
  6
CONTINUOUS
 62
     2
 10
207.15
 20
69.85
 30
0.0
 40
0.2
 50
90.0
 51
180.0
  0
LINE
  8
0
  6
CONTINUOUS
 62
     2
 10
206.95
 20
69.85
 30
0.0
 11
206.95
 21
69.375
 31
0.0
  0
LINE
  8
0
  6
CONTINUOUS
 62
     2
 10
206.95
 20
69.375
 30
0.0
 11
206.55
 21
69.375
 31
0.0
  0
CIRCLE
  8
0
  6
CONTINUOUS
 62
     2
 10
206.75
 20
55.25
 30
0.0
 40
1.5
  0
CIRCLE
  8
0
  6
CONTINUOUS
 62
     2
 10
206.75
 20
60.25
 30
0.0
 40
1.5
  0
CIRCLE
  8
0
  6
CONTINUOUS
 62
     2
 10
206.75
 20
65.25
 30
0.0
 40
1.5
  0
CIRCLE
  8
0
  6
CONTINUOUS
 62
     2
 10
206.75
 20
70.25
 30
0.0
 40
1.5
  0
LINE
  8
0
  6
CONTINUOUS
 62
     2
 10
167.04
 20
56.58
 30
0.0
 11
167.04
 21
53.92
 31
0.0
  0
LINE
  8
0
  6
CONTINUOUS
 62
     2
 10
167.35
 20
53.94
 30
0.0
 11
167.04
 21
53.92
 31
0.0
  0
LINE
  8
0
  6
CONTINUOUS
 62
     2
 10
167.04
 20
56.58
 30
0.0
 11
167.35
 21
56.58
 31
0.0
  0
LINE
  8
0
  6
CONTINUOUS
 62
     2
 10
168.09
 20
55.83
 30
0.0
 11
168.09
 21
54.67
 31
0.0
  0
ARC
  8
0
  6
CONTINUOUS
 62
     2
 10
167.34
 20
55.83
 30
0.0
 40
0.75
 50
0.0
 51
90.0
  0
ARC
  8
0
  6
CONTINUOUS
 62
     2
 10
167.34
 20
54.67
 30
0.0
 40
0.75
 50
268.472474559
 51
0.0
  0
LINE
  8
0
  6
CONTINUOUS
 62
     2
 10
167.03
 20
56.6
 30
0.0
 11
166.65
 21
56.6
 31
0.0
  0
LINE
  8
0
  6
CONTINUOUS
 62
     2
 10
166.65
 20
56.6
 30
0.0
 11
166.65
 21
53.92
 31
0.0
  0
LINE
  8
0
  6
CONTINUOUS
 62
     2
 10
166.65
 20
53.92
 30
0.0
 11
167.03
 21
53.92
 31
0.0
  0
LINE
  8
0
  6
CONTINUOUS
 62
     2
 10
166.65
 20
55.13
 30
0.0
 11
167.03
 21
55.44
 31
0.0
  0
LINE
  8
0
  6
CONTINUOUS
 62
     2
 10
166.65
 20
54.89
 30
0.0
 11
167.04
 21
55.18
 31
0.0
  0
LINE
  8
0
  6
CONTINUOUS
 62
     2
 10
168.09
 20
55.46
 30
0.0
 11
168.02
 21
55.46
 31
0.0
  0
LINE
  8
0
  6
CONTINUOUS
 62
     2
 10
168.02
 20
55.47
 30
0.0
 11
168.02
 21
55.09
 31
0.0
  0
LINE
  8
0
  6
CONTINUOUS
 62
     2
 10
168.02
 20
55.09
 30
0.0
 11
168.08
 21
55.09
 31
0.0
  0
LINE
  8
0
  6
CONTINUOUS
 62
     2
 10
167.04
 20
61.58
 30
0.0
 11
167.04
 21
58.92
 31
0.0
  0
LINE
  8
0
  6
CONTINUOUS
 62
     2
 10
167.35
 20
58.94
 30
0.0
 11
167.04
 21
58.92
 31
0.0
  0
LINE
  8
0
  6
CONTINUOUS
 62
     2
 10
167.04
 20
61.58
 30
0.0
 11
167.35
 21
61.58
 31
0.0
  0
LINE
  8
0
  6
CONTINUOUS
 62
     2
 10
168.09
 20
60.83
 30
0.0
 11
168.09
 21
59.67
 31
0.0
  0
ARC
  8
0
  6
CONTINUOUS
 62
     2
 10
167.34
 20
60.83
 30
0.0
 40
0.75
 50
0.0
 51
90.0
  0
ARC
  8
0
  6
CONTINUOUS
 62
     2
 10
167.34
 20
59.67
 30
0.0
 40
0.75
 50
268.472474559
 51
0.0
  0
LINE
  8
0
  6
CONTINUOUS
 62
     2
 10
167.03
 20
61.6
 30
0.0
 11
166.65
 21
61.6
 31
0.0
  0
LINE
  8
0
  6
CONTINUOUS
 62
     2
 10
166.65
 20
61.6
 30
0.0
 11
166.65
 21
58.92
 31
0.0
  0
LINE
  8
0
  6
CONTINUOUS
 62
     2
 10
166.65
 20
58.92
 30
0.0
 11
167.03
 21
58.92
 31
0.0
  0
LINE
  8
0
  6
CONTINUOUS
 62
     2
 10
166.65
 20
60.13
 30
0.0
 11
167.03
 21
60.44
 31
0.0
  0
LINE
  8
0
  6
CONTINUOUS
 62
     2
 10
166.65
 20
59.89
 30
0.0
 11
167.04
 21
60.18
 31
0.0
  0
LINE
  8
0
  6
CONTINUOUS
 62
     2
 10
168.09
 20
60.46
 30
0.0
 11
168.02
 21
60.46
 31
0.0
  0
LINE
  8
0
  6
CONTINUOUS
 62
     2
 10
168.02
 20
60.47
 30
0.0
 11
168.02
 21
60.09
 31
0.0
  0
LINE
  8
0
  6
CONTINUOUS
 62
     2
 10
168.02
 20
60.09
 30
0.0
 11
168.08
 21
60.09
 31
0.0
  0
LINE
  8
0
  6
CONTINUOUS
 62
     2
 10
167.04
 20
66.58
 30
0.0
 11
167.04
 21
63.92
 31
0.0
  0
LINE
  8
0
  6
CONTINUOUS
 62
     2
 10
167.35
 20
63.94
 30
0.0
 11
167.04
 21
63.92
 31
0.0
  0
LINE
  8
0
  6
CONTINUOUS
 62
     2
 10
167.04
 20
66.58
 30
0.0
 11
167.35
 21
66.58
 31
0.0
  0
LINE
  8
0
  6
CONTINUOUS
 62
     2
 10
168.09
 20
65.83
 30
0.0
 11
168.09
 21
64.67
 31
0.0
  0
ARC
  8
0
  6
CONTINUOUS
 62
     2
 10
167.34
 20
65.83
 30
0.0
 40
0.75
 50
0.0
 51
90.0
  0
ARC
  8
0
  6
CONTINUOUS
 62
     2
 10
167.34
 20
64.67
 30
0.0
 40
0.75
 50
268.472474559
 51
0.0
  0
LINE
  8
0
  6
CONTINUOUS
 62
     2
 10
167.03
 20
66.6
 30
0.0
 11
166.65
 21
66.6
 31
0.0
  0
LINE
  8
0
  6
CONTINUOUS
 62
     2
 10
166.65
 20
66.6
 30
0.0
 11
166.65
 21
63.92
 31
0.0
  0
LINE
  8
0
  6
CONTINUOUS
 62
     2
 10
166.65
 20
63.92
 30
0.0
 11
167.03
 21
63.92
 31
0.0
  0
LINE
  8
0
  6
CONTINUOUS
 62
     2
 10
166.65
 20
65.13
 30
0.0
 11
167.03
 21
65.44
 31
0.0
  0
LINE
  8
0
  6
CONTINUOUS
 62
     2
 10
166.65
 20
64.89
 30
0.0
 11
167.04
 21
65.18
 31
0.0
  0
LINE
  8
0
  6
CONTINUOUS
 62
     2
 10
168.09
 20
65.46
 30
0.0
 11
168.02
 21
65.46
 31
0.0
  0
LINE
  8
0
  6
CONTINUOUS
 62
     2
 10
168.02
 20
65.47
 30
0.0
 11
168.02
 21
65.09
 31
0.0
  0
LINE
  8
0
  6
CONTINUOUS
 62
     2
 10
168.02
 20
65.09
 30
0.0
 11
168.08
 21
65.09
 31
0.0
  0
LINE
  8
0
  6
CONTINUOUS
 62
     2
 10
167.04
 20
71.58
 30
0.0
 11
167.04
 21
68.92
 31
0.0
  0
LINE
  8
0
  6
CONTINUOUS
 62
     2
 10
167.35
 20
68.94
 30
0.0
 11
167.04
 21
68.92
 31
0.0
  0
LINE
  8
0
  6
CONTINUOUS
 62
     2
 10
167.04
 20
71.58
 30
0.0
 11
167.35
 21
71.58
 31
0.0
  0
LINE
  8
0
  6
CONTINUOUS
 62
     2
 10
168.09
 20
70.83
 30
0.0
 11
168.09
 21
69.67
 31
0.0
  0
ARC
  8
0
  6
CONTINUOUS
 62
     2
 10
167.34
 20
70.83
 30
0.0
 40
0.75
 50
0.0
 51
90.0
  0
ARC
  8
0
  6
CONTINUOUS
 62
     2
 10
167.34
 20
69.67
 30
0.0
 40
0.75
 50
268.472474559
 51
0.0
  0
LINE
  8
0
  6
CONTINUOUS
 62
     2
 10
167.03
 20
71.6
 30
0.0
 11
166.65
 21
71.6
 31
0.0
  0
LINE
  8
0
  6
CONTINUOUS
 62
     2
 10
166.65
 20
71.6
 30
0.0
 11
166.65
 21
68.92
 31
0.0
  0
LINE
  8
0
  6
CONTINUOUS
 62
     2
 10
166.65
 20
68.92
 30
0.0
 11
167.03
 21
68.92
 31
0.0
  0
LINE
  8
0
  6
CONTINUOUS
 62
     2
 10
166.65
 20
70.13
 30
0.0
 11
167.03
 21
70.44
 31
0.0
  0
LINE
  8
0
  6
CONTINUOUS
 62
     2
 10
166.65
 20
69.89
 30
0.0
 11
167.04
 21
70.18
 31
0.0
  0
LINE
  8
0
  6
CONTINUOUS
 62
     2
 10
168.09
 20
70.46
 30
0.0
 11
168.02
 21
70.46
 31
0.0
  0
LINE
  8
0
  6
CONTINUOUS
 62
     2
 10
168.02
 20
70.47
 30
0.0
 11
168.02
 21
70.09
 31
0.0
  0
LINE
  8
0
  6
CONTINUOUS
 62
     2
 10
168.02
 20
70.09
 30
0.0
 11
168.08
 21
70.09
 31
0.0
  0
TEXT
  8
0
  6
CONTINUOUS
 62
     3
 10
278.0
 20
12.0
 30
0.2
 40
5.8
  1
Ａ
 50
0.0
 41
0.827586207
 51
0.0
  7
KANJI11
  0
TEXT
  8
0
  6
CONTINUOUS
 62
     2
 10
46.1
 20
26.15
 30
0.3
 40
3.0
  1
質量　約１．３ｋｇ
 50
0.0
 41
0.9
 51
0.0
  7
KANJI1
  0
LINE
  8
0
  6
LTYPE1
 62
     2
 10
193.65
 20
172.3
 30
0.0
 11
193.65
 21
164.8
 31
0.0
  0
TEXT
  8
0
  6
CONTINUOUS
 62
     1
 10
236.1
 20
31.65
 30
0.4
 40
4.0
  1
縁　形　計　器
 50
0.0
 41
0.9
 51
0.0
  7
KANJI12
  0
TEXT
  8
0
  6
CONTINUOUS
 62
     2
 10
236.1
 20
36.65
 30
0.3
 40
3.0
  1
端子カバー付
 50
0.0
 41
0.9
 51
0.0
  7
KANJI1
  0
TEXT
  8
0
  6
CONTINUOUS
 62
     6
 10
236.1
 20
42.85
 30
0.6
 40
6.0
  1
□ＥＦ－１５Ｓ
 50
0.0
 41
0.9
 51
0.0
  7
KANJI13
  0
LINE
  8
0
  6
LTYPE3
 62
     2
 10
48.05
 20
80.0
 30
0.0
 11
23.25
 21
80.0
 31
0.0
  0
LINE
  8
0
  6
LTYPE3
 62
     2
 10
171.0
 20
80.0
 30
0.0
 11
55.4
 21
80.0
 31
0.0
  0
LINE
  8
0
  6
LTYPE3
 62
     2
 10
123.5
 20
122.35
 30
0.0
 11
123.5
 21
36.35
 31
0.0
  0
LINE
  8
0
  6
LTYPE3
 62
     2
 10
36.0
 20
44.0
 30
0.0
 11
36.0
 21
38.8
 31
0.0
  0
LINE
  8
0
  6
LTYPE3
 62
     2
 10
123.5
 20
142.3
 30
0.0
 11
123.5
 21
167.95
 31
0.0
  0
ENDSEC
  0
EOF
