  0
SECTION
  2
HEADER
  9
$ACADVER
  1
AC1009
  9
$DWGCODEPAGE
  3
dos932
  9
$EXTMIN
 10
0.0
 20
0.0
 30
0.0
  9
$EXTMAX
 10
297.0
 20
210.0
 30
0.0
  9
$LIMMIN
 10
0.0
 20
0.0
  9
$LIMMAX
 10
297.0
 20
210.0
  9
$LTSCALE
 40
1.0
  9
$PDMODE
 70
     0
  0
ENDSEC
  0
SECTION
  2
TABLES
  0
TABLE
  2
VPORT
 70
     1
  0
VPORT
  2
*ACTIVE
 70
     0
 10
0.0
 20
0.0
 11
1.0
 21
1.0
 12
148.5
 22
105.0
 13
0.0
 23
0.0
 14
10.0
 24
10.0
 15
10.0
 25
10.0
 16
0.0
 26
0.0
 36
1.0
 17
0.0
 27
0.0
 37
0.0
 40
297.0
 41
1.414285714
 42
50.0
 43
0.0
 44
0.0
 50
0.0
 51
0.0
 71
     0
 72
  1000
 73
     1
 74
     3
 75
     0
 76
     0
 77
     0
 78
     0
  0
ENDTAB
  0
TABLE
  2
LTYPE
 70
     2
  0
LTYPE
  2
CONTINUOUS
 70
    64
  3
Solid line
 72
    65
 73
     0
 40
0.0
  0
LTYPE
  2
LTYPE1
 70
    64
  3
CENTER
 72
    65
 73
     4
 40
5.0
 49
3.5
 49
-0.5
 49
0.5
 49
-0.5
  0
ENDTAB
  0
TABLE
  2
LAYER
 70
   128
  0
LAYER
  2
0
 70
     0
 62
     7
  6
CONTINUOUS
  0
LAYER
  2
2
 70
     0
 62
     7
  6
CONTINUOUS
  0
LAYER
  2
3
 70
     0
 62
     7
  6
CONTINUOUS
  0
LAYER
  2
4
 70
     0
 62
     7
  6
CONTINUOUS
  0
LAYER
  2
5
 70
     0
 62
     7
  6
CONTINUOUS
  0
LAYER
  2
6
 70
     0
 62
     7
  6
CONTINUOUS
  0
LAYER
  2
7
 70
     0
 62
     7
  6
CONTINUOUS
  0
LAYER
  2
8
 70
     0
 62
     7
  6
CONTINUOUS
  0
LAYER
  2
9
 70
     0
 62
     7
  6
CONTINUOUS
  0
LAYER
  2
10
 70
     0
 62
     7
  6
CONTINUOUS
  0
LAYER
  2
11
 70
     0
 62
     7
  6
CONTINUOUS
  0
LAYER
  2
12
 70
     0
 62
     7
  6
CONTINUOUS
  0
LAYER
  2
13
 70
     0
 62
     7
  6
CONTINUOUS
  0
LAYER
  2
14
 70
     0
 62
     7
  6
CONTINUOUS
  0
LAYER
  2
15
 70
     0
 62
     7
  6
CONTINUOUS
  0
LAYER
  2
16
 70
     0
 62
     7
  6
CONTINUOUS
  0
LAYER
  2
17
 70
     0
 62
     7
  6
CONTINUOUS
  0
LAYER
  2
18
 70
     0
 62
     7
  6
CONTINUOUS
  0
LAYER
  2
19
 70
     0
 62
     7
  6
CONTINUOUS
  0
LAYER
  2
20
 70
     0
 62
     7
  6
CONTINUOUS
  0
LAYER
  2
21
 70
     0
 62
     7
  6
CONTINUOUS
  0
LAYER
  2
22
 70
     0
 62
     7
  6
CONTINUOUS
  0
LAYER
  2
23
 70
     0
 62
     7
  6
CONTINUOUS
  0
LAYER
  2
24
 70
     0
 62
     7
  6
CONTINUOUS
  0
LAYER
  2
25
 70
     0
 62
     7
  6
CONTINUOUS
  0
LAYER
  2
26
 70
     0
 62
     7
  6
CONTINUOUS
  0
LAYER
  2
27
 70
     0
 62
     7
  6
CONTINUOUS
  0
LAYER
  2
28
 70
     0
 62
     7
  6
CONTINUOUS
  0
LAYER
  2
29
 70
     0
 62
     7
  6
CONTINUOUS
  0
LAYER
  2
30
 70
     0
 62
     7
  6
CONTINUOUS
  0
LAYER
  2
31
 70
     0
 62
     7
  6
CONTINUOUS
  0
LAYER
  2
32
 70
     0
 62
     7
  6
CONTINUOUS
  0
LAYER
  2
33
 70
     0
 62
     7
  6
CONTINUOUS
  0
LAYER
  2
34
 70
     0
 62
     7
  6
CONTINUOUS
  0
LAYER
  2
35
 70
     0
 62
     7
  6
CONTINUOUS
  0
LAYER
  2
36
 70
     0
 62
     7
  6
CONTINUOUS
  0
LAYER
  2
37
 70
     0
 62
     7
  6
CONTINUOUS
  0
LAYER
  2
38
 70
     0
 62
     7
  6
CONTINUOUS
  0
LAYER
  2
39
 70
     0
 62
     7
  6
CONTINUOUS
  0
LAYER
  2
40
 70
     0
 62
     7
  6
CONTINUOUS
  0
LAYER
  2
41
 70
     0
 62
     7
  6
CONTINUOUS
  0
LAYER
  2
42
 70
     0
 62
     7
  6
CONTINUOUS
  0
LAYER
  2
43
 70
     0
 62
     7
  6
CONTINUOUS
  0
LAYER
  2
44
 70
     0
 62
     7
  6
CONTINUOUS
  0
LAYER
  2
45
 70
     0
 62
     7
  6
CONTINUOUS
  0
LAYER
  2
46
 70
     0
 62
     7
  6
CONTINUOUS
  0
LAYER
  2
47
 70
     0
 62
     7
  6
CONTINUOUS
  0
LAYER
  2
48
 70
     0
 62
     7
  6
CONTINUOUS
  0
LAYER
  2
49
 70
     0
 62
     7
  6
CONTINUOUS
  0
LAYER
  2
50
 70
     0
 62
     7
  6
CONTINUOUS
  0
LAYER
  2
51
 70
     0
 62
     7
  6
CONTINUOUS
  0
LAYER
  2
52
 70
     0
 62
     7
  6
CONTINUOUS
  0
LAYER
  2
53
 70
     0
 62
     7
  6
CONTINUOUS
  0
LAYER
  2
54
 70
     0
 62
     7
  6
CONTINUOUS
  0
LAYER
  2
55
 70
     0
 62
     7
  6
CONTINUOUS
  0
LAYER
  2
56
 70
     0
 62
     7
  6
CONTINUOUS
  0
LAYER
  2
57
 70
     0
 62
     7
  6
CONTINUOUS
  0
LAYER
  2
58
 70
     0
 62
     7
  6
CONTINUOUS
  0
LAYER
  2
59
 70
     0
 62
     7
  6
CONTINUOUS
  0
LAYER
  2
60
 70
     0
 62
     7
  6
CONTINUOUS
  0
LAYER
  2
61
 70
     0
 62
     7
  6
CONTINUOUS
  0
LAYER
  2
62
 70
     0
 62
     7
  6
CONTINUOUS
  0
LAYER
  2
63
 70
     0
 62
     7
  6
CONTINUOUS
  0
LAYER
  2
64
 70
     0
 62
     7
  6
CONTINUOUS
  0
LAYER
  2
65
 70
     0
 62
     7
  6
CONTINUOUS
  0
LAYER
  2
66
 70
     0
 62
     7
  6
CONTINUOUS
  0
LAYER
  2
67
 70
     0
 62
     7
  6
CONTINUOUS
  0
LAYER
  2
68
 70
     0
 62
     7
  6
CONTINUOUS
  0
LAYER
  2
69
 70
     0
 62
     7
  6
CONTINUOUS
  0
LAYER
  2
70
 70
     0
 62
     7
  6
CONTINUOUS
  0
LAYER
  2
71
 70
     0
 62
     7
  6
CONTINUOUS
  0
LAYER
  2
72
 70
     0
 62
     7
  6
CONTINUOUS
  0
LAYER
  2
73
 70
     0
 62
     7
  6
CONTINUOUS
  0
LAYER
  2
74
 70
     0
 62
     7
  6
CONTINUOUS
  0
LAYER
  2
75
 70
     0
 62
     7
  6
CONTINUOUS
  0
LAYER
  2
76
 70
     0
 62
     7
  6
CONTINUOUS
  0
LAYER
  2
77
 70
     0
 62
     7
  6
CONTINUOUS
  0
LAYER
  2
78
 70
     0
 62
     7
  6
CONTINUOUS
  0
LAYER
  2
79
 70
     0
 62
     7
  6
CONTINUOUS
  0
LAYER
  2
80
 70
     0
 62
     7
  6
CONTINUOUS
  0
LAYER
  2
81
 70
     0
 62
     7
  6
CONTINUOUS
  0
LAYER
  2
82
 70
     0
 62
     7
  6
CONTINUOUS
  0
LAYER
  2
83
 70
     0
 62
     7
  6
CONTINUOUS
  0
LAYER
  2
84
 70
     0
 62
     7
  6
CONTINUOUS
  0
LAYER
  2
85
 70
     0
 62
     7
  6
CONTINUOUS
  0
LAYER
  2
86
 70
     0
 62
     7
  6
CONTINUOUS
  0
LAYER
  2
87
 70
     0
 62
     7
  6
CONTINUOUS
  0
LAYER
  2
88
 70
     0
 62
     7
  6
CONTINUOUS
  0
LAYER
  2
89
 70
     0
 62
     7
  6
CONTINUOUS
  0
LAYER
  2
90
 70
     0
 62
     7
  6
CONTINUOUS
  0
LAYER
  2
91
 70
     0
 62
     7
  6
CONTINUOUS
  0
LAYER
  2
92
 70
     0
 62
     7
  6
CONTINUOUS
  0
LAYER
  2
93
 70
     0
 62
     7
  6
CONTINUOUS
  0
LAYER
  2
94
 70
     0
 62
     7
  6
CONTINUOUS
  0
LAYER
  2
95
 70
     0
 62
     7
  6
CONTINUOUS
  0
LAYER
  2
96
 70
     0
 62
     7
  6
CONTINUOUS
  0
LAYER
  2
97
 70
     0
 62
     7
  6
CONTINUOUS
  0
LAYER
  2
98
 70
     0
 62
     7
  6
CONTINUOUS
  0
LAYER
  2
99
 70
     0
 62
     7
  6
CONTINUOUS
  0
LAYER
  2
100
 70
     0
 62
     7
  6
CONTINUOUS
  0
LAYER
  2
101
 70
     0
 62
     7
  6
CONTINUOUS
  0
LAYER
  2
102
 70
     0
 62
     7
  6
CONTINUOUS
  0
LAYER
  2
103
 70
     0
 62
     7
  6
CONTINUOUS
  0
LAYER
  2
104
 70
     0
 62
     7
  6
CONTINUOUS
  0
LAYER
  2
105
 70
     0
 62
     7
  6
CONTINUOUS
  0
LAYER
  2
106
 70
     0
 62
     7
  6
CONTINUOUS
  0
LAYER
  2
107
 70
     0
 62
     7
  6
CONTINUOUS
  0
LAYER
  2
108
 70
     0
 62
     7
  6
CONTINUOUS
  0
LAYER
  2
109
 70
     0
 62
     7
  6
CONTINUOUS
  0
LAYER
  2
110
 70
     0
 62
     7
  6
CONTINUOUS
  0
LAYER
  2
111
 70
     0
 62
     7
  6
CONTINUOUS
  0
LAYER
  2
112
 70
     0
 62
     7
  6
CONTINUOUS
  0
LAYER
  2
113
 70
     0
 62
     7
  6
CONTINUOUS
  0
LAYER
  2
114
 70
     0
 62
     7
  6
CONTINUOUS
  0
LAYER
  2
115
 70
     0
 62
     7
  6
CONTINUOUS
  0
LAYER
  2
116
 70
     0
 62
     7
  6
CONTINUOUS
  0
LAYER
  2
117
 70
     0
 62
     7
  6
CONTINUOUS
  0
LAYER
  2
118
 70
     0
 62
     7
  6
CONTINUOUS
  0
LAYER
  2
119
 70
     0
 62
     7
  6
CONTINUOUS
  0
LAYER
  2
120
 70
     0
 62
     7
  6
CONTINUOUS
  0
LAYER
  2
121
 70
     0
 62
     7
  6
CONTINUOUS
  0
LAYER
  2
122
 70
     0
 62
     7
  6
CONTINUOUS
  0
LAYER
  2
123
 70
     0
 62
     7
  6
CONTINUOUS
  0
LAYER
  2
124
 70
     0
 62
     7
  6
CONTINUOUS
  0
LAYER
  2
125
 70
     0
 62
     7
  6
CONTINUOUS
  0
LAYER
  2
126
 70
     0
 62
     7
  6
CONTINUOUS
  0
LAYER
  2
127
 70
     0
 62
     7
  6
CONTINUOUS
  0
LAYER
  2
128
 70
     0
 62
     7
  6
CONTINUOUS
  0
ENDTAB
  0
TABLE
  2
STYLE
 70
    20
  0
STYLE
  2
STANDARD
 70
     0
 40
0.0
 41
1.0
 50
0.0
 71
     0
 42
0.2
  3
txt.shx
  4
extfont.shx
  0
STYLE
  2
KANJI0
 70
     0
 40
3.0
 41
0.666666667
 50
0.0
 71
     0
 42
3.0
  3
txt.shx
  4
extfont.shx
  0
STYLE
  2
KANJI1
 70
     0
 40
3.0
 41
0.9
 50
0.0
 71
     0
 42
3.0
  3
txt.shx
  4
extfont.shx
  0
STYLE
  2
KANJI2
 70
     0
 40
3.0
 41
0.45
 50
0.0
 71
     0
 42
3.0
  3
txt.shx
  4
extfont.shx
  0
STYLE
  2
KANJI3
 70
     0
 40
1.8
 41
0.6
 50
0.0
 71
     0
 42
1.8
  3
txt.shx
  4
extfont.shx
  0
STYLE
  2
KANJI4
 70
     0
 40
4.0
 41
0.75
 50
0.0
 71
     0
 42
4.0
  3
txt.shx
  4
extfont.shx
  0
STYLE
  2
KANJI5
 70
     0
 40
3.0
 41
0.75
 50
0.0
 71
     0
 42
3.0
  3
txt.shx
  4
extfont.shx
  0
STYLE
  2
KANJI6
 70
     0
 40
2.8
 41
1.0
 50
0.0
 71
     0
 42
2.8
  3
txt.shx
  4
extfont.shx
  0
STYLE
  2
KANJI7
 70
     0
 40
3.0
 41
0.6
 50
0.0
 71
     0
 42
3.0
  3
txt.shx
  4
extfont.shx
  0
STYLE
  2
KANJI8
 70
     0
 40
3.0
 41
0.45
 50
0.0
 71
     0
 42
3.0
  3
txt.shx
  4
extfont.shx
  0
STYLE
  2
KANJI9
 70
     0
 40
2.0
 41
0.9
 50
0.0
 71
     0
 42
2.0
  3
txt.shx
  4
extfont.shx
  0
STYLE
  2
KANJI10
 70
     0
 40
1.5
 41
0.9
 50
0.0
 71
     0
 42
1.5
  3
txt.shx
  4
extfont.shx
  0
STYLE
  2
KANJI11
 70
     0
 40
3.0
 41
0.6
 50
0.0
 71
     0
 42
3.0
  3
txt.shx
  4
extfont.shx
  0
STYLE
  2
KANJI12
 70
     0
 40
2.8
 41
0.714285714
 50
0.0
 71
     0
 42
2.8
  3
txt.shx
  4
extfont.shx
  0
STYLE
  2
KANJI13
 70
     0
 40
1.44
 41
0.6
 50
0.0
 71
     0
 42
1.44
  3
txt.shx
  4
extfont.shx
  0
STYLE
  2
KANJI14
 70
     0
 40
1.5
 41
1.0
 50
0.0
 71
     0
 42
1.5
  3
txt.shx
  4
extfont.shx
  0
STYLE
  2
KANJI15
 70
     0
 40
1.728
 41
0.6
 50
0.0
 71
     0
 42
1.728
  3
txt.shx
  4
extfont.shx
  0
STYLE
  2
KANJI16
 70
     0
 40
6.0
 41
0.9
 50
0.0
 71
     0
 42
6.0
  3
txt.shx
  4
extfont.shx
  0
STYLE
  2
KANJI17
 70
     0
 40
4.0
 41
0.9
 50
0.0
 71
     0
 42
4.0
  3
txt.shx
  4
extfont.shx
  0
STYLE
  2
KANJI18
 70
     0
 40
4.0
 41
0.8
 50
0.0
 71
     0
 42
4.0
  3
txt.shx
  4
extfont.shx
  0
ENDTAB
  0
TABLE
  2
VIEW
 70
     0
  0
ENDTAB
  0
ENDSEC
  0
SECTION
  2
BLOCKS
  0
ENDSEC
  0
SECTION
  2
ENTITIES
  0
TEXT
  8
0
  6
CONTINUOUS
 62
     2
 10
140.46
 20
92.97
 30
0.1
 40
3.0
  1
注）１，（　）内寸法は，ＡＥｆ－１００形シールドケース付の場合を示します。
 50
0.0
 41
0.666666667
 51
0.0
  7
KANJI0
  0
TEXT
  8
0
  6
CONTINUOUS
 62
     2
 10
144.46
 20
87.27
 30
0.1
 40
3.0
  1
２，連結の場合は下記による。
 50
0.0
 41
0.666666667
 51
0.0
  7
KANJI0
  0
TEXT
  8
0
  6
CONTINUOUS
 62
     2
 10
150.46
 20
75.97
 30
0.3
 40
3.0
  1
２連結
 50
0.0
 41
0.9
 51
0.0
  7
KANJI1
  0
TEXT
  8
0
  6
CONTINUOUS
 62
     2
 10
150.46
 20
70.97
 30
0.3
 40
3.0
  1
３連結
 50
0.0
 41
0.9
 51
0.0
  7
KANJI1
  0
TEXT
  8
0
  6
CONTINUOUS
 62
     2
 10
150.46
 20
65.97
 30
0.3
 40
3.0
  1
Ｎ連結
 50
0.0
 41
0.9
 51
0.0
  7
KANJI1
  0
LINE
  8
0
  6
CONTINUOUS
 62
     2
 10
160.46
 20
84.97
 30
0.0
 11
160.46
 21
64.97
 31
0.0
  0
TEXT
  8
0
  6
CONTINUOUS
 62
     2
 10
161.46
 20
65.97
 30
0.3
 40
3.0
  1
（３０．１５×Ｎ）＋１．５
 50
0.0
 41
0.9
 51
0.0
  7
KANJI1
  0
LINE
  8
0
  6
CONTINUOUS
 62
     2
 10
186.46
 20
84.97
 30
0.0
 11
186.46
 21
64.97
 31
0.0
  0
TEXT
  8
0
  6
CONTINUOUS
 62
     2
 10
187.46
 20
80.97
 30
0.3
 40
3.0
  1
ＡＥｆ－１００Ｙ
 50
0.0
 41
0.9
 51
0.0
  7
KANJI1
  0
LINE
  8
0
  6
CONTINUOUS
 62
     2
 10
149.46
 20
84.97
 30
0.0
 11
212.46
 21
84.97
 31
0.0
  0
LINE
  8
0
  6
CONTINUOUS
 62
     2
 10
149.46
 20
79.97
 30
0.0
 11
212.46
 21
79.97
 31
0.0
  0
LINE
  8
0
  6
CONTINUOUS
 62
     2
 10
149.46
 20
74.97
 30
0.0
 11
212.46
 21
74.97
 31
0.0
  0
LINE
  8
0
  6
CONTINUOUS
 62
     2
 10
149.46
 20
69.97
 30
0.0
 11
212.46
 21
69.97
 31
0.0
  0
LINE
  8
0
  6
CONTINUOUS
 62
     2
 10
149.46
 20
64.97
 30
0.0
 11
212.46
 21
64.97
 31
0.0
  0
TEXT
  8
0
  6
CONTINUOUS
 62
     2
 10
163.46
 20
80.97
 30
0.3
 40
3.0
  1
右記以外の計器
 50
0.0
 41
0.9
 51
0.0
  7
KANJI1
  0
TEXT
  8
0
  6
CONTINUOUS
 62
     2
 10
167.46
 20
75.97
 30
0.3
 40
3.0
  1
６１．５
 50
0.0
 41
0.45
 51
0.0
  7
KANJI2
  0
TEXT
  8
0
  6
CONTINUOUS
 62
     2
 10
174.81
 20
75.97
 30
0.18
 40
1.8
  1
－０
 50
0.0
 41
0.6
 51
0.0
  7
KANJI3
  0
TEXT
  8
0
  6
CONTINUOUS
 62
     2
 10
174.81
 20
77.77
 30
0.18
 40
1.8
  1
＋０．５
 50
0.0
 41
0.6
 51
0.0
  7
KANJI3
  0
TEXT
  8
0
  6
CONTINUOUS
 62
     2
 10
169.46
 20
70.97
 30
0.3
 40
3.0
  1
９２
 50
0.0
 41
0.45
 51
0.0
  7
KANJI2
  0
TEXT
  8
0
  6
CONTINUOUS
 62
     2
 10
173.31
 20
70.97
 30
0.18
 40
1.8
  1
－０
 50
0.0
 41
0.6
 51
0.0
  7
KANJI3
  0
TEXT
  8
0
  6
CONTINUOUS
 62
     2
 10
173.31
 20
72.77
 30
0.18
 40
1.8
  1
＋０．５
 50
0.0
 41
0.6
 51
0.0
  7
KANJI3
  0
TEXT
  8
0
  6
CONTINUOUS
 62
     2
 10
199.31
 20
75.97
 30
0.18
 40
1.8
  1
－０
 50
0.0
 41
0.6
 51
0.0
  7
KANJI3
  0
TEXT
  8
0
  6
CONTINUOUS
 62
     2
 10
199.31
 20
77.77
 30
0.18
 40
1.8
  1
＋０．５
 50
0.0
 41
0.6
 51
0.0
  7
KANJI3
  0
TEXT
  8
0
  6
CONTINUOUS
 62
     2
 10
200.81
 20
70.97
 30
0.18
 40
1.8
  1
－０
 50
0.0
 41
0.6
 51
0.0
  7
KANJI3
  0
TEXT
  8
0
  6
CONTINUOUS
 62
     2
 10
200.81
 20
72.77
 30
0.18
 40
1.8
  1
＋０．５
 50
0.0
 41
0.6
 51
0.0
  7
KANJI3
  0
TEXT
  8
0
  6
CONTINUOUS
 62
     2
 10
195.46
 20
75.97
 30
0.3
 40
3.0
  1
６５
 50
0.0
 41
0.45
 51
0.0
  7
KANJI2
  0
TEXT
  8
0
  6
CONTINUOUS
 62
     2
 10
193.46
 20
70.97
 30
0.3
 40
3.0
  1
９７．５
 50
0.0
 41
0.45
 51
0.0
  7
KANJI2
  0
TEXT
  8
0
  6
CONTINUOUS
 62
     2
 10
194.46
 20
65.97
 30
0.3
 40
3.0
  1
３２．５×Ｎ
 50
0.0
 41
0.9
 51
0.0
  7
KANJI1
  0
LINE
  8
0
  6
CONTINUOUS
 62
     2
 10
138.36
 20
53.27
 30
0.0
 11
163.36
 21
53.27
 31
0.0
  0
TEXT
  8
0
  6
CONTINUOUS
 62
     6
 10
139.16
 20
54.37
 30
0.3
 40
4.0
  1
計器の取付け方
 50
0.0
 41
0.75
 51
0.0
  7
KANJI4
  0
TEXT
  8
0
  6
CONTINUOUS
 62
     2
 10
139.16
 20
46.57
 30
0.2
 40
3.0
  1
１，計器本体から取り付け金具を取り外す。（上下２箇所）
 50
0.0
 41
0.75
 51
0.0
  7
KANJI5
  0
TEXT
  8
0
  6
CONTINUOUS
 62
     2
 10
139.16
 20
41.471
 30
0.2
 40
3.0
  1
２，パネルカット後，パネル前面から計器をはめ込む。
 50
0.0
 41
0.75
 51
0.0
  7
KANJI5
  0
TEXT
  8
0
  6
CONTINUOUS
 62
     2
 10
139.46
 20
31.319
 30
0.2
 40
3.0
  1
４，Ｍ４×４５押ネジでパネル面を押しつけて固定する。
 50
0.0
 41
0.75
 51
0.0
  7
KANJI5
  0
TEXT
  8
0
  6
CONTINUOUS
 62
     2
 10
139.46
 20
26.071
 30
0.2
 40
3.0
  1
５，Ｍ４ナットでロックする。
 50
0.0
 41
0.75
 51
0.0
  7
KANJI5
  0
TEXT
  8
0
  6
CONTINUOUS
 62
     2
 10
139.46
 20
36.366
 30
0.2
 40
3.0
  1
３，計器本体に取外した取付金具をＭ４ネジで止める。
 50
0.0
 41
0.75
 51
0.0
  7
KANJI5
  0
LINE
  8
0
  6
CONTINUOUS
 62
     2
 10
210.16
 20
173.02
 30
0.0
 11
244.76
 21
173.02
 31
0.0
  0
TEXT
  8
0
  6
CONTINUOUS
 62
     2
 10
210.16
 20
174.02
 30
0.1
 40
3.0
  1
ＤＥｆ－１００形のみ　　表示します
 50
0.0
 41
0.666666667
 51
0.0
  7
KANJI0
  0
CIRCLE
  8
0
  6
CONTINUOUS
 62
     2
 10
232.26
 20
175.37
 30
0.0
 40
1.5
  0
TEXT
  8
0
  6
CONTINUOUS
 62
     2
 10
230.86
 20
174.07
 30
0.093333333
 40
2.8
  1
＋
 50
0.0
 41
1.0
 51
0.0
  7
KANJI6
  0
POLYLINE
  8
0
  6
CONTINUOUS
 62
     1
 66
     1
  0
VERTEX
  8
0
  6
CONTINUOUS
 62
     1
 10
94.2455
 20
109.0
 30
0.0
  0
VERTEX
  8
0
  6
CONTINUOUS
 62
     1
 10
97.2455
 20
109.0
 30
0.0
  0
VERTEX
  8
0
  6
CONTINUOUS
 62
     1
 10
97.2455
 20
159.0
 30
0.0
  0
VERTEX
  8
0
  6
CONTINUOUS
 62
     1
 10
94.2455
 20
159.0
 30
0.0
  0
SEQEND
  0
LINE
  8
0
  6
CONTINUOUS
 62
     1
 10
97.4955
 20
109.0
 30
0.0
 11
97.4955
 21
158.95
 31
0.0
  0
LINE
  8
0
  6
CONTINUOUS
 62
     1
 10
97.4955
 20
157.95
 30
0.0
 11
113.7955
 21
157.95
 31
0.0
  0
LINE
  8
0
  6
CONTINUOUS
 62
     1
 10
113.7455
 20
110.0
 30
0.0
 11
97.5455
 21
110.0
 31
0.0
  0
LINE
  8
0
  6
CONTINUOUS
 62
     1
 10
149.7455
 20
121.5
 30
0.0
 11
113.7455
 21
118.4
 31
0.0
  0
LINE
  8
0
  6
CONTINUOUS
 62
     1
 10
149.7455
 20
131.5
 30
0.0
 11
149.7455
 21
121.5
 31
0.0
  0
LINE
  8
0
  6
CONTINUOUS
 62
     1
 10
149.7455
 20
136.5
 30
0.0
 11
149.7455
 21
146.5
 31
0.0
  0
LINE
  8
0
  6
CONTINUOUS
 62
     1
 10
149.7455
 20
136.5
 30
0.0
 11
148.7455
 21
136.5
 31
0.0
  0
LINE
  8
0
  6
CONTINUOUS
 62
     1
 10
148.7455
 20
136.5
 30
0.0
 11
148.7455
 21
131.6
 31
0.0
  0
LINE
  8
0
  6
CONTINUOUS
 62
     1
 10
148.7455
 20
131.6
 30
0.0
 11
149.7455
 21
131.6
 31
0.0
  0
ARC
  8
0
  6
CONTINUOUS
 62
     1
 10
162.2455
 20
134.0
 30
0.0
 40
72.5
 50
160.0
 51
200.0
  0
LINE
  8
0
  6
CONTINUOUS
 62
     1
 10
92.517139
 20
114.5
 30
0.0
 11
94.2455
 21
115.25
 31
0.0
  0
LINE
  8
0
  6
CONTINUOUS
 62
     1
 10
94.2455
 20
115.25
 30
0.0
 11
94.2455
 21
152.75
 31
0.0
  0
LINE
  8
0
  6
CONTINUOUS
 62
     1
 10
94.2455
 20
152.75
 30
0.0
 11
92.417139
 21
153.5
 31
0.0
  0
LINE
  8
0
  6
CONTINUOUS
 62
     1
 10
109.7455
 20
157.95
 30
0.0
 11
109.7455
 21
110.05
 31
0.0
  0
LINE
  8
0
  6
CONTINUOUS
 62
     1
 10
97.5955
 20
135.6
 30
0.0
 11
109.6955
 21
135.6
 31
0.0
  0
LINE
  8
0
  6
CONTINUOUS
 62
     1
 10
109.6955
 20
132.6
 30
0.0
 11
97.5955
 21
132.6
 31
0.0
  0
LINE
  8
0
  6
CONTINUOUS
 62
     1
 10
100.7455
 20
132.8
 30
0.0
 11
100.7455
 21
135.5
 31
0.0
  0
LINE
  8
0
  6
CONTINUOUS
 62
     1
 10
113.7455
 20
116.67
 30
0.0
 11
112.2455
 21
116.67
 31
0.0
  0
LINE
  8
0
  6
CONTINUOUS
 62
     1
 10
112.2455
 20
116.67
 30
0.0
 11
112.2455
 21
111.43
 31
0.0
  0
LINE
  8
0
  6
CONTINUOUS
 62
     1
 10
112.2455
 20
111.43
 30
0.0
 11
113.7455
 21
111.43
 31
0.0
  0
LINE
  8
0
  6
CONTINUOUS
 62
     1
 10
113.7955
 20
156.62
 30
0.0
 11
112.2955
 21
156.62
 31
0.0
  0
LINE
  8
0
  6
CONTINUOUS
 62
     1
 10
112.2955
 20
156.62
 30
0.0
 11
112.2955
 21
151.37
 31
0.0
  0
LINE
  8
0
  6
CONTINUOUS
 62
     1
 10
112.2955
 20
151.37
 30
0.0
 11
113.7055
 21
151.37
 31
0.0
  0
ARC
  8
0
  6
CONTINUOUS
 62
     1
 10
114.3455
 20
155.0
 30
0.0
 40
0.75
 50
0.0
 51
90.0
  0
ARC
  8
0
  6
CONTINUOUS
 62
     1
 10
114.3455
 20
153.05
 30
0.0
 40
0.75
 50
270.0
 51
0.0
  0
LINE
  8
0
  6
CONTINUOUS
 62
     1
 10
115.0955
 20
153.05
 30
0.0
 11
115.0955
 21
155.0
 31
0.0
  0
LINE
  8
0
  6
CONTINUOUS
 62
     1
 10
114.3455
 20
155.75
 30
0.0
 11
113.7955
 21
155.75
 31
0.0
  0
LINE
  8
0
  6
CONTINUOUS
 62
     1
 10
113.7955
 20
155.75
 30
0.0
 11
113.7955
 21
152.3
 31
0.0
  0
LINE
  8
0
  6
CONTINUOUS
 62
     1
 10
113.7955
 20
152.3
 30
0.0
 11
114.3455
 21
152.3
 31
0.0
  0
LINE
  8
0
  6
CONTINUOUS
 62
     1
 10
115.0955
 20
154.2
 30
0.0
 11
114.6955
 21
154.2
 31
0.0
  0
LINE
  8
0
  6
CONTINUOUS
 62
     1
 10
114.6955
 20
154.2
 30
0.0
 11
114.6955
 21
153.85
 31
0.0
  0
LINE
  8
0
  6
CONTINUOUS
 62
     1
 10
114.6955
 20
153.85
 30
0.0
 11
115.0955
 21
153.85
 31
0.0
  0
ARC
  8
0
  6
CONTINUOUS
 62
     1
 10
114.2955
 20
115.0
 30
0.0
 40
0.75
 50
0.0
 51
90.0
  0
ARC
  8
0
  6
CONTINUOUS
 62
     1
 10
114.2955
 20
113.05
 30
0.0
 40
0.75
 50
270.0
 51
0.0
  0
LINE
  8
0
  6
CONTINUOUS
 62
     1
 10
115.0455
 20
113.05
 30
0.0
 11
115.0455
 21
115.0
 31
0.0
  0
LINE
  8
0
  6
CONTINUOUS
 62
     1
 10
114.2955
 20
115.75
 30
0.0
 11
113.7455
 21
115.75
 31
0.0
  0
LINE
  8
0
  6
CONTINUOUS
 62
     1
 10
113.7455
 20
115.75
 30
0.0
 11
113.7455
 21
112.3
 31
0.0
  0
LINE
  8
0
  6
CONTINUOUS
 62
     1
 10
113.7455
 20
112.3
 30
0.0
 11
114.2955
 21
112.3
 31
0.0
  0
LINE
  8
0
  6
CONTINUOUS
 62
     1
 10
115.0455
 20
114.2
 30
0.0
 11
114.6455
 21
114.2
 31
0.0
  0
LINE
  8
0
  6
CONTINUOUS
 62
     1
 10
114.6455
 20
114.2
 30
0.0
 11
114.6455
 21
113.85
 31
0.0
  0
LINE
  8
0
  6
CONTINUOUS
 62
     1
 10
114.6455
 20
113.85
 30
0.0
 11
115.0455
 21
113.85
 31
0.0
  0
ARC
  8
0
  6
CONTINUOUS
 62
     1
 10
153.9455
 20
141.25
 30
0.0
 40
0.75
 50
0.0
 51
90.0
  0
ARC
  8
0
  6
CONTINUOUS
 62
     1
 10
153.9455
 20
139.3
 30
0.0
 40
0.75
 50
270.0
 51
0.0
  0
LINE
  8
0
  6
CONTINUOUS
 62
     1
 10
154.6955
 20
139.3
 30
0.0
 11
154.6955
 21
141.25
 31
0.0
  0
LINE
  8
0
  6
CONTINUOUS
 62
     1
 10
153.9455
 20
142.0
 30
0.0
 11
153.3955
 21
142.0
 31
0.0
  0
LINE
  8
0
  6
CONTINUOUS
 62
     1
 10
153.3955
 20
142.0
 30
0.0
 11
153.3955
 21
138.55
 31
0.0
  0
LINE
  8
0
  6
CONTINUOUS
 62
     1
 10
153.3955
 20
138.55
 30
0.0
 11
153.9455
 21
138.55
 31
0.0
  0
LINE
  8
0
  6
CONTINUOUS
 62
     1
 10
154.6955
 20
140.45
 30
0.0
 11
154.2955
 21
140.45
 31
0.0
  0
LINE
  8
0
  6
CONTINUOUS
 62
     1
 10
154.2955
 20
140.45
 30
0.0
 11
154.2955
 21
140.1
 31
0.0
  0
LINE
  8
0
  6
CONTINUOUS
 62
     1
 10
154.2955
 20
140.1
 30
0.0
 11
154.6955
 21
140.1
 31
0.0
  0
ARC
  8
0
  6
CONTINUOUS
 62
     1
 10
154.0455
 20
128.7
 30
0.0
 40
0.75
 50
0.0
 51
90.0
  0
ARC
  8
0
  6
CONTINUOUS
 62
     1
 10
154.0455
 20
126.75
 30
0.0
 40
0.75
 50
270.0
 51
0.0
  0
LINE
  8
0
  6
CONTINUOUS
 62
     1
 10
154.7955
 20
126.75
 30
0.0
 11
154.7955
 21
128.7
 31
0.0
  0
LINE
  8
0
  6
CONTINUOUS
 62
     1
 10
154.0455
 20
129.45
 30
0.0
 11
153.4955
 21
129.45
 31
0.0
  0
LINE
  8
0
  6
CONTINUOUS
 62
     1
 10
153.4955
 20
129.45
 30
0.0
 11
153.4955
 21
126.0
 31
0.0
  0
LINE
  8
0
  6
CONTINUOUS
 62
     1
 10
153.4955
 20
126.0
 30
0.0
 11
154.0455
 21
126.0
 31
0.0
  0
LINE
  8
0
  6
CONTINUOUS
 62
     1
 10
154.7955
 20
127.9
 30
0.0
 11
154.3955
 21
127.9
 31
0.0
  0
LINE
  8
0
  6
CONTINUOUS
 62
     1
 10
154.3955
 20
127.9
 30
0.0
 11
154.3955
 21
127.55
 31
0.0
  0
LINE
  8
0
  6
CONTINUOUS
 62
     1
 10
154.3955
 20
127.55
 30
0.0
 11
154.7955
 21
127.55
 31
0.0
  0
POINT
  8
0
  6
CONTINUOUS
 62
     1
 10
153.4455
 20
129.45
 30
0.0
  0
POINT
  8
0
  6
CONTINUOUS
 62
     1
 10
153.4455
 20
129.45
 30
0.0
  0
POINT
  8
0
  6
CONTINUOUS
 62
     1
 10
153.4455
 20
129.45
 30
0.0
  0
POINT
  8
0
  6
CONTINUOUS
 62
     1
 10
153.4455
 20
129.45
 30
0.0
  0
POINT
  8
0
  6
CONTINUOUS
 62
     1
 10
153.4455
 20
129.45
 30
0.0
  0
POINT
  8
0
  6
CONTINUOUS
 62
     1
 10
153.4455
 20
129.45
 30
0.0
  0
POINT
  8
0
  6
CONTINUOUS
 62
     1
 10
153.4455
 20
129.45
 30
0.0
  0
POINT
  8
0
  6
CONTINUOUS
 62
     1
 10
153.4455
 20
129.45
 30
0.0
  0
POINT
  8
0
  6
CONTINUOUS
 62
     1
 10
153.4455
 20
129.45
 30
0.0
  0
POINT
  8
0
  6
CONTINUOUS
 62
     1
 10
153.4455
 20
129.45
 30
0.0
  0
POINT
  8
0
  6
CONTINUOUS
 62
     1
 10
153.4455
 20
129.45
 30
0.0
  0
POINT
  8
0
  6
CONTINUOUS
 62
     1
 10
153.4455
 20
129.45
 30
0.0
  0
POINT
  8
0
  6
CONTINUOUS
 62
     1
 10
153.4455
 20
129.45
 30
0.0
  0
POINT
  8
0
  6
CONTINUOUS
 62
     1
 10
153.4455
 20
129.45
 30
0.0
  0
LINE
  8
0
  6
CONTINUOUS
 62
     1
 10
153.4455
 20
129.45
 30
0.0
 11
153.0455
 21
129.45
 31
0.0
  0
LINE
  8
0
  6
CONTINUOUS
 62
     1
 10
153.0455
 20
129.45
 30
0.0
 11
153.0455
 21
126.0
 31
0.0
  0
POINT
  8
0
  6
CONTINUOUS
 62
     1
 10
153.0455
 20
126.0
 30
0.0
  0
LINE
  8
0
  6
CONTINUOUS
 62
     1
 10
153.0455
 20
126.0
 30
0.0
 11
153.3955
 21
126.0
 31
0.0
  0
LINE
  8
0
  6
CONTINUOUS
 62
     1
 10
152.9955
 20
129.5
 30
0.0
 11
149.7455
 21
129.5
 31
0.0
  0
LINE
  8
0
  6
CONTINUOUS
 62
     1
 10
149.7455
 20
126.0
 30
0.0
 11
152.9455
 21
126.0
 31
0.0
  0
LINE
  8
0
  6
CONTINUOUS
 62
     1
 10
153.3455
 20
142.0
 30
0.0
 11
149.7455
 21
142.0
 31
0.0
  0
LINE
  8
0
  6
CONTINUOUS
 62
     1
 10
149.7455
 20
138.5
 30
0.0
 11
153.3955
 21
138.5
 31
0.0
  0
LINE
  8
0
  6
CONTINUOUS
 62
     1
 10
152.9955
 20
138.5
 30
0.0
 11
152.9955
 21
142.0
 31
0.0
  0
LINE
  8
0
  6
CONTINUOUS
 62
     1
 10
149.7455
 20
146.5
 30
0.0
 11
113.7955
 21
149.813826816
 31
0.0
  0
LINE
  8
0
  6
CONTINUOUS
 62
     1
 10
113.7955
 20
157.95
 30
0.0
 11
113.7955
 21
149.813826816
 31
0.0
  0
LINE
  8
0
  6
CONTINUOUS
 62
     1
 10
113.7455
 20
118.4
 30
0.0
 11
113.7455
 21
110.0
 31
0.0
  0
LINE
  8
0
  6
CONTINUOUS
 62
     2
 10
89.7455
 20
134.500008741
 30
0.0
 11
89.7455
 21
176.000008741
 31
0.0
  0
LINE
  8
0
  6
CONTINUOUS
 62
     2
 10
89.7455
 20
174.000008741
 30
0.0
 11
92.160314566
 21
173.352961128
 31
0.0
  0
LINE
  8
0
  6
CONTINUOUS
 62
     2
 10
89.7455
 20
174.000008741
 30
0.0
 11
92.160314566
 21
174.647056353
 31
0.0
  0
LINE
  8
0
  6
CONTINUOUS
 62
     2
 10
89.7455
 20
174.000008741
 30
0.0
 11
97.4955
 21
174.000008741
 31
0.0
  0
LINE
  8
0
  6
CONTINUOUS
 62
     2
 10
97.4955
 20
174.000008741
 30
0.0
 11
95.080685434
 21
174.647056353
 31
0.0
  0
LINE
  8
0
  6
CONTINUOUS
 62
     2
 10
97.4955
 20
174.000008741
 30
0.0
 11
95.080685434
 21
173.352961128
 31
0.0
  0
LINE
  8
0
  6
CONTINUOUS
 62
     2
 10
97.4955
 20
159.15
 30
0.0
 11
97.4955
 21
176.000008741
 31
0.0
  0
LINE
  8
0
  6
CONTINUOUS
 62
     2
 10
97.4955
 20
174.025008741
 30
0.0
 11
99.910314566
 21
173.377961128
 31
0.0
  0
LINE
  8
0
  6
CONTINUOUS
 62
     2
 10
97.4955
 20
174.025008741
 30
0.0
 11
99.910314566
 21
174.672056353
 31
0.0
  0
LINE
  8
0
  6
CONTINUOUS
 62
     2
 10
149.7455
 20
174.045
 30
0.0
 11
147.330685434
 21
174.692047613
 31
0.0
  0
LINE
  8
0
  6
CONTINUOUS
 62
     2
 10
149.7455
 20
174.045
 30
0.0
 11
147.330685434
 21
173.397952387
 31
0.0
  0
TEXT
  8
0
  6
CONTINUOUS
 62
     2
 10
150.2705
 20
175.045
 30
0.3
 40
3.0
  1
１０
 50
0.0
 41
0.6
 51
0.0
  7
KANJI7
  0
LINE
  8
0
  6
CONTINUOUS
 62
     2
 10
150.2455
 20
146.5
 30
0.0
 11
164.2455
 21
146.5
 31
0.0
  0
LINE
  8
0
  6
CONTINUOUS
 62
     2
 10
162.2455
 20
146.5
 30
0.0
 11
161.598452387
 21
144.085185434
 31
0.0
  0
LINE
  8
0
  6
CONTINUOUS
 62
     2
 10
162.2455
 20
146.5
 30
0.0
 11
162.892547613
 21
144.085185434
 31
0.0
  0
LINE
  8
0
  6
CONTINUOUS
 62
     2
 10
162.2455
 20
146.5
 30
0.0
 11
162.2455
 21
121.5
 31
0.0
  0
LINE
  8
0
  6
CONTINUOUS
 62
     2
 10
162.2455
 20
121.5
 30
0.0
 11
162.892547613
 21
123.914814566
 31
0.0
  0
LINE
  8
0
  6
CONTINUOUS
 62
     2
 10
162.2455
 20
121.5
 30
0.0
 11
161.598452387
 21
123.914814566
 31
0.0
  0
LINE
  8
0
  6
CONTINUOUS
 62
     2
 10
150.2455
 20
121.5
 30
0.0
 11
164.2455
 21
121.5
 31
0.0
  0
TEXT
  8
0
  6
CONTINUOUS
 62
     2
 10
161.2455
 20
132.05
 30
0.3
 40
3.0
  1
５０
 50
90.0
 41
0.6
 51
0.0
  7
KANJI7
  0
LINE
  8
0
  6
CONTINUOUS
 62
     2
 10
114.7705
 20
118.4
 30
0.0
 11
122.1705
 21
118.4
 31
0.0
  0
LINE
  8
0
  6
CONTINUOUS
 62
     2
 10
120.1705
 20
118.4
 30
0.0
 11
120.817547613
 21
120.814814566
 31
0.0
  0
LINE
  8
0
  6
CONTINUOUS
 62
     2
 10
120.1705
 20
118.4
 30
0.0
 11
119.523452387
 21
120.814814566
 31
0.0
  0
LINE
  8
0
  6
CONTINUOUS
 62
     2
 10
120.1705
 20
118.4
 30
0.0
 11
120.1705
 21
149.913826816
 31
0.0
  0
LINE
  8
0
  6
CONTINUOUS
 62
     2
 10
120.1705
 20
149.913826816
 30
0.0
 11
119.523452387
 21
147.49901225
 31
0.0
  0
LINE
  8
0
  6
CONTINUOUS
 62
     2
 10
120.1705
 20
149.913826816
 30
0.0
 11
120.817547613
 21
147.49901225
 31
0.0
  0
LINE
  8
0
  6
CONTINUOUS
 62
     2
 10
114.7955
 20
149.913826816
 30
0.0
 11
122.1705
 21
149.913826816
 31
0.0
  0
LINE
  8
0
  6
CONTINUOUS
 62
     2
 10
115.0055
 20
113.4
 30
0.0
 11
115.527438491
 21
110.955090961
 31
0.0
  0
LINE
  8
0
  6
CONTINUOUS
 62
     2
 10
115.0055
 20
113.4
 30
0.0
 11
116.679966512
 21
111.543615907
 31
0.0
  0
TEXT
  8
0
  6
CONTINUOUS
 62
     2
 10
122.2055
 20
100.3
 30
0.3
 40
3.0
  1
Ｍ４取付ネジ
 50
0.0
 41
0.6
 51
0.0
  7
KANJI7
  0
CIRCLE
  8
0
  6
CONTINUOUS
 62
     2
 10
103.6455
 20
154.55
 30
0.0
 40
1.5
  0
LINE
  8
0
  6
CONTINUOUS
 62
     2
 10
102.7705
 20
154.75
 30
0.0
 11
103.2455
 21
154.75
 31
0.0
  0
ARC
  8
0
  6
CONTINUOUS
 62
     2
 10
103.2455
 20
154.95
 30
0.0
 40
0.2
 50
270.0
 51
0.0
  0
LINE
  8
0
  6
CONTINUOUS
 62
     2
 10
103.4455
 20
154.95
 30
0.0
 11
103.4455
 21
155.425
 31
0.0
  0
LINE
  8
0
  6
CONTINUOUS
 62
     2
 10
103.4455
 20
155.425
 30
0.0
 11
103.8455
 21
155.425
 31
0.0
  0
LINE
  8
0
  6
CONTINUOUS
 62
     2
 10
103.8455
 20
155.425
 30
0.0
 11
103.8455
 21
154.95
 31
0.0
  0
ARC
  8
0
  6
CONTINUOUS
 62
     2
 10
104.0455
 20
154.95
 30
0.0
 40
0.2
 50
180.0
 51
270.0
  0
LINE
  8
0
  6
CONTINUOUS
 62
     2
 10
104.0455
 20
154.75
 30
0.0
 11
104.5205
 21
154.75
 31
0.0
  0
LINE
  8
0
  6
CONTINUOUS
 62
     2
 10
104.5205
 20
154.75
 30
0.0
 11
104.5205
 21
154.35
 31
0.0
  0
LINE
  8
0
  6
CONTINUOUS
 62
     2
 10
104.5205
 20
154.35
 30
0.0
 11
104.0455
 21
154.35
 31
0.0
  0
ARC
  8
0
  6
CONTINUOUS
 62
     2
 10
104.0455
 20
154.15
 30
0.0
 40
0.2
 50
90.0
 51
180.0
  0
LINE
  8
0
  6
CONTINUOUS
 62
     2
 10
103.8455
 20
154.15
 30
0.0
 11
103.8455
 21
153.675
 31
0.0
  0
LINE
  8
0
  6
CONTINUOUS
 62
     2
 10
103.8455
 20
153.675
 30
0.0
 11
103.4455
 21
153.675
 31
0.0
  0
LINE
  8
0
  6
CONTINUOUS
 62
     2
 10
103.4455
 20
153.675
 30
0.0
 11
103.4455
 21
154.15
 31
0.0
  0
ARC
  8
0
  6
CONTINUOUS
 62
     2
 10
103.2455
 20
154.15
 30
0.0
 40
0.2
 50
0.0
 51
90.0
  0
LINE
  8
0
  6
CONTINUOUS
 62
     2
 10
103.2455
 20
154.35
 30
0.0
 11
102.7705
 21
154.35
 31
0.0
  0
LINE
  8
0
  6
CONTINUOUS
 62
     2
 10
102.7705
 20
154.35
 30
0.0
 11
102.7705
 21
154.75
 31
0.0
  0
LINE
  8
0
  6
LTYPE1
 62
     2
 10
101.6455
 20
154.55
 30
0.0
 11
105.6455
 21
154.55
 31
0.0
  0
LINE
  8
0
  6
LTYPE1
 62
     2
 10
103.6455
 20
156.55
 30
0.0
 11
103.6455
 21
152.55
 31
0.0
  0
CIRCLE
  8
0
  6
CONTINUOUS
 62
     2
 10
103.6455
 20
113.575
 30
0.0
 40
1.5
  0
LINE
  8
0
  6
CONTINUOUS
 62
     2
 10
102.7705
 20
113.775
 30
0.0
 11
103.2455
 21
113.775
 31
0.0
  0
ARC
  8
0
  6
CONTINUOUS
 62
     2
 10
103.2455
 20
113.975
 30
0.0
 40
0.2
 50
270.0
 51
0.0
  0
LINE
  8
0
  6
CONTINUOUS
 62
     2
 10
103.4455
 20
113.975
 30
0.0
 11
103.4455
 21
114.45
 31
0.0
  0
LINE
  8
0
  6
CONTINUOUS
 62
     2
 10
103.4455
 20
114.45
 30
0.0
 11
103.8455
 21
114.45
 31
0.0
  0
LINE
  8
0
  6
CONTINUOUS
 62
     2
 10
103.8455
 20
114.45
 30
0.0
 11
103.8455
 21
113.975
 31
0.0
  0
ARC
  8
0
  6
CONTINUOUS
 62
     2
 10
104.0455
 20
113.975
 30
0.0
 40
0.2
 50
180.0
 51
270.0
  0
LINE
  8
0
  6
CONTINUOUS
 62
     2
 10
104.0455
 20
113.775
 30
0.0
 11
104.5205
 21
113.775
 31
0.0
  0
LINE
  8
0
  6
CONTINUOUS
 62
     2
 10
104.5205
 20
113.775
 30
0.0
 11
104.5205
 21
113.375
 31
0.0
  0
LINE
  8
0
  6
CONTINUOUS
 62
     2
 10
104.5205
 20
113.375
 30
0.0
 11
104.0455
 21
113.375
 31
0.0
  0
ARC
  8
0
  6
CONTINUOUS
 62
     2
 10
104.0455
 20
113.175
 30
0.0
 40
0.2
 50
90.0
 51
180.0
  0
LINE
  8
0
  6
CONTINUOUS
 62
     2
 10
103.8455
 20
113.175
 30
0.0
 11
103.8455
 21
112.7
 31
0.0
  0
LINE
  8
0
  6
CONTINUOUS
 62
     2
 10
103.8455
 20
112.7
 30
0.0
 11
103.4455
 21
112.7
 31
0.0
  0
LINE
  8
0
  6
CONTINUOUS
 62
     2
 10
103.4455
 20
112.7
 30
0.0
 11
103.4455
 21
113.175
 31
0.0
  0
ARC
  8
0
  6
CONTINUOUS
 62
     2
 10
103.2455
 20
113.175
 30
0.0
 40
0.2
 50
0.0
 51
90.0
  0
LINE
  8
0
  6
CONTINUOUS
 62
     2
 10
103.2455
 20
113.375
 30
0.0
 11
102.7705
 21
113.375
 31
0.0
  0
LINE
  8
0
  6
CONTINUOUS
 62
     2
 10
102.7705
 20
113.375
 30
0.0
 11
102.7705
 21
113.775
 31
0.0
  0
LINE
  8
0
  6
LTYPE1
 62
     2
 10
101.6455
 20
113.575
 30
0.0
 11
105.6455
 21
113.575
 31
0.0
  0
LINE
  8
0
  6
LTYPE1
 62
     2
 10
103.6455
 20
115.575
 30
0.0
 11
103.6455
 21
111.575
 31
0.0
  0
TEXT
  8
0
  6
CONTINUOUS
 62
     2
 10
125.4055
 20
113.5
 30
0.3
 40
3.0
  1
２－Ｍ４ターミナルネジ
 50
0.0
 41
0.6
 51
0.0
  7
KANJI7
  0
LINE
  8
0
  6
LTYPE1
 62
     2
 10
146.2355
 20
140.295
 30
0.0
 11
156.8355
 21
140.295
 31
0.0
  0
LINE
  8
0
  6
LTYPE1
 62
     2
 10
146.4355
 20
127.745
 30
0.0
 11
156.7855
 21
127.745
 31
0.0
  0
LINE
  8
0
  6
CONTINUOUS
 62
     2
 10
154.7455
 20
141.550002697
 30
0.0
 11
154.7455
 21
176.045
 31
0.0
  0
LINE
  8
0
  6
CONTINUOUS
 62
     2
 10
149.7455
 20
147.0
 30
0.0
 11
149.7455
 21
176.045
 31
0.0
  0
LINE
  8
0
  6
CONTINUOUS
 62
     2
 10
107.9055
 20
167.8
 30
0.0
 11
99.8055
 21
167.8
 31
0.0
  0
TEXT
  8
0
  6
CONTINUOUS
 62
     2
 10
99.8055
 20
168.8
 30
0.3
 40
3.0
  1
取付金具
 50
0.0
 41
0.6
 51
0.0
  7
KANJI7
  0
LINE
  8
0
  6
CONTINUOUS
 62
     2
 10
112.2055
 20
162.3
 30
0.0
 11
111.22791141
 21
164.600939058
 31
0.0
  0
LINE
  8
0
  6
CONTINUOUS
 62
     2
 10
112.2055
 20
162.3
 30
0.0
 11
110.208413918
 21
163.803877382
 31
0.0
  0
LINE
  8
0
  6
CONTINUOUS
 62
     2
 10
112.2055
 20
162.3
 30
0.0
 11
107.9055
 21
167.8
 31
0.0
  0
LINE
  8
0
  6
CONTINUOUS
 62
     2
 10
154.7455
 20
174.045
 30
0.0
 11
157.160314566
 21
173.397952387
 31
0.0
  0
LINE
  8
0
  6
CONTINUOUS
 62
     2
 10
154.7455
 20
174.045
 30
0.0
 11
157.160314566
 21
174.692047613
 31
0.0
  0
LINE
  8
0
  6
CONTINUOUS
 62
     2
 10
97.4955
 20
174.045
 30
0.0
 11
160.7455
 21
174.045
 31
0.0
  0
TEXT
  8
0
  6
CONTINUOUS
 62
     2
 10
128.7755
 20
175.045
 30
0.3
 40
3.0
  1
７２
 50
0.0
 41
0.6
 51
0.0
  7
KANJI7
  0
LINE
  8
0
  6
CONTINUOUS
 62
     2
 10
108.2055
 20
166.52
 30
0.0
 11
118.5055
 21
166.52
 31
0.0
  0
LINE
  8
0
  6
CONTINUOUS
 62
     2
 10
110.8055
 20
167.02
 30
0.0
 11
112.2055
 21
166.52
 31
0.0
  0
LINE
  8
0
  6
CONTINUOUS
 62
     2
 10
112.2055
 20
166.52
 30
0.0
 11
110.8055
 21
166.02
 31
0.0
  0
LINE
  8
0
  6
CONTINUOUS
 62
     2
 10
115.1055
 20
167.12
 30
0.0
 11
113.7055
 21
166.52
 31
0.0
  0
LINE
  8
0
  6
CONTINUOUS
 62
     2
 10
113.7055
 20
166.52
 30
0.0
 11
115.2055
 21
165.92
 31
0.0
  0
TEXT
  8
0
  6
CONTINUOUS
 62
     2
 10
130.8455
 20
109.7
 30
0.3
 40
3.0
  1
スプリングワッシャー付
 50
0.0
 41
0.9
 51
0.0
  7
KANJI1
  0
LINE
  8
0
  6
CONTINUOUS
 62
     2
 10
154.0455
 20
125.7
 30
0.0
 11
154.990094377
 21
123.38532044
 31
0.0
  0
LINE
  8
0
  6
CONTINUOUS
 62
     2
 10
154.0455
 20
125.7
 30
0.0
 11
156.020882506
 21
124.167725888
 31
0.0
  0
LINE
  8
0
  6
CONTINUOUS
 62
     2
 10
154.0455
 20
125.7
 30
0.0
 11
166.6455
 21
109.1
 31
0.0
  0
LINE
  8
0
  6
CONTINUOUS
 62
     2
 10
166.6455
 20
109.1
 30
0.0
 11
129.1455
 21
109.1
 31
0.0
  0
LINE
  8
0
  6
CONTINUOUS
 62
     2
 10
149.7455
 20
147.5
 30
0.0
 11
149.7455
 21
152.434
 31
0.0
  0
LINE
  8
0
  6
CONTINUOUS
 62
     2
 10
149.7455
 20
147.5
 30
0.0
 11
149.7455
 21
155.321
 31
0.0
  0
LINE
  8
0
  6
CONTINUOUS
 62
     2
 10
149.7455
 20
153.321
 30
0.0
 11
147.330685434
 21
153.968047613
 31
0.0
  0
LINE
  8
0
  6
CONTINUOUS
 62
     2
 10
149.7455
 20
153.321
 30
0.0
 11
147.330685434
 21
152.673952387
 31
0.0
  0
LINE
  8
0
  6
CONTINUOUS
 62
     2
 10
149.7455
 20
153.321
 30
0.0
 11
139.7525
 21
153.321
 31
0.0
  0
LINE
  8
0
  6
CONTINUOUS
 62
     2
 10
139.7525
 20
153.321
 30
0.0
 11
142.167314566
 21
152.673952387
 31
0.0
  0
LINE
  8
0
  6
CONTINUOUS
 62
     2
 10
139.7525
 20
153.321
 30
0.0
 11
142.167314566
 21
153.968047613
 31
0.0
  0
LINE
  8
0
  6
CONTINUOUS
 62
     2
 10
139.7525
 20
148.421142458
 30
0.0
 11
139.7525
 21
155.321
 31
0.0
  0
TEXT
  8
0
  6
CONTINUOUS
 62
     2
 10
142.431
 20
154.385
 30
0.2
 40
3.0
  1
２０
 50
0.0
 41
0.45
 51
0.0
  7
KANJI8
  0
TEXT
  8
0
  6
CONTINUOUS
 62
     2
 10
91.6705
 20
175.000008741
 30
0.3
 40
3.0
  1
１５
 50
0.0
 41
0.6
 51
0.0
  7
KANJI7
  0
TEXT
  8
0
  6
CONTINUOUS
 62
     2
 10
116.2055
 20
167.22
 30
0.3
 40
3.0
  1
３
 50
0.0
 41
0.6
 51
0.0
  7
KANJI7
  0
TEXT
  8
0
  6
CONTINUOUS
 62
     2
 10
103.3055
 20
175.02
 30
0.3
 40
3.0
  1
３３
 50
0.0
 41
0.6
 51
0.0
  7
KANJI7
  0
POLYLINE
  8
0
  6
CONTINUOUS
 62
     2
 66
     1
  0
VERTEX
  8
0
  6
CONTINUOUS
 62
     2
 10
115.0055
 20
113.4
 30
0.0
  0
VERTEX
  8
0
  6
CONTINUOUS
 62
     2
 10
122.2055
 20
99.3
 30
0.0
  0
VERTEX
  8
0
  6
CONTINUOUS
 62
     2
 10
134.5055
 20
99.3
 30
0.0
  0
SEQEND
  0
TEXT
  8
0
  6
CONTINUOUS
 62
     2
 10
119.1705
 20
131.573740223
 30
0.3
 40
3.0
  1
６４（６６）
 50
90.0
 41
0.6
 51
0.0
  7
KANJI7
  0
LINE
  8
0
  6
CONTINUOUS
 62
     1
 10
99.9455
 20
106.98
 30
0.0
 11
99.9455
 21
109.98
 31
0.0
  0
LINE
  8
0
  6
CONTINUOUS
 62
     1
 10
103.9455
 20
109.98
 30
0.0
 11
103.9455
 21
106.98
 31
0.0
  0
LINE
  8
0
  6
CONTINUOUS
 62
     1
 10
103.9455
 20
106.98
 30
0.0
 11
99.9455
 21
106.98
 31
0.0
  0
LINE
  8
0
  6
CONTINUOUS
 62
     1
 10
103.9455
 20
109.48
 30
0.0
 11
112.1955
 21
109.48
 31
0.0
  0
LINE
  8
0
  6
CONTINUOUS
 62
     1
 10
112.1955
 20
107.48
 30
0.0
 11
103.9455
 21
107.48
 31
0.0
  0
LINE
  8
0
  6
CONTINUOUS
 62
     1
 10
123.4455
 20
106.73
 30
0.0
 11
123.4455
 21
110.23
 31
0.0
  0
ARC
  8
0
  6
CONTINUOUS
 62
     1
 10
124.0955
 20
109.58
 30
0.0
 40
0.65
 50
0.0
 51
90.0
  0
ARC
  8
0
  6
CONTINUOUS
 62
     1
 10
124.0955
 20
107.38
 30
0.0
 40
0.65
 50
270.0
 51
0.0
  0
LINE
  8
0
  6
CONTINUOUS
 62
     1
 10
124.0955
 20
106.73
 30
0.0
 11
123.4455
 21
106.73
 31
0.0
  0
LINE
  8
0
  6
CONTINUOUS
 62
     1
 10
123.4455
 20
110.23
 30
0.0
 11
124.0955
 21
110.23
 31
0.0
  0
LINE
  8
0
  6
CONTINUOUS
 62
     1
 10
124.7455
 20
109.58
 30
0.0
 11
124.7455
 21
107.38
 31
0.0
  0
LINE
  8
0
  6
CONTINUOUS
 62
     1
 10
124.7455
 20
108.28
 30
0.0
 11
124.4455
 21
108.28
 31
0.0
  0
LINE
  8
0
  6
CONTINUOUS
 62
     1
 10
124.4455
 20
108.28
 30
0.0
 11
124.4455
 21
108.68
 31
0.0
  0
LINE
  8
0
  6
CONTINUOUS
 62
     1
 10
124.4455
 20
108.68
 30
0.0
 11
124.7455
 21
108.68
 31
0.0
  0
LINE
  8
0
  6
CONTINUOUS
 62
     1
 10
114.1055
 20
106.48
 30
0.0
 11
114.1055
 21
110.48
 31
0.0
  0
ARC
  8
0
  6
CONTINUOUS
 62
     1
 10
115.4555
 20
110.23
 30
0.0
 40
0.25
 50
0.0
 51
90.0
  0
ARC
  8
0
  6
CONTINUOUS
 62
     1
 10
115.4555
 20
106.73
 30
0.0
 40
0.25
 50
270.0
 51
0.0
  0
LINE
  8
0
  6
CONTINUOUS
 62
     1
 10
115.4555
 20
106.48
 30
0.0
 11
114.1055
 21
106.48
 31
0.0
  0
LINE
  8
0
  6
CONTINUOUS
 62
     1
 10
115.7055
 20
106.73
 30
0.0
 11
115.7055
 21
110.23
 31
0.0
  0
ARC
  8
0
  6
CONTINUOUS
 62
     1
 10
115.4555
 20
109.73
 30
0.0
 40
0.25
 50
270.0
 51
0.0
  0
ARC
  8
0
  6
CONTINUOUS
 62
     1
 10
115.4555
 20
109.23
 30
0.0
 40
0.25
 50
0.0
 51
90.0
  0
ARC
  8
0
  6
CONTINUOUS
 62
     1
 10
115.4555
 20
107.23
 30
0.0
 40
0.25
 50
0.0
 51
90.0
  0
ARC
  8
0
  6
CONTINUOUS
 62
     1
 10
115.4555
 20
107.73
 30
0.0
 40
0.25
 50
270.0
 51
0.0
  0
LINE
  8
0
  6
CONTINUOUS
 62
     1
 10
115.4555
 20
110.48
 30
0.0
 11
114.1055
 21
110.48
 31
0.0
  0
LINE
  8
0
  6
CONTINUOUS
 62
     1
 10
113.7455
 20
106.0
 30
0.0
 11
112.2455
 21
106.0
 31
0.0
  0
LINE
  8
0
  6
CONTINUOUS
 62
     1
 10
113.7455
 20
110.0
 30
0.0
 11
113.7455
 21
106.0
 31
0.0
  0
LINE
  8
0
  6
CONTINUOUS
 62
     1
 10
112.2455
 20
106.0
 30
0.0
 11
112.2455
 21
110.0
 31
0.0
  0
LINE
  8
0
  6
CONTINUOUS
 62
     1
 10
123.4455
 20
107.48
 30
0.0
 11
113.7455
 21
107.48
 31
0.0
  0
LINE
  8
0
  6
CONTINUOUS
 62
     1
 10
113.7455
 20
109.48
 30
0.0
 11
123.4455
 21
109.48
 31
0.0
  0
LINE
  8
0
  6
CONTINUOUS
 62
     1
 10
113.7455
 20
106.58
 30
0.0
 11
114.1055
 21
106.58
 31
0.0
  0
LINE
  8
0
  6
CONTINUOUS
 62
     1
 10
114.1055
 20
108.23
 30
0.0
 11
113.7455
 21
108.68
 31
0.0
  0
LINE
  8
0
  6
CONTINUOUS
 62
     1
 10
113.7455
 20
108.83
 30
0.0
 11
114.1055
 21
108.38
 31
0.0
  0
LINE
  8
0
  6
CONTINUOUS
 62
     1
 10
114.1055
 20
110.38
 30
0.0
 11
113.7455
 21
110.38
 31
0.0
  0
LINE
  8
0
  6
CONTINUOUS
 62
     1
 10
99.9455
 20
160.98
 30
0.0
 11
99.9455
 21
157.98
 31
0.0
  0
LINE
  8
0
  6
CONTINUOUS
 62
     1
 10
103.9455
 20
157.98
 30
0.0
 11
103.9455
 21
160.98
 31
0.0
  0
LINE
  8
0
  6
CONTINUOUS
 62
     1
 10
103.9455
 20
160.98
 30
0.0
 11
99.9455
 21
160.98
 31
0.0
  0
LINE
  8
0
  6
CONTINUOUS
 62
     1
 10
103.9455
 20
158.48
 30
0.0
 11
112.1955
 21
158.48
 31
0.0
  0
LINE
  8
0
  6
CONTINUOUS
 62
     1
 10
112.1955
 20
160.48
 30
0.0
 11
103.9455
 21
160.48
 31
0.0
  0
LINE
  8
0
  6
CONTINUOUS
 62
     1
 10
123.4455
 20
161.23
 30
0.0
 11
123.4455
 21
157.73
 31
0.0
  0
ARC
  8
0
  6
CONTINUOUS
 62
     1
 10
124.0955
 20
158.38
 30
0.0
 40
0.65
 50
270.0
 51
0.0
  0
ARC
  8
0
  6
CONTINUOUS
 62
     1
 10
124.0955
 20
160.58
 30
0.0
 40
0.65
 50
0.0
 51
90.0
  0
LINE
  8
0
  6
CONTINUOUS
 62
     1
 10
124.0955
 20
161.23
 30
0.0
 11
123.4455
 21
161.23
 31
0.0
  0
LINE
  8
0
  6
CONTINUOUS
 62
     1
 10
123.4455
 20
157.73
 30
0.0
 11
124.0955
 21
157.73
 31
0.0
  0
LINE
  8
0
  6
CONTINUOUS
 62
     1
 10
124.7455
 20
158.38
 30
0.0
 11
124.7455
 21
160.58
 31
0.0
  0
LINE
  8
0
  6
CONTINUOUS
 62
     1
 10
124.7455
 20
159.68
 30
0.0
 11
124.4455
 21
159.68
 31
0.0
  0
LINE
  8
0
  6
CONTINUOUS
 62
     1
 10
124.4455
 20
159.68
 30
0.0
 11
124.4455
 21
159.28
 31
0.0
  0
LINE
  8
0
  6
CONTINUOUS
 62
     1
 10
124.4455
 20
159.28
 30
0.0
 11
124.7455
 21
159.28
 31
0.0
  0
LINE
  8
0
  6
CONTINUOUS
 62
     1
 10
114.1055
 20
161.48
 30
0.0
 11
114.1055
 21
157.48
 31
0.0
  0
ARC
  8
0
  6
CONTINUOUS
 62
     1
 10
115.4555
 20
157.73
 30
0.0
 40
0.25
 50
270.0
 51
0.0
  0
ARC
  8
0
  6
CONTINUOUS
 62
     1
 10
115.4555
 20
161.23
 30
0.0
 40
0.25
 50
0.0
 51
90.0
  0
LINE
  8
0
  6
CONTINUOUS
 62
     1
 10
115.4555
 20
161.48
 30
0.0
 11
114.1055
 21
161.48
 31
0.0
  0
LINE
  8
0
  6
CONTINUOUS
 62
     1
 10
115.7055
 20
161.23
 30
0.0
 11
115.7055
 21
157.73
 31
0.0
  0
ARC
  8
0
  6
CONTINUOUS
 62
     1
 10
115.4555
 20
158.23
 30
0.0
 40
0.25
 50
0.0
 51
90.0
  0
ARC
  8
0
  6
CONTINUOUS
 62
     1
 10
115.4555
 20
158.73
 30
0.0
 40
0.25
 50
270.0
 51
0.0
  0
ARC
  8
0
  6
CONTINUOUS
 62
     1
 10
115.4555
 20
160.73
 30
0.0
 40
0.25
 50
270.0
 51
0.0
  0
ARC
  8
0
  6
CONTINUOUS
 62
     1
 10
115.4555
 20
160.23
 30
0.0
 40
0.25
 50
0.0
 51
90.0
  0
LINE
  8
0
  6
CONTINUOUS
 62
     1
 10
115.4555
 20
157.48
 30
0.0
 11
114.1055
 21
157.48
 31
0.0
  0
LINE
  8
0
  6
CONTINUOUS
 62
     1
 10
112.2055
 20
162.0
 30
0.0
 11
113.7055
 21
162.0
 31
0.0
  0
LINE
  8
0
  6
CONTINUOUS
 62
     1
 10
112.2055
 20
158.07
 30
0.0
 11
112.2055
 21
162.0
 31
0.0
  0
LINE
  8
0
  6
CONTINUOUS
 62
     1
 10
113.7055
 20
162.0
 30
0.0
 11
113.7055
 21
158.1
 31
0.0
  0
LINE
  8
0
  6
CONTINUOUS
 62
     1
 10
123.4455
 20
160.48
 30
0.0
 11
113.7055
 21
160.48
 31
0.0
  0
LINE
  8
0
  6
CONTINUOUS
 62
     1
 10
113.7055
 20
158.48
 30
0.0
 11
123.4455
 21
158.48
 31
0.0
  0
LINE
  8
0
  6
CONTINUOUS
 62
     1
 10
113.7055
 20
161.38
 30
0.0
 11
114.1055
 21
161.38
 31
0.0
  0
LINE
  8
0
  6
CONTINUOUS
 62
     1
 10
114.1055
 20
159.73
 30
0.0
 11
113.7055
 21
159.23
 31
0.0
  0
LINE
  8
0
  6
CONTINUOUS
 62
     1
 10
113.7055
 20
159.08
 30
0.0
 11
114.1055
 21
159.58
 31
0.0
  0
LINE
  8
0
  6
CONTINUOUS
 62
     1
 10
114.1055
 20
157.58
 30
0.0
 11
113.7955
 21
157.58
 31
0.0
  0
LINE
  8
0
  6
CONTINUOUS
 62
     2
 10
113.7055
 20
162.86588346
 30
0.0
 11
113.7055
 21
176.52
 31
0.0
  0
LINE
  8
0
  6
CONTINUOUS
 62
     2
 10
112.2055
 20
162.86588346
 30
0.0
 11
112.2055
 21
168.32
 31
0.0
  0
LINE
  8
0
  6
CONTINUOUS
 62
     2
 10
124.5945
 20
161.2
 30
0.0
 11
126.855891707
 21
162.26588346
 31
0.0
  0
LINE
  8
0
  6
CONTINUOUS
 62
     2
 10
124.5945
 20
161.2
 30
0.0
 11
126.019980936
 21
163.253778007
 31
0.0
  0
LINE
  8
0
  6
CONTINUOUS
 62
     2
 10
124.5945
 20
161.2
 30
0.0
 11
128.4945
 21
164.5
 31
0.0
  0
LINE
  8
0
  6
CONTINUOUS
 62
     2
 10
128.4945
 20
164.5
 30
0.0
 11
144.9945
 21
164.5
 31
0.0
  0
TEXT
  8
0
  6
CONTINUOUS
 62
     2
 10
128.4945
 20
165.5
 30
0.3
 40
3.0
  1
Ｍ４×４５押ネジ
 50
0.0
 41
0.6
 51
0.0
  7
KANJI7
  0
LINE
  8
0
  6
CONTINUOUS
 62
     2
 10
115.4555
 20
161.48
 30
0.0
 11
117.818643112
 21
162.295815317
 31
0.0
  0
LINE
  8
0
  6
CONTINUOUS
 62
     2
 10
115.4555
 20
161.48
 30
0.0
 11
117.094134309
 21
163.368088346
 31
0.0
  0
LINE
  8
0
  6
CONTINUOUS
 62
     2
 10
115.4555
 20
161.48
 30
0.0
 11
126.5555
 21
168.98
 31
0.0
  0
LINE
  8
0
  6
CONTINUOUS
 62
     2
 10
126.5555
 20
168.98
 30
0.0
 11
140.9555
 21
168.98
 31
0.0
  0
TEXT
  8
0
  6
CONTINUOUS
 62
     2
 10
126.5555
 20
169.98
 30
0.3
 40
3.0
  1
Ｍ４ナットＳＷ
 50
0.0
 41
0.6
 51
0.0
  7
KANJI7
  0
LINE
  8
0
  6
CONTINUOUS
 62
     2
 10
100.4375
 20
161.152
 30
0.0
 11
99.043575127
 21
163.227324902
 31
0.0
  0
LINE
  8
0
  6
CONTINUOUS
 62
     2
 10
100.4375
 20
161.152
 30
0.0
 11
98.192663198
 21
162.25232165
 31
0.0
  0
LINE
  8
0
  6
LTYPE1
 62
     2
 10
127.8855
 20
159.5
 30
0.0
 11
98.4925
 21
159.5
 31
0.0
  0
LINE
  8
0
  6
LTYPE1
 62
     2
 10
126.6355
 20
108.5
 30
0.0
 11
98.4925
 21
108.5
 31
0.0
  0
LINE
  8
0
  6
CONTINUOUS
 62
     2
 10
113.7055
 20
174.045
 30
0.0
 11
111.290685434
 21
174.692047613
 31
0.0
  0
LINE
  8
0
  6
CONTINUOUS
 62
     2
 10
113.7055
 20
174.045
 30
0.0
 11
111.290685434
 21
173.397952387
 31
0.0
  0
LINE
  8
0
  6
CONTINUOUS
 62
     2
 10
113.7055
 20
174.07
 30
0.0
 11
116.120314566
 21
173.422952387
 31
0.0
  0
LINE
  8
0
  6
CONTINUOUS
 62
     2
 10
113.7055
 20
174.07
 30
0.0
 11
116.120314566
 21
174.717047613
 31
0.0
  0
LINE
  8
0
  6
CONTINUOUS
 62
     1
 10
45.877
 20
109.0
 30
0.0
 11
60.877
 21
109.0
 31
0.0
  0
POLYLINE
  8
0
  6
CONTINUOUS
 62
     1
 66
     1
  0
VERTEX
  8
0
  6
CONTINUOUS
 62
     1
 10
60.877
 20
109.0
 30
0.0
  0
VERTEX
  8
0
  6
CONTINUOUS
 62
     1
 10
60.877
 20
159.0
 30
0.0
  0
VERTEX
  8
0
  6
CONTINUOUS
 62
     1
 10
45.877
 20
159.0
 30
0.0
  0
VERTEX
  8
0
  6
CONTINUOUS
 62
     1
 10
45.877
 20
109.0
 30
0.0
  0
SEQEND
  0
POINT
  8
0
  6
CONTINUOUS
 62
     1
 10
50.877
 20
159.025
 30
0.0
  0
ARC
  8
0
  6
CONTINUOUS
 62
     2
 10
45.127
 20
109.5
 30
0.0
 40
0.5
 50
180.0
 51
270.0
  0
ARC
  8
0
  6
CONTINUOUS
 62
     2
 10
45.127
 20
158.5
 30
0.0
 40
0.5
 50
90.0
 51
180.0
  0
ARC
  8
0
  6
CONTINUOUS
 62
     2
 10
61.627
 20
158.5
 30
0.0
 40
0.5
 50
0.0
 51
90.0
  0
ARC
  8
0
  6
CONTINUOUS
 62
     2
 10
61.627
 20
109.5
 30
0.0
 40
0.5
 50
270.0
 51
0.0
  0
LINE
  8
0
  6
CONTINUOUS
 62
     2
 10
61.627
 20
109.0
 30
0.0
 11
60.877
 21
109.0
 31
0.0
  0
LINE
  8
0
  6
CONTINUOUS
 62
     2
 10
45.877
 20
109.0
 30
0.0
 11
45.127
 21
109.0
 31
0.0
  0
LINE
  8
0
  6
CONTINUOUS
 62
     2
 10
44.627
 20
109.5
 30
0.0
 11
44.627
 21
158.5
 31
0.0
  0
LINE
  8
0
  6
CONTINUOUS
 62
     2
 10
45.127
 20
159.0
 30
0.0
 11
45.877
 21
159.0
 31
0.0
  0
LINE
  8
0
  6
CONTINUOUS
 62
     2
 10
60.877
 20
159.0
 30
0.0
 11
61.627
 21
159.0
 31
0.0
  0
LINE
  8
0
  6
CONTINUOUS
 62
     2
 10
62.127
 20
158.5
 30
0.0
 11
62.127
 21
109.5
 31
0.0
  0
LINE
  8
0
  6
CONTINUOUS
 62
     2
 10
60.927
 20
114.525
 30
0.0
 11
45.877
 21
114.525
 31
0.0
  0
LINE
  8
0
  6
CONTINUOUS
 62
     2
 10
60.8645
 20
153.475
 30
0.0
 11
45.9145
 21
153.475
 31
0.0
  0
LINE
  8
0
  6
CONTINUOUS
 62
     2
 10
45.877
 20
154.275
 30
0.0
 11
60.877
 21
154.275
 31
0.0
  0
LINE
  8
0
  6
CONTINUOUS
 62
     2
 10
60.877
 20
155.075
 30
0.0
 11
45.877
 21
155.075
 31
0.0
  0
LINE
  8
0
  6
CONTINUOUS
 62
     2
 10
45.877
 20
155.875
 30
0.0
 11
60.877
 21
155.875
 31
0.0
  0
LINE
  8
0
  6
CONTINUOUS
 62
     2
 10
60.877
 20
156.675
 30
0.0
 11
45.877
 21
156.675
 31
0.0
  0
LINE
  8
0
  6
CONTINUOUS
 62
     2
 10
45.877
 20
157.475
 30
0.0
 11
60.877
 21
157.475
 31
0.0
  0
LINE
  8
0
  6
CONTINUOUS
 62
     2
 10
60.877
 20
158.275
 30
0.0
 11
45.877
 21
158.275
 31
0.0
  0
LINE
  8
0
  6
CONTINUOUS
 62
     2
 10
45.877
 20
113.775
 30
0.0
 11
60.877
 21
113.775
 31
0.0
  0
LINE
  8
0
  6
CONTINUOUS
 62
     2
 10
45.8645
 20
110.575
 30
0.0
 11
60.877
 21
110.575
 31
0.0
  0
LINE
  8
0
  6
CONTINUOUS
 62
     2
 10
60.877
 20
109.775
 30
0.0
 11
45.877
 21
109.775
 31
0.0
  0
CIRCLE
  8
0
  6
CONTINUOUS
 62
     2
 10
53.377
 20
112.175
 30
0.0
 40
1.325
  0
LINE
  8
0
  6
CONTINUOUS
 62
     2
 10
54.677
 20
112.175
 30
0.0
 11
60.877
 21
112.175
 31
0.0
  0
LINE
  8
0
  6
CONTINUOUS
 62
     2
 10
45.877
 20
112.175
 30
0.0
 11
52.077
 21
112.175
 31
0.0
  0
LINE
  8
0
  6
CONTINUOUS
 62
     2
 10
52.327
 20
111.375
 30
0.0
 11
45.8645
 21
111.375
 31
0.0
  0
LINE
  8
0
  6
CONTINUOUS
 62
     2
 10
60.877
 20
111.375
 30
0.0
 11
54.377
 21
111.375
 31
0.0
  0
LINE
  8
0
  6
CONTINUOUS
 62
     2
 10
52.327
 20
112.975
 30
0.0
 11
45.877
 21
112.975
 31
0.0
  0
LINE
  8
0
  6
CONTINUOUS
 62
     2
 10
60.877
 20
112.975
 30
0.0
 11
54.427
 21
112.975
 31
0.0
  0
LINE
  8
0
  6
CONTINUOUS
 62
     2
 10
53.227
 20
113.475
 30
0.0
 11
53.227
 21
110.925
 31
0.0
  0
LINE
  8
0
  6
CONTINUOUS
 62
     2
 10
53.527
 20
110.925
 30
0.0
 11
53.527
 21
113.475
 31
0.0
  0
LINE
  8
0
  6
CONTINUOUS
 62
     2
 10
59.0895
 20
114.575
 30
0.0
 11
59.0895
 21
153.475
 31
0.0
  0
LINE
  8
0
  6
CONTINUOUS
 62
     2
 10
47.377
 20
153.475
 30
0.0
 11
47.377
 21
114.575
 31
0.0
  0
LINE
  8
0
  6
CONTINUOUS
 62
     2
 10
48.907
 20
152.97
 30
0.0
 11
59.087
 21
152.97
 31
0.0
  0
LINE
  8
0
  6
CONTINUOUS
 62
     2
 10
48.877
 20
152.97
 30
0.0
 11
47.397
 21
152.97
 31
0.0
  0
LINE
  8
0
  6
CONTINUOUS
 62
     2
 10
47.377
 20
115.025
 30
0.0
 11
59.077
 21
115.025
 31
0.0
  0
LINE
  8
0
  6
CONTINUOUS
 62
     2
 10
51.022
 20
117.025
 30
0.0
 11
48.272
 21
118.025
 31
0.0
  0
LINE
  8
0
  6
CONTINUOUS
 62
     2
 10
48.272
 20
118.025
 30
0.0
 11
48.172
 21
117.025
 31
0.0
  0
LINE
  8
0
  6
CONTINUOUS
 62
     2
 10
48.172
 20
117.025
 30
0.0
 11
48.272
 21
116.025
 31
0.0
  0
LINE
  8
0
  6
CONTINUOUS
 62
     2
 10
48.272
 20
116.025
 30
0.0
 11
51.022
 21
117.025
 31
0.0
  0
LINE
  8
0
  6
CONTINUOUS
 62
     2
 10
48.877
 20
114.575
 30
0.0
 11
48.877
 21
116.245
 31
0.0
  0
LINE
  8
0
  6
CONTINUOUS
 62
     2
 10
62.127
 20
109.475
 30
0.0
 11
62.127
 21
158.475
 31
0.0
  0
LINE
  8
0
  6
CONTINUOUS
 62
     2
 10
53.856
 20
111.886
 30
0.0
 11
55.123750089
 21
109.731281988
 31
0.0
  0
LINE
  8
0
  6
CONTINUOUS
 62
     2
 10
53.856
 20
111.886
 30
0.0
 11
56.031262789
 21
110.653834508
 31
0.0
  0
LINE
  8
0
  6
CONTINUOUS
 62
     2
 10
53.856
 20
111.886
 30
0.0
 11
65.02
 21
100.904
 31
0.0
  0
LINE
  8
0
  6
CONTINUOUS
 62
     2
 10
65.02
 20
100.904
 30
0.0
 11
81.52
 21
100.904
 31
0.0
  0
TEXT
  8
0
  6
CONTINUOUS
 62
     2
 10
65.02
 20
101.204
 30
0.3
 40
3.0
  1
機械的零位調整器
 50
0.0
 41
0.6
 51
0.0
  7
KANJI7
  0
LINE
  8
0
  6
LTYPE1
 62
     2
 10
57.524
 20
108.5
 30
0.0
 11
48.474
 21
108.5
 31
0.0
  0
LINE
  8
0
  6
CONTINUOUS
 62
     1
 10
55.877
 20
106.0
 30
0.0
 11
50.877
 21
106.0
 31
0.0
  0
LINE
  8
0
  6
CONTINUOUS
 62
     1
 10
50.877
 20
106.0
 30
0.0
 11
50.877
 21
109.0
 31
0.0
  0
LINE
  8
0
  6
CONTINUOUS
 62
     1
 10
55.877
 20
109.0
 30
0.0
 11
55.877
 21
106.0
 31
0.0
  0
ARC
  8
0
  6
CONTINUOUS
 62
     1
 10
53.3865
 20
108.5
 30
0.0
 40
1.5
 50
160.528779366
 51
19.471220634
  0
LINE
  8
0
  6
LTYPE1
 62
     2
 10
57.5645
 20
159.5
 30
0.0
 11
49.0145
 21
159.5
 31
0.0
  0
LINE
  8
0
  6
CONTINUOUS
 62
     1
 10
50.877
 20
162.0
 30
0.0
 11
55.877
 21
162.0
 31
0.0
  0
LINE
  8
0
  6
CONTINUOUS
 62
     1
 10
50.877
 20
159.0
 30
0.0
 11
50.877
 21
162.0
 31
0.0
  0
LINE
  8
0
  6
CONTINUOUS
 62
     1
 10
55.877
 20
162.0
 30
0.0
 11
55.877
 21
159.0
 31
0.0
  0
ARC
  8
0
  6
CONTINUOUS
 62
     1
 10
53.377
 20
159.5
 30
0.0
 40
1.5
 50
340.528779365
 51
199.471220634
  0
LINE
  8
0
  6
CONTINUOUS
 62
     2
 10
62.127
 20
158.95
 30
0.0
 11
62.127
 21
176.000008741
 31
0.0
  0
LINE
  8
0
  6
CONTINUOUS
 62
     2
 10
62.127
 20
174.000008741
 30
0.0
 11
59.712185434
 21
174.647056353
 31
0.0
  0
LINE
  8
0
  6
CONTINUOUS
 62
     2
 10
62.127
 20
174.000008741
 30
0.0
 11
59.712185434
 21
173.352961128
 31
0.0
  0
LINE
  8
0
  6
CONTINUOUS
 62
     2
 10
62.127
 20
174.000008741
 30
0.0
 11
44.627
 21
174.000008741
 31
0.0
  0
LINE
  8
0
  6
CONTINUOUS
 62
     2
 10
44.627
 20
174.000008741
 30
0.0
 11
47.041814566
 21
173.352961128
 31
0.0
  0
LINE
  8
0
  6
CONTINUOUS
 62
     2
 10
44.627
 20
174.000008741
 30
0.0
 11
47.041814566
 21
174.647056353
 31
0.0
  0
LINE
  8
0
  6
CONTINUOUS
 62
     2
 10
44.627
 20
158.95
 30
0.0
 11
44.627
 21
176.000008741
 31
0.0
  0
LINE
  8
0
  6
CONTINUOUS
 62
     2
 10
45.877
 20
169.8
 30
0.0
 11
48.291814566
 21
169.152952387
 31
0.0
  0
LINE
  8
0
  6
CONTINUOUS
 62
     2
 10
45.877
 20
169.8
 30
0.0
 11
48.291814566
 21
170.447047613
 31
0.0
  0
LINE
  8
0
  6
CONTINUOUS
 62
     2
 10
45.877
 20
169.8
 30
0.0
 11
60.877
 21
169.8
 31
0.0
  0
LINE
  8
0
  6
CONTINUOUS
 62
     2
 10
60.877
 20
169.8
 30
0.0
 11
58.462185434
 21
170.447047613
 31
0.0
  0
LINE
  8
0
  6
CONTINUOUS
 62
     2
 10
60.877
 20
169.8
 30
0.0
 11
58.462185434
 21
169.152952387
 31
0.0
  0
TEXT
  8
0
  6
CONTINUOUS
 62
     2
 10
48.997
 20
170.8
 30
0.3
 40
3.0
  1
３０
 50
0.0
 41
0.6
 51
0.0
  7
KANJI7
  0
LINE
  8
0
  6
CONTINUOUS
 62
     2
 10
45.877
 20
159.5
 30
0.0
 11
45.877
 21
171.8
 31
0.0
  0
LINE
  8
0
  6
CONTINUOUS
 62
     2
 10
60.877
 20
159.5
 30
0.0
 11
60.877
 21
171.8
 31
0.0
  0
LINE
  8
0
  6
CONTINUOUS
 62
     2
 10
44.777
 20
159.015
 30
0.0
 11
30.927
 21
159.015
 31
0.0
  0
LINE
  8
0
  6
CONTINUOUS
 62
     2
 10
32.927
 20
159.015
 30
0.0
 11
32.279952387
 21
156.600185434
 31
0.0
  0
LINE
  8
0
  6
CONTINUOUS
 62
     2
 10
32.927
 20
159.015
 30
0.0
 11
33.574047613
 21
156.600185434
 31
0.0
  0
LINE
  8
0
  6
CONTINUOUS
 62
     2
 10
32.927
 20
159.015
 30
0.0
 11
32.927
 21
109.015
 31
0.0
  0
TEXT
  8
0
  6
CONTINUOUS
 62
     2
 10
31.927
 20
131.015
 30
0.3
 40
3.0
  1
１００
 50
90.0
 41
0.6
 51
0.0
  7
KANJI7
  0
LINE
  8
0
  6
CONTINUOUS
 62
     2
 10
32.927
 20
109.015
 30
0.0
 11
33.574047613
 21
111.429814566
 31
0.0
  0
LINE
  8
0
  6
CONTINUOUS
 62
     2
 10
32.927
 20
109.015
 30
0.0
 11
32.279952387
 21
111.429814566
 31
0.0
  0
LINE
  8
0
  6
CONTINUOUS
 62
     2
 10
44.277
 20
109.015
 30
0.0
 11
30.927
 21
109.015
 31
0.0
  0
TEXT
  8
0
  6
CONTINUOUS
 62
     2
 10
49.427
 20
175.000008741
 30
0.3
 40
3.0
  1
３５
 50
0.0
 41
0.6
 51
0.0
  7
KANJI7
  0
LINE
  8
0
  6
CONTINUOUS
 62
     1
 10
53.352
 20
151.0
 30
0.0
 11
51.352
 21
151.0
 31
0.0
  0
LINE
  8
0
  6
CONTINUOUS
 62
     1
 10
51.352
 20
147.6
 30
0.0
 11
53.352
 21
147.6
 31
0.0
  0
LINE
  8
0
  6
CONTINUOUS
 62
     1
 10
53.352
 20
144.2
 30
0.0
 11
51.352
 21
144.2
 31
0.0
  0
LINE
  8
0
  6
CONTINUOUS
 62
     1
 10
53.352
 20
140.8
 30
0.0
 11
51.352
 21
140.8
 31
0.0
  0
LINE
  8
0
  6
CONTINUOUS
 62
     1
 10
51.352
 20
137.4
 30
0.0
 11
53.352
 21
137.4
 31
0.0
  0
LINE
  8
0
  6
CONTINUOUS
 62
     1
 10
53.352
 20
134.0
 30
0.0
 11
51.352
 21
134.0
 31
0.0
  0
LINE
  8
0
  6
CONTINUOUS
 62
     1
 10
51.352
 20
130.6
 30
0.0
 11
53.352
 21
130.6
 31
0.0
  0
LINE
  8
0
  6
CONTINUOUS
 62
     1
 10
53.352
 20
127.2
 30
0.0
 11
51.352
 21
127.2
 31
0.0
  0
LINE
  8
0
  6
CONTINUOUS
 62
     1
 10
53.352
 20
123.8
 30
0.0
 11
51.302
 21
123.8
 31
0.0
  0
LINE
  8
0
  6
CONTINUOUS
 62
     1
 10
51.302
 20
120.4
 30
0.0
 11
53.352
 21
120.4
 31
0.0
  0
LINE
  8
0
  6
CONTINUOUS
 62
     1
 10
53.352
 20
117.0
 30
0.0
 11
51.352
 21
117.0
 31
0.0
  0
TEXT
  8
0
  6
CONTINUOUS
 62
     1
 10
49.402
 20
133.0
 30
0.2
 40
2.0
  1
Ｖ
 50
0.0
 41
0.9
 51
0.0
  7
KANJI9
  0
LINE
  8
0
  6
CONTINUOUS
 62
     2
 10
52.852
 20
118.7
 30
0.0
 11
51.352
 21
118.7
 31
0.0
  0
LINE
  8
0
  6
CONTINUOUS
 62
     2
 10
51.352
 20
122.1
 30
0.0
 11
52.852
 21
122.1
 31
0.0
  0
LINE
  8
0
  6
CONTINUOUS
 62
     2
 10
52.852
 20
125.5
 30
0.0
 11
51.352
 21
125.5
 31
0.0
  0
LINE
  8
0
  6
CONTINUOUS
 62
     2
 10
51.352
 20
128.9
 30
0.0
 11
52.852
 21
128.9
 31
0.0
  0
LINE
  8
0
  6
CONTINUOUS
 62
     2
 10
52.852
 20
132.3
 30
0.0
 11
51.352
 21
132.3
 31
0.0
  0
LINE
  8
0
  6
CONTINUOUS
 62
     2
 10
51.352
 20
135.7
 30
0.0
 11
52.852
 21
135.7
 31
0.0
  0
LINE
  8
0
  6
CONTINUOUS
 62
     2
 10
52.852
 20
139.1
 30
0.0
 11
51.352
 21
139.1
 31
0.0
  0
LINE
  8
0
  6
CONTINUOUS
 62
     2
 10
51.352
 20
142.5
 30
0.0
 11
52.852
 21
142.5
 31
0.0
  0
LINE
  8
0
  6
CONTINUOUS
 62
     2
 10
52.852
 20
145.9
 30
0.0
 11
51.352
 21
145.9
 31
0.0
  0
LINE
  8
0
  6
CONTINUOUS
 62
     2
 10
51.352
 20
149.3
 30
0.0
 11
52.852
 21
149.3
 31
0.0
  0
TEXT
  8
0
  6
CONTINUOUS
 62
     2
 10
53.352
 20
150.25
 30
0.15
 40
1.5
  1
１００
 50
0.0
 41
0.9
 51
0.0
  7
KANJI10
  0
TEXT
  8
0
  6
CONTINUOUS
 62
     2
 10
53.602
 20
143.45
 30
0.15
 40
1.5
  1
８０
 50
0.0
 41
0.9
 51
0.0
  7
KANJI10
  0
TEXT
  8
0
  6
CONTINUOUS
 62
     2
 10
53.602
 20
136.65
 30
0.15
 40
1.5
  1
６０
 50
0.0
 41
0.9
 51
0.0
  7
KANJI10
  0
TEXT
  8
0
  6
CONTINUOUS
 62
     2
 10
53.602
 20
129.85
 30
0.15
 40
1.5
  1
４０
 50
0.0
 41
0.9
 51
0.0
  7
KANJI10
  0
TEXT
  8
0
  6
CONTINUOUS
 62
     2
 10
53.602
 20
123.05
 30
0.15
 40
1.5
  1
２０
 50
0.0
 41
0.9
 51
0.0
  7
KANJI10
  0
TEXT
  8
0
  6
CONTINUOUS
 62
     2
 10
53.602
 20
116.25
 30
0.15
 40
1.5
  1
０
 50
0.0
 41
0.9
 51
0.0
  7
KANJI10
  0
LINE
  8
0
  6
CONTINUOUS
 62
     2
 10
51.327
 20
115.025
 30
0.0
 11
51.327
 21
152.975
 31
0.0
  0
TEXT
  8
0
  6
CONTINUOUS
 62
     2
 10
53.447
 20
174.9
 30
0.18
 40
1.8
  1
±０．５
 50
0.0
 41
0.6
 51
0.0
  7
KANJI3
  0
TEXT
  8
0
  6
CONTINUOUS
 62
     2
 10
52.897
 20
170.8
 30
0.18
 40
1.8
  1
±０．５
 50
0.0
 41
0.6
 51
0.0
  7
KANJI3
  0
LINE
  8
0
  6
CONTINUOUS
 62
     2
 10
29.8865
 20
124.575
 30
0.0
 11
25.7865
 21
124.575
 31
0.0
  0
TEXT
  8
0
  6
CONTINUOUS
 62
     2
 10
26.2865
 20
125.575
 30
0.6
 40
3.0
  1
指針
 50
0.0
 41
0.6
 51
0.0
  7
KANJI11
  0
LINE
  8
0
  6
CONTINUOUS
 62
     2
 10
48.3865
 20
117.325
 30
0.0
 11
46.37426059
 21
118.808540548
 31
0.0
  0
LINE
  8
0
  6
CONTINUOUS
 62
     2
 10
48.3865
 20
117.325
 30
0.0
 11
45.902079279
 21
117.603664098
 31
0.0
  0
LINE
  8
0
  6
CONTINUOUS
 62
     2
 10
48.3865
 20
117.325
 30
0.0
 11
29.8865
 21
124.575
 31
0.0
  0
LINE
  8
0
  6
CONTINUOUS
 62
     2
 10
36.0115
 20
100.9
 30
0.0
 11
29.6115
 21
100.9
 31
0.0
  0
TEXT
  8
0
  6
CONTINUOUS
 62
     2
 10
29.6115
 20
101.9
 30
0.3
 40
3.0
  1
化粧枠
 50
0.0
 41
0.6
 51
0.0
  7
KANJI7
  0
LINE
  8
0
  6
CONTINUOUS
 62
     2
 10
45.2615
 20
109.9
 30
0.0
 11
43.07951792
 21
108.679772888
 31
0.0
  0
LINE
  8
0
  6
CONTINUOUS
 62
     2
 10
45.2615
 20
109.9
 30
0.0
 11
43.981961644
 21
107.752261283
 31
0.0
  0
LINE
  8
0
  6
CONTINUOUS
 62
     2
 10
45.2615
 20
109.9
 30
0.0
 11
36.0115
 21
100.9
 31
0.0
  0
TEXT
  8
0
  6
CONTINUOUS
 62
     2
 10
104.66
 20
84.105
 30
0.1
 40
2.8
  1
（３１．８　　）
 50
0.0
 41
0.714285714
 51
0.0
  7
KANJI12
  0
TEXT
  8
0
  6
CONTINUOUS
 62
     2
 10
114.324
 20
85.585
 30
0.144
 40
1.44
  1
＋０．５
 50
0.0
 41
0.6
 51
0.0
  7
KANJI13
  0
TEXT
  8
0
  6
CONTINUOUS
 62
     2
 10
114.324
 20
84.145
 30
0.144
 40
1.44
  1
－０
 50
0.0
 41
0.6
 51
0.0
  7
KANJI13
  0
TEXT
  8
0
  6
CONTINUOUS
 62
     2
 10
107.615
 20
89.13
 30
0.3
 40
3.0
  1
３１
 50
0.0
 41
0.6
 51
0.0
  7
KANJI7
  0
TEXT
  8
0
  6
CONTINUOUS
 62
     2
 10
111.965
 20
89.13
 30
0.18
 40
1.8
  1
－０
 50
0.0
 41
0.6
 51
0.0
  7
KANJI3
  0
TEXT
  8
0
  6
CONTINUOUS
 62
     2
 10
111.965
 20
90.93
 30
0.18
 40
1.8
  1
＋０．５
 50
0.0
 41
0.6
 51
0.0
  7
KANJI3
  0
TEXT
  8
0
  6
CONTINUOUS
 62
     2
 10
107.615
 20
93.13
 30
0.3
 40
3.0
  1
注２
 50
0.0
 41
0.6
 51
0.0
  7
KANJI7
  0
TEXT
  8
0
  6
CONTINUOUS
 62
     2
 10
106.615
 20
80.13
 30
0.3
 40
3.0
  1
注１
 50
0.0
 41
0.6
 51
0.0
  7
KANJI7
  0
LINE
  8
0
  6
CONTINUOUS
 62
     2
 10
106.615
 20
79.945
 30
0.0
 11
106.831
 21
79.945
 31
0.0
  0
TEXT
  8
0
  6
CONTINUOUS
 62
     2
 10
96.13
 20
49.28
 30
0.2
 40
3.0
  1
９６．５
 50
90.0
 41
0.45
 51
0.0
  7
KANJI8
  0
TEXT
  8
0
  6
CONTINUOUS
 62
     2
 10
96.501
 20
56.358
 30
0.5
 40
1.5
  1
－０
 50
90.0
 41
1.0
 51
0.0
  7
KANJI14
  0
TEXT
  8
0
  6
CONTINUOUS
 62
     2
 10
94.779
 20
56.219
 30
0.5
 40
1.5
  1
＋０．５
 50
90.0
 41
1.0
 51
0.0
  7
KANJI14
  0
POLYLINE
  8
0
  6
CONTINUOUS
 62
     1
 66
     1
  0
VERTEX
  8
0
  6
CONTINUOUS
 62
     1
 10
104.25
 20
30.875
 30
0.0
  0
VERTEX
  8
0
  6
CONTINUOUS
 62
     1
 10
119.75
 20
30.875
 30
0.0
  0
VERTEX
  8
0
  6
CONTINUOUS
 62
     1
 10
119.75
 20
79.125
 30
0.0
  0
SEQEND
  0
LINE
  8
0
  6
CONTINUOUS
 62
     1
 10
104.25
 20
79.125
 30
0.0
 11
104.25
 21
30.875
 31
0.0
  0
LINE
  8
0
  6
CONTINUOUS
 62
     1
 10
119.75
 20
79.125
 30
0.0
 11
104.25
 21
79.125
 31
0.0
  0
LINE
  8
0
  6
CONTINUOUS
 62
     2
 10
102.715
 20
79.125
 30
0.0
 11
95.13
 21
79.125
 31
0.0
  0
LINE
  8
0
  6
CONTINUOUS
 62
     2
 10
97.13
 20
79.125
 30
0.0
 11
96.482952387
 21
76.710185434
 31
0.0
  0
LINE
  8
0
  6
CONTINUOUS
 62
     2
 10
97.13
 20
79.125
 30
0.0
 11
97.777047613
 21
76.710185434
 31
0.0
  0
LINE
  8
0
  6
CONTINUOUS
 62
     2
 10
103.475
 20
30.875
 30
0.0
 11
95.13
 21
30.875
 31
0.0
  0
LINE
  8
0
  6
CONTINUOUS
 62
     2
 10
97.13
 20
30.875
 30
0.0
 11
96.482952387
 21
33.289814566
 31
0.0
  0
LINE
  8
0
  6
CONTINUOUS
 62
     2
 10
97.13
 20
30.875
 30
0.0
 11
97.777047613
 21
33.289814566
 31
0.0
  0
LINE
  8
0
  6
CONTINUOUS
 62
     2
 10
97.13
 20
79.125
 30
0.0
 11
97.13
 21
30.875
 31
0.0
  0
LINE
  8
0
  6
CONTINUOUS
 62
     2
 10
104.25
 20
80.13
 30
0.0
 11
104.25
 21
90.13
 31
0.0
  0
LINE
  8
0
  6
CONTINUOUS
 62
     2
 10
104.25
 20
88.13
 30
0.0
 11
106.664814566
 21
87.482952387
 31
0.0
  0
LINE
  8
0
  6
CONTINUOUS
 62
     2
 10
104.25
 20
88.13
 30
0.0
 11
106.664814566
 21
88.777047613
 31
0.0
  0
LINE
  8
0
  6
CONTINUOUS
 62
     2
 10
119.75
 20
88.13
 30
0.0
 11
117.335185434
 21
88.777047613
 31
0.0
  0
LINE
  8
0
  6
CONTINUOUS
 62
     2
 10
119.75
 20
88.13
 30
0.0
 11
117.335185434
 21
87.482952387
 31
0.0
  0
LINE
  8
0
  6
CONTINUOUS
 62
     2
 10
119.75
 20
80.13
 30
0.0
 11
119.75
 21
90.13
 31
0.0
  0
LINE
  8
0
  6
CONTINUOUS
 62
     2
 10
104.25
 20
88.13
 30
0.0
 11
119.75
 21
88.13
 31
0.0
  0
TEXT
  8
0
  6
CONTINUOUS
 62
     2
 10
103.5
 20
24.56
 30
0.3
 40
3.0
  1
パネルカット
 50
0.0
 41
0.9
 51
0.0
  7
KANJI1
  0
LINE
  8
0
  6
CONTINUOUS
 62
     2
 10
102.0
 20
23.26
 30
0.0
 11
121.4
 21
23.26
 31
0.0
  0
LINE
  8
0
  6
LTYPE1
 62
     2
 10
100.26
 20
55.0
 30
0.0
 11
124.26
 21
55.0
 31
0.0
  0
LINE
  8
0
  6
CONTINUOUS
 62
     1
 10
184.7575
 20
133.98
 30
0.0
 11
184.7575
 21
157.98
 31
0.0
  0
LINE
  8
0
  6
CONTINUOUS
 62
     1
 10
194.7575
 20
150.48
 30
0.0
 11
189.7575
 21
150.48
 31
0.0
  0
LINE
  8
0
  6
CONTINUOUS
 62
     1
 10
184.7575
 20
157.98
 30
0.0
 11
189.7575
 21
157.98
 31
0.0
  0
LINE
  8
0
  6
CONTINUOUS
 62
     1
 10
199.7575
 20
157.98
 30
0.0
 11
194.7575
 21
157.98
 31
0.0
  0
ARC
  8
0
  6
CONTINUOUS
 62
     1
 10
184.7575
 20
158.005
 30
0.0
 40
1.0
 50
90.0
 51
180.0
  0
ARC
  8
0
  6
CONTINUOUS
 62
     1
 10
199.7575
 20
157.98
 30
0.0
 40
1.0
 50
0.0
 51
90.0
  0
LINE
  8
0
  6
CONTINUOUS
 62
     1
 10
199.7575
 20
158.98
 30
0.0
 11
194.7575
 21
158.98
 31
0.0
  0
LINE
  8
0
  6
CONTINUOUS
 62
     1
 10
189.7575
 20
158.98
 30
0.0
 11
184.7575
 21
159.005
 31
0.0
  0
LINE
  8
0
  6
CONTINUOUS
 62
     1
 10
183.8075
 20
158.0172499
 30
0.0
 11
183.8075
 21
133.9672499
 31
0.0
  0
LINE
  8
0
  6
CONTINUOUS
 62
     1
 10
200.7575
 20
157.98
 30
0.0
 11
200.7575
 21
133.9922499
 31
0.0
  0
POINT
  8
0
  6
CONTINUOUS
 62
     1
 10
184.76
 20
149.93
 30
0.0
  0
LINE
  8
0
  6
CONTINUOUS
 62
     1
 10
184.76
 20
149.93
 30
0.0
 11
199.76
 21
149.93
 31
0.0
  0
LINE
  8
0
  6
CONTINUOUS
 62
     1
 10
184.76
 20
146.48
 30
0.0
 11
199.76
 21
146.48
 31
0.0
  0
LINE
  8
0
  6
CONTINUOUS
 62
     1
 10
199.76
 20
136.63
 30
0.0
 11
184.76
 21
136.63
 31
0.0
  0
CIRCLE
  8
0
  6
CONTINUOUS
 62
     1
 10
192.2575
 20
140.23
 30
0.0
 40
1.675
  0
LINE
  8
0
  6
CONTINUOUS
 62
     1
 10
184.7575
 20
133.98
 30
0.0
 11
184.7575
 21
109.98
 31
0.0
  0
LINE
  8
0
  6
CONTINUOUS
 62
     1
 10
194.7575
 20
117.48
 30
0.0
 11
189.7575
 21
117.48
 31
0.0
  0
LINE
  8
0
  6
CONTINUOUS
 62
     1
 10
184.7575
 20
109.98
 30
0.0
 11
189.7575
 21
109.98
 31
0.0
  0
LINE
  8
0
  6
CONTINUOUS
 62
     1
 10
199.7575
 20
109.98
 30
0.0
 11
194.7575
 21
109.98
 31
0.0
  0
ARC
  8
0
  6
CONTINUOUS
 62
     1
 10
199.7575
 20
109.98
 30
0.0
 40
1.0
 50
270.0
 51
0.0
  0
LINE
  8
0
  6
CONTINUOUS
 62
     1
 10
199.7575
 20
108.98
 30
0.0
 11
194.7575
 21
108.98
 31
0.0
  0
LINE
  8
0
  6
CONTINUOUS
 62
     1
 10
183.8075
 20
109.9427501
 30
0.0
 11
183.8075
 21
133.9927501
 31
0.0
  0
LINE
  8
0
  6
CONTINUOUS
 62
     1
 10
200.7575
 20
109.98
 30
0.0
 11
200.7575
 21
133.9677501
 31
0.0
  0
POINT
  8
0
  6
CONTINUOUS
 62
     1
 10
184.76
 20
118.03
 30
0.0
  0
LINE
  8
0
  6
CONTINUOUS
 62
     1
 10
184.76
 20
118.03
 30
0.0
 11
199.76
 21
118.03
 31
0.0
  0
LINE
  8
0
  6
CONTINUOUS
 62
     1
 10
184.76
 20
121.48
 30
0.0
 11
199.76
 21
121.48
 31
0.0
  0
LINE
  8
0
  6
CONTINUOUS
 62
     1
 10
199.76
 20
131.33
 30
0.0
 11
184.76
 21
131.33
 31
0.0
  0
CIRCLE
  8
0
  6
CONTINUOUS
 62
     1
 10
192.2575
 20
127.73
 30
0.0
 40
1.675
  0
CIRCLE
  8
0
  6
CONTINUOUS
 62
     2
 10
192.26
 20
153.98
 30
0.0
 40
1.5
  0
LINE
  8
0
  6
CONTINUOUS
 62
     2
 10
191.385
 20
154.18
 30
0.0
 11
191.86
 21
154.18
 31
0.0
  0
ARC
  8
0
  6
CONTINUOUS
 62
     2
 10
191.86
 20
154.38
 30
0.0
 40
0.2
 50
270.0
 51
0.0
  0
LINE
  8
0
  6
CONTINUOUS
 62
     2
 10
192.06
 20
154.38
 30
0.0
 11
192.06
 21
154.855
 31
0.0
  0
LINE
  8
0
  6
CONTINUOUS
 62
     2
 10
192.06
 20
154.855
 30
0.0
 11
192.46
 21
154.855
 31
0.0
  0
LINE
  8
0
  6
CONTINUOUS
 62
     2
 10
192.46
 20
154.855
 30
0.0
 11
192.46
 21
154.38
 31
0.0
  0
ARC
  8
0
  6
CONTINUOUS
 62
     2
 10
192.66
 20
154.38
 30
0.0
 40
0.2
 50
180.0
 51
270.0
  0
LINE
  8
0
  6
CONTINUOUS
 62
     2
 10
192.66
 20
154.18
 30
0.0
 11
193.135
 21
154.18
 31
0.0
  0
LINE
  8
0
  6
CONTINUOUS
 62
     2
 10
193.135
 20
154.18
 30
0.0
 11
193.135
 21
153.78
 31
0.0
  0
LINE
  8
0
  6
CONTINUOUS
 62
     2
 10
193.135
 20
153.78
 30
0.0
 11
192.66
 21
153.78
 31
0.0
  0
ARC
  8
0
  6
CONTINUOUS
 62
     2
 10
192.66
 20
153.58
 30
0.0
 40
0.2
 50
90.0
 51
180.0
  0
LINE
  8
0
  6
CONTINUOUS
 62
     2
 10
192.46
 20
153.58
 30
0.0
 11
192.46
 21
153.105
 31
0.0
  0
LINE
  8
0
  6
CONTINUOUS
 62
     2
 10
192.46
 20
153.105
 30
0.0
 11
192.06
 21
153.105
 31
0.0
  0
LINE
  8
0
  6
CONTINUOUS
 62
     2
 10
192.06
 20
153.105
 30
0.0
 11
192.06
 21
153.58
 31
0.0
  0
ARC
  8
0
  6
CONTINUOUS
 62
     2
 10
191.86
 20
153.58
 30
0.0
 40
0.2
 50
0.0
 51
90.0
  0
LINE
  8
0
  6
CONTINUOUS
 62
     2
 10
191.86
 20
153.78
 30
0.0
 11
191.385
 21
153.78
 31
0.0
  0
LINE
  8
0
  6
CONTINUOUS
 62
     2
 10
191.385
 20
153.78
 30
0.0
 11
191.385
 21
154.18
 31
0.0
  0
LINE
  8
0
  6
LTYPE1
 62
     2
 10
190.26
 20
153.98
 30
0.0
 11
194.26
 21
153.98
 31
0.0
  0
LINE
  8
0
  6
LTYPE1
 62
     2
 10
192.26
 20
155.98
 30
0.0
 11
192.26
 21
151.98
 31
0.0
  0
CIRCLE
  8
0
  6
CONTINUOUS
 62
     2
 10
197.26
 20
153.98
 30
0.0
 40
1.25
  0
CIRCLE
  8
0
  6
CONTINUOUS
 62
     2
 10
197.26
 20
153.98
 30
0.0
 40
0.625
  0
CIRCLE
  8
0
  6
CONTINUOUS
 62
     2
 10
187.26
 20
153.98
 30
0.0
 40
0.625
  0
CIRCLE
  8
0
  6
CONTINUOUS
 62
     2
 10
187.26
 20
153.98
 30
0.0
 40
1.25
  0
LINE
  8
0
  6
CONTINUOUS
 62
     2
 10
189.71
 20
156.48
 30
0.0
 11
184.76
 21
156.48
 31
0.0
  0
LINE
  8
0
  6
CONTINUOUS
 62
     2
 10
194.76
 20
156.48
 30
0.0
 11
199.76
 21
156.48
 31
0.0
  0
ARC
  8
0
  6
CONTINUOUS
 62
     2
 10
192.7875
 20
140.85
 30
0.0
 40
0.35
 50
180.0
 51
270.0
  0
ARC
  8
0
  6
CONTINUOUS
 62
     2
 10
192.7875
 20
139.65
 30
0.0
 40
0.35
 50
90.0
 51
180.0
  0
ARC
  8
0
  6
CONTINUOUS
 62
     2
 10
191.7275
 20
139.65
 30
0.0
 40
0.35
 50
0.0
 51
90.0
  0
ARC
  8
0
  6
CONTINUOUS
 62
     2
 10
191.7275
 20
140.87
 30
0.0
 40
0.35
 50
270.0
 51
0.0
  0
LINE
  8
0
  6
CONTINUOUS
 62
     2
 10
191.7275
 20
140.52
 30
0.0
 11
190.604404419
 21
140.5
 31
0.0
  0
LINE
  8
0
  6
CONTINUOUS
 62
     2
 10
190.604404419
 20
139.98
 30
0.0
 11
191.7275
 21
140.0
 31
0.0
  0
LINE
  8
0
  6
CONTINUOUS
 62
     2
 10
192.0775
 20
139.65
 30
0.0
 11
192.0775
 21
139.28
 31
0.0
  0
LINE
  8
0
  6
CONTINUOUS
 62
     2
 10
192.0775
 20
139.28
 30
0.0
 11
192.4475
 21
139.28
 31
0.0
  0
LINE
  8
0
  6
CONTINUOUS
 62
     2
 10
192.4475
 20
139.29
 30
0.0
 11
192.4375
 21
139.65
 31
0.0
  0
LINE
  8
0
  6
CONTINUOUS
 62
     2
 10
192.7875
 20
140.0
 30
0.0
 11
193.8775
 21
140.0
 31
0.0
  0
LINE
  8
0
  6
CONTINUOUS
 62
     2
 10
193.8775
 20
140.52
 30
0.0
 11
192.7875
 21
140.52
 31
0.0
  0
LINE
  8
0
  6
CONTINUOUS
 62
     2
 10
192.4375
 20
140.85
 30
0.0
 11
192.4375
 21
141.19
 31
0.0
  0
LINE
  8
0
  6
CONTINUOUS
 62
     2
 10
192.4375
 20
141.19
 30
0.0
 11
192.0775
 21
141.19
 31
0.0
  0
LINE
  8
0
  6
CONTINUOUS
 62
     2
 10
192.0775
 20
141.19
 30
0.0
 11
192.0775
 21
140.87
 31
0.0
  0
CIRCLE
  8
0
  6
CONTINUOUS
 62
     2
 10
192.26
 20
113.98
 30
0.0
 40
1.5
  0
LINE
  8
0
  6
CONTINUOUS
 62
     2
 10
191.385
 20
113.78
 30
0.0
 11
191.86
 21
113.78
 31
0.0
  0
ARC
  8
0
  6
CONTINUOUS
 62
     2
 10
191.86
 20
113.58
 30
0.0
 40
0.2
 50
0.0
 51
90.0
  0
LINE
  8
0
  6
CONTINUOUS
 62
     2
 10
192.06
 20
113.105
 30
0.0
 11
192.46
 21
113.105
 31
0.0
  0
LINE
  8
0
  6
CONTINUOUS
 62
     2
 10
192.46
 20
113.105
 30
0.0
 11
192.46
 21
113.58
 31
0.0
  0
ARC
  8
0
  6
CONTINUOUS
 62
     2
 10
192.66
 20
113.58
 30
0.0
 40
0.2
 50
90.0
 51
180.0
  0
LINE
  8
0
  6
CONTINUOUS
 62
     2
 10
192.66
 20
113.78
 30
0.0
 11
193.135
 21
113.78
 31
0.0
  0
LINE
  8
0
  6
CONTINUOUS
 62
     2
 10
193.135
 20
113.78
 30
0.0
 11
193.135
 21
114.18
 31
0.0
  0
LINE
  8
0
  6
CONTINUOUS
 62
     2
 10
193.135
 20
114.18
 30
0.0
 11
192.66
 21
114.18
 31
0.0
  0
ARC
  8
0
  6
CONTINUOUS
 62
     2
 10
192.66
 20
114.38
 30
0.0
 40
0.2
 50
180.0
 51
270.0
  0
LINE
  8
0
  6
CONTINUOUS
 62
     2
 10
192.46
 20
114.38
 30
0.0
 11
192.46
 21
114.855
 31
0.0
  0
LINE
  8
0
  6
CONTINUOUS
 62
     2
 10
192.46
 20
114.855
 30
0.0
 11
192.06
 21
114.855
 31
0.0
  0
ARC
  8
0
  6
CONTINUOUS
 62
     2
 10
191.86
 20
114.38
 30
0.0
 40
0.2
 50
270.0
 51
0.0
  0
LINE
  8
0
  6
CONTINUOUS
 62
     2
 10
191.86
 20
114.18
 30
0.0
 11
191.385
 21
114.18
 31
0.0
  0
LINE
  8
0
  6
CONTINUOUS
 62
     2
 10
191.385
 20
114.18
 30
0.0
 11
191.385
 21
113.78
 31
0.0
  0
LINE
  8
0
  6
LTYPE1
 62
     2
 10
190.26
 20
113.98
 30
0.0
 11
194.26
 21
113.98
 31
0.0
  0
CIRCLE
  8
0
  6
CONTINUOUS
 62
     2
 10
197.26
 20
113.98
 30
0.0
 40
1.25
  0
CIRCLE
  8
0
  6
CONTINUOUS
 62
     2
 10
197.26
 20
113.98
 30
0.0
 40
0.625
  0
CIRCLE
  8
0
  6
CONTINUOUS
 62
     2
 10
187.26
 20
113.98
 30
0.0
 40
0.625
  0
CIRCLE
  8
0
  6
CONTINUOUS
 62
     2
 10
187.26
 20
113.98
 30
0.0
 40
1.25
  0
LINE
  8
0
  6
CONTINUOUS
 62
     2
 10
189.71
 20
111.48
 30
0.0
 11
184.76
 21
111.48
 31
0.0
  0
LINE
  8
0
  6
CONTINUOUS
 62
     2
 10
194.76
 20
111.48
 30
0.0
 11
199.76
 21
111.48
 31
0.0
  0
ARC
  8
0
  6
CONTINUOUS
 62
     2
 10
192.7875
 20
127.11
 30
0.0
 40
0.35
 50
90.0
 51
180.0
  0
ARC
  8
0
  6
CONTINUOUS
 62
     2
 10
192.7875
 20
128.31
 30
0.0
 40
0.35
 50
180.0
 51
270.0
  0
ARC
  8
0
  6
CONTINUOUS
 62
     2
 10
191.7275
 20
128.31
 30
0.0
 40
0.35
 50
270.0
 51
0.0
  0
ARC
  8
0
  6
CONTINUOUS
 62
     2
 10
191.7275
 20
127.09
 30
0.0
 40
0.35
 50
0.0
 51
90.0
  0
LINE
  8
0
  6
CONTINUOUS
 62
     2
 10
191.7275
 20
127.44
 30
0.0
 11
190.604404419
 21
127.46
 31
0.0
  0
LINE
  8
0
  6
CONTINUOUS
 62
     2
 10
190.604404419
 20
127.98
 30
0.0
 11
191.7275
 21
127.96
 31
0.0
  0
LINE
  8
0
  6
CONTINUOUS
 62
     2
 10
192.0775
 20
128.31
 30
0.0
 11
192.0775
 21
128.68
 31
0.0
  0
LINE
  8
0
  6
CONTINUOUS
 62
     2
 10
192.0775
 20
128.68
 30
0.0
 11
192.4475
 21
128.68
 31
0.0
  0
LINE
  8
0
  6
CONTINUOUS
 62
     2
 10
192.4475
 20
128.67
 30
0.0
 11
192.4375
 21
128.31
 31
0.0
  0
LINE
  8
0
  6
CONTINUOUS
 62
     2
 10
192.7875
 20
127.96
 30
0.0
 11
193.8775
 21
127.96
 31
0.0
  0
LINE
  8
0
  6
CONTINUOUS
 62
     2
 10
193.8775
 20
127.44
 30
0.0
 11
192.7875
 21
127.44
 31
0.0
  0
LINE
  8
0
  6
CONTINUOUS
 62
     2
 10
192.4375
 20
127.11
 30
0.0
 11
192.4375
 21
126.77
 31
0.0
  0
LINE
  8
0
  6
CONTINUOUS
 62
     2
 10
192.4375
 20
126.77
 30
0.0
 11
192.0775
 21
126.77
 31
0.0
  0
LINE
  8
0
  6
CONTINUOUS
 62
     2
 10
192.0775
 20
126.77
 30
0.0
 11
192.0775
 21
127.09
 31
0.0
  0
TEXT
  8
0
  6
CONTINUOUS
 62
     2
 10
195.0975
 20
138.76
 30
0.3
 40
3.0
  1
＋
 50
0.0
 41
0.9
 51
0.0
  7
KANJI1
  0
CIRCLE
  8
0
  6
CONTINUOUS
 62
     2
 10
196.3575
 20
140.25
 30
0.0
 40
1.675
  0
CIRCLE
  8
0
  6
CONTINUOUS
 62
     2
 10
187.2575
 20
134.0
 30
0.0
 40
1.0
  0
CIRCLE
  8
0
  6
CONTINUOUS
 62
     2
 10
187.2575
 20
134.0
 30
0.0
 40
0.5
  0
CIRCLE
  8
0
  6
CONTINUOUS
 62
     2
 10
197.2575
 20
134.0
 30
0.0
 40
0.5
  0
CIRCLE
  8
0
  6
CONTINUOUS
 62
     2
 10
197.2575
 20
134.0
 30
0.0
 40
1.0
  0
LINE
  8
0
  6
CONTINUOUS
 62
     2
 10
190.42
 20
140.23
 30
0.0
 11
177.62
 21
140.23
 31
0.0
  0
LINE
  8
0
  6
CONTINUOUS
 62
     2
 10
179.62
 20
140.23
 30
0.0
 11
178.972952387
 21
137.815185434
 31
0.0
  0
LINE
  8
0
  6
CONTINUOUS
 62
     2
 10
179.62
 20
140.23
 30
0.0
 11
180.267047613
 21
137.815185434
 31
0.0
  0
LINE
  8
0
  6
CONTINUOUS
 62
     2
 10
179.62
 20
140.23
 30
0.0
 11
179.62
 21
127.73
 31
0.0
  0
LINE
  8
0
  6
CONTINUOUS
 62
     2
 10
179.62
 20
127.73
 30
0.0
 11
180.267047613
 21
130.144814566
 31
0.0
  0
LINE
  8
0
  6
CONTINUOUS
 62
     2
 10
179.62
 20
127.73
 30
0.0
 11
178.972952387
 21
130.144814566
 31
0.0
  0
LINE
  8
0
  6
CONTINUOUS
 62
     2
 10
190.42
 20
127.73
 30
0.0
 11
177.62
 21
127.73
 31
0.0
  0
TEXT
  8
0
  6
CONTINUOUS
 62
     2
 10
178.62
 20
132.03
 30
0.3
 40
3.0
  1
２５
 50
90.0
 41
0.6
 51
0.0
  7
KANJI7
  0
LINE
  8
0
  6
CONTINUOUS
 62
     2
 10
201.0825
 20
109.98
 30
0.0
 11
216.3825
 21
109.98
 31
0.0
  0
LINE
  8
0
  6
CONTINUOUS
 62
     2
 10
214.3825
 20
109.98
 30
0.0
 11
215.029547613
 21
112.394814566
 31
0.0
  0
LINE
  8
0
  6
CONTINUOUS
 62
     2
 10
214.3825
 20
109.98
 30
0.0
 11
213.735452387
 21
112.394814566
 31
0.0
  0
LINE
  8
0
  6
CONTINUOUS
 62
     2
 10
214.3825
 20
109.98
 30
0.0
 11
214.3825
 21
157.98
 31
0.0
  0
LINE
  8
0
  6
CONTINUOUS
 62
     2
 10
214.3825
 20
157.98
 30
0.0
 11
213.735452387
 21
155.565185434
 31
0.0
  0
LINE
  8
0
  6
CONTINUOUS
 62
     2
 10
214.3825
 20
157.98
 30
0.0
 11
215.029547613
 21
155.565185434
 31
0.0
  0
LINE
  8
0
  6
CONTINUOUS
 62
     2
 10
200.9575
 20
157.98
 30
0.0
 11
216.3825
 21
157.98
 31
0.0
  0
TEXT
  8
0
  6
CONTINUOUS
 62
     2
 10
213.3825
 20
130.23
 30
0.3
 40
3.0
  1
９６
 50
90.0
 41
0.6
 51
0.0
  7
KANJI7
  0
TEXT
  8
0
  6
CONTINUOUS
 62
     2
 10
211.5825
 20
134.13
 30
0.18
 40
1.8
  1
＋０．５
 50
90.0
 41
0.6
 51
0.0
  7
KANJI3
  0
TEXT
  8
0
  6
CONTINUOUS
 62
     2
 10
213.3825
 20
134.13
 30
0.18
 40
1.8
  1
－０
 50
90.0
 41
0.6
 51
0.0
  7
KANJI3
  0
LINE
  8
0
  6
CONTINUOUS
 62
     2
 10
184.7575
 20
159.33
 30
0.0
 11
184.7575
 21
176.03
 31
0.0
  0
LINE
  8
0
  6
CONTINUOUS
 62
     2
 10
199.7575
 20
159.33
 30
0.0
 11
199.7575
 21
176.03
 31
0.0
  0
LINE
  8
0
  6
CONTINUOUS
 62
     2
 10
184.825
 20
151.35
 30
0.0
 11
189.725
 21
151.35
 31
0.0
  0
LINE
  8
0
  6
CONTINUOUS
 62
     2
 10
194.825
 20
151.35
 30
0.0
 11
199.525
 21
151.35
 31
0.0
  0
LINE
  8
0
  6
CONTINUOUS
 62
     2
 10
184.825
 20
116.65
 30
0.0
 11
189.625
 21
116.65
 31
0.0
  0
LINE
  8
0
  6
CONTINUOUS
 62
     2
 10
194.725
 20
116.65
 30
0.0
 11
199.525
 21
116.65
 31
0.0
  0
TEXT
  8
0
  6
CONTINUOUS
 62
     2
 10
184.5575
 20
169.4
 30
0.1
 40
3.0
  1
（３１．４　　　）
 50
0.0
 41
0.666666667
 51
0.0
  7
KANJI0
  0
TEXT
  8
0
  6
CONTINUOUS
 62
     2
 10
193.7911
 20
170.1128
 30
0.1728
 40
1.728
  1
±０．５
 50
0.0
 41
0.6
 51
0.0
  7
KANJI15
  0
LINE
  8
0
  6
CONTINUOUS
 62
     2
 10
222.4975
 20
159.49
 30
0.0
 11
221.850452387
 21
157.075185434
 31
0.0
  0
LINE
  8
0
  6
CONTINUOUS
 62
     2
 10
222.4975
 20
159.49
 30
0.0
 11
223.144547613
 21
157.075185434
 31
0.0
  0
LINE
  8
0
  6
CONTINUOUS
 62
     2
 10
194.9375
 20
159.49
 30
0.0
 11
224.4975
 21
159.49
 31
0.0
  0
LINE
  8
0
  6
CONTINUOUS
 62
     2
 10
194.9375
 20
108.49
 30
0.0
 11
224.4975
 21
108.49
 31
0.0
  0
LINE
  8
0
  6
CONTINUOUS
 62
     2
 10
222.4975
 20
108.49
 30
0.0
 11
221.850452387
 21
110.904814566
 31
0.0
  0
LINE
  8
0
  6
CONTINUOUS
 62
     2
 10
222.4975
 20
108.49
 30
0.0
 11
223.144547613
 21
110.904814566
 31
0.0
  0
LINE
  8
0
  6
CONTINUOUS
 62
     2
 10
222.4975
 20
108.49
 30
0.0
 11
222.4975
 21
159.49
 31
0.0
  0
CIRCLE
  8
0
  6
CONTINUOUS
 62
     2
 10
192.2475
 20
108.49
 30
0.0
 40
1.5
  0
LINE
  8
0
  6
CONTINUOUS
 62
     2
 10
191.3725
 20
108.29
 30
0.0
 11
191.8475
 21
108.29
 31
0.0
  0
ARC
  8
0
  6
CONTINUOUS
 62
     2
 10
191.8475
 20
108.09
 30
0.0
 40
0.2
 50
0.0
 51
90.0
  0
LINE
  8
0
  6
CONTINUOUS
 62
     2
 10
192.0475
 20
108.09
 30
0.0
 11
192.0475
 21
107.615
 31
0.0
  0
LINE
  8
0
  6
CONTINUOUS
 62
     2
 10
192.0475
 20
107.615
 30
0.0
 11
192.4475
 21
107.615
 31
0.0
  0
LINE
  8
0
  6
CONTINUOUS
 62
     2
 10
192.4475
 20
107.615
 30
0.0
 11
192.4475
 21
108.09
 31
0.0
  0
ARC
  8
0
  6
CONTINUOUS
 62
     2
 10
192.6475
 20
108.09
 30
0.0
 40
0.2
 50
90.0
 51
180.0
  0
LINE
  8
0
  6
CONTINUOUS
 62
     2
 10
192.6475
 20
108.29
 30
0.0
 11
193.1225
 21
108.29
 31
0.0
  0
LINE
  8
0
  6
CONTINUOUS
 62
     2
 10
193.1225
 20
108.29
 30
0.0
 11
193.1225
 21
108.69
 31
0.0
  0
LINE
  8
0
  6
CONTINUOUS
 62
     2
 10
193.1225
 20
108.69
 30
0.0
 11
192.6475
 21
108.69
 31
0.0
  0
ARC
  8
0
  6
CONTINUOUS
 62
     2
 10
192.6475
 20
108.89
 30
0.0
 40
0.2
 50
180.0
 51
270.0
  0
LINE
  8
0
  6
CONTINUOUS
 62
     2
 10
192.4475
 20
108.89
 30
0.0
 11
192.4475
 21
109.365
 31
0.0
  0
LINE
  8
0
  6
CONTINUOUS
 62
     2
 10
192.4475
 20
109.365
 30
0.0
 11
192.0475
 21
109.365
 31
0.0
  0
LINE
  8
0
  6
CONTINUOUS
 62
     2
 10
192.0475
 20
109.365
 30
0.0
 11
192.0475
 21
108.89
 31
0.0
  0
ARC
  8
0
  6
CONTINUOUS
 62
     2
 10
191.8475
 20
108.89
 30
0.0
 40
0.2
 50
270.0
 51
0.0
  0
LINE
  8
0
  6
CONTINUOUS
 62
     2
 10
191.8475
 20
108.69
 30
0.0
 11
191.3725
 21
108.69
 31
0.0
  0
LINE
  8
0
  6
CONTINUOUS
 62
     2
 10
191.3725
 20
108.69
 30
0.0
 11
191.3725
 21
108.29
 31
0.0
  0
LINE
  8
0
  6
LTYPE1
 62
     2
 10
190.2475
 20
108.49
 30
0.0
 11
194.2475
 21
108.49
 31
0.0
  0
LINE
  8
0
  6
LTYPE1
 62
     2
 10
192.2475
 20
106.49
 30
0.0
 11
192.2475
 21
110.49
 31
0.0
  0
CIRCLE
  8
0
  6
CONTINUOUS
 62
     2
 10
192.2475
 20
159.49
 30
0.0
 40
1.5
  0
LINE
  8
0
  6
CONTINUOUS
 62
     2
 10
191.3725
 20
159.69
 30
0.0
 11
191.8475
 21
159.69
 31
0.0
  0
ARC
  8
0
  6
CONTINUOUS
 62
     2
 10
191.8475
 20
159.89
 30
0.0
 40
0.2
 50
270.0
 51
0.0
  0
LINE
  8
0
  6
CONTINUOUS
 62
     2
 10
192.0475
 20
159.89
 30
0.0
 11
192.0475
 21
160.365
 31
0.0
  0
LINE
  8
0
  6
CONTINUOUS
 62
     2
 10
192.0475
 20
160.365
 30
0.0
 11
192.4475
 21
160.365
 31
0.0
  0
LINE
  8
0
  6
CONTINUOUS
 62
     2
 10
192.4475
 20
160.365
 30
0.0
 11
192.4475
 21
159.89
 31
0.0
  0
ARC
  8
0
  6
CONTINUOUS
 62
     2
 10
192.6475
 20
159.89
 30
0.0
 40
0.2
 50
180.0
 51
270.0
  0
LINE
  8
0
  6
CONTINUOUS
 62
     2
 10
192.6475
 20
159.69
 30
0.0
 11
193.1225
 21
159.69
 31
0.0
  0
LINE
  8
0
  6
CONTINUOUS
 62
     2
 10
193.1225
 20
159.69
 30
0.0
 11
193.1225
 21
159.29
 31
0.0
  0
LINE
  8
0
  6
CONTINUOUS
 62
     2
 10
193.1225
 20
159.29
 30
0.0
 11
192.6475
 21
159.29
 31
0.0
  0
ARC
  8
0
  6
CONTINUOUS
 62
     2
 10
192.6475
 20
159.09
 30
0.0
 40
0.2
 50
90.0
 51
180.0
  0
LINE
  8
0
  6
CONTINUOUS
 62
     2
 10
192.4475
 20
159.09
 30
0.0
 11
192.4475
 21
158.615
 31
0.0
  0
LINE
  8
0
  6
CONTINUOUS
 62
     2
 10
192.4475
 20
158.615
 30
0.0
 11
192.0475
 21
158.615
 31
0.0
  0
LINE
  8
0
  6
CONTINUOUS
 62
     2
 10
192.0475
 20
158.615
 30
0.0
 11
192.0475
 21
159.09
 31
0.0
  0
ARC
  8
0
  6
CONTINUOUS
 62
     2
 10
191.8475
 20
159.09
 30
0.0
 40
0.2
 50
0.0
 51
90.0
  0
LINE
  8
0
  6
CONTINUOUS
 62
     2
 10
191.8475
 20
159.29
 30
0.0
 11
191.3725
 21
159.29
 31
0.0
  0
LINE
  8
0
  6
CONTINUOUS
 62
     2
 10
191.3725
 20
159.29
 30
0.0
 11
191.3725
 21
159.69
 31
0.0
  0
LINE
  8
0
  6
LTYPE1
 62
     2
 10
190.2475
 20
159.49
 30
0.0
 11
194.2475
 21
159.49
 31
0.0
  0
LINE
  8
0
  6
LTYPE1
 62
     2
 10
192.2475
 20
161.49
 30
0.0
 11
192.2475
 21
157.49
 31
0.0
  0
LINE
  8
0
  6
CONTINUOUS
 62
     2
 10
174.145
 20
161.99
 30
0.0
 11
173.497952387
 21
159.575185434
 31
0.0
  0
LINE
  8
0
  6
CONTINUOUS
 62
     2
 10
174.145
 20
161.99
 30
0.0
 11
174.792047613
 21
159.575185434
 31
0.0
  0
LINE
  8
0
  6
CONTINUOUS
 62
     2
 10
189.2575
 20
161.99
 30
0.0
 11
172.145
 21
161.99
 31
0.0
  0
LINE
  8
0
  6
CONTINUOUS
 62
     2
 10
189.2575
 20
105.99
 30
0.0
 11
172.145
 21
105.99
 31
0.0
  0
LINE
  8
0
  6
CONTINUOUS
 62
     1
 10
189.7475
 20
105.99
 30
0.0
 11
194.7575
 21
105.99
 31
0.0
  0
LINE
  8
0
  6
CONTINUOUS
 62
     1
 10
189.7575
 20
117.48
 30
0.0
 11
189.7575
 21
105.99
 31
0.0
  0
LINE
  8
0
  6
CONTINUOUS
 62
     1
 10
194.7575
 20
105.99
 30
0.0
 11
194.7575
 21
117.48
 31
0.0
  0
LINE
  8
0
  6
CONTINUOUS
 62
     2
 10
174.145
 20
105.99
 30
0.0
 11
174.792047613
 21
108.404814566
 31
0.0
  0
LINE
  8
0
  6
CONTINUOUS
 62
     2
 10
174.145
 20
105.99
 30
0.0
 11
173.497952387
 21
108.404814566
 31
0.0
  0
LINE
  8
0
  6
CONTINUOUS
 62
     2
 10
174.145
 20
105.99
 30
0.0
 11
174.145
 21
161.99
 31
0.0
  0
LINE
  8
0
  6
CONTINUOUS
 62
     1
 10
189.7575
 20
161.92
 30
0.0
 11
194.7575
 21
161.92
 31
0.0
  0
LINE
  8
0
  6
CONTINUOUS
 62
     1
 10
189.7575
 20
150.48
 30
0.0
 11
189.7575
 21
161.92
 31
0.0
  0
LINE
  8
0
  6
CONTINUOUS
 62
     1
 10
194.7575
 20
161.92
 30
0.0
 11
194.7575
 21
150.48
 31
0.0
  0
LINE
  8
0
  6
CONTINUOUS
 62
     2
 10
197.16
 20
141.52
 30
0.0
 11
198.679335893
 21
143.505350962
 31
0.0
  0
LINE
  8
0
  6
CONTINUOUS
 62
     2
 10
197.16
 20
141.52
 30
0.0
 11
197.483107999
 21
143.999032315
 31
0.0
  0
LINE
  8
0
  6
CONTINUOUS
 62
     2
 10
197.16
 20
141.52
 30
0.0
 11
210.16
 21
173.02
 31
0.0
  0
LINE
  8
0
  6
CONTINUOUS
 62
     1
 10
199.7575
 20
157.98
 30
0.0
 11
199.7575
 21
109.98
 31
0.0
  0
ARC
  8
0
  6
CONTINUOUS
 62
     1
 10
184.8075
 20
109.98
 30
0.0
 40
1.0
 50
180.0
 51
270.0
  0
LINE
  8
0
  6
CONTINUOUS
 62
     1
 10
184.7655
 20
108.98
 30
0.0
 11
189.7375
 21
108.98
 31
0.0
  0
LINE
  8
0
  6
CONTINUOUS
 62
     2
 10
184.7575
 20
174.03
 30
0.0
 11
187.172314566
 21
173.382952387
 31
0.0
  0
LINE
  8
0
  6
CONTINUOUS
 62
     2
 10
184.7575
 20
174.03
 30
0.0
 11
187.172314566
 21
174.677047613
 31
0.0
  0
LINE
  8
0
  6
CONTINUOUS
 62
     2
 10
184.7575
 20
174.03
 30
0.0
 11
199.7575
 21
174.03
 31
0.0
  0
LINE
  8
0
  6
CONTINUOUS
 62
     2
 10
199.7575
 20
174.03
 30
0.0
 11
197.342685434
 21
174.677047613
 31
0.0
  0
LINE
  8
0
  6
CONTINUOUS
 62
     2
 10
199.7575
 20
174.03
 30
0.0
 11
197.342685434
 21
173.382952387
 31
0.0
  0
TEXT
  8
0
  6
CONTINUOUS
 62
     2
 10
190.3075
 20
175.03
 30
0.3
 40
3.0
  1
３０
 50
0.0
 41
0.6
 51
0.0
  7
KANJI7
  0
LINE
  8
0
  6
CONTINUOUS
 62
     2
 10
48.877
 20
117.805
 30
0.0
 11
48.877
 21
126.82000074
 31
0.0
  0
TEXT
  8
0
  6
CONTINUOUS
 62
     3
 10
232.64
 20
16.811
 30
0.2
 40
6.0
  1
ＭＳ－１１７５３Ａ
 50
0.0
 41
0.9
 51
0.0
  7
KANJI16
  0
TEXT
  8
0
  6
CONTINUOUS
 62
     1
 10
232.8
 20
27.5
 30
0.4
 40
4.0
  1
エッジワイズ形計器外形図
 50
0.0
 41
0.9
 51
0.0
  7
KANJI17
  0
TEXT
  8
0
  6
CONTINUOUS
 62
     1
 10
232.699
 20
35.151
 30
0.2
 40
4.0
  1
□Ｅｆ－１００Ｔ
 50
0.0
 41
0.8
 51
0.0
  7
KANJI18
  0
LINE
  8
0
  6
LTYPE1
 62
     2
 10
41.9
 20
134.0
 30
0.0
 11
64.6
 21
134.0
 31
0.0
  0
LINE
  8
0
  6
LTYPE1
 62
     2
 10
53.377
 20
110.2
 30
0.0
 11
53.377
 21
103.09
 31
0.0
  0
LINE
  8
0
  6
LTYPE1
 62
     2
 10
53.377
 20
163.7
 30
0.0
 11
53.377
 21
156.8
 31
0.0
  0
LINE
  8
0
  6
CONTINUOUS
 62
     2
 10
48.877
 20
126.82000074
 30
0.0
 11
48.877
 21
153.475
 31
0.0
  0
TEXT
  8
0
  6
CONTINUOUS
 62
     2
 10
71.2375
 20
172.752
 30
0.3
 40
3.0
  1
取付ネジキャップ
 50
0.0
 41
0.6
 51
0.0
  7
KANJI7
  0
LINE
  8
0
  6
CONTINUOUS
 62
     2
 10
88.291666667
 20
171.752
 30
0.0
 11
71.2375
 21
171.752
 31
0.0
  0
LINE
  8
0
  6
CONTINUOUS
 62
     2
 10
100.4375
 20
161.152
 30
0.0
 11
88.291666667
 21
171.752
 31
0.0
  0
LINE
  8
0
  6
LTYPE1
 62
     2
 10
87.0
 20
134.0
 30
0.0
 11
113.777
 21
134.0
 31
0.0
  0
LINE
  8
0
  6
LTYPE1
 62
     2
 10
121.877
 20
134.0
 30
0.0
 11
151.077
 21
134.0
 31
0.0
  0
TEXT
  8
0
  6
CONTINUOUS
 62
     2
 10
173.145
 20
130.857
 30
0.3
 40
3.0
  1
１１２
 50
90.0
 41
0.6
 51
0.0
  7
KANJI7
  0
TEXT
  8
0
  6
CONTINUOUS
 62
     2
 10
221.4975
 20
130.458
 30
0.3
 40
3.0
  1
１０２
 50
90.0
 41
0.6
 51
0.0
  7
KANJI7
  0
LINE
  8
0
  6
LTYPE1
 62
     2
 10
192.2475
 20
164.12000074
 30
0.0
 11
192.2475
 21
104.02000074
 31
0.0
  0
LINE
  8
0
  6
LTYPE1
 62
     2
 10
181.3975
 20
133.99
 30
0.0
 11
202.577
 21
133.99
 31
0.0
  0
LINE
  8
0
  6
LTYPE1
 62
     2
 10
112.0
 20
80.62000074
 30
0.0
 11
112.0
 21
29.12000074
 31
0.0
  0
ENDSEC
  0
EOF
