  0
SECTION
  2
HEADER
  9
$ACADVER
  1
AC1009
  9
$DWGCODEPAGE
  3
dos932
  9
$EXTMIN
 10
0.0
 20
0.0
 30
0.0
  9
$EXTMAX
 10
297.0
 20
210.0
 30
0.0
  9
$LIMMIN
 10
0.0
 20
0.0
  9
$LIMMAX
 10
297.0
 20
210.0
  9
$LTSCALE
 40
1.0
  9
$PDMODE
 70
     0
  0
ENDSEC
  0
SECTION
  2
TABLES
  0
TABLE
  2
VPORT
 70
     1
  0
VPORT
  2
*ACTIVE
 70
     0
 10
0.0
 20
0.0
 11
1.0
 21
1.0
 12
148.5
 22
105.0
 13
0.0
 23
0.0
 14
10.0
 24
10.0
 15
10.0
 25
10.0
 16
0.0
 26
0.0
 36
1.0
 17
0.0
 27
0.0
 37
0.0
 40
297.0
 41
1.414285714
 42
50.0
 43
0.0
 44
0.0
 50
0.0
 51
0.0
 71
     0
 72
  1000
 73
     1
 74
     3
 75
     0
 76
     0
 77
     0
 78
     0
  0
ENDTAB
  0
TABLE
  2
LTYPE
 70
     4
  0
LTYPE
  2
CONTINUOUS
 70
    64
  3
Solid line
 72
    65
 73
     0
 40
0.0
  0
LTYPE
  2
LTYPE1
 70
    64
  3
CENTER
 72
    65
 73
     4
 40
15.0
 49
10.5
 49
-1.5
 49
1.5
 49
-1.5
  0
LTYPE
  2
LTYPE2
 70
    64
  3
CENTER
 72
    65
 73
     4
 40
5.0
 49
3.5
 49
-0.5
 49
0.5
 49
-0.5
  0
LTYPE
  2
LTYPE3
 70
    64
  3
CENTER
 72
    65
 73
     4
 40
3.0
 49
2.1
 49
-0.3
 49
0.3
 49
-0.3
  0
ENDTAB
  0
TABLE
  2
LAYER
 70
   128
  0
LAYER
  2
0
 70
     0
 62
     7
  6
CONTINUOUS
  0
LAYER
  2
2
 70
     0
 62
     7
  6
CONTINUOUS
  0
LAYER
  2
3
 70
     0
 62
     7
  6
CONTINUOUS
  0
LAYER
  2
4
 70
     0
 62
     7
  6
CONTINUOUS
  0
LAYER
  2
5
 70
     0
 62
     7
  6
CONTINUOUS
  0
LAYER
  2
6
 70
     0
 62
     7
  6
CONTINUOUS
  0
LAYER
  2
7
 70
     0
 62
     7
  6
CONTINUOUS
  0
LAYER
  2
8
 70
     0
 62
     7
  6
CONTINUOUS
  0
LAYER
  2
9
 70
     0
 62
     7
  6
CONTINUOUS
  0
LAYER
  2
10
 70
     0
 62
     7
  6
CONTINUOUS
  0
LAYER
  2
11
 70
     0
 62
     7
  6
CONTINUOUS
  0
LAYER
  2
12
 70
     0
 62
     7
  6
CONTINUOUS
  0
LAYER
  2
13
 70
     0
 62
     7
  6
CONTINUOUS
  0
LAYER
  2
14
 70
     0
 62
     7
  6
CONTINUOUS
  0
LAYER
  2
15
 70
     0
 62
     7
  6
CONTINUOUS
  0
LAYER
  2
16
 70
     0
 62
     7
  6
CONTINUOUS
  0
LAYER
  2
17
 70
     0
 62
     7
  6
CONTINUOUS
  0
LAYER
  2
18
 70
     0
 62
     7
  6
CONTINUOUS
  0
LAYER
  2
19
 70
     0
 62
     7
  6
CONTINUOUS
  0
LAYER
  2
20
 70
     0
 62
     7
  6
CONTINUOUS
  0
LAYER
  2
21
 70
     0
 62
     7
  6
CONTINUOUS
  0
LAYER
  2
22
 70
     0
 62
     7
  6
CONTINUOUS
  0
LAYER
  2
23
 70
     0
 62
     7
  6
CONTINUOUS
  0
LAYER
  2
24
 70
     0
 62
     7
  6
CONTINUOUS
  0
LAYER
  2
25
 70
     0
 62
     7
  6
CONTINUOUS
  0
LAYER
  2
26
 70
     0
 62
     7
  6
CONTINUOUS
  0
LAYER
  2
27
 70
     0
 62
     7
  6
CONTINUOUS
  0
LAYER
  2
28
 70
     0
 62
     7
  6
CONTINUOUS
  0
LAYER
  2
29
 70
     0
 62
     7
  6
CONTINUOUS
  0
LAYER
  2
30
 70
     0
 62
     7
  6
CONTINUOUS
  0
LAYER
  2
31
 70
     0
 62
     7
  6
CONTINUOUS
  0
LAYER
  2
32
 70
     0
 62
     7
  6
CONTINUOUS
  0
LAYER
  2
33
 70
     0
 62
     7
  6
CONTINUOUS
  0
LAYER
  2
34
 70
     0
 62
     7
  6
CONTINUOUS
  0
LAYER
  2
35
 70
     0
 62
     7
  6
CONTINUOUS
  0
LAYER
  2
36
 70
     0
 62
     7
  6
CONTINUOUS
  0
LAYER
  2
37
 70
     0
 62
     7
  6
CONTINUOUS
  0
LAYER
  2
38
 70
     0
 62
     7
  6
CONTINUOUS
  0
LAYER
  2
39
 70
     0
 62
     7
  6
CONTINUOUS
  0
LAYER
  2
40
 70
     0
 62
     7
  6
CONTINUOUS
  0
LAYER
  2
41
 70
     0
 62
     7
  6
CONTINUOUS
  0
LAYER
  2
42
 70
     0
 62
     7
  6
CONTINUOUS
  0
LAYER
  2
43
 70
     0
 62
     7
  6
CONTINUOUS
  0
LAYER
  2
44
 70
     0
 62
     7
  6
CONTINUOUS
  0
LAYER
  2
45
 70
     0
 62
     7
  6
CONTINUOUS
  0
LAYER
  2
46
 70
     0
 62
     7
  6
CONTINUOUS
  0
LAYER
  2
47
 70
     0
 62
     7
  6
CONTINUOUS
  0
LAYER
  2
48
 70
     0
 62
     7
  6
CONTINUOUS
  0
LAYER
  2
49
 70
     0
 62
     7
  6
CONTINUOUS
  0
LAYER
  2
50
 70
     0
 62
     7
  6
CONTINUOUS
  0
LAYER
  2
51
 70
     0
 62
     7
  6
CONTINUOUS
  0
LAYER
  2
52
 70
     0
 62
     7
  6
CONTINUOUS
  0
LAYER
  2
53
 70
     0
 62
     7
  6
CONTINUOUS
  0
LAYER
  2
54
 70
     0
 62
     7
  6
CONTINUOUS
  0
LAYER
  2
55
 70
     0
 62
     7
  6
CONTINUOUS
  0
LAYER
  2
56
 70
     0
 62
     7
  6
CONTINUOUS
  0
LAYER
  2
57
 70
     0
 62
     7
  6
CONTINUOUS
  0
LAYER
  2
58
 70
     0
 62
     7
  6
CONTINUOUS
  0
LAYER
  2
59
 70
     0
 62
     7
  6
CONTINUOUS
  0
LAYER
  2
60
 70
     0
 62
     7
  6
CONTINUOUS
  0
LAYER
  2
61
 70
     0
 62
     7
  6
CONTINUOUS
  0
LAYER
  2
62
 70
     0
 62
     7
  6
CONTINUOUS
  0
LAYER
  2
63
 70
     0
 62
     7
  6
CONTINUOUS
  0
LAYER
  2
64
 70
     0
 62
     7
  6
CONTINUOUS
  0
LAYER
  2
65
 70
     0
 62
     7
  6
CONTINUOUS
  0
LAYER
  2
66
 70
     0
 62
     7
  6
CONTINUOUS
  0
LAYER
  2
67
 70
     0
 62
     7
  6
CONTINUOUS
  0
LAYER
  2
68
 70
     0
 62
     7
  6
CONTINUOUS
  0
LAYER
  2
69
 70
     0
 62
     7
  6
CONTINUOUS
  0
LAYER
  2
70
 70
     0
 62
     7
  6
CONTINUOUS
  0
LAYER
  2
71
 70
     0
 62
     7
  6
CONTINUOUS
  0
LAYER
  2
72
 70
     0
 62
     7
  6
CONTINUOUS
  0
LAYER
  2
73
 70
     0
 62
     7
  6
CONTINUOUS
  0
LAYER
  2
74
 70
     0
 62
     7
  6
CONTINUOUS
  0
LAYER
  2
75
 70
     0
 62
     7
  6
CONTINUOUS
  0
LAYER
  2
76
 70
     0
 62
     7
  6
CONTINUOUS
  0
LAYER
  2
77
 70
     0
 62
     7
  6
CONTINUOUS
  0
LAYER
  2
78
 70
     0
 62
     7
  6
CONTINUOUS
  0
LAYER
  2
79
 70
     0
 62
     7
  6
CONTINUOUS
  0
LAYER
  2
80
 70
     0
 62
     7
  6
CONTINUOUS
  0
LAYER
  2
81
 70
     0
 62
     7
  6
CONTINUOUS
  0
LAYER
  2
82
 70
     0
 62
     7
  6
CONTINUOUS
  0
LAYER
  2
83
 70
     0
 62
     7
  6
CONTINUOUS
  0
LAYER
  2
84
 70
     0
 62
     7
  6
CONTINUOUS
  0
LAYER
  2
85
 70
     0
 62
     7
  6
CONTINUOUS
  0
LAYER
  2
86
 70
     0
 62
     7
  6
CONTINUOUS
  0
LAYER
  2
87
 70
     0
 62
     7
  6
CONTINUOUS
  0
LAYER
  2
88
 70
     0
 62
     7
  6
CONTINUOUS
  0
LAYER
  2
89
 70
     0
 62
     7
  6
CONTINUOUS
  0
LAYER
  2
90
 70
     0
 62
     7
  6
CONTINUOUS
  0
LAYER
  2
91
 70
     0
 62
     7
  6
CONTINUOUS
  0
LAYER
  2
92
 70
     0
 62
     7
  6
CONTINUOUS
  0
LAYER
  2
93
 70
     0
 62
     7
  6
CONTINUOUS
  0
LAYER
  2
94
 70
     0
 62
     7
  6
CONTINUOUS
  0
LAYER
  2
95
 70
     0
 62
     7
  6
CONTINUOUS
  0
LAYER
  2
96
 70
     0
 62
     7
  6
CONTINUOUS
  0
LAYER
  2
97
 70
     0
 62
     7
  6
CONTINUOUS
  0
LAYER
  2
98
 70
     0
 62
     7
  6
CONTINUOUS
  0
LAYER
  2
99
 70
     0
 62
     7
  6
CONTINUOUS
  0
LAYER
  2
100
 70
     0
 62
     7
  6
CONTINUOUS
  0
LAYER
  2
101
 70
     0
 62
     7
  6
CONTINUOUS
  0
LAYER
  2
102
 70
     0
 62
     7
  6
CONTINUOUS
  0
LAYER
  2
103
 70
     0
 62
     7
  6
CONTINUOUS
  0
LAYER
  2
104
 70
     0
 62
     7
  6
CONTINUOUS
  0
LAYER
  2
105
 70
     0
 62
     7
  6
CONTINUOUS
  0
LAYER
  2
106
 70
     0
 62
     7
  6
CONTINUOUS
  0
LAYER
  2
107
 70
     0
 62
     7
  6
CONTINUOUS
  0
LAYER
  2
108
 70
     0
 62
     7
  6
CONTINUOUS
  0
LAYER
  2
109
 70
     0
 62
     7
  6
CONTINUOUS
  0
LAYER
  2
110
 70
     0
 62
     7
  6
CONTINUOUS
  0
LAYER
  2
111
 70
     0
 62
     7
  6
CONTINUOUS
  0
LAYER
  2
112
 70
     0
 62
     7
  6
CONTINUOUS
  0
LAYER
  2
113
 70
     0
 62
     7
  6
CONTINUOUS
  0
LAYER
  2
114
 70
     0
 62
     7
  6
CONTINUOUS
  0
LAYER
  2
115
 70
     0
 62
     7
  6
CONTINUOUS
  0
LAYER
  2
116
 70
     0
 62
     7
  6
CONTINUOUS
  0
LAYER
  2
117
 70
     0
 62
     7
  6
CONTINUOUS
  0
LAYER
  2
118
 70
     0
 62
     7
  6
CONTINUOUS
  0
LAYER
  2
119
 70
     0
 62
     7
  6
CONTINUOUS
  0
LAYER
  2
120
 70
     0
 62
     7
  6
CONTINUOUS
  0
LAYER
  2
121
 70
     0
 62
     7
  6
CONTINUOUS
  0
LAYER
  2
122
 70
     0
 62
     7
  6
CONTINUOUS
  0
LAYER
  2
123
 70
     0
 62
     7
  6
CONTINUOUS
  0
LAYER
  2
124
 70
     0
 62
     7
  6
CONTINUOUS
  0
LAYER
  2
125
 70
     0
 62
     7
  6
CONTINUOUS
  0
LAYER
  2
126
 70
     0
 62
     7
  6
CONTINUOUS
  0
LAYER
  2
127
 70
     0
 62
     7
  6
CONTINUOUS
  0
LAYER
  2
128
 70
     0
 62
     7
  6
CONTINUOUS
  0
ENDTAB
  0
TABLE
  2
STYLE
 70
    17
  0
STYLE
  2
STANDARD
 70
     0
 40
0.0
 41
1.0
 50
0.0
 71
     0
 42
0.2
  3
txt.shx
  4
extfont.shx
  0
STYLE
  2
KANJI0
 70
     0
 40
3.0
 41
0.9
 50
0.0
 71
     0
 42
3.0
  3
txt.shx
  4
extfont.shx
  0
STYLE
  2
KANJI1
 70
     0
 40
3.0
 41
0.9
 50
0.0
 71
     0
 42
3.0
  3
txt.shx
  4
extfont.shx
  0
STYLE
  2
KANJI2
 70
     0
 40
3.0
 41
0.6
 50
0.0
 71
     0
 42
3.0
  3
txt.shx
  4
extfont.shx
  0
STYLE
  2
KANJI3
 70
     0
 40
1.8
 41
0.6
 50
0.0
 71
     0
 42
1.8
  3
txt.shx
  4
extfont.shx
  0
STYLE
  2
KANJI4
 70
     0
 40
3.0
 41
0.6
 50
0.0
 71
     0
 42
3.0
  3
txt.shx
  4
extfont.shx
  0
STYLE
  2
KANJI5
 70
     0
 40
1.5
 41
0.76
 50
0.0
 71
     0
 42
1.5
  3
txt.shx
  4
extfont.shx
  0
STYLE
  2
KANJI6
 70
     0
 40
3.0
 41
0.666666667
 50
0.0
 71
     0
 42
3.0
  3
txt.shx
  4
extfont.shx
  0
STYLE
  2
KANJI7
 70
     0
 40
3.0
 41
0.9
 50
0.0
 71
     0
 42
3.0
  3
txt.shx
  4
extfont.shx
  0
STYLE
  2
KANJI8
 70
     0
 40
1.8
 41
0.9
 50
0.0
 71
     0
 42
1.8
  3
txt.shx
  4
extfont.shx
  0
STYLE
  2
KANJI9
 70
     0
 40
3.0
 41
0.666666667
 50
0.0
 71
     0
 42
3.0
  3
txt.shx
  4
extfont.shx
  0
STYLE
  2
KANJI10
 70
     0
 40
3.0
 41
0.666666667
 50
0.0
 71
     0
 42
3.0
  3
txt.shx
  4
extfont.shx
  0
STYLE
  2
KANJI11
 70
     0
 40
3.0
 41
0.8
 50
0.0
 71
     0
 42
3.0
  3
txt.shx
  4
extfont.shx
  0
STYLE
  2
KANJI12
 70
     0
 40
6.0
 41
0.8
 50
0.0
 71
     0
 42
6.0
  3
txt.shx
  4
extfont.shx
  0
STYLE
  2
KANJI13
 70
     0
 40
3.0
 41
0.6
 50
0.0
 71
     0
 42
3.0
  3
txt.shx
  4
extfont.shx
  0
STYLE
  2
KANJI14
 70
     0
 40
5.0
 41
0.9
 50
0.0
 71
     0
 42
5.0
  3
txt.shx
  4
extfont.shx
  0
STYLE
  2
KANJI15
 70
     0
 40
4.0
 41
0.9
 50
0.0
 71
     0
 42
4.0
  3
txt.shx
  4
extfont.shx
  0
ENDTAB
  0
TABLE
  2
VIEW
 70
     0
  0
ENDTAB
  0
ENDSEC
  0
SECTION
  2
BLOCKS
  0
ENDSEC
  0
SECTION
  2
ENTITIES
  0
ARC
  8
0
  6
CONTINUOUS
 62
     1
 10
78.9
 20
99.5
 30
0.0
 40
3.0
 50
270.0
 51
0.0
  0
LINE
  8
0
  6
CONTINUOUS
 62
     1
 10
81.9
 20
99.5
 30
0.0
 11
81.9
 21
148.5
 31
0.0
  0
ARC
  8
0
  6
CONTINUOUS
 62
     1
 10
78.9
 20
148.5
 30
0.0
 40
3.0
 50
0.0
 51
90.0
  0
LINE
  8
0
  6
CONTINUOUS
 62
     1
 10
78.9
 20
151.5
 30
0.0
 11
29.9
 21
151.5
 31
0.0
  0
ARC
  8
0
  6
CONTINUOUS
 62
     1
 10
29.9
 20
148.5
 30
0.0
 40
3.0
 50
90.0
 51
180.0
  0
LINE
  8
0
  6
CONTINUOUS
 62
     1
 10
29.9
 20
96.5
 30
0.0
 11
78.9
 21
96.5
 31
0.0
  0
LINE
  8
0
  6
CONTINUOUS
 62
     1
 10
26.9
 20
148.5
 30
0.0
 11
26.9
 21
99.5
 31
0.0
  0
ARC
  8
0
  6
CONTINUOUS
 62
     1
 10
29.9
 20
99.5
 30
0.0
 40
3.0
 50
180.0
 51
270.0
  0
CIRCLE
  8
0
  6
CONTINUOUS
 62
     1
 10
54.4
 20
124.0
 30
0.0
 40
25.5
  0
CIRCLE
  8
0
  6
CONTINUOUS
 62
     1
 10
54.4
 20
124.0
 30
0.0
 40
3.05
  0
LINE
  8
0
  6
CONTINUOUS
 62
     1
 10
104.0
 20
151.475
 30
0.0
 11
98.75
 21
151.475
 31
0.0
  0
ARC
  8
0
  6
CONTINUOUS
 62
     1
 10
98.75
 20
150.975
 30
0.0
 40
0.5
 50
90.0
 51
180.0
  0
LINE
  8
0
  6
CONTINUOUS
 62
     1
 10
98.25
 20
149.475
 30
0.0
 11
94.75
 21
149.475
 31
0.0
  0
ARC
  8
0
  6
CONTINUOUS
 62
     1
 10
94.75
 20
149.225
 30
0.0
 40
0.25
 50
90.0
 51
180.0
  0
LINE
  8
0
  6
CONTINUOUS
 62
     1
 10
93.5
 20
121.725
 30
0.0
 11
93.7
 21
121.725
 31
0.0
  0
LINE
  8
0
  6
CONTINUOUS
 62
     1
 10
104.0
 20
96.475
 30
0.0
 11
98.75
 21
96.475
 31
0.0
  0
ARC
  8
0
  6
CONTINUOUS
 62
     1
 10
98.75
 20
96.975
 30
0.0
 40
0.5
 50
180.0
 51
270.0
  0
LINE
  8
0
  6
CONTINUOUS
 62
     1
 10
98.25
 20
98.475
 30
0.0
 11
94.75
 21
98.475
 31
0.0
  0
ARC
  8
0
  6
CONTINUOUS
 62
     1
 10
94.75
 20
98.725
 30
0.0
 40
0.25
 50
180.0
 51
270.0
  0
LINE
  8
0
  6
CONTINUOUS
 62
     1
 10
93.7
 20
121.725
 30
0.0
 11
94.5
 21
98.725
 31
0.0
  0
LINE
  8
0
  6
CONTINUOUS
 62
     1
 10
98.25
 20
96.975
 30
0.0
 11
98.25
 21
123.975
 31
0.0
  0
LINE
  8
0
  6
CONTINUOUS
 62
     1
 10
93.677077922
 20
125.565990258
 30
0.0
 11
94.5
 21
149.225
 31
0.0
  0
LINE
  8
0
  6
CONTINUOUS
 62
     1
 10
98.25
 20
150.975
 30
0.0
 11
98.25
 21
149.625
 31
0.0
  0
LINE
  8
0
  6
CONTINUOUS
 62
     1
 10
104.0
 20
151.475
 30
0.0
 11
104.0
 21
150.825
 31
0.0
  0
LINE
  8
0
  6
CONTINUOUS
 62
     1
 10
98.25
 20
149.625
 30
0.0
 11
98.25
 21
149.475
 31
0.0
  0
LINE
  8
0
  6
CONTINUOUS
 62
     1
 10
104.0
 20
150.825
 30
0.0
 11
104.0
 21
124.225
 31
0.0
  0
LINE
  8
0
  6
CONTINUOUS
 62
     1
 10
104.0
 20
124.225
 30
0.0
 11
104.0
 21
96.475
 31
0.0
  0
LINE
  8
0
  6
CONTINUOUS
 62
     1
 10
93.5
 20
125.565990258
 30
0.0
 11
93.5
 21
121.725
 31
0.0
  0
LINE
  8
0
  6
CONTINUOUS
 62
     1
 10
98.25
 20
124.0
 30
0.0
 11
98.25
 21
149.475
 31
0.0
  0
LINE
  8
0
  6
CONTINUOUS
 62
     1
 10
144.0
 20
148.75
 30
0.0
 11
144.0
 21
99.25
 31
0.0
  0
ARC
  8
0
  6
CONTINUOUS
 62
     1
 10
146.0
 20
99.75
 30
0.0
 40
0.5
 50
270.0
 51
0.0
  0
LINE
  8
0
  6
CONTINUOUS
 62
     1
 10
146.5
 20
148.25
 30
0.0
 11
146.5
 21
99.75
 31
0.0
  0
ARC
  8
0
  6
CONTINUOUS
 62
     1
 10
146.0
 20
148.25
 30
0.0
 40
0.5
 50
360.0
 51
90.0
  0
LINE
  8
0
  6
CONTINUOUS
 62
     1
 10
98.25
 20
141.975
 30
0.0
 11
98.25
 21
150.975001907
 31
0.0
  0
ARC
  8
0
  6
CONTINUOUS
 62
     1
 10
212.3
 20
99.5
 30
0.0
 40
3.0
 50
270.0
 51
0.0
  0
LINE
  8
0
  6
CONTINUOUS
 62
     1
 10
163.3
 20
96.5
 30
0.0
 11
212.3
 21
96.5
 31
0.0
  0
ARC
  8
0
  6
CONTINUOUS
 62
     1
 10
163.3
 20
99.5
 30
0.0
 40
3.0
 50
180.0
 51
270.0
  0
LINE
  8
0
  6
CONTINUOUS
 62
     1
 10
160.3
 20
148.5
 30
0.0
 11
160.3
 21
99.5
 31
0.0
  0
ARC
  8
0
  6
CONTINUOUS
 62
     1
 10
163.3
 20
148.5
 30
0.0
 40
3.0
 50
90.0
 51
180.0
  0
LINE
  8
0
  6
CONTINUOUS
 62
     1
 10
215.3
 20
99.5
 30
0.0
 11
215.3
 21
148.5
 31
0.0
  0
LINE
  8
0
  6
CONTINUOUS
 62
     1
 10
212.3
 20
151.5
 30
0.0
 11
163.3
 21
151.5
 31
0.0
  0
ARC
  8
0
  6
CONTINUOUS
 62
     1
 10
212.3
 20
148.5
 30
0.0
 40
3.0
 50
360.0
 51
90.0
  0
CIRCLE
  8
0
  6
CONTINUOUS
 62
     1
 10
187.8
 20
124.0
 30
0.0
 40
24.75
  0
CIRCLE
  8
0
  6
CONTINUOUS
 62
     1
 10
187.8
 20
53.15
 30
0.0
 40
25.5
  0
CIRCLE
  8
0
  6
CONTINUOUS
 62
     1
 10
165.3
 20
75.65
 30
0.0
 40
1.75
  0
CIRCLE
  8
0
  6
CONTINUOUS
 62
     1
 10
165.3
 20
30.65
 30
0.0
 40
1.75
  0
CIRCLE
  8
0
  6
CONTINUOUS
 62
     1
 10
210.3
 20
30.65
 30
0.0
 40
1.75
  0
CIRCLE
  8
0
  6
CONTINUOUS
 62
     1
 10
210.3
 20
75.65
 30
0.0
 40
1.75
  0
TEXT
  8
0
  6
CONTINUOUS
 62
     1
 10
178.65
 20
18.9
 30
0.5
 40
3.0
  1
パネルカット
 50
0.0
 41
0.9
 51
0.0
  7
KANJI0
  0
LINE
  8
0
  6
CONTINUOUS
 62
     1
 10
177.4
 20
18.05
 30
0.0
 11
198.3
 21
18.05
 31
0.0
  0
LINE
  8
0
  6
CONTINUOUS
 62
     1
 10
146.5
 20
142.475
 30
0.0
 11
150.5
 21
142.475
 31
0.0
  0
LINE
  8
0
  6
CONTINUOUS
 62
     1
 10
150.5
 20
142.475
 30
0.0
 11
150.5
 21
128.975
 31
0.0
  0
LINE
  8
0
  6
CONTINUOUS
 62
     1
 10
150.5
 20
128.975
 30
0.0
 11
146.5
 21
128.975
 31
0.0
  0
ARC
  8
0
  6
CONTINUOUS
 62
     1
 10
176.55
 20
131.475
 30
0.0
 40
2.5
 50
180.0
 51
270.0
  0
ARC
  8
0
  6
CONTINUOUS
 62
     1
 10
199.05
 20
131.475
 30
0.0
 40
2.5
 50
270.0
 51
0.0
  0
LINE
  8
0
  6
CONTINUOUS
 62
     1
 10
191.8
 20
129.725
 30
0.0
 11
191.8
 21
132.975
 31
0.0
  0
LINE
  8
0
  6
CONTINUOUS
 62
     1
 10
190.3
 20
129.725
 30
0.0
 11
190.3
 21
132.975
 31
0.0
  0
LINE
  8
0
  6
CONTINUOUS
 62
     1
 10
183.8
 20
129.725
 30
0.0
 11
183.8
 21
132.975
 31
0.0
  0
LINE
  8
0
  6
CONTINUOUS
 62
     1
 10
185.3
 20
129.725
 30
0.0
 11
185.3
 21
132.975
 31
0.0
  0
LINE
  8
0
  6
CONTINUOUS
 62
     1
 10
180.55
 20
138.475
 30
0.0
 11
180.55
 21
141.725
 31
0.0
  0
LINE
  8
0
  6
CONTINUOUS
 62
     1
 10
182.05
 20
138.475
 30
0.0
 11
182.05
 21
141.725
 31
0.0
  0
LINE
  8
0
  6
CONTINUOUS
 62
     1
 10
187.05
 20
138.475
 30
0.0
 11
187.05
 21
141.725
 31
0.0
  0
LINE
  8
0
  6
CONTINUOUS
 62
     1
 10
188.55
 20
138.475
 30
0.0
 11
188.55
 21
141.725
 31
0.0
  0
LINE
  8
0
  6
CONTINUOUS
 62
     1
 10
193.55
 20
138.475
 30
0.0
 11
193.55
 21
141.725
 31
0.0
  0
LINE
  8
0
  6
CONTINUOUS
 62
     1
 10
195.05
 20
138.475
 30
0.0
 11
195.05
 21
141.725
 31
0.0
  0
ARC
  8
0
  6
CONTINUOUS
 62
     1
 10
197.55
 20
138.475
 30
0.0
 40
2.5
 50
180.0
 51
0.0
  0
ARC
  8
0
  6
CONTINUOUS
 62
     1
 10
191.05
 20
138.475
 30
0.0
 40
2.5
 50
180.0
 51
0.0
  0
ARC
  8
0
  6
CONTINUOUS
 62
     1
 10
184.55
 20
138.475
 30
0.0
 40
2.5
 50
180.0
 51
0.0
  0
ARC
  8
0
  6
CONTINUOUS
 62
     1
 10
178.05
 20
138.475
 30
0.0
 40
2.5
 50
180.0
 51
0.0
  0
ARC
  8
0
  6
CONTINUOUS
 62
     1
 10
194.3
 20
132.975
 30
0.0
 40
2.5
 50
0.0
 51
180.0
  0
ARC
  8
0
  6
CONTINUOUS
 62
     1
 10
187.8
 20
132.975
 30
0.0
 40
2.5
 50
0.0
 51
180.0
  0
ARC
  8
0
  6
CONTINUOUS
 62
     1
 10
181.3
 20
132.975
 30
0.0
 40
2.5
 50
0.0
 51
180.0
  0
ARC
  8
0
  6
CONTINUOUS
 62
     1
 10
194.3
 20
141.725
 30
0.0
 40
0.75
 50
0.0
 51
180.0
  0
ARC
  8
0
  6
CONTINUOUS
 62
     1
 10
187.8
 20
141.725
 30
0.0
 40
0.75
 50
0.0
 51
180.0
  0
ARC
  8
0
  6
CONTINUOUS
 62
     1
 10
181.3
 20
141.725
 30
0.0
 40
0.75
 50
0.0
 51
180.0
  0
ARC
  8
0
  6
CONTINUOUS
 62
     1
 10
191.05
 20
129.725
 30
0.0
 40
0.75
 50
180.0
 51
0.0
  0
ARC
  8
0
  6
CONTINUOUS
 62
     1
 10
184.55
 20
129.725
 30
0.0
 40
0.75
 50
180.0
 51
0.0
  0
LINE
  8
0
  6
CONTINUOUS
 62
     1
 10
196.8
 20
129.725
 30
0.0
 11
196.8
 21
132.975
 31
0.0
  0
LINE
  8
0
  6
CONTINUOUS
 62
     1
 10
178.8
 20
129.725
 30
0.0
 11
178.8
 21
132.975
 31
0.0
  0
ARC
  8
0
  6
CONTINUOUS
 62
     1
 10
178.05
 20
129.725
 30
0.0
 40
0.75
 50
270.0
 51
0.0
  0
ARC
  8
0
  6
CONTINUOUS
 62
     1
 10
197.55
 20
129.725
 30
0.0
 40
0.75
 50
180.0
 51
270.0
  0
LINE
  8
0
  6
CONTINUOUS
 62
     1
 10
175.55
 20
139.725
 30
0.0
 11
175.55
 21
138.475
 31
0.0
  0
LINE
  8
0
  6
CONTINUOUS
 62
     1
 10
200.05
 20
139.725
 30
0.0
 11
200.05
 21
138.475
 31
0.0
  0
LINE
  8
0
  6
CONTINUOUS
 62
     1
 10
201.55
 20
131.475
 30
0.0
 11
201.55
 21
139.725
 31
0.0
  0
ARC
  8
0
  6
CONTINUOUS
 62
     1
 10
200.8
 20
139.725
 30
0.0
 40
0.75
 50
0.0
 51
180.0
  0
LINE
  8
0
  6
CONTINUOUS
 62
     1
 10
174.05
 20
139.725
 30
0.0
 11
174.05
 21
131.475
 31
0.0
  0
ARC
  8
0
  6
CONTINUOUS
 62
     1
 10
174.8
 20
139.725
 30
0.0
 40
0.75
 50
0.0
 51
180.0
  0
LINE
  8
0
  6
CONTINUOUS
 62
     1
 10
200.8
 20
140.475
 30
0.0
 11
200.05
 21
140.975
 31
0.0
  0
LINE
  8
0
  6
CONTINUOUS
 62
     1
 10
200.05
 20
140.975
 30
0.0
 11
195.05
 21
140.975
 31
0.0
  0
LINE
  8
0
  6
CONTINUOUS
 62
     1
 10
193.55
 20
140.975
 30
0.0
 11
188.55
 21
140.975
 31
0.0
  0
POINT
  8
0
  6
CONTINUOUS
 62
     1
 10
187.05
 20
140.975
 30
0.0
  0
LINE
  8
0
  6
CONTINUOUS
 62
     1
 10
187.05
 20
140.975
 30
0.0
 11
182.05
 21
140.975
 31
0.0
  0
LINE
  8
0
  6
CONTINUOUS
 62
     1
 10
180.55
 20
140.975
 30
0.0
 11
175.55
 21
140.975
 31
0.0
  0
LINE
  8
0
  6
CONTINUOUS
 62
     1
 10
175.55
 20
140.975
 30
0.0
 11
174.8
 21
140.475
 31
0.0
  0
LINE
  8
0
  6
CONTINUOUS
 62
     1
 10
178.8
 20
130.475
 30
0.0
 11
183.8
 21
130.475
 31
0.0
  0
LINE
  8
0
  6
CONTINUOUS
 62
     1
 10
185.3
 20
130.475
 30
0.0
 11
190.3
 21
130.475
 31
0.0
  0
LINE
  8
0
  6
CONTINUOUS
 62
     1
 10
191.8
 20
130.475
 30
0.0
 11
196.8
 21
130.475
 31
0.0
  0
LINE
  8
0
  6
CONTINUOUS
 62
     1
 10
197.55
 20
128.975
 30
0.0
 11
199.05
 21
128.975
 31
0.0
  0
LINE
  8
0
  6
CONTINUOUS
 62
     1
 10
176.55
 20
128.975
 30
0.0
 11
178.05
 21
128.975
 31
0.0
  0
LINE
  8
0
  6
CONTINUOUS
 62
     1
 10
119.35
 20
148.775
 30
0.0
 11
118.65
 21
147.075
 31
0.0
  0
LINE
  8
0
  6
CONTINUOUS
 62
     1
 10
118.65
 20
147.075
 30
0.0
 11
119.15
 21
144.875
 31
0.0
  0
LINE
  8
0
  6
CONTINUOUS
 62
     1
 10
119.15
 20
144.875
 30
0.0
 11
119.75
 21
143.075
 31
0.0
  0
LINE
  8
0
  6
CONTINUOUS
 62
     1
 10
119.75
 20
143.075
 30
0.0
 11
120.65
 21
141.475
 31
0.0
  0
LINE
  8
0
  6
CONTINUOUS
 62
     1
 10
120.65
 20
141.475
 30
0.0
 11
121.15
 21
138.875
 31
0.0
  0
LINE
  8
0
  6
CONTINUOUS
 62
     1
 10
121.15
 20
138.875
 30
0.0
 11
120.25
 21
137.375
 31
0.0
  0
LINE
  8
0
  6
CONTINUOUS
 62
     1
 10
120.25
 20
137.375
 30
0.0
 11
119.35
 21
135.175
 31
0.0
  0
LINE
  8
0
  6
CONTINUOUS
 62
     1
 10
119.35
 20
135.175
 30
0.0
 11
118.95
 21
132.475
 31
0.0
  0
LINE
  8
0
  6
CONTINUOUS
 62
     1
 10
118.95
 20
132.475
 30
0.0
 11
119.25
 21
129.775
 31
0.0
  0
LINE
  8
0
  6
CONTINUOUS
 62
     1
 10
119.25
 20
129.775
 30
0.0
 11
120.05
 21
127.075
 31
0.0
  0
LINE
  8
0
  6
CONTINUOUS
 62
     1
 10
120.05
 20
127.075
 30
0.0
 11
121.45
 21
124.975
 31
0.0
  0
LINE
  8
0
  6
CONTINUOUS
 62
     1
 10
121.45
 20
124.975
 30
0.0
 11
120.85
 21
122.975
 31
0.0
  0
LINE
  8
0
  6
CONTINUOUS
 62
     1
 10
120.85
 20
122.975
 30
0.0
 11
120.55
 21
120.475
 31
0.0
  0
LINE
  8
0
  6
CONTINUOUS
 62
     1
 10
120.55
 20
120.475
 30
0.0
 11
120.15
 21
117.975
 31
0.0
  0
LINE
  8
0
  6
CONTINUOUS
 62
     1
 10
120.15
 20
117.975
 30
0.0
 11
119.35
 21
114.775
 31
0.0
  0
LINE
  8
0
  6
CONTINUOUS
 62
     1
 10
119.35
 20
114.775
 30
0.0
 11
118.85
 21
112.375
 31
0.0
  0
LINE
  8
0
  6
CONTINUOUS
 62
     1
 10
118.85
 20
112.375
 30
0.0
 11
118.65
 21
109.575
 31
0.0
  0
LINE
  8
0
  6
CONTINUOUS
 62
     1
 10
118.65
 20
109.575
 30
0.0
 11
118.75
 21
107.675
 31
0.0
  0
LINE
  8
0
  6
CONTINUOUS
 62
     1
 10
118.75
 20
107.675
 30
0.0
 11
119.55
 21
105.875
 31
0.0
  0
LINE
  8
0
  6
CONTINUOUS
 62
     1
 10
119.55
 20
105.875
 30
0.0
 11
120.45
 21
103.675
 31
0.0
  0
LINE
  8
0
  6
CONTINUOUS
 62
     1
 10
120.45
 20
103.675
 30
0.0
 11
121.35
 21
101.375
 31
0.0
  0
LINE
  8
0
  6
CONTINUOUS
 62
     1
 10
121.35
 20
101.375
 30
0.0
 11
122.15
 21
99.975
 31
0.0
  0
LINE
  8
0
  6
CONTINUOUS
 62
     1
 10
122.15
 20
99.975
 30
0.0
 11
122.05
 21
99.275
 31
0.0
  0
LINE
  8
0
  6
CONTINUOUS
 62
     1
 10
120.85
 20
148.775
 30
0.0
 11
120.15
 21
147.075
 31
0.0
  0
LINE
  8
0
  6
CONTINUOUS
 62
     1
 10
120.15
 20
147.075
 30
0.0
 11
120.65
 21
144.875
 31
0.0
  0
LINE
  8
0
  6
CONTINUOUS
 62
     1
 10
120.65
 20
144.875
 30
0.0
 11
121.25
 21
143.075
 31
0.0
  0
LINE
  8
0
  6
CONTINUOUS
 62
     1
 10
121.25
 20
143.075
 30
0.0
 11
122.15
 21
141.475
 31
0.0
  0
LINE
  8
0
  6
CONTINUOUS
 62
     1
 10
122.15
 20
141.475
 30
0.0
 11
122.65
 21
138.875
 31
0.0
  0
LINE
  8
0
  6
CONTINUOUS
 62
     1
 10
122.65
 20
138.875
 30
0.0
 11
121.75
 21
137.375
 31
0.0
  0
LINE
  8
0
  6
CONTINUOUS
 62
     1
 10
121.75
 20
137.375
 30
0.0
 11
120.85
 21
135.175
 31
0.0
  0
LINE
  8
0
  6
CONTINUOUS
 62
     1
 10
120.85
 20
135.175
 30
0.0
 11
120.45
 21
132.475
 31
0.0
  0
LINE
  8
0
  6
CONTINUOUS
 62
     1
 10
120.45
 20
132.475
 30
0.0
 11
120.75
 21
129.775
 31
0.0
  0
LINE
  8
0
  6
CONTINUOUS
 62
     1
 10
120.75
 20
129.775
 30
0.0
 11
121.55
 21
127.075
 31
0.0
  0
LINE
  8
0
  6
CONTINUOUS
 62
     1
 10
121.55
 20
127.075
 30
0.0
 11
122.95
 21
124.975
 31
0.0
  0
LINE
  8
0
  6
CONTINUOUS
 62
     1
 10
122.95
 20
124.975
 30
0.0
 11
122.35
 21
122.975
 31
0.0
  0
LINE
  8
0
  6
CONTINUOUS
 62
     1
 10
122.35
 20
122.975
 30
0.0
 11
122.05
 21
120.475
 31
0.0
  0
LINE
  8
0
  6
CONTINUOUS
 62
     1
 10
122.05
 20
120.475
 30
0.0
 11
121.65
 21
117.975
 31
0.0
  0
LINE
  8
0
  6
CONTINUOUS
 62
     1
 10
121.65
 20
117.975
 30
0.0
 11
120.85
 21
114.775
 31
0.0
  0
LINE
  8
0
  6
CONTINUOUS
 62
     1
 10
120.85
 20
114.775
 30
0.0
 11
120.35
 21
112.375
 31
0.0
  0
LINE
  8
0
  6
CONTINUOUS
 62
     1
 10
120.35
 20
112.375
 30
0.0
 11
120.15
 21
109.575
 31
0.0
  0
LINE
  8
0
  6
CONTINUOUS
 62
     1
 10
120.15
 20
109.575
 30
0.0
 11
120.25
 21
107.675
 31
0.0
  0
LINE
  8
0
  6
CONTINUOUS
 62
     1
 10
120.25
 20
107.675
 30
0.0
 11
121.05
 21
105.875
 31
0.0
  0
LINE
  8
0
  6
CONTINUOUS
 62
     1
 10
121.05
 20
105.875
 30
0.0
 11
121.95
 21
103.675
 31
0.0
  0
LINE
  8
0
  6
CONTINUOUS
 62
     1
 10
121.95
 20
103.675
 30
0.0
 11
122.85
 21
101.375
 31
0.0
  0
LINE
  8
0
  6
CONTINUOUS
 62
     1
 10
122.85
 20
101.375
 30
0.0
 11
123.65
 21
99.975
 31
0.0
  0
LINE
  8
0
  6
CONTINUOUS
 62
     1
 10
123.65
 20
99.975
 30
0.0
 11
123.55
 21
99.275
 31
0.0
  0
LINE
  8
0
  6
CONTINUOUS
 62
     1
 10
109.75
 20
148.75
 30
0.0
 11
119.339705882
 21
148.75
 31
0.0
  0
LINE
  8
0
  6
CONTINUOUS
 62
     1
 10
120.839705882
 20
148.75
 30
0.0
 11
146.0
 21
148.75
 31
0.0
  0
LINE
  8
0
  6
CONTINUOUS
 62
     1
 10
146.0
 20
99.25
 30
0.0
 11
123.546428571
 21
99.25
 31
0.0
  0
TEXT
  8
0
  6
CONTINUOUS
 62
     1
 10
25.0
 20
78.0
 30
0.3
 40
3.0
  1
ターミナルネジ端子番号表
 50
0.0
 41
0.9
 51
0.0
  7
KANJI1
  0
LINE
  8
0
  6
CONTINUOUS
 62
     1
 10
24.8
 20
77.0
 30
0.0
 11
61.8
 21
77.0
 31
0.0
  0
LINE
  8
0
  6
CONTINUOUS
 62
     1
 10
106.25
 20
148.75
 30
0.0
 11
104.25
 21
148.75
 31
0.0
  0
LINE
  8
0
  6
CONTINUOUS
 62
     1
 10
104.0
 20
99.25
 30
0.0
 11
104.0
 21
99.25
 31
0.0
  0
LINE
  8
0
  6
CONTINUOUS
 62
     1
 10
106.25
 20
99.25
 30
0.0
 11
104.25
 21
99.25
 31
0.0
  0
LINE
  8
0
  6
CONTINUOUS
 62
     1
 10
122.046428571
 20
99.25
 30
0.0
 11
109.743734296
 21
99.25
 31
0.0
  0
LINE
  8
0
  6
CONTINUOUS
 62
     1
 10
146.5
 20
140.975
 30
0.0
 11
150.5
 21
140.975
 31
0.0
  0
LINE
  8
0
  6
CONTINUOUS
 62
     1
 10
150.5
 20
136.225
 30
0.0
 11
151.5
 21
136.225
 31
0.0
  0
LINE
  8
0
  6
CONTINUOUS
 62
     1
 10
151.5
 20
131.725
 30
0.0
 11
150.5
 21
131.725
 31
0.0
  0
LINE
  8
0
  6
CONTINUOUS
 62
     1
 10
151.5
 20
136.225
 30
0.0
 11
151.5
 21
131.725
 31
0.0
  0
ARC
  8
0
  6
CONTINUOUS
 62
     1
 10
152.55
 20
133.395
 30
0.0
 40
0.75
 50
268.472474559
 51
0.0
  0
LINE
  8
0
  6
CONTINUOUS
 62
     1
 10
152.25
 20
135.305
 30
0.0
 11
152.56
 21
135.305
 31
0.0
  0
ARC
  8
0
  6
CONTINUOUS
 62
     1
 10
152.55
 20
134.555
 30
0.0
 40
0.75
 50
0.0
 51
90.0
  0
LINE
  8
0
  6
CONTINUOUS
 62
     1
 10
153.3
 20
134.555
 30
0.0
 11
153.3
 21
133.395
 31
0.0
  0
LINE
  8
0
  6
CONTINUOUS
 62
     1
 10
153.3
 20
134.185
 30
0.0
 11
153.23
 21
134.185
 31
0.0
  0
LINE
  8
0
  6
CONTINUOUS
 62
     1
 10
153.23
 20
134.195
 30
0.0
 11
153.23
 21
133.815
 31
0.0
  0
LINE
  8
0
  6
CONTINUOUS
 62
     1
 10
153.23
 20
133.815
 30
0.0
 11
153.29
 21
133.815
 31
0.0
  0
LINE
  8
0
  6
CONTINUOUS
 62
     1
 10
152.25
 20
135.305
 30
0.0
 11
152.25
 21
132.645
 31
0.0
  0
LINE
  8
0
  6
CONTINUOUS
 62
     1
 10
152.56
 20
132.665
 30
0.0
 11
152.25
 21
132.645
 31
0.0
  0
CIRCLE
  8
0
  6
CONTINUOUS
 62
     1
 10
176.3
 20
133.975
 30
0.0
 40
1.5
  0
CIRCLE
  8
0
  6
CONTINUOUS
 62
     1
 10
199.4
 20
133.975
 30
0.0
 40
1.5
  0
TEXT
  8
0
  6
CONTINUOUS
 62
     2
 10
48.983820798
 20
170.218245415
 30
0.3
 40
3.0
  1
１１０
 50
0.0
 41
0.6
 51
0.0
  7
KANJI2
  0
TEXT
  8
0
  6
CONTINUOUS
 62
     2
 10
54.983820798
 20
170.218245415
 30
0.18
 40
1.8
  1
±１．５
 50
0.0
 41
0.6
 51
0.0
  7
KANJI3
  0
CIRCLE
  8
0
  6
CONTINUOUS
 62
     2
 10
76.9
 20
146.5
 30
0.0
 40
1.5
  0
LINE
  8
0
  6
CONTINUOUS
 62
     2
 10
76.025
 20
146.7
 30
0.0
 11
76.5
 21
146.7
 31
0.0
  0
ARC
  8
0
  6
CONTINUOUS
 62
     2
 10
76.5
 20
146.9
 30
0.0
 40
0.2
 50
270.0
 51
0.0
  0
LINE
  8
0
  6
CONTINUOUS
 62
     2
 10
76.7
 20
146.9
 30
0.0
 11
76.7
 21
147.375
 31
0.0
  0
LINE
  8
0
  6
CONTINUOUS
 62
     2
 10
76.7
 20
147.375
 30
0.0
 11
77.1
 21
147.375
 31
0.0
  0
LINE
  8
0
  6
CONTINUOUS
 62
     2
 10
77.1
 20
147.375
 30
0.0
 11
77.1
 21
146.9
 31
0.0
  0
ARC
  8
0
  6
CONTINUOUS
 62
     2
 10
77.3
 20
146.9
 30
0.0
 40
0.2
 50
180.0
 51
270.0
  0
LINE
  8
0
  6
CONTINUOUS
 62
     2
 10
77.3
 20
146.7
 30
0.0
 11
77.775
 21
146.7
 31
0.0
  0
LINE
  8
0
  6
CONTINUOUS
 62
     2
 10
77.775
 20
146.7
 30
0.0
 11
77.775
 21
146.3
 31
0.0
  0
LINE
  8
0
  6
CONTINUOUS
 62
     2
 10
77.775
 20
146.3
 30
0.0
 11
77.3
 21
146.3
 31
0.0
  0
ARC
  8
0
  6
CONTINUOUS
 62
     2
 10
77.3
 20
146.1
 30
0.0
 40
0.2
 50
90.0
 51
180.0
  0
LINE
  8
0
  6
CONTINUOUS
 62
     2
 10
77.1
 20
146.1
 30
0.0
 11
77.1
 21
145.625
 31
0.0
  0
LINE
  8
0
  6
CONTINUOUS
 62
     2
 10
77.1
 20
145.625
 30
0.0
 11
76.7
 21
145.625
 31
0.0
  0
LINE
  8
0
  6
CONTINUOUS
 62
     2
 10
76.7
 20
145.625
 30
0.0
 11
76.7
 21
146.1
 31
0.0
  0
ARC
  8
0
  6
CONTINUOUS
 62
     2
 10
76.5
 20
146.1
 30
0.0
 40
0.2
 50
0.0
 51
90.0
  0
LINE
  8
0
  6
CONTINUOUS
 62
     2
 10
76.5
 20
146.3
 30
0.0
 11
76.025
 21
146.3
 31
0.0
  0
LINE
  8
0
  6
CONTINUOUS
 62
     2
 10
76.025
 20
146.3
 30
0.0
 11
76.025
 21
146.7
 31
0.0
  0
CIRCLE
  8
0
  6
CONTINUOUS
 62
     2
 10
31.9
 20
146.5
 30
0.0
 40
1.5
  0
LINE
  8
0
  6
CONTINUOUS
 62
     2
 10
31.025
 20
146.7
 30
0.0
 11
31.5
 21
146.7
 31
0.0
  0
ARC
  8
0
  6
CONTINUOUS
 62
     2
 10
31.5
 20
146.9
 30
0.0
 40
0.2
 50
270.0
 51
0.0
  0
LINE
  8
0
  6
CONTINUOUS
 62
     2
 10
31.7
 20
146.9
 30
0.0
 11
31.7
 21
147.375
 31
0.0
  0
LINE
  8
0
  6
CONTINUOUS
 62
     2
 10
31.7
 20
147.375
 30
0.0
 11
32.1
 21
147.375
 31
0.0
  0
LINE
  8
0
  6
CONTINUOUS
 62
     2
 10
32.1
 20
147.375
 30
0.0
 11
32.1
 21
146.9
 31
0.0
  0
ARC
  8
0
  6
CONTINUOUS
 62
     2
 10
32.3
 20
146.9
 30
0.0
 40
0.2
 50
180.0
 51
270.0
  0
LINE
  8
0
  6
CONTINUOUS
 62
     2
 10
32.3
 20
146.7
 30
0.0
 11
32.775
 21
146.7
 31
0.0
  0
LINE
  8
0
  6
CONTINUOUS
 62
     2
 10
32.775
 20
146.7
 30
0.0
 11
32.775
 21
146.3
 31
0.0
  0
LINE
  8
0
  6
CONTINUOUS
 62
     2
 10
32.775
 20
146.3
 30
0.0
 11
32.3
 21
146.3
 31
0.0
  0
ARC
  8
0
  6
CONTINUOUS
 62
     2
 10
32.3
 20
146.1
 30
0.0
 40
0.2
 50
90.0
 51
180.0
  0
LINE
  8
0
  6
CONTINUOUS
 62
     2
 10
32.1
 20
146.1
 30
0.0
 11
32.1
 21
145.625
 31
0.0
  0
LINE
  8
0
  6
CONTINUOUS
 62
     2
 10
32.1
 20
145.625
 30
0.0
 11
31.7
 21
145.625
 31
0.0
  0
LINE
  8
0
  6
CONTINUOUS
 62
     2
 10
31.7
 20
145.625
 30
0.0
 11
31.7
 21
146.1
 31
0.0
  0
ARC
  8
0
  6
CONTINUOUS
 62
     2
 10
31.5
 20
146.1
 30
0.0
 40
0.2
 50
0.0
 51
90.0
  0
LINE
  8
0
  6
CONTINUOUS
 62
     2
 10
31.5
 20
146.3
 30
0.0
 11
31.025
 21
146.3
 31
0.0
  0
LINE
  8
0
  6
CONTINUOUS
 62
     2
 10
31.025
 20
146.3
 30
0.0
 11
31.025
 21
146.7
 31
0.0
  0
CIRCLE
  8
0
  6
CONTINUOUS
 62
     2
 10
31.9
 20
101.5
 30
0.0
 40
1.5
  0
LINE
  8
0
  6
CONTINUOUS
 62
     2
 10
31.025
 20
101.7
 30
0.0
 11
31.5
 21
101.7
 31
0.0
  0
ARC
  8
0
  6
CONTINUOUS
 62
     2
 10
31.5
 20
101.9
 30
0.0
 40
0.2
 50
270.0
 51
0.0
  0
LINE
  8
0
  6
CONTINUOUS
 62
     2
 10
31.7
 20
101.9
 30
0.0
 11
31.7
 21
102.375
 31
0.0
  0
LINE
  8
0
  6
CONTINUOUS
 62
     2
 10
31.7
 20
102.375
 30
0.0
 11
32.1
 21
102.375
 31
0.0
  0
LINE
  8
0
  6
CONTINUOUS
 62
     2
 10
32.1
 20
102.375
 30
0.0
 11
32.1
 21
101.9
 31
0.0
  0
ARC
  8
0
  6
CONTINUOUS
 62
     2
 10
32.3
 20
101.9
 30
0.0
 40
0.2
 50
180.0
 51
270.0
  0
LINE
  8
0
  6
CONTINUOUS
 62
     2
 10
32.3
 20
101.7
 30
0.0
 11
32.775
 21
101.7
 31
0.0
  0
LINE
  8
0
  6
CONTINUOUS
 62
     2
 10
32.775
 20
101.7
 30
0.0
 11
32.775
 21
101.3
 31
0.0
  0
LINE
  8
0
  6
CONTINUOUS
 62
     2
 10
32.775
 20
101.3
 30
0.0
 11
32.3
 21
101.3
 31
0.0
  0
ARC
  8
0
  6
CONTINUOUS
 62
     2
 10
32.3
 20
101.1
 30
0.0
 40
0.2
 50
90.0
 51
180.0
  0
LINE
  8
0
  6
CONTINUOUS
 62
     2
 10
32.1
 20
101.1
 30
0.0
 11
32.1
 21
100.625
 31
0.0
  0
LINE
  8
0
  6
CONTINUOUS
 62
     2
 10
32.1
 20
100.625
 30
0.0
 11
31.7
 21
100.625
 31
0.0
  0
LINE
  8
0
  6
CONTINUOUS
 62
     2
 10
31.7
 20
100.625
 30
0.0
 11
31.7
 21
101.1
 31
0.0
  0
ARC
  8
0
  6
CONTINUOUS
 62
     2
 10
31.5
 20
101.1
 30
0.0
 40
0.2
 50
0.0
 51
90.0
  0
LINE
  8
0
  6
CONTINUOUS
 62
     2
 10
31.5
 20
101.3
 30
0.0
 11
31.025
 21
101.3
 31
0.0
  0
LINE
  8
0
  6
CONTINUOUS
 62
     2
 10
31.025
 20
101.3
 30
0.0
 11
31.025
 21
101.7
 31
0.0
  0
CIRCLE
  8
0
  6
CONTINUOUS
 62
     2
 10
76.9
 20
101.5
 30
0.0
 40
1.5
  0
LINE
  8
0
  6
CONTINUOUS
 62
     2
 10
76.025
 20
101.7
 30
0.0
 11
76.5
 21
101.7
 31
0.0
  0
ARC
  8
0
  6
CONTINUOUS
 62
     2
 10
76.5
 20
101.9
 30
0.0
 40
0.2
 50
270.0
 51
0.0
  0
LINE
  8
0
  6
CONTINUOUS
 62
     2
 10
76.7
 20
101.9
 30
0.0
 11
76.7
 21
102.375
 31
0.0
  0
LINE
  8
0
  6
CONTINUOUS
 62
     2
 10
76.7
 20
102.375
 30
0.0
 11
77.1
 21
102.375
 31
0.0
  0
LINE
  8
0
  6
CONTINUOUS
 62
     2
 10
77.1
 20
102.375
 30
0.0
 11
77.1
 21
101.9
 31
0.0
  0
ARC
  8
0
  6
CONTINUOUS
 62
     2
 10
77.3
 20
101.9
 30
0.0
 40
0.2
 50
180.0
 51
270.0
  0
LINE
  8
0
  6
CONTINUOUS
 62
     2
 10
77.3
 20
101.7
 30
0.0
 11
77.775
 21
101.7
 31
0.0
  0
LINE
  8
0
  6
CONTINUOUS
 62
     2
 10
77.775
 20
101.7
 30
0.0
 11
77.775
 21
101.3
 31
0.0
  0
LINE
  8
0
  6
CONTINUOUS
 62
     2
 10
77.775
 20
101.3
 30
0.0
 11
77.3
 21
101.3
 31
0.0
  0
ARC
  8
0
  6
CONTINUOUS
 62
     2
 10
77.3
 20
101.1
 30
0.0
 40
0.2
 50
90.0
 51
180.0
  0
LINE
  8
0
  6
CONTINUOUS
 62
     2
 10
77.1
 20
101.1
 30
0.0
 11
77.1
 21
100.625
 31
0.0
  0
LINE
  8
0
  6
CONTINUOUS
 62
     2
 10
77.1
 20
100.625
 30
0.0
 11
76.7
 21
100.625
 31
0.0
  0
LINE
  8
0
  6
CONTINUOUS
 62
     2
 10
76.7
 20
100.625
 30
0.0
 11
76.7
 21
101.1
 31
0.0
  0
ARC
  8
0
  6
CONTINUOUS
 62
     2
 10
76.5
 20
101.1
 30
0.0
 40
0.2
 50
0.0
 51
90.0
  0
LINE
  8
0
  6
CONTINUOUS
 62
     2
 10
76.5
 20
101.3
 30
0.0
 11
76.025
 21
101.3
 31
0.0
  0
LINE
  8
0
  6
CONTINUOUS
 62
     2
 10
76.025
 20
101.3
 30
0.0
 11
76.025
 21
101.7
 31
0.0
  0
LINE
  8
0
  6
CONTINUOUS
 62
     2
 10
54.85
 20
120.983379374
 30
0.0
 11
54.85
 21
127.016620626
 31
0.0
  0
LINE
  8
0
  6
CONTINUOUS
 62
     2
 10
53.95
 20
127.016620626
 30
0.0
 11
53.95
 21
120.983379374
 31
0.0
  0
CIRCLE
  8
0
  6
CONTINUOUS
 62
     2
 10
54.4
 20
124.0
 30
0.0
 40
8.5
  0
CIRCLE
  8
0
  6
CONTINUOUS
 62
     2
 10
54.4
 20
124.0
 30
0.0
 40
7.8
  0
CIRCLE
  8
0
  6
CONTINUOUS
 62
     2
 10
54.4
 20
124.0
 30
0.0
 40
7.1
  0
CIRCLE
  8
0
  6
CONTINUOUS
 62
     2
 10
54.4
 20
124.0
 30
0.0
 40
6.4
  0
CIRCLE
  8
0
  6
CONTINUOUS
 62
     2
 10
54.4
 20
124.0
 30
0.0
 40
5.7
  0
CIRCLE
  8
0
  6
CONTINUOUS
 62
     2
 10
54.4
 20
124.0
 30
0.0
 40
5.0
  0
CIRCLE
  8
0
  6
CONTINUOUS
 62
     2
 10
54.4
 20
124.0
 30
0.0
 40
4.3
  0
CIRCLE
  8
0
  6
CONTINUOUS
 62
     2
 10
54.4
 20
124.0
 30
0.0
 40
3.6
  0
CIRCLE
  8
0
  6
CONTINUOUS
 62
     2
 10
54.4
 20
124.0
 30
0.0
 40
24.25
  0
CIRCLE
  8
0
  6
CONTINUOUS
 62
     2
 10
54.4
 20
124.0
 30
0.0
 40
21.0
  0
CIRCLE
  8
0
  6
CONTINUOUS
 62
     2
 10
45.9
 20
108.5
 30
0.0
 40
1.5
  0
LINE
  8
0
  6
CONTINUOUS
 62
     2
 10
45.13986021
 20
108.022702923
 30
0.0
 11
45.475735931
 21
108.358578644
 31
0.0
  0
ARC
  8
0
  6
CONTINUOUS
 62
     2
 10
45.334314575
 20
108.5
 30
0.0
 40
0.2
 50
315.0
 51
45.0
  0
LINE
  8
0
  6
CONTINUOUS
 62
     2
 10
45.475735931
 20
108.641421356
 30
0.0
 11
45.13986021
 21
108.977297077
 31
0.0
  0
LINE
  8
0
  6
CONTINUOUS
 62
     2
 10
45.13986021
 20
108.977297077
 30
0.0
 11
45.422702923
 21
109.26013979
 31
0.0
  0
LINE
  8
0
  6
CONTINUOUS
 62
     2
 10
45.422702923
 20
109.26013979
 30
0.0
 11
45.758578644
 21
108.924264069
 31
0.0
  0
ARC
  8
0
  6
CONTINUOUS
 62
     2
 10
45.9
 20
109.065685425
 30
0.0
 40
0.2
 50
225.0
 51
315.0
  0
LINE
  8
0
  6
CONTINUOUS
 62
     2
 10
46.041421356
 20
108.924264069
 30
0.0
 11
46.377297077
 21
109.26013979
 31
0.0
  0
LINE
  8
0
  6
CONTINUOUS
 62
     2
 10
46.377297077
 20
109.26013979
 30
0.0
 11
46.66013979
 21
108.977297077
 31
0.0
  0
LINE
  8
0
  6
CONTINUOUS
 62
     2
 10
46.66013979
 20
108.977297077
 30
0.0
 11
46.324264069
 21
108.641421356
 31
0.0
  0
ARC
  8
0
  6
CONTINUOUS
 62
     2
 10
46.465685425
 20
108.5
 30
0.0
 40
0.2
 50
135.0
 51
225.0
  0
LINE
  8
0
  6
CONTINUOUS
 62
     2
 10
46.324264069
 20
108.358578644
 30
0.0
 11
46.66013979
 21
108.022702923
 31
0.0
  0
LINE
  8
0
  6
CONTINUOUS
 62
     2
 10
46.66013979
 20
108.022702923
 30
0.0
 11
46.377297077
 21
107.73986021
 31
0.0
  0
LINE
  8
0
  6
CONTINUOUS
 62
     2
 10
46.377297077
 20
107.73986021
 30
0.0
 11
46.041421356
 21
108.075735931
 31
0.0
  0
ARC
  8
0
  6
CONTINUOUS
 62
     2
 10
45.9
 20
107.934314575
 30
0.0
 40
0.2
 50
45.0
 51
135.0
  0
LINE
  8
0
  6
CONTINUOUS
 62
     2
 10
45.758578644
 20
108.075735931
 30
0.0
 11
45.422702923
 21
107.73986021
 31
0.0
  0
LINE
  8
0
  6
CONTINUOUS
 62
     2
 10
45.422702923
 20
107.73986021
 30
0.0
 11
45.13986021
 21
108.022702923
 31
0.0
  0
CIRCLE
  8
0
  6
CONTINUOUS
 62
     2
 10
62.9
 20
108.5
 30
0.0
 40
1.5
  0
LINE
  8
0
  6
CONTINUOUS
 62
     2
 10
62.13986021
 20
108.022702923
 30
0.0
 11
62.475735931
 21
108.358578644
 31
0.0
  0
ARC
  8
0
  6
CONTINUOUS
 62
     2
 10
62.334314575
 20
108.5
 30
0.0
 40
0.2
 50
315.0
 51
45.0
  0
LINE
  8
0
  6
CONTINUOUS
 62
     2
 10
62.475735931
 20
108.641421356
 30
0.0
 11
62.13986021
 21
108.977297077
 31
0.0
  0
LINE
  8
0
  6
CONTINUOUS
 62
     2
 10
62.13986021
 20
108.977297077
 30
0.0
 11
62.422702923
 21
109.26013979
 31
0.0
  0
LINE
  8
0
  6
CONTINUOUS
 62
     2
 10
62.422702923
 20
109.26013979
 30
0.0
 11
62.758578644
 21
108.924264069
 31
0.0
  0
ARC
  8
0
  6
CONTINUOUS
 62
     2
 10
62.9
 20
109.065685425
 30
0.0
 40
0.2
 50
225.0
 51
315.0
  0
LINE
  8
0
  6
CONTINUOUS
 62
     2
 10
63.041421356
 20
108.924264069
 30
0.0
 11
63.377297077
 21
109.26013979
 31
0.0
  0
LINE
  8
0
  6
CONTINUOUS
 62
     2
 10
63.377297077
 20
109.26013979
 30
0.0
 11
63.66013979
 21
108.977297077
 31
0.0
  0
LINE
  8
0
  6
CONTINUOUS
 62
     2
 10
63.66013979
 20
108.977297077
 30
0.0
 11
63.324264069
 21
108.641421356
 31
0.0
  0
ARC
  8
0
  6
CONTINUOUS
 62
     2
 10
63.465685425
 20
108.5
 30
0.0
 40
0.2
 50
135.0
 51
225.0
  0
LINE
  8
0
  6
CONTINUOUS
 62
     2
 10
63.324264069
 20
108.358578644
 30
0.0
 11
63.66013979
 21
108.022702923
 31
0.0
  0
LINE
  8
0
  6
CONTINUOUS
 62
     2
 10
63.66013979
 20
108.022702923
 30
0.0
 11
63.377297077
 21
107.73986021
 31
0.0
  0
LINE
  8
0
  6
CONTINUOUS
 62
     2
 10
63.377297077
 20
107.73986021
 30
0.0
 11
63.041421356
 21
108.075735931
 31
0.0
  0
ARC
  8
0
  6
CONTINUOUS
 62
     2
 10
62.9
 20
107.934314575
 30
0.0
 40
0.2
 50
45.0
 51
135.0
  0
LINE
  8
0
  6
CONTINUOUS
 62
     2
 10
62.758578644
 20
108.075735931
 30
0.0
 11
62.422702923
 21
107.73986021
 31
0.0
  0
LINE
  8
0
  6
CONTINUOUS
 62
     2
 10
62.422702923
 20
107.73986021
 30
0.0
 11
62.13986021
 21
108.022702923
 31
0.0
  0
TEXT
  8
0
  6
CONTINUOUS
 62
     2
 10
48.983820798
 20
170.218245415
 30
0.3
 40
3.0
  1
１１０
 50
0.0
 41
0.6
 51
0.0
  7
KANJI2
  0
TEXT
  8
0
  6
CONTINUOUS
 62
     2
 10
54.983820798
 20
170.218245415
 30
0.18
 40
1.8
  1
±１．５
 50
0.0
 41
0.6
 51
0.0
  7
KANJI3
  0
TEXT
  8
0
  6
CONTINUOUS
 62
     2
 10
15.363820798
 20
118.588245415
 30
0.3
 40
3.0
  1
１１０
 50
90.0
 41
0.6
 51
0.0
  7
KANJI2
  0
TEXT
  8
0
  6
CONTINUOUS
 62
     2
 10
15.363820798
 20
124.588245415
 30
0.18
 40
1.8
  1
±１．５
 50
90.0
 41
0.6
 51
0.0
  7
KANJI3
  0
LINE
  8
0
  6
CONTINUOUS
 62
     2
 10
98.25
 20
102.725
 30
0.0
 11
98.15
 21
102.725
 31
0.0
  0
LINE
  8
0
  6
CONTINUOUS
 62
     2
 10
98.15
 20
102.725
 30
0.0
 11
98.15
 21
100.225
 31
0.0
  0
LINE
  8
0
  6
CONTINUOUS
 62
     2
 10
98.15
 20
100.225
 30
0.0
 11
98.25
 21
100.225
 31
0.0
  0
LINE
  8
0
  6
CONTINUOUS
 62
     2
 10
98.15
 20
103.0
 30
0.0
 11
98.15
 21
100.0
 31
0.0
  0
LINE
  8
0
  6
CONTINUOUS
 62
     2
 10
97.8
 20
100.0
 30
0.0
 11
98.15
 21
100.0
 31
0.0
  0
ARC
  8
0
  6
CONTINUOUS
 62
     2
 10
97.8
 20
100.4
 30
0.0
 40
0.4
 50
180.0
 51
270.0
  0
LINE
  8
0
  6
CONTINUOUS
 62
     2
 10
97.8
 20
103.0
 30
0.0
 11
98.25
 21
103.0
 31
0.0
  0
LINE
  8
0
  6
CONTINUOUS
 62
     2
 10
97.4
 20
100.4
 30
0.0
 11
97.4
 21
102.6
 31
0.0
  0
ARC
  8
0
  6
CONTINUOUS
 62
     2
 10
97.8
 20
102.6
 30
0.0
 40
0.4
 50
90.0
 51
180.0
  0
LINE
  8
0
  6
CONTINUOUS
 62
     2
 10
97.4
 20
101.6
 30
0.0
 11
97.5
 21
101.6
 31
0.0
  0
LINE
  8
0
  6
CONTINUOUS
 62
     2
 10
97.5
 20
101.6
 30
0.0
 11
97.5
 21
101.4
 31
0.0
  0
LINE
  8
0
  6
CONTINUOUS
 62
     2
 10
97.5
 20
101.4
 30
0.0
 11
97.4
 21
101.4
 31
0.0
  0
LINE
  8
0
  6
CONTINUOUS
 62
     2
 10
98.25
 20
147.725
 30
0.0
 11
98.15
 21
147.725
 31
0.0
  0
LINE
  8
0
  6
CONTINUOUS
 62
     2
 10
98.15
 20
147.725
 30
0.0
 11
98.15
 21
145.225
 31
0.0
  0
LINE
  8
0
  6
CONTINUOUS
 62
     2
 10
98.15
 20
145.225
 30
0.0
 11
98.25
 21
145.225
 31
0.0
  0
LINE
  8
0
  6
CONTINUOUS
 62
     2
 10
98.15
 20
148.0
 30
0.0
 11
98.15
 21
145.0
 31
0.0
  0
LINE
  8
0
  6
CONTINUOUS
 62
     2
 10
97.8
 20
145.0
 30
0.0
 11
98.15
 21
145.0
 31
0.0
  0
ARC
  8
0
  6
CONTINUOUS
 62
     2
 10
97.8
 20
145.4
 30
0.0
 40
0.4
 50
180.0
 51
270.0
  0
LINE
  8
0
  6
CONTINUOUS
 62
     2
 10
97.8
 20
148.0
 30
0.0
 11
98.25
 21
148.0
 31
0.0
  0
LINE
  8
0
  6
CONTINUOUS
 62
     2
 10
97.4
 20
145.4
 30
0.0
 11
97.4
 21
147.6
 31
0.0
  0
ARC
  8
0
  6
CONTINUOUS
 62
     2
 10
97.8
 20
147.6
 30
0.0
 40
0.4
 50
90.0
 51
180.0
  0
LINE
  8
0
  6
CONTINUOUS
 62
     2
 10
97.4
 20
146.6
 30
0.0
 11
97.5
 21
146.6
 31
0.0
  0
LINE
  8
0
  6
CONTINUOUS
 62
     2
 10
97.5
 20
146.6
 30
0.0
 11
97.5
 21
146.4
 31
0.0
  0
LINE
  8
0
  6
CONTINUOUS
 62
     2
 10
97.5
 20
146.4
 30
0.0
 11
97.4
 21
146.4
 31
0.0
  0
LINE
  8
0
  6
CONTINUOUS
 62
     2
 10
93.5
 20
127.15
 30
0.0
 11
93.5
 21
121.25
 31
0.0
  0
LINE
  8
0
  6
CONTINUOUS
 62
     2
 10
93.5
 20
127.15
 30
0.0
 11
93.5
 21
127.15
 31
0.0
  0
ARC
  8
0
  6
CONTINUOUS
 62
     2
 10
93.5
 20
125.65
 30
0.0
 40
1.5
 50
90.0
 51
180.0
  0
LINE
  8
0
  6
CONTINUOUS
 62
     2
 10
93.5
 20
121.25
 30
0.0
 11
93.4
 21
121.25
 31
0.0
  0
LINE
  8
0
  6
CONTINUOUS
 62
     2
 10
92.0
 20
122.65
 30
0.0
 11
92.0
 21
125.65
 31
0.0
  0
ARC
  8
0
  6
CONTINUOUS
 62
     2
 10
93.4
 20
122.65
 30
0.0
 40
1.4
 50
180.0
 51
270.0
  0
TEXT
  8
0
  6
CONTINUOUS
 62
     2
 10
88.125
 20
119.925
 30
0.3
 40
3.0
  1
φ１０２
 50
90.0
 41
0.6
 51
0.0
  7
KANJI2
  0
TEXT
  8
0
  6
CONTINUOUS
 62
     2
 10
96.05
 20
170.425001907
 30
0.3
 40
3.0
  1
２４
 50
0.0
 41
0.6
 51
0.0
  7
KANJI2
  0
TEXT
  8
0
  6
CONTINUOUS
 62
     2
 10
106.05
 20
160.875001907
 30
0.3
 40
3.0
  1
１５
 50
0.0
 41
0.6
 51
0.0
  7
KANJI2
  0
TEXT
  8
0
  6
CONTINUOUS
 62
     2
 10
94.15
 20
160.875001907
 30
0.3
 40
3.0
  1
０．５
 50
0.0
 41
0.6
 51
0.0
  7
KANJI2
  0
POINT
  8
0
  6
LTYPE1
 62
     2
 10
187.8
 20
23.5
 30
0.0
  0
ARC
  8
0
  6
CONTINUOUS
 62
     2
 10
163.05
 20
99.25
 30
0.0
 40
1.5
 50
180.0
 51
270.0
  0
LINE
  8
0
  6
CONTINUOUS
 62
     2
 10
161.55
 20
148.75
 30
0.0
 11
161.55
 21
99.25
 31
0.0
  0
ARC
  8
0
  6
CONTINUOUS
 62
     2
 10
163.05
 20
148.75
 30
0.0
 40
1.5
 50
90.0
 51
180.0
  0
LINE
  8
0
  6
CONTINUOUS
 62
     2
 10
212.55
 20
150.25
 30
0.0
 11
163.05
 21
150.25
 31
0.0
  0
ARC
  8
0
  6
CONTINUOUS
 62
     2
 10
212.55
 20
148.75
 30
0.0
 40
1.5
 50
0.0
 51
90.0
  0
LINE
  8
0
  6
CONTINUOUS
 62
     2
 10
163.05
 20
97.75
 30
0.0
 11
212.55
 21
97.75
 31
0.0
  0
LINE
  8
0
  6
CONTINUOUS
 62
     2
 10
214.05
 20
99.25
 30
0.0
 11
214.05
 21
148.75
 31
0.0
  0
ARC
  8
0
  6
CONTINUOUS
 62
     2
 10
212.55
 20
99.25
 30
0.0
 40
1.5
 50
270.0
 51
360.0
  0
LINE
  8
0
  6
CONTINUOUS
 62
     2
 10
212.724871131
 20
147.9
 30
0.0
 11
210.3
 21
149.3
 31
0.0
  0
LINE
  8
0
  6
CONTINUOUS
 62
     2
 10
210.3
 20
149.3
 30
0.0
 11
207.875128869
 21
147.9
 31
0.0
  0
LINE
  8
0
  6
CONTINUOUS
 62
     2
 10
207.875128869
 20
147.9
 30
0.0
 11
207.875128869
 21
145.1
 31
0.0
  0
LINE
  8
0
  6
CONTINUOUS
 62
     2
 10
207.875128869
 20
145.1
 30
0.0
 11
210.3
 21
143.7
 31
0.0
  0
LINE
  8
0
  6
CONTINUOUS
 62
     2
 10
210.3
 20
143.7
 30
0.0
 11
212.724871131
 21
145.1
 31
0.0
  0
LINE
  8
0
  6
CONTINUOUS
 62
     2
 10
212.724871131
 20
145.1
 30
0.0
 11
212.724871131
 21
147.9
 31
0.0
  0
CIRCLE
  8
0
  6
CONTINUOUS
 62
     2
 10
210.3
 20
146.5
 30
0.0
 40
1.5
  0
CIRCLE
  8
0
  6
CONTINUOUS
 62
     2
 10
210.3
 20
146.5
 30
0.0
 40
1.4
  0
CIRCLE
  8
0
  6
CONTINUOUS
 62
     2
 10
210.3
 20
146.5
 30
0.0
 40
3.0
  0
CIRCLE
  8
0
  6
CONTINUOUS
 62
     2
 10
210.3
 20
146.5
 30
0.0
 40
2.5
  0
LINE
  8
0
  6
CONTINUOUS
 62
     2
 10
167.724871131
 20
147.9
 30
0.0
 11
165.3
 21
149.3
 31
0.0
  0
LINE
  8
0
  6
CONTINUOUS
 62
     2
 10
165.3
 20
149.3
 30
0.0
 11
162.875128869
 21
147.9
 31
0.0
  0
LINE
  8
0
  6
CONTINUOUS
 62
     2
 10
162.875128869
 20
147.9
 30
0.0
 11
162.875128869
 21
145.1
 31
0.0
  0
LINE
  8
0
  6
CONTINUOUS
 62
     2
 10
162.875128869
 20
145.1
 30
0.0
 11
165.3
 21
143.7
 31
0.0
  0
LINE
  8
0
  6
CONTINUOUS
 62
     2
 10
165.3
 20
143.7
 30
0.0
 11
167.724871131
 21
145.1
 31
0.0
  0
LINE
  8
0
  6
CONTINUOUS
 62
     2
 10
167.724871131
 20
145.1
 30
0.0
 11
167.724871131
 21
147.9
 31
0.0
  0
CIRCLE
  8
0
  6
CONTINUOUS
 62
     2
 10
165.3
 20
146.5
 30
0.0
 40
1.5
  0
CIRCLE
  8
0
  6
CONTINUOUS
 62
     2
 10
165.3
 20
146.5
 30
0.0
 40
1.4
  0
CIRCLE
  8
0
  6
CONTINUOUS
 62
     2
 10
165.3
 20
146.5
 30
0.0
 40
3.0
  0
CIRCLE
  8
0
  6
CONTINUOUS
 62
     2
 10
165.3
 20
146.5
 30
0.0
 40
2.5
  0
LINE
  8
0
  6
CONTINUOUS
 62
     2
 10
167.724871131
 20
102.9
 30
0.0
 11
165.3
 21
104.3
 31
0.0
  0
LINE
  8
0
  6
CONTINUOUS
 62
     2
 10
165.3
 20
104.3
 30
0.0
 11
162.875128869
 21
102.9
 31
0.0
  0
LINE
  8
0
  6
CONTINUOUS
 62
     2
 10
162.875128869
 20
102.9
 30
0.0
 11
162.875128869
 21
100.1
 31
0.0
  0
LINE
  8
0
  6
CONTINUOUS
 62
     2
 10
162.875128869
 20
100.1
 30
0.0
 11
165.3
 21
98.7
 31
0.0
  0
LINE
  8
0
  6
CONTINUOUS
 62
     2
 10
165.3
 20
98.7
 30
0.0
 11
167.724871131
 21
100.1
 31
0.0
  0
LINE
  8
0
  6
CONTINUOUS
 62
     2
 10
167.724871131
 20
100.1
 30
0.0
 11
167.724871131
 21
102.9
 31
0.0
  0
CIRCLE
  8
0
  6
CONTINUOUS
 62
     2
 10
165.3
 20
101.5
 30
0.0
 40
1.5
  0
CIRCLE
  8
0
  6
CONTINUOUS
 62
     2
 10
165.3
 20
101.5
 30
0.0
 40
1.4
  0
CIRCLE
  8
0
  6
CONTINUOUS
 62
     2
 10
165.3
 20
101.5
 30
0.0
 40
3.0
  0
CIRCLE
  8
0
  6
CONTINUOUS
 62
     2
 10
165.3
 20
101.5
 30
0.0
 40
2.5
  0
LINE
  8
0
  6
CONTINUOUS
 62
     2
 10
212.724871131
 20
102.9
 30
0.0
 11
210.3
 21
104.3
 31
0.0
  0
LINE
  8
0
  6
CONTINUOUS
 62
     2
 10
210.3
 20
104.3
 30
0.0
 11
207.875128869
 21
102.9
 31
0.0
  0
LINE
  8
0
  6
CONTINUOUS
 62
     2
 10
207.875128869
 20
102.9
 30
0.0
 11
207.875128869
 21
100.1
 31
0.0
  0
LINE
  8
0
  6
CONTINUOUS
 62
     2
 10
207.875128869
 20
100.1
 30
0.0
 11
210.3
 21
98.7
 31
0.0
  0
LINE
  8
0
  6
CONTINUOUS
 62
     2
 10
210.3
 20
98.7
 30
0.0
 11
212.724871131
 21
100.1
 31
0.0
  0
LINE
  8
0
  6
CONTINUOUS
 62
     2
 10
212.724871131
 20
100.1
 30
0.0
 11
212.724871131
 21
102.9
 31
0.0
  0
CIRCLE
  8
0
  6
CONTINUOUS
 62
     2
 10
210.3
 20
101.5
 30
0.0
 40
1.5
  0
CIRCLE
  8
0
  6
CONTINUOUS
 62
     2
 10
210.3
 20
101.5
 30
0.0
 40
1.4
  0
CIRCLE
  8
0
  6
CONTINUOUS
 62
     2
 10
210.3
 20
101.5
 30
0.0
 40
3.0
  0
CIRCLE
  8
0
  6
CONTINUOUS
 62
     2
 10
210.3
 20
101.5
 30
0.0
 40
2.5
  0
CIRCLE
  8
0
  6
CONTINUOUS
 62
     2
 10
206.852558883
 20
113.0
 30
0.0
 40
1.75
  0
CIRCLE
  8
0
  6
CONTINUOUS
 62
     2
 10
187.8
 20
146.0
 30
0.0
 40
1.75
  0
CIRCLE
  8
0
  6
CONTINUOUS
 62
     2
 10
168.747441117
 20
113.0
 30
0.0
 40
1.75
  0
CIRCLE
  8
0
  6
CONTINUOUS
 62
     2
 10
168.747441117
 20
113.0
 30
0.0
 40
1.5
  0
LINE
  8
0
  6
CONTINUOUS
 62
     2
 10
167.872441117
 20
113.2
 30
0.0
 11
168.347441117
 21
113.2
 31
0.0
  0
ARC
  8
0
  6
CONTINUOUS
 62
     2
 10
168.347441117
 20
113.4
 30
0.0
 40
0.2
 50
270.0
 51
0.0
  0
LINE
  8
0
  6
CONTINUOUS
 62
     2
 10
168.547441117
 20
113.4
 30
0.0
 11
168.547441117
 21
113.875
 31
0.0
  0
LINE
  8
0
  6
CONTINUOUS
 62
     2
 10
168.547441117
 20
113.875
 30
0.0
 11
168.947441117
 21
113.875
 31
0.0
  0
LINE
  8
0
  6
CONTINUOUS
 62
     2
 10
168.947441117
 20
113.875
 30
0.0
 11
168.947441117
 21
113.4
 31
0.0
  0
ARC
  8
0
  6
CONTINUOUS
 62
     2
 10
169.147441117
 20
113.4
 30
0.0
 40
0.2
 50
180.0
 51
270.0
  0
LINE
  8
0
  6
CONTINUOUS
 62
     2
 10
169.147441117
 20
113.2
 30
0.0
 11
169.622441117
 21
113.2
 31
0.0
  0
LINE
  8
0
  6
CONTINUOUS
 62
     2
 10
169.622441117
 20
113.2
 30
0.0
 11
169.622441117
 21
112.8
 31
0.0
  0
LINE
  8
0
  6
CONTINUOUS
 62
     2
 10
169.622441117
 20
112.8
 30
0.0
 11
169.147441117
 21
112.8
 31
0.0
  0
ARC
  8
0
  6
CONTINUOUS
 62
     2
 10
169.147441117
 20
112.6
 30
0.0
 40
0.2
 50
90.0
 51
180.0
  0
LINE
  8
0
  6
CONTINUOUS
 62
     2
 10
168.947441117
 20
112.6
 30
0.0
 11
168.947441117
 21
112.125
 31
0.0
  0
LINE
  8
0
  6
CONTINUOUS
 62
     2
 10
168.947441117
 20
112.125
 30
0.0
 11
168.547441117
 21
112.125
 31
0.0
  0
LINE
  8
0
  6
CONTINUOUS
 62
     2
 10
168.547441117
 20
112.125
 30
0.0
 11
168.547441117
 21
112.6
 31
0.0
  0
ARC
  8
0
  6
CONTINUOUS
 62
     2
 10
168.347441117
 20
112.6
 30
0.0
 40
0.2
 50
0.0
 51
90.0
  0
LINE
  8
0
  6
CONTINUOUS
 62
     2
 10
168.347441117
 20
112.8
 30
0.0
 11
167.872441117
 21
112.8
 31
0.0
  0
LINE
  8
0
  6
CONTINUOUS
 62
     2
 10
167.872441117
 20
112.8
 30
0.0
 11
167.872441117
 21
113.2
 31
0.0
  0
CIRCLE
  8
0
  6
CONTINUOUS
 62
     2
 10
187.8
 20
146.0
 30
0.0
 40
1.5
  0
LINE
  8
0
  6
CONTINUOUS
 62
     2
 10
186.925
 20
146.2
 30
0.0
 11
187.4
 21
146.2
 31
0.0
  0
ARC
  8
0
  6
CONTINUOUS
 62
     2
 10
187.4
 20
146.4
 30
0.0
 40
0.2
 50
270.0
 51
0.0
  0
LINE
  8
0
  6
CONTINUOUS
 62
     2
 10
187.6
 20
146.4
 30
0.0
 11
187.6
 21
146.875
 31
0.0
  0
LINE
  8
0
  6
CONTINUOUS
 62
     2
 10
187.6
 20
146.875
 30
0.0
 11
188.0
 21
146.875
 31
0.0
  0
LINE
  8
0
  6
CONTINUOUS
 62
     2
 10
188.0
 20
146.875
 30
0.0
 11
188.0
 21
146.4
 31
0.0
  0
ARC
  8
0
  6
CONTINUOUS
 62
     2
 10
188.2
 20
146.4
 30
0.0
 40
0.2
 50
180.0
 51
270.0
  0
LINE
  8
0
  6
CONTINUOUS
 62
     2
 10
188.2
 20
146.2
 30
0.0
 11
188.675
 21
146.2
 31
0.0
  0
LINE
  8
0
  6
CONTINUOUS
 62
     2
 10
188.675
 20
146.2
 30
0.0
 11
188.675
 21
145.8
 31
0.0
  0
LINE
  8
0
  6
CONTINUOUS
 62
     2
 10
188.675
 20
145.8
 30
0.0
 11
188.2
 21
145.8
 31
0.0
  0
ARC
  8
0
  6
CONTINUOUS
 62
     2
 10
188.2
 20
145.6
 30
0.0
 40
0.2
 50
90.0
 51
180.0
  0
LINE
  8
0
  6
CONTINUOUS
 62
     2
 10
188.0
 20
145.6
 30
0.0
 11
188.0
 21
145.125
 31
0.0
  0
LINE
  8
0
  6
CONTINUOUS
 62
     2
 10
188.0
 20
145.125
 30
0.0
 11
187.6
 21
145.125
 31
0.0
  0
LINE
  8
0
  6
CONTINUOUS
 62
     2
 10
187.6
 20
145.125
 30
0.0
 11
187.6
 21
145.6
 31
0.0
  0
ARC
  8
0
  6
CONTINUOUS
 62
     2
 10
187.4
 20
145.6
 30
0.0
 40
0.2
 50
0.0
 51
90.0
  0
LINE
  8
0
  6
CONTINUOUS
 62
     2
 10
187.4
 20
145.8
 30
0.0
 11
186.925
 21
145.8
 31
0.0
  0
LINE
  8
0
  6
CONTINUOUS
 62
     2
 10
186.925
 20
145.8
 30
0.0
 11
186.925
 21
146.2
 31
0.0
  0
CIRCLE
  8
0
  6
CONTINUOUS
 62
     2
 10
206.852558883
 20
113.0
 30
0.0
 40
1.5
  0
LINE
  8
0
  6
CONTINUOUS
 62
     2
 10
205.977558883
 20
113.2
 30
0.0
 11
206.452558883
 21
113.2
 31
0.0
  0
ARC
  8
0
  6
CONTINUOUS
 62
     2
 10
206.452558883
 20
113.4
 30
0.0
 40
0.2
 50
270.0
 51
0.0
  0
LINE
  8
0
  6
CONTINUOUS
 62
     2
 10
206.652558883
 20
113.4
 30
0.0
 11
206.652558883
 21
113.875
 31
0.0
  0
LINE
  8
0
  6
CONTINUOUS
 62
     2
 10
206.652558883
 20
113.875
 30
0.0
 11
207.052558883
 21
113.875
 31
0.0
  0
LINE
  8
0
  6
CONTINUOUS
 62
     2
 10
207.052558883
 20
113.875
 30
0.0
 11
207.052558883
 21
113.4
 31
0.0
  0
ARC
  8
0
  6
CONTINUOUS
 62
     2
 10
207.252558883
 20
113.4
 30
0.0
 40
0.2
 50
180.0
 51
270.0
  0
LINE
  8
0
  6
CONTINUOUS
 62
     2
 10
207.252558883
 20
113.2
 30
0.0
 11
207.727558883
 21
113.2
 31
0.0
  0
LINE
  8
0
  6
CONTINUOUS
 62
     2
 10
207.727558883
 20
113.2
 30
0.0
 11
207.727558883
 21
112.8
 31
0.0
  0
LINE
  8
0
  6
CONTINUOUS
 62
     2
 10
207.727558883
 20
112.8
 30
0.0
 11
207.252558883
 21
112.8
 31
0.0
  0
ARC
  8
0
  6
CONTINUOUS
 62
     2
 10
207.252558883
 20
112.6
 30
0.0
 40
0.2
 50
90.0
 51
180.0
  0
LINE
  8
0
  6
CONTINUOUS
 62
     2
 10
207.052558883
 20
112.6
 30
0.0
 11
207.052558883
 21
112.125
 31
0.0
  0
LINE
  8
0
  6
CONTINUOUS
 62
     2
 10
207.052558883
 20
112.125
 30
0.0
 11
206.652558883
 21
112.125
 31
0.0
  0
LINE
  8
0
  6
CONTINUOUS
 62
     2
 10
206.652558883
 20
112.125
 30
0.0
 11
206.652558883
 21
112.6
 31
0.0
  0
ARC
  8
0
  6
CONTINUOUS
 62
     2
 10
206.452558883
 20
112.6
 30
0.0
 40
0.2
 50
0.0
 51
90.0
  0
LINE
  8
0
  6
CONTINUOUS
 62
     2
 10
206.452558883
 20
112.8
 30
0.0
 11
205.977558883
 21
112.8
 31
0.0
  0
LINE
  8
0
  6
CONTINUOUS
 62
     2
 10
205.977558883
 20
112.8
 30
0.0
 11
205.977558883
 21
113.2
 31
0.0
  0
TEXT
  8
0
  6
CONTINUOUS
 62
     2
 10
172.17
 20
170.35
 30
0.3
 40
3.0
  1
４５
 50
0.0
 41
0.6
 51
0.0
  7
KANJI2
  0
TEXT
  8
0
  6
CONTINUOUS
 62
     2
 10
176.07
 20
170.35
 30
0.18
 40
1.8
  1
±０．５
 50
0.0
 41
0.6
 51
0.0
  7
KANJI3
  0
TEXT
  8
0
  6
CONTINUOUS
 62
     2
 10
194.67
 20
170.35
 30
0.3
 40
3.0
  1
４５
 50
0.0
 41
0.6
 51
0.0
  7
KANJI2
  0
TEXT
  8
0
  6
CONTINUOUS
 62
     2
 10
198.57
 20
170.35
 30
0.18
 40
1.8
  1
±０．５
 50
0.0
 41
0.6
 51
0.0
  7
KANJI3
  0
TEXT
  8
0
  6
CONTINUOUS
 62
     2
 10
221.4
 20
108.37
 30
0.3
 40
3.0
  1
４５
 50
90.0
 41
0.6
 51
0.0
  7
KANJI2
  0
TEXT
  8
0
  6
CONTINUOUS
 62
     2
 10
221.4
 20
112.27
 30
0.18
 40
1.8
  1
±０．５
 50
90.0
 41
0.6
 51
0.0
  7
KANJI3
  0
TEXT
  8
0
  6
CONTINUOUS
 62
     2
 10
221.4
 20
130.87
 30
0.3
 40
3.0
  1
４５
 50
90.0
 41
0.6
 51
0.0
  7
KANJI2
  0
TEXT
  8
0
  6
CONTINUOUS
 62
     2
 10
221.4
 20
134.77
 30
0.18
 40
1.8
  1
±０．５
 50
90.0
 41
0.6
 51
0.0
  7
KANJI3
  0
TEXT
  8
0
  6
CONTINUOUS
 62
     2
 10
220.8
 20
60.02
 30
0.3
 40
3.0
  1
４５
 50
90.0
 41
0.6
 51
0.0
  7
KANJI2
  0
TEXT
  8
0
  6
CONTINUOUS
 62
     2
 10
220.8
 20
63.92
 30
0.18
 40
1.8
  1
±０．５
 50
90.0
 41
0.6
 51
0.0
  7
KANJI3
  0
TEXT
  8
0
  6
CONTINUOUS
 62
     2
 10
220.8
 20
37.52
 30
0.3
 40
3.0
  1
４５
 50
90.0
 41
0.6
 51
0.0
  7
KANJI2
  0
TEXT
  8
0
  6
CONTINUOUS
 62
     2
 10
220.8
 20
41.42
 30
0.18
 40
1.8
  1
±０．５
 50
90.0
 41
0.6
 51
0.0
  7
KANJI3
  0
TEXT
  8
0
  6
CONTINUOUS
 62
     2
 10
172.17
 20
83.65
 30
0.3
 40
3.0
  1
４５
 50
0.0
 41
0.6
 51
0.0
  7
KANJI2
  0
TEXT
  8
0
  6
CONTINUOUS
 62
     2
 10
176.07
 20
83.65
 30
0.18
 40
1.8
  1
±０．５
 50
0.0
 41
0.6
 51
0.0
  7
KANJI3
  0
TEXT
  8
0
  6
CONTINUOUS
 62
     2
 10
194.67
 20
83.65
 30
0.3
 40
3.0
  1
４５
 50
0.0
 41
0.6
 51
0.0
  7
KANJI2
  0
TEXT
  8
0
  6
CONTINUOUS
 62
     2
 10
198.57
 20
83.65
 30
0.18
 40
1.8
  1
±０．５
 50
0.0
 41
0.6
 51
0.0
  7
KANJI3
  0
TEXT
  8
0
  6
CONTINUOUS
 62
     2
 10
173.576470351
 20
39.690293305
 30
0.3
 40
3.0
  1
φ１０２
 50
46.346669025
 41
0.6
 51
0.0
  7
KANJI2
  0
TEXT
  8
0
  6
CONTINUOUS
 62
     2
 10
152.45
 20
21.35
 30
0.5
 40
3.0
  1
４－φ７
 50
0.0
 41
0.6
 51
0.0
  7
KANJI4
  0
CIRCLE
  8
0
  6
CONTINUOUS
 62
     2
 10
178.05
 20
138.475
 30
0.0
 40
1.75
  0
LINE
  8
0
  6
CONTINUOUS
 62
     2
 10
177.805
 20
137.5125
 30
0.0
 11
178.295
 21
137.5125
 31
0.0
  0
LINE
  8
0
  6
CONTINUOUS
 62
     2
 10
178.295
 20
139.4375
 30
0.0
 11
177.805
 21
139.4375
 31
0.0
  0
LINE
  8
0
  6
CONTINUOUS
 62
     2
 10
178.295
 20
137.5125
 30
0.0
 11
178.295
 21
137.705
 31
0.0
  0
LINE
  8
0
  6
CONTINUOUS
 62
     2
 10
178.82
 20
138.23
 30
0.0
 11
179.782765131
 21
138.23
 31
0.0
  0
ARC
  8
0
  6
CONTINUOUS
 62
     2
 10
178.82
 20
137.705
 30
0.0
 40
0.525
 50
90.0
 51
180.0
  0
LINE
  8
0
  6
CONTINUOUS
 62
     2
 10
177.805
 20
137.705
 30
0.0
 11
177.805
 21
137.5125
 31
0.0
  0
LINE
  8
0
  6
CONTINUOUS
 62
     2
 10
176.335
 20
138.23
 30
0.0
 11
177.28
 21
138.23
 31
0.0
  0
ARC
  8
0
  6
CONTINUOUS
 62
     2
 10
177.28
 20
137.705
 30
0.0
 40
0.525
 50
0.0
 51
90.0
  0
LINE
  8
0
  6
CONTINUOUS
 62
     2
 10
177.805
 20
139.4375
 30
0.0
 11
177.805
 21
139.245
 31
0.0
  0
LINE
  8
0
  6
CONTINUOUS
 62
     2
 10
177.28
 20
138.72
 30
0.0
 11
176.317234869
 21
138.72
 31
0.0
  0
ARC
  8
0
  6
CONTINUOUS
 62
     2
 10
177.28
 20
139.245
 30
0.0
 40
0.525
 50
270.0
 51
0.0
  0
LINE
  8
0
  6
CONTINUOUS
 62
     2
 10
178.295
 20
139.245
 30
0.0
 11
178.295
 21
139.4375
 31
0.0
  0
LINE
  8
0
  6
CONTINUOUS
 62
     2
 10
179.782765131
 20
138.72
 30
0.0
 11
178.82
 21
138.72
 31
0.0
  0
ARC
  8
0
  6
CONTINUOUS
 62
     2
 10
178.82
 20
139.245
 30
0.0
 40
0.525
 50
180.0
 51
270.0
  0
CIRCLE
  8
0
  6
CONTINUOUS
 62
     2
 10
184.55
 20
138.475
 30
0.0
 40
1.75
  0
LINE
  8
0
  6
CONTINUOUS
 62
     2
 10
184.305
 20
137.5125
 30
0.0
 11
184.795
 21
137.5125
 31
0.0
  0
LINE
  8
0
  6
CONTINUOUS
 62
     2
 10
184.795
 20
139.4375
 30
0.0
 11
184.305
 21
139.4375
 31
0.0
  0
LINE
  8
0
  6
CONTINUOUS
 62
     2
 10
184.795
 20
137.5125
 30
0.0
 11
184.795
 21
137.705
 31
0.0
  0
LINE
  8
0
  6
CONTINUOUS
 62
     2
 10
185.32
 20
138.23
 30
0.0
 11
186.282765131
 21
138.23
 31
0.0
  0
ARC
  8
0
  6
CONTINUOUS
 62
     2
 10
185.32
 20
137.705
 30
0.0
 40
0.525
 50
90.0
 51
180.0
  0
LINE
  8
0
  6
CONTINUOUS
 62
     2
 10
184.305
 20
137.705
 30
0.0
 11
184.305
 21
137.5125
 31
0.0
  0
LINE
  8
0
  6
CONTINUOUS
 62
     2
 10
182.835
 20
138.23
 30
0.0
 11
183.78
 21
138.23
 31
0.0
  0
ARC
  8
0
  6
CONTINUOUS
 62
     2
 10
183.78
 20
137.705
 30
0.0
 40
0.525
 50
0.0
 51
90.0
  0
LINE
  8
0
  6
CONTINUOUS
 62
     2
 10
184.305
 20
139.4375
 30
0.0
 11
184.305
 21
139.245
 31
0.0
  0
LINE
  8
0
  6
CONTINUOUS
 62
     2
 10
183.78
 20
138.72
 30
0.0
 11
182.817234869
 21
138.72
 31
0.0
  0
ARC
  8
0
  6
CONTINUOUS
 62
     2
 10
183.78
 20
139.245
 30
0.0
 40
0.525
 50
270.0
 51
0.0
  0
LINE
  8
0
  6
CONTINUOUS
 62
     2
 10
184.795
 20
139.245
 30
0.0
 11
184.795
 21
139.4375
 31
0.0
  0
LINE
  8
0
  6
CONTINUOUS
 62
     2
 10
186.282765131
 20
138.72
 30
0.0
 11
185.32
 21
138.72
 31
0.0
  0
ARC
  8
0
  6
CONTINUOUS
 62
     2
 10
185.32
 20
139.245
 30
0.0
 40
0.525
 50
180.0
 51
270.0
  0
CIRCLE
  8
0
  6
CONTINUOUS
 62
     2
 10
191.05
 20
138.475
 30
0.0
 40
1.75
  0
LINE
  8
0
  6
CONTINUOUS
 62
     2
 10
190.805
 20
137.5125
 30
0.0
 11
191.295
 21
137.5125
 31
0.0
  0
LINE
  8
0
  6
CONTINUOUS
 62
     2
 10
191.295
 20
139.4375
 30
0.0
 11
190.805
 21
139.4375
 31
0.0
  0
LINE
  8
0
  6
CONTINUOUS
 62
     2
 10
191.295
 20
137.5125
 30
0.0
 11
191.295
 21
137.705
 31
0.0
  0
LINE
  8
0
  6
CONTINUOUS
 62
     2
 10
191.82
 20
138.23
 30
0.0
 11
192.782765131
 21
138.23
 31
0.0
  0
ARC
  8
0
  6
CONTINUOUS
 62
     2
 10
191.82
 20
137.705
 30
0.0
 40
0.525
 50
90.0
 51
180.0
  0
LINE
  8
0
  6
CONTINUOUS
 62
     2
 10
190.805
 20
137.705
 30
0.0
 11
190.805
 21
137.5125
 31
0.0
  0
LINE
  8
0
  6
CONTINUOUS
 62
     2
 10
189.335
 20
138.23
 30
0.0
 11
190.28
 21
138.23
 31
0.0
  0
ARC
  8
0
  6
CONTINUOUS
 62
     2
 10
190.28
 20
137.705
 30
0.0
 40
0.525
 50
0.0
 51
90.0
  0
LINE
  8
0
  6
CONTINUOUS
 62
     2
 10
190.805
 20
139.4375
 30
0.0
 11
190.805
 21
139.245
 31
0.0
  0
LINE
  8
0
  6
CONTINUOUS
 62
     2
 10
190.28
 20
138.72
 30
0.0
 11
189.317234869
 21
138.72
 31
0.0
  0
ARC
  8
0
  6
CONTINUOUS
 62
     2
 10
190.28
 20
139.245
 30
0.0
 40
0.525
 50
270.0
 51
0.0
  0
LINE
  8
0
  6
CONTINUOUS
 62
     2
 10
191.295
 20
139.245
 30
0.0
 11
191.295
 21
139.4375
 31
0.0
  0
LINE
  8
0
  6
CONTINUOUS
 62
     2
 10
192.782765131
 20
138.72
 30
0.0
 11
191.82
 21
138.72
 31
0.0
  0
ARC
  8
0
  6
CONTINUOUS
 62
     2
 10
191.82
 20
139.245
 30
0.0
 40
0.525
 50
180.0
 51
270.0
  0
CIRCLE
  8
0
  6
CONTINUOUS
 62
     2
 10
197.55
 20
138.475
 30
0.0
 40
1.75
  0
LINE
  8
0
  6
CONTINUOUS
 62
     2
 10
197.305
 20
137.5125
 30
0.0
 11
197.795
 21
137.5125
 31
0.0
  0
LINE
  8
0
  6
CONTINUOUS
 62
     2
 10
197.795
 20
139.4375
 30
0.0
 11
197.305
 21
139.4375
 31
0.0
  0
LINE
  8
0
  6
CONTINUOUS
 62
     2
 10
197.795
 20
137.5125
 30
0.0
 11
197.795
 21
137.705
 31
0.0
  0
LINE
  8
0
  6
CONTINUOUS
 62
     2
 10
198.32
 20
138.23
 30
0.0
 11
199.282765131
 21
138.23
 31
0.0
  0
ARC
  8
0
  6
CONTINUOUS
 62
     2
 10
198.32
 20
137.705
 30
0.0
 40
0.525
 50
90.0
 51
180.0
  0
LINE
  8
0
  6
CONTINUOUS
 62
     2
 10
197.305
 20
137.705
 30
0.0
 11
197.305
 21
137.5125
 31
0.0
  0
LINE
  8
0
  6
CONTINUOUS
 62
     2
 10
195.835
 20
138.23
 30
0.0
 11
196.78
 21
138.23
 31
0.0
  0
ARC
  8
0
  6
CONTINUOUS
 62
     2
 10
196.78
 20
137.705
 30
0.0
 40
0.525
 50
0.0
 51
90.0
  0
LINE
  8
0
  6
CONTINUOUS
 62
     2
 10
197.305
 20
139.4375
 30
0.0
 11
197.305
 21
139.245
 31
0.0
  0
LINE
  8
0
  6
CONTINUOUS
 62
     2
 10
196.78
 20
138.72
 30
0.0
 11
195.817234869
 21
138.72
 31
0.0
  0
ARC
  8
0
  6
CONTINUOUS
 62
     2
 10
196.78
 20
139.245
 30
0.0
 40
0.525
 50
270.0
 51
0.0
  0
LINE
  8
0
  6
CONTINUOUS
 62
     2
 10
197.795
 20
139.245
 30
0.0
 11
197.795
 21
139.4375
 31
0.0
  0
LINE
  8
0
  6
CONTINUOUS
 62
     2
 10
199.282765131
 20
138.72
 30
0.0
 11
198.32
 21
138.72
 31
0.0
  0
ARC
  8
0
  6
CONTINUOUS
 62
     2
 10
198.32
 20
139.245
 30
0.0
 40
0.525
 50
180.0
 51
270.0
  0
CIRCLE
  8
0
  6
CONTINUOUS
 62
     2
 10
181.3
 20
132.975
 30
0.0
 40
1.75
  0
LINE
  8
0
  6
CONTINUOUS
 62
     2
 10
181.055
 20
132.0125
 30
0.0
 11
181.545
 21
132.0125
 31
0.0
  0
LINE
  8
0
  6
CONTINUOUS
 62
     2
 10
181.545
 20
133.9375
 30
0.0
 11
181.055
 21
133.9375
 31
0.0
  0
LINE
  8
0
  6
CONTINUOUS
 62
     2
 10
181.545
 20
132.0125
 30
0.0
 11
181.545
 21
132.205
 31
0.0
  0
LINE
  8
0
  6
CONTINUOUS
 62
     2
 10
182.07
 20
132.73
 30
0.0
 11
183.032765131
 21
132.73
 31
0.0
  0
ARC
  8
0
  6
CONTINUOUS
 62
     2
 10
182.07
 20
132.205
 30
0.0
 40
0.525
 50
90.0
 51
180.0
  0
LINE
  8
0
  6
CONTINUOUS
 62
     2
 10
181.055
 20
132.205
 30
0.0
 11
181.055
 21
132.0125
 31
0.0
  0
LINE
  8
0
  6
CONTINUOUS
 62
     2
 10
179.585
 20
132.73
 30
0.0
 11
180.53
 21
132.73
 31
0.0
  0
ARC
  8
0
  6
CONTINUOUS
 62
     2
 10
180.53
 20
132.205
 30
0.0
 40
0.525
 50
0.0
 51
90.0
  0
LINE
  8
0
  6
CONTINUOUS
 62
     2
 10
181.055
 20
133.9375
 30
0.0
 11
181.055
 21
133.745
 31
0.0
  0
LINE
  8
0
  6
CONTINUOUS
 62
     2
 10
180.53
 20
133.22
 30
0.0
 11
179.567234869
 21
133.22
 31
0.0
  0
ARC
  8
0
  6
CONTINUOUS
 62
     2
 10
180.53
 20
133.745
 30
0.0
 40
0.525
 50
270.0
 51
0.0
  0
LINE
  8
0
  6
CONTINUOUS
 62
     2
 10
181.545
 20
133.745
 30
0.0
 11
181.545
 21
133.9375
 31
0.0
  0
LINE
  8
0
  6
CONTINUOUS
 62
     2
 10
183.032765131
 20
133.22
 30
0.0
 11
182.07
 21
133.22
 31
0.0
  0
ARC
  8
0
  6
CONTINUOUS
 62
     2
 10
182.07
 20
133.745
 30
0.0
 40
0.525
 50
180.0
 51
270.0
  0
CIRCLE
  8
0
  6
CONTINUOUS
 62
     2
 10
187.8
 20
132.975
 30
0.0
 40
1.75
  0
LINE
  8
0
  6
CONTINUOUS
 62
     2
 10
187.555
 20
132.0125
 30
0.0
 11
188.045
 21
132.0125
 31
0.0
  0
LINE
  8
0
  6
CONTINUOUS
 62
     2
 10
188.045
 20
133.9375
 30
0.0
 11
187.555
 21
133.9375
 31
0.0
  0
LINE
  8
0
  6
CONTINUOUS
 62
     2
 10
188.045
 20
132.0125
 30
0.0
 11
188.045
 21
132.205
 31
0.0
  0
LINE
  8
0
  6
CONTINUOUS
 62
     2
 10
188.57
 20
132.73
 30
0.0
 11
189.532765131
 21
132.73
 31
0.0
  0
ARC
  8
0
  6
CONTINUOUS
 62
     2
 10
188.57
 20
132.205
 30
0.0
 40
0.525
 50
90.0
 51
180.0
  0
LINE
  8
0
  6
CONTINUOUS
 62
     2
 10
187.555
 20
132.205
 30
0.0
 11
187.555
 21
132.0125
 31
0.0
  0
LINE
  8
0
  6
CONTINUOUS
 62
     2
 10
186.085
 20
132.73
 30
0.0
 11
187.03
 21
132.73
 31
0.0
  0
ARC
  8
0
  6
CONTINUOUS
 62
     2
 10
187.03
 20
132.205
 30
0.0
 40
0.525
 50
0.0
 51
90.0
  0
LINE
  8
0
  6
CONTINUOUS
 62
     2
 10
187.555
 20
133.9375
 30
0.0
 11
187.555
 21
133.745
 31
0.0
  0
LINE
  8
0
  6
CONTINUOUS
 62
     2
 10
187.03
 20
133.22
 30
0.0
 11
186.067234869
 21
133.22
 31
0.0
  0
ARC
  8
0
  6
CONTINUOUS
 62
     2
 10
187.03
 20
133.745
 30
0.0
 40
0.525
 50
270.0
 51
0.0
  0
LINE
  8
0
  6
CONTINUOUS
 62
     2
 10
188.045
 20
133.745
 30
0.0
 11
188.045
 21
133.9375
 31
0.0
  0
LINE
  8
0
  6
CONTINUOUS
 62
     2
 10
189.532765131
 20
133.22
 30
0.0
 11
188.57
 21
133.22
 31
0.0
  0
ARC
  8
0
  6
CONTINUOUS
 62
     2
 10
188.57
 20
133.745
 30
0.0
 40
0.525
 50
180.0
 51
270.0
  0
LINE
  8
0
  6
LTYPE2
 62
     2
 10
184.55
 20
132.975
 30
0.0
 11
190.8
 21
132.975
 31
0.0
  0
CIRCLE
  8
0
  6
CONTINUOUS
 62
     2
 10
194.3
 20
132.975
 30
0.0
 40
1.75
  0
LINE
  8
0
  6
CONTINUOUS
 62
     2
 10
194.055
 20
132.0125
 30
0.0
 11
194.545
 21
132.0125
 31
0.0
  0
LINE
  8
0
  6
CONTINUOUS
 62
     2
 10
194.545
 20
133.9375
 30
0.0
 11
194.055
 21
133.9375
 31
0.0
  0
LINE
  8
0
  6
CONTINUOUS
 62
     2
 10
194.545
 20
132.0125
 30
0.0
 11
194.545
 21
132.205
 31
0.0
  0
LINE
  8
0
  6
CONTINUOUS
 62
     2
 10
195.07
 20
132.73
 30
0.0
 11
196.032765131
 21
132.73
 31
0.0
  0
ARC
  8
0
  6
CONTINUOUS
 62
     2
 10
195.07
 20
132.205
 30
0.0
 40
0.525
 50
90.0
 51
180.0
  0
LINE
  8
0
  6
CONTINUOUS
 62
     2
 10
194.055
 20
132.205
 30
0.0
 11
194.055
 21
132.0125
 31
0.0
  0
LINE
  8
0
  6
CONTINUOUS
 62
     2
 10
192.585
 20
132.73
 30
0.0
 11
193.53
 21
132.73
 31
0.0
  0
ARC
  8
0
  6
CONTINUOUS
 62
     2
 10
193.53
 20
132.205
 30
0.0
 40
0.525
 50
0.0
 51
90.0
  0
LINE
  8
0
  6
CONTINUOUS
 62
     2
 10
194.055
 20
133.9375
 30
0.0
 11
194.055
 21
133.745
 31
0.0
  0
LINE
  8
0
  6
CONTINUOUS
 62
     2
 10
193.53
 20
133.22
 30
0.0
 11
192.567234869
 21
133.22
 31
0.0
  0
ARC
  8
0
  6
CONTINUOUS
 62
     2
 10
193.53
 20
133.745
 30
0.0
 40
0.525
 50
270.0
 51
0.0
  0
LINE
  8
0
  6
CONTINUOUS
 62
     2
 10
194.545
 20
133.745
 30
0.0
 11
194.545
 21
133.9375
 31
0.0
  0
LINE
  8
0
  6
CONTINUOUS
 62
     2
 10
196.032765131
 20
133.22
 30
0.0
 11
195.07
 21
133.22
 31
0.0
  0
ARC
  8
0
  6
CONTINUOUS
 62
     2
 10
195.07
 20
133.745
 30
0.0
 40
0.525
 50
180.0
 51
270.0
  0
TEXT
  8
0
  6
CONTINUOUS
 62
     2
 10
196.9
 20
141.375
 30
0.12
 40
1.5
  1
４
 50
0.0
 41
0.76
 51
0.0
  7
KANJI5
  0
TEXT
  8
0
  6
CONTINUOUS
 62
     2
 10
193.875
 20
128.375
 30
0.12
 40
1.5
  1
７
 50
0.0
 41
0.76
 51
0.0
  7
KANJI5
  0
TEXT
  8
0
  6
CONTINUOUS
 62
     2
 10
187.275
 20
128.375
 30
0.12
 40
1.5
  1
６
 50
0.0
 41
0.76
 51
0.0
  7
KANJI5
  0
TEXT
  8
0
  6
CONTINUOUS
 62
     2
 10
180.775
 20
128.375
 30
0.12
 40
1.5
  1
５
 50
0.0
 41
0.76
 51
0.0
  7
KANJI5
  0
TEXT
  8
0
  6
CONTINUOUS
 62
     2
 10
177.5
 20
141.475
 30
0.12
 40
1.5
  1
１
 50
0.0
 41
0.76
 51
0.0
  7
KANJI5
  0
TEXT
  8
0
  6
CONTINUOUS
 62
     2
 10
184.0
 20
141.475
 30
0.12
 40
1.5
  1
２
 50
0.0
 41
0.76
 51
0.0
  7
KANJI5
  0
TEXT
  8
0
  6
CONTINUOUS
 62
     2
 10
190.5
 20
141.375
 30
0.12
 40
1.5
  1
３
 50
0.0
 41
0.76
 51
0.0
  7
KANJI5
  0
TEXT
  8
0
  6
CONTINUOUS
 62
     2
 10
171.498143435
 20
119.420073958
 30
0.3
 40
3.0
  1
φ９９
 50
19.078092393
 41
0.6
 51
0.0
  7
KANJI2
  0
TEXT
  8
0
  6
CONTINUOUS
 62
     2
 10
177.168587184
 20
121.381213345
 30
0.18
 40
1.8
  1
±１
 50
19.078092393
 41
0.6
 51
0.0
  7
KANJI3
  0
TEXT
  8
0
  6
CONTINUOUS
 62
     2
 10
197.025
 20
158.975
 30
0.2
 40
3.0
  1
５－Ｍ４ターミナルネジ
 50
0.0
 41
0.666666667
 51
0.0
  7
KANJI6
  0
LINE
  8
0
  6
CONTINUOUS
 62
     2
 10
174.05
 20
128.975
 30
0.0
 11
201.55
 21
128.975
 31
0.0
  0
LINE
  8
0
  6
CONTINUOUS
 62
     2
 10
201.55
 20
128.975
 30
0.0
 11
201.55
 21
141.475
 31
0.0
  0
LINE
  8
0
  6
CONTINUOUS
 62
     2
 10
201.55
 20
141.475
 30
0.0
 11
174.05
 21
141.475
 31
0.0
  0
LINE
  8
0
  6
CONTINUOUS
 62
     2
 10
174.05
 20
141.475
 30
0.0
 11
174.05
 21
128.975
 31
0.0
  0
LINE
  8
0
  6
CONTINUOUS
 62
     2
 10
39.302568136
 20
116.149519053
 30
0.0
 11
36.646479222
 21
113.75
 31
0.0
  0
LINE
  8
0
  6
CONTINUOUS
 62
     2
 10
36.646479222
 20
113.75
 30
0.0
 11
40.052568136
 21
114.850480947
 31
0.0
  0
LINE
  8
0
  6
CONTINUOUS
 62
     2
 10
40.052568136
 20
114.850480947
 30
0.0
 11
47.442495312
 21
119.117057392
 31
0.0
  0
LINE
  8
0
  6
CONTINUOUS
 62
     2
 10
38.811542732
 20
115.0
 30
0.0
 11
47.218212821
 21
119.453360261
 31
0.0
  0
LINE
  8
0
  6
CONTINUOUS
 62
     2
 10
46.871600895
 20
120.053709728
 30
0.0
 11
38.811542732
 21
115.0
 31
0.0
  0
LINE
  8
0
  6
CONTINUOUS
 62
     2
 10
46.692495312
 20
120.416095497
 30
0.0
 11
39.302568136
 21
116.149519053
 31
0.0
  0
LINE
  8
0
  6
CONTINUOUS
 62
     2
 10
25.0
 20
75.0
 30
0.0
 11
25.0
 21
23.8
 31
0.0
  0
TEXT
  8
0
  6
CONTINUOUS
 62
     2
 10
25.0
 20
70.1
 30
0.3
 40
3.0
  1
　　形　　　名
 50
0.0
 41
0.9
 51
0.0
  7
KANJI7
  0
TEXT
  8
0
  6
CONTINUOUS
 62
     2
 10
25.0
 20
63.7
 30
0.3
 40
3.0
  1
　単相電力計
 50
0.0
 41
0.9
 51
0.0
  7
KANJI7
  0
TEXT
  8
0
  6
CONTINUOUS
 62
     2
 10
25.0
 20
57.3
 30
0.3
 40
3.0
  1
　三相電力計
 50
0.0
 41
0.9
 51
0.0
  7
KANJI7
  0
TEXT
  8
0
  6
CONTINUOUS
 62
     2
 10
25.0
 20
50.9
 30
0.3
 40
3.0
  1
　単相無効電力計
 50
0.0
 41
0.9
 51
0.0
  7
KANJI7
  0
TEXT
  8
0
  6
CONTINUOUS
 62
     2
 10
25.0
 20
44.5
 30
0.3
 40
3.0
  1
　三相無効電力計
 50
0.0
 41
0.9
 51
0.0
  7
KANJI7
  0
TEXT
  8
0
  6
CONTINUOUS
 62
     2
 10
25.0
 20
38.1
 30
0.3
 40
3.0
  1
　単相力率計
 50
0.0
 41
0.9
 51
0.0
  7
KANJI7
  0
TEXT
  8
0
  6
CONTINUOUS
 62
     2
 10
25.0
 20
31.7
 30
0.3
 40
3.0
  1
　三相平衡力率計
 50
0.0
 41
0.9
 51
0.0
  7
KANJI7
  0
TEXT
  8
0
  6
CONTINUOUS
 62
     2
 10
25.0
 20
25.3
 30
0.3
 40
3.0
  1
　三相不平衡力率計
 50
0.0
 41
0.9
 51
0.0
  7
KANJI7
  0
LINE
  8
0
  6
CONTINUOUS
 62
     2
 10
54.0
 20
75.0
 30
0.0
 11
54.0
 21
23.8
 31
0.0
  0
LINE
  8
0
  6
CONTINUOUS
 62
     2
 10
54.0
 20
75.0
 30
0.0
 11
87.0
 21
75.0
 31
0.0
  0
LINE
  8
0
  6
CONTINUOUS
 62
     2
 10
87.0
 20
23.8
 30
0.0
 11
87.0
 21
75.0
 31
0.0
  0
TEXT
  8
0
  6
CONTINUOUS
 62
     2
 10
54.0
 20
70.1
 30
0.3
 40
3.0
  1
　　形　　　式
 50
0.0
 41
0.9
 51
0.0
  7
KANJI7
  0
TEXT
  8
0
  6
CONTINUOUS
 62
     2
 10
54.0
 20
63.7
 30
0.3
 40
3.0
  1
　ＥＶＦ－１１Ｎ
 50
0.0
 41
0.9
 51
0.0
  7
KANJI7
  0
TEXT
  8
0
  6
CONTINUOUS
 62
     2
 10
78.0
 20
65.2
 30
0.18
 40
1.8
  1
１φ
 50
0.0
 41
0.9
 51
0.0
  7
KANJI8
  0
TEXT
  8
0
  6
CONTINUOUS
 62
     2
 10
54.0
 20
57.3
 30
0.3
 40
3.0
  1
　ＥＶＦ－１１Ｎ
 50
0.0
 41
0.9
 51
0.0
  7
KANJI7
  0
TEXT
  8
0
  6
CONTINUOUS
 62
     2
 10
78.0
 20
52.4
 30
0.18
 40
1.8
  1
１φ
 50
0.0
 41
0.9
 51
0.0
  7
KANJI8
  0
TEXT
  8
0
  6
CONTINUOUS
 62
     2
 10
78.0
 20
39.6
 30
0.18
 40
1.8
  1
１φ
 50
0.0
 41
0.9
 51
0.0
  7
KANJI8
  0
TEXT
  8
0
  6
CONTINUOUS
 62
     2
 10
78.0
 20
58.8
 30
0.18
 40
1.8
  1
３φ
 50
0.0
 41
0.9
 51
0.0
  7
KANJI8
  0
TEXT
  8
0
  6
CONTINUOUS
 62
     2
 10
54.0
 20
50.9
 30
0.3
 40
3.0
  1
　ＲＶＦ－１１Ｎ
 50
0.0
 41
0.9
 51
0.0
  7
KANJI7
  0
TEXT
  8
0
  6
CONTINUOUS
 62
     2
 10
54.0
 20
44.5
 30
0.3
 40
3.0
  1
　ＲＶＦ－１１Ｎ
 50
0.0
 41
0.9
 51
0.0
  7
KANJI7
  0
TEXT
  8
0
  6
CONTINUOUS
 62
     2
 10
78.0
 20
46.0
 30
0.18
 40
1.8
  1
３φ
 50
0.0
 41
0.9
 51
0.0
  7
KANJI8
  0
TEXT
  8
0
  6
CONTINUOUS
 62
     2
 10
54.0
 20
38.1
 30
0.3
 40
3.0
  1
　ＵＶＦ－１１Ｎ
 50
0.0
 41
0.9
 51
0.0
  7
KANJI7
  0
TEXT
  8
0
  6
CONTINUOUS
 62
     2
 10
54.0
 20
31.7
 30
0.3
 40
3.0
  1
　ＵＶＦ－１１Ｎ
 50
0.0
 41
0.9
 51
0.0
  7
KANJI7
  0
TEXT
  8
0
  6
CONTINUOUS
 62
     2
 10
78.0
 20
33.2
 30
0.18
 40
1.8
  1
３φ
 50
0.0
 41
0.9
 51
0.0
  7
KANJI8
  0
TEXT
  8
0
  6
CONTINUOUS
 62
     2
 10
54.0
 20
25.3
 30
0.3
 40
3.0
  1
　ＵｕＶＦ－１１Ｎ
 50
0.0
 41
0.9
 51
0.0
  7
KANJI7
  0
TEXT
  8
0
  6
CONTINUOUS
 62
     2
 10
81.0
 20
26.8
 30
0.18
 40
1.8
  1
３φ
 50
0.0
 41
0.9
 51
0.0
  7
KANJI8
  0
TEXT
  8
0
  6
CONTINUOUS
 62
     2
 10
87.0
 20
70.1
 30
0.3
 40
3.0
  1
　使用ターミナルネジ端子番号
 50
0.0
 41
0.9
 51
0.0
  7
KANJI1
  0
TEXT
  8
0
  6
CONTINUOUS
 62
     2
 10
87.0
 20
63.7
 30
0.3
 40
3.0
  1
　１，２　　　　　５，６
 50
0.0
 41
0.9
 51
0.0
  7
KANJI1
  0
TEXT
  8
0
  6
CONTINUOUS
 62
     2
 10
87.0
 20
50.9
 30
0.3
 40
3.0
  1
　１，２　　　　　５，６
 50
0.0
 41
0.9
 51
0.0
  7
KANJI1
  0
TEXT
  8
0
  6
CONTINUOUS
 62
     2
 10
87.0
 20
38.1
 30
0.3
 40
3.0
  1
　１，２　　　　　５，６
 50
0.0
 41
0.9
 51
0.0
  7
KANJI1
  0
TEXT
  8
0
  6
CONTINUOUS
 62
     2
 10
87.0
 20
31.7
 30
0.3
 40
3.0
  1
　１，２　　　　　　　６，７
 50
0.0
 41
0.9
 51
0.0
  7
KANJI1
  0
TEXT
  8
0
  6
CONTINUOUS
 62
     2
 10
87.0
 20
57.3
 30
0.3
 40
3.0
  1
　１，２，３，４，５，６，７
 50
0.0
 41
0.9
 51
0.0
  7
KANJI1
  0
TEXT
  8
0
  6
CONTINUOUS
 62
     2
 10
87.0
 20
44.5
 30
0.3
 40
3.0
  1
　１，２，３，４，５，６，７
 50
0.0
 41
0.9
 51
0.0
  7
KANJI1
  0
TEXT
  8
0
  6
CONTINUOUS
 62
     2
 10
87.0
 20
25.3
 30
0.3
 40
3.0
  1
　１，２，３，４，５，６，７
 50
0.0
 41
0.9
 51
0.0
  7
KANJI1
  0
LINE
  8
0
  6
CONTINUOUS
 62
     2
 10
135.0
 20
75.0
 30
0.0
 11
135.0
 21
23.8
 31
0.0
  0
LINE
  8
0
  6
CONTINUOUS
 62
     2
 10
135.0
 20
75.0
 30
0.0
 11
25.0
 21
75.0
 31
0.0
  0
LINE
  8
0
  6
CONTINUOUS
 62
     2
 10
25.0
 20
23.8
 30
0.0
 11
135.0
 21
23.8
 31
0.0
  0
LINE
  8
0
  6
CONTINUOUS
 62
     2
 10
25.0
 20
68.6
 30
0.0
 11
135.0
 21
68.6
 31
0.0
  0
LINE
  8
0
  6
CONTINUOUS
 62
     2
 10
135.0
 20
62.2
 30
0.0
 11
25.0
 21
62.2
 31
0.0
  0
LINE
  8
0
  6
CONTINUOUS
 62
     2
 10
25.0
 20
55.8
 30
0.0
 11
135.0
 21
55.8
 31
0.0
  0
LINE
  8
0
  6
CONTINUOUS
 62
     2
 10
135.0
 20
49.4
 30
0.0
 11
25.0
 21
49.4
 31
0.0
  0
LINE
  8
0
  6
CONTINUOUS
 62
     2
 10
25.0
 20
43.0
 30
0.0
 11
135.0
 21
43.0
 31
0.0
  0
LINE
  8
0
  6
CONTINUOUS
 62
     2
 10
135.0
 20
36.6
 30
0.0
 11
25.0
 21
36.6
 31
0.0
  0
LINE
  8
0
  6
CONTINUOUS
 62
     2
 10
25.0
 20
30.2
 30
0.0
 11
135.0
 21
30.2
 31
0.0
  0
TEXT
  8
0
  6
CONTINUOUS
 62
     2
 10
118.0
 20
87.55
 30
0.5
 40
3.0
  1
４－Ｍ６取付ボルト
 50
0.0
 41
0.6
 51
0.0
  7
KANJI4
  0
LINE
  8
0
  6
CONTINUOUS
 62
     2
 10
104.0
 20
143.5
 30
0.0
 11
104.25
 21
143.5
 31
0.0
  0
LINE
  8
0
  6
CONTINUOUS
 62
     2
 10
104.25
 20
143.5
 30
0.0
 11
104.25
 21
149.5
 31
0.0
  0
LINE
  8
0
  6
CONTINUOUS
 62
     2
 10
104.25
 20
149.5
 30
0.0
 11
104.0
 21
149.5
 31
0.0
  0
LINE
  8
0
  6
CONTINUOUS
 62
     2
 10
109.75
 20
148.0
 30
0.0
 11
111.75
 21
148.0
 31
0.0
  0
LINE
  8
0
  6
CONTINUOUS
 62
     2
 10
111.75
 20
148.0
 30
0.0
 11
111.75
 21
145.0
 31
0.0
  0
LINE
  8
0
  6
CONTINUOUS
 62
     2
 10
111.75
 20
145.0
 30
0.0
 11
109.75
 21
145.0
 31
0.0
  0
ARC
  8
0
  6
CONTINUOUS
 62
     2
 10
104.75
 20
146.5
 30
0.0
 40
5.0
 50
343.5
 51
16.5
  0
ARC
  8
0
  6
CONTINUOUS
 62
     2
 10
112.25
 20
146.5
 30
0.0
 40
5.0
 50
163.5
 51
196.3
  0
ARC
  8
0
  6
CONTINUOUS
 62
     2
 10
108.5
 20
148.625
 30
0.0
 40
1.25
 50
325.0
 51
35.0
  0
ARC
  8
0
  6
CONTINUOUS
 62
     2
 10
108.5
 20
148.625
 30
0.0
 40
1.25
 50
145.0
 51
215.0
  0
ARC
  8
0
  6
CONTINUOUS
 62
     2
 10
108.5
 20
144.375
 30
0.0
 40
1.25
 50
145.0
 51
215.0
  0
ARC
  8
0
  6
CONTINUOUS
 62
     2
 10
108.5
 20
144.375
 30
0.0
 40
1.25
 50
325.0
 51
35.0
  0
LINE
  8
0
  6
CONTINUOUS
 62
     2
 10
107.45097354
 20
145.096666455
 30
0.0
 11
109.52597354
 21
145.096666455
 31
0.0
  0
LINE
  8
0
  6
CONTINUOUS
 62
     2
 10
109.544098674
 20
147.920076724
 30
0.0
 11
107.455901326
 21
147.920076724
 31
0.0
  0
LINE
  8
0
  6
CONTINUOUS
 62
     2
 10
109.75
 20
144.375
 30
0.0
 11
109.75
 21
148.625
 31
0.0
  0
LINE
  8
0
  6
CONTINUOUS
 62
     2
 10
109.755
 20
145.125
 30
0.0
 11
111.73
 21
145.125
 31
0.0
  0
LINE
  8
0
  6
CONTINUOUS
 62
     2
 10
111.75
 20
147.885
 30
0.0
 11
109.76
 21
147.885
 31
0.0
  0
LINE
  8
0
  6
CONTINUOUS
 62
     2
 10
109.530901326
 20
149.35
 30
0.0
 11
107.25
 21
149.35
 31
0.0
  0
LINE
  8
0
  6
CONTINUOUS
 62
     2
 10
107.25
 20
143.65
 30
0.0
 11
109.525
 21
143.65
 31
0.0
  0
LINE
  8
0
  6
CONTINUOUS
 62
     2
 10
107.25
 20
149.35
 30
0.0
 11
107.25
 21
143.65
 31
0.0
  0
LINE
  8
0
  6
CONTINUOUS
 62
     2
 10
106.25
 20
149.85
 30
0.0
 11
107.25
 21
149.35
 31
0.0
  0
LINE
  8
0
  6
CONTINUOUS
 62
     2
 10
106.25
 20
143.15
 30
0.0
 11
107.25
 21
143.65
 31
0.0
  0
LINE
  8
0
  6
CONTINUOUS
 62
     2
 10
106.25
 20
149.85
 30
0.0
 11
106.25
 21
143.15
 31
0.0
  0
LINE
  8
0
  6
CONTINUOUS
 62
     2
 10
106.25
 20
148.0
 30
0.0
 11
104.25
 21
148.0
 31
0.0
  0
LINE
  8
0
  6
CONTINUOUS
 62
     2
 10
106.25
 20
147.885
 30
0.0
 11
104.25
 21
147.885
 31
0.0
  0
LINE
  8
0
  6
CONTINUOUS
 62
     2
 10
104.25
 20
145.005
 30
0.0
 11
106.25
 21
145.005
 31
0.0
  0
LINE
  8
0
  6
CONTINUOUS
 62
     2
 10
106.25
 20
145.125
 30
0.0
 11
104.25
 21
145.125
 31
0.0
  0
LINE
  8
0
  6
CONTINUOUS
 62
     2
 10
104.0
 20
98.5
 30
0.0
 11
104.25
 21
98.5
 31
0.0
  0
LINE
  8
0
  6
CONTINUOUS
 62
     2
 10
104.25
 20
98.5
 30
0.0
 11
104.25
 21
104.5
 31
0.0
  0
LINE
  8
0
  6
CONTINUOUS
 62
     2
 10
104.25
 20
104.5
 30
0.0
 11
104.0
 21
104.5
 31
0.0
  0
LINE
  8
0
  6
CONTINUOUS
 62
     2
 10
109.75
 20
103.0
 30
0.0
 11
111.75
 21
103.0
 31
0.0
  0
LINE
  8
0
  6
CONTINUOUS
 62
     2
 10
111.75
 20
103.0
 30
0.0
 11
111.75
 21
100.0
 31
0.0
  0
LINE
  8
0
  6
CONTINUOUS
 62
     2
 10
111.75
 20
100.0
 30
0.0
 11
109.75
 21
100.0
 31
0.0
  0
ARC
  8
0
  6
CONTINUOUS
 62
     2
 10
104.75
 20
101.5
 30
0.0
 40
5.0
 50
343.5
 51
16.5
  0
ARC
  8
0
  6
CONTINUOUS
 62
     2
 10
112.25
 20
101.5
 30
0.0
 40
5.0
 50
163.5
 51
196.3
  0
ARC
  8
0
  6
CONTINUOUS
 62
     2
 10
108.5
 20
103.625
 30
0.0
 40
1.25
 50
325.0
 51
35.0
  0
ARC
  8
0
  6
CONTINUOUS
 62
     2
 10
108.5
 20
103.625
 30
0.0
 40
1.25
 50
145.0
 51
215.0
  0
ARC
  8
0
  6
CONTINUOUS
 62
     2
 10
108.5
 20
99.375
 30
0.0
 40
1.25
 50
145.0
 51
215.0
  0
ARC
  8
0
  6
CONTINUOUS
 62
     2
 10
108.5
 20
99.375
 30
0.0
 40
1.25
 50
325.0
 51
35.0
  0
LINE
  8
0
  6
CONTINUOUS
 62
     2
 10
107.45097354
 20
100.096666455
 30
0.0
 11
109.52597354
 21
100.096666455
 31
0.0
  0
LINE
  8
0
  6
CONTINUOUS
 62
     2
 10
109.544098674
 20
102.920076724
 30
0.0
 11
107.455901326
 21
102.920076724
 31
0.0
  0
LINE
  8
0
  6
CONTINUOUS
 62
     2
 10
109.75
 20
99.375
 30
0.0
 11
109.75
 21
103.625
 31
0.0
  0
LINE
  8
0
  6
CONTINUOUS
 62
     2
 10
109.755
 20
100.125
 30
0.0
 11
111.73
 21
100.125
 31
0.0
  0
LINE
  8
0
  6
CONTINUOUS
 62
     2
 10
111.75
 20
102.885
 30
0.0
 11
109.76
 21
102.885
 31
0.0
  0
LINE
  8
0
  6
CONTINUOUS
 62
     2
 10
109.530901326
 20
104.35
 30
0.0
 11
107.25
 21
104.35
 31
0.0
  0
LINE
  8
0
  6
CONTINUOUS
 62
     2
 10
107.25
 20
98.65
 30
0.0
 11
109.525
 21
98.65
 31
0.0
  0
LINE
  8
0
  6
CONTINUOUS
 62
     2
 10
107.25
 20
104.35
 30
0.0
 11
107.25
 21
98.65
 31
0.0
  0
LINE
  8
0
  6
CONTINUOUS
 62
     2
 10
106.25
 20
104.85
 30
0.0
 11
107.25
 21
104.35
 31
0.0
  0
LINE
  8
0
  6
CONTINUOUS
 62
     2
 10
106.25
 20
98.15
 30
0.0
 11
107.25
 21
98.65
 31
0.0
  0
LINE
  8
0
  6
CONTINUOUS
 62
     2
 10
106.25
 20
104.85
 30
0.0
 11
106.25
 21
98.15
 31
0.0
  0
LINE
  8
0
  6
CONTINUOUS
 62
     2
 10
106.25
 20
103.0
 30
0.0
 11
104.25
 21
103.0
 31
0.0
  0
LINE
  8
0
  6
CONTINUOUS
 62
     2
 10
106.25
 20
102.885
 30
0.0
 11
104.25
 21
102.885
 31
0.0
  0
LINE
  8
0
  6
CONTINUOUS
 62
     2
 10
104.25
 20
100.005
 30
0.0
 11
106.25
 21
100.005
 31
0.0
  0
LINE
  8
0
  6
CONTINUOUS
 62
     2
 10
106.25
 20
100.125
 30
0.0
 11
104.25
 21
100.125
 31
0.0
  0
POINT
  8
0
  6
LTYPE1
 62
     2
 10
176.3
 20
133.3375
 30
0.0
  0
LINE
  8
0
  6
CONTINUOUS
 62
     2
 10
175.425
 20
134.175
 30
0.0
 11
175.9
 21
134.175
 31
0.0
  0
ARC
  8
0
  6
CONTINUOUS
 62
     2
 10
175.9
 20
134.375
 30
0.0
 40
0.2
 50
270.0
 51
0.0
  0
LINE
  8
0
  6
CONTINUOUS
 62
     2
 10
176.1
 20
134.375
 30
0.0
 11
176.1
 21
134.85
 31
0.0
  0
LINE
  8
0
  6
CONTINUOUS
 62
     2
 10
176.1
 20
134.85
 30
0.0
 11
176.5
 21
134.85
 31
0.0
  0
LINE
  8
0
  6
CONTINUOUS
 62
     2
 10
176.5
 20
134.85
 30
0.0
 11
176.5
 21
134.375
 31
0.0
  0
ARC
  8
0
  6
CONTINUOUS
 62
     2
 10
176.7
 20
134.375
 30
0.0
 40
0.2
 50
180.0
 51
270.0
  0
LINE
  8
0
  6
CONTINUOUS
 62
     2
 10
176.7
 20
134.175
 30
0.0
 11
177.175
 21
134.175
 31
0.0
  0
LINE
  8
0
  6
CONTINUOUS
 62
     2
 10
177.175
 20
134.175
 30
0.0
 11
177.175
 21
133.775
 31
0.0
  0
LINE
  8
0
  6
CONTINUOUS
 62
     2
 10
177.175
 20
133.775
 30
0.0
 11
176.7
 21
133.775
 31
0.0
  0
ARC
  8
0
  6
CONTINUOUS
 62
     2
 10
176.7
 20
133.575
 30
0.0
 40
0.2
 50
90.0
 51
180.0
  0
LINE
  8
0
  6
CONTINUOUS
 62
     2
 10
176.5
 20
133.575
 30
0.0
 11
176.5
 21
133.1
 31
0.0
  0
LINE
  8
0
  6
CONTINUOUS
 62
     2
 10
176.5
 20
133.1
 30
0.0
 11
176.1
 21
133.1
 31
0.0
  0
LINE
  8
0
  6
CONTINUOUS
 62
     2
 10
176.1
 20
133.1
 30
0.0
 11
176.1
 21
133.575
 31
0.0
  0
ARC
  8
0
  6
CONTINUOUS
 62
     2
 10
175.9
 20
133.575
 30
0.0
 40
0.2
 50
0.0
 51
90.0
  0
LINE
  8
0
  6
CONTINUOUS
 62
     2
 10
175.9
 20
133.775
 30
0.0
 11
175.425
 21
133.775
 31
0.0
  0
LINE
  8
0
  6
CONTINUOUS
 62
     2
 10
175.425
 20
133.775
 30
0.0
 11
175.425
 21
134.175
 31
0.0
  0
POINT
  8
0
  6
LTYPE1
 62
     2
 10
199.4
 20
133.3375
 30
0.0
  0
LINE
  8
0
  6
CONTINUOUS
 62
     2
 10
198.525
 20
134.175
 30
0.0
 11
199.0
 21
134.175
 31
0.0
  0
ARC
  8
0
  6
CONTINUOUS
 62
     2
 10
199.0
 20
134.375
 30
0.0
 40
0.2
 50
270.0
 51
0.0
  0
LINE
  8
0
  6
CONTINUOUS
 62
     2
 10
199.2
 20
134.375
 30
0.0
 11
199.2
 21
134.85
 31
0.0
  0
LINE
  8
0
  6
CONTINUOUS
 62
     2
 10
199.2
 20
134.85
 30
0.0
 11
199.6
 21
134.85
 31
0.0
  0
LINE
  8
0
  6
CONTINUOUS
 62
     2
 10
199.6
 20
134.85
 30
0.0
 11
199.6
 21
134.375
 31
0.0
  0
ARC
  8
0
  6
CONTINUOUS
 62
     2
 10
199.8
 20
134.375
 30
0.0
 40
0.2
 50
180.0
 51
270.0
  0
LINE
  8
0
  6
CONTINUOUS
 62
     2
 10
199.8
 20
134.175
 30
0.0
 11
200.275
 21
134.175
 31
0.0
  0
LINE
  8
0
  6
CONTINUOUS
 62
     2
 10
200.275
 20
134.175
 30
0.0
 11
200.275
 21
133.775
 31
0.0
  0
LINE
  8
0
  6
CONTINUOUS
 62
     2
 10
200.275
 20
133.775
 30
0.0
 11
199.8
 21
133.775
 31
0.0
  0
ARC
  8
0
  6
CONTINUOUS
 62
     2
 10
199.8
 20
133.575
 30
0.0
 40
0.2
 50
90.0
 51
180.0
  0
LINE
  8
0
  6
CONTINUOUS
 62
     2
 10
199.6
 20
133.575
 30
0.0
 11
199.6
 21
133.1
 31
0.0
  0
LINE
  8
0
  6
CONTINUOUS
 62
     2
 10
199.6
 20
133.1
 30
0.0
 11
199.2
 21
133.1
 31
0.0
  0
LINE
  8
0
  6
CONTINUOUS
 62
     2
 10
199.2
 20
133.1
 30
0.0
 11
199.2
 21
133.575
 31
0.0
  0
ARC
  8
0
  6
CONTINUOUS
 62
     2
 10
199.0
 20
133.575
 30
0.0
 40
0.2
 50
0.0
 51
90.0
  0
LINE
  8
0
  6
CONTINUOUS
 62
     2
 10
199.0
 20
133.775
 30
0.0
 11
198.525
 21
133.775
 31
0.0
  0
LINE
  8
0
  6
CONTINUOUS
 62
     2
 10
198.525
 20
133.775
 30
0.0
 11
198.525
 21
134.175
 31
0.0
  0
CIRCLE
  8
0
  6
CONTINUOUS
 62
     2
 10
199.4
 20
133.975
 30
0.0
 40
2.25
  0
CIRCLE
  8
0
  6
CONTINUOUS
 62
     2
 10
176.3
 20
133.975
 30
0.0
 40
2.25
  0
LINE
  8
0
  6
CONTINUOUS
 62
     2
 10
151.5
 20
128.975
 30
0.0
 11
152.25
 21
128.975
 31
0.0
  0
LINE
  8
0
  6
CONTINUOUS
 62
     2
 10
152.25
 20
128.975
 30
0.0
 11
152.25
 21
141.475
 31
0.0
  0
LINE
  8
0
  6
CONTINUOUS
 62
     2
 10
152.25
 20
141.475
 30
0.0
 11
151.5
 21
141.475
 31
0.0
  0
LINE
  8
0
  6
CONTINUOUS
 62
     2
 10
151.5
 20
141.475
 30
0.0
 11
151.5
 21
128.975
 31
0.0
  0
TEXT
  8
0
  6
CONTINUOUS
 62
     2
 10
125.15
 20
170.425001907
 30
0.3
 40
3.0
  1
１１８
 50
0.0
 41
0.6
 51
0.0
  7
KANJI2
  0
CIRCLE
  8
0
  6
CONTINUOUS
 62
     2
 10
151.5
 20
158.075
 30
0.0
 40
0.25
  0
TEXT
  8
0
  6
CONTINUOUS
 62
     2
 10
154.500116971
 20
160.438245384
 30
0.5
 40
3.0
  1
４
 50
0.8
 41
0.666666667
 51
0.0
  7
KANJI9
  0
TEXT
  8
0
  6
CONTINUOUS
 62
     2
 10
146.75
 20
159.275
 30
0.3
 40
3.0
  1
１０
 50
0.0
 41
0.6
 51
0.0
  7
KANJI2
  0
TEXT
  8
0
  6
CONTINUOUS
 62
     2
 10
155.369783715
 20
90.625
 30
0.3
 40
3.0
  1
端子カバー（透明塩ビ樹脂）
 50
0.0
 41
0.666666667
 51
0.0
  7
KANJI10
  0
TEXT
  8
0
  6
CONTINUOUS
 62
     2
 10
29.8
 20
88.7
 30
0.5
 40
3.0
  1
指針
 50
0.0
 41
0.8
 51
0.0
  7
KANJI11
  0
TEXT
  8
0
  6
CONTINUOUS
 62
     3
 10
237.645
 20
10.875
 30
0.36
 40
6.0
  1
ＭＳ－９８６４Ｂ
 50
0.0
 41
0.8
 51
0.0
  7
KANJI12
  0
LINE
  8
0
  6
LTYPE3
 62
     5
 10
158.5
 20
53.15
 30
0.0
 11
217.2
 21
53.15
 31
0.0
  0
LINE
  8
0
  6
LTYPE3
 62
     5
 10
161.425
 20
146.5
 30
0.0
 11
169.4
 21
146.5
 31
0.0
  0
LINE
  8
0
  6
LTYPE3
 62
     5
 10
165.3
 20
150.4
 30
0.0
 11
165.3
 21
142.675
 31
0.0
  0
LINE
  8
0
  6
LTYPE3
 62
     5
 10
206.425
 20
146.5
 30
0.0
 11
214.4
 21
146.5
 31
0.0
  0
LINE
  8
0
  6
LTYPE3
 62
     5
 10
210.3
 20
150.4
 30
0.0
 11
210.3
 21
142.675
 31
0.0
  0
LINE
  8
0
  6
LTYPE3
 62
     5
 10
206.425
 20
101.5
 30
0.0
 11
214.4
 21
101.5
 31
0.0
  0
LINE
  8
0
  6
LTYPE3
 62
     5
 10
210.3
 20
105.4
 30
0.0
 11
210.3
 21
97.675
 31
0.0
  0
LINE
  8
0
  6
LTYPE3
 62
     5
 10
161.425
 20
101.5
 30
0.0
 11
169.4
 21
101.5
 31
0.0
  0
LINE
  8
0
  6
LTYPE3
 62
     5
 10
165.3
 20
105.4
 30
0.0
 11
165.3
 21
97.675
 31
0.0
  0
LINE
  8
0
  6
LTYPE3
 62
     5
 10
205.9
 20
30.65
 30
0.0
 11
215.2
 21
30.65
 31
0.0
  0
LINE
  8
0
  6
LTYPE3
 62
     5
 10
210.3
 20
26.3
 30
0.0
 11
210.3
 21
35.65
 31
0.0
  0
LINE
  8
0
  6
LTYPE3
 62
     5
 10
210.3
 20
70.25
 30
0.0
 11
210.3
 21
82.0
 31
0.0
  0
LINE
  8
0
  6
LTYPE3
 62
     5
 10
204.5
 20
75.65
 30
0.0
 11
217.55
 21
75.65
 31
0.0
  0
LINE
  8
0
  6
LTYPE3
 62
     5
 10
165.3
 20
82.0
 30
0.0
 11
165.3
 21
71.25
 31
0.0
  0
LINE
  8
0
  6
LTYPE3
 62
     5
 10
161.25
 20
75.65
 30
0.0
 11
171.9
 21
75.65
 31
0.0
  0
LINE
  8
0
  6
LTYPE3
 62
     5
 10
161.2
 20
30.65
 30
0.0
 11
168.35
 21
30.65
 31
0.0
  0
LINE
  8
0
  6
LTYPE3
 62
     5
 10
165.3
 20
35.85
 30
0.0
 11
165.3
 21
25.55
 31
0.0
  0
LINE
  8
0
  6
LTYPE3
 62
     5
 10
166.747441117
 20
113.0
 30
0.0
 11
170.747441117
 21
113.0
 31
0.0
  0
LINE
  8
0
  6
LTYPE3
 62
     5
 10
168.747441117
 20
115.0
 30
0.0
 11
168.747441117
 21
111.0
 31
0.0
  0
LINE
  8
0
  6
LTYPE3
 62
     5
 10
204.852558883
 20
113.0
 30
0.0
 11
208.852558883
 21
113.0
 31
0.0
  0
LINE
  8
0
  6
LTYPE3
 62
     5
 10
206.852558883
 20
115.0
 30
0.0
 11
206.852558883
 21
111.0
 31
0.0
  0
LINE
  8
0
  6
LTYPE3
 62
     5
 10
185.8
 20
146.0
 30
0.0
 11
189.8
 21
146.0
 31
0.0
  0
LINE
  8
0
  6
LTYPE3
 62
     5
 10
197.55
 20
141.125
 30
0.0
 11
197.55
 21
135.225
 31
0.0
  0
LINE
  8
0
  6
LTYPE3
 62
     5
 10
194.3
 20
138.475
 30
0.0
 11
200.55
 21
138.475
 31
0.0
  0
LINE
  8
0
  6
LTYPE3
 62
     5
 10
187.8
 20
138.475
 30
0.0
 11
194.05
 21
138.475
 31
0.0
  0
LINE
  8
0
  6
LTYPE3
 62
     5
 10
191.05
 20
141.125
 30
0.0
 11
191.05
 21
135.225
 31
0.0
  0
LINE
  8
0
  6
LTYPE3
 62
     5
 10
184.55
 20
141.225
 30
0.0
 11
184.55
 21
135.225
 31
0.0
  0
LINE
  8
0
  6
LTYPE3
 62
     5
 10
181.3
 20
138.475
 30
0.0
 11
187.55
 21
138.475
 31
0.0
  0
LINE
  8
0
  6
LTYPE3
 62
     5
 10
178.05
 20
141.025
 30
0.0
 11
178.05
 21
135.225
 31
0.0
  0
LINE
  8
0
  6
LTYPE3
 62
     5
 10
174.8
 20
138.475
 30
0.0
 11
181.05
 21
138.475
 31
0.0
  0
LINE
  8
0
  6
LTYPE3
 62
     5
 10
176.3
 20
130.975
 30
0.0
 11
176.3
 21
136.975
 31
0.0
  0
LINE
  8
0
  6
LTYPE3
 62
     5
 10
174.3
 20
133.975
 30
0.0
 11
178.3
 21
133.975
 31
0.0
  0
LINE
  8
0
  6
LTYPE3
 62
     5
 10
178.05
 20
132.975
 30
0.0
 11
184.3
 21
132.975
 31
0.0
  0
LINE
  8
0
  6
LTYPE3
 62
     5
 10
181.3
 20
136.225
 30
0.0
 11
181.3
 21
130.475
 31
0.0
  0
LINE
  8
0
  6
LTYPE3
 62
     5
 10
194.3
 20
136.225
 30
0.0
 11
194.3
 21
130.475
 31
0.0
  0
LINE
  8
0
  6
LTYPE3
 62
     5
 10
191.05
 20
132.975
 30
0.0
 11
197.3
 21
132.975
 31
0.0
  0
LINE
  8
0
  6
LTYPE3
 62
     5
 10
197.4
 20
133.975
 30
0.0
 11
202.4
 21
133.975
 31
0.0
  0
LINE
  8
0
  6
LTYPE3
 62
     5
 10
199.4
 20
130.975
 30
0.0
 11
199.4
 21
136.975
 31
0.0
  0
LINE
  8
0
  6
LTYPE3
 62
     5
 10
147.5
 20
133.975
 30
0.0
 11
154.5
 21
133.975
 31
0.0
  0
LINE
  8
0
  6
LTYPE3
 62
     5
 10
102.2
 20
146.5
 30
0.0
 11
114.05
 21
146.5
 31
0.0
  0
LINE
  8
0
  6
LTYPE3
 62
     5
 10
102.2
 20
146.5
 30
0.0
 11
114.05
 21
146.5
 31
0.0
  0
LINE
  8
0
  6
LTYPE3
 62
     5
 10
102.2
 20
101.5
 30
0.0
 11
114.05
 21
101.5
 31
0.0
  0
LINE
  8
0
  6
LTYPE3
 62
     5
 10
102.2
 20
101.5
 30
0.0
 11
114.05
 21
101.5
 31
0.0
  0
LINE
  8
0
  6
LTYPE3
 62
     5
 10
74.9
 20
101.5
 30
0.0
 11
78.9
 21
101.5
 31
0.0
  0
LINE
  8
0
  6
LTYPE3
 62
     5
 10
76.9
 20
103.5
 30
0.0
 11
76.9
 21
99.5
 31
0.0
  0
LINE
  8
0
  6
LTYPE3
 62
     5
 10
29.9
 20
101.5
 30
0.0
 11
33.9
 21
101.5
 31
0.0
  0
LINE
  8
0
  6
LTYPE3
 62
     5
 10
31.9
 20
103.5
 30
0.0
 11
31.9
 21
99.5
 31
0.0
  0
LINE
  8
0
  6
LTYPE3
 62
     5
 10
29.9
 20
146.5
 30
0.0
 11
33.9
 21
146.5
 31
0.0
  0
LINE
  8
0
  6
LTYPE3
 62
     5
 10
31.9
 20
148.5
 30
0.0
 11
31.9
 21
144.5
 31
0.0
  0
LINE
  8
0
  6
LTYPE3
 62
     5
 10
74.9
 20
146.5
 30
0.0
 11
78.9
 21
146.5
 31
0.0
  0
LINE
  8
0
  6
LTYPE3
 62
     5
 10
76.9
 20
148.5
 30
0.0
 11
76.9
 21
144.5
 31
0.0
  0
LINE
  8
0
  6
CONTINUOUS
 62
     5
 10
214.55
 20
101.5
 30
0.0
 11
224.4
 21
101.5
 31
0.0
  0
LINE
  8
0
  6
CONTINUOUS
 62
     5
 10
222.4
 20
101.5
 30
0.0
 11
223.047047613
 21
103.914814566
 31
0.0
  0
LINE
  8
0
  6
CONTINUOUS
 62
     5
 10
222.4
 20
101.5
 30
0.0
 11
221.752952387
 21
103.914814566
 31
0.0
  0
LINE
  8
0
  6
CONTINUOUS
 62
     5
 10
222.4
 20
124.0
 30
0.0
 11
221.752952387
 21
121.585185434
 31
0.0
  0
LINE
  8
0
  6
CONTINUOUS
 62
     5
 10
222.4
 20
124.0
 30
0.0
 11
223.047047613
 21
121.585185434
 31
0.0
  0
LINE
  8
0
  6
CONTINUOUS
 62
     5
 10
210.0
 20
124.0
 30
0.0
 11
224.4
 21
124.0
 31
0.0
  0
LINE
  8
0
  6
CONTINUOUS
 62
     5
 10
222.4
 20
124.0
 30
0.0
 11
223.047047613
 21
126.414814566
 31
0.0
  0
LINE
  8
0
  6
CONTINUOUS
 62
     5
 10
222.4
 20
124.0
 30
0.0
 11
221.752952387
 21
126.414814566
 31
0.0
  0
LINE
  8
0
  6
CONTINUOUS
 62
     5
 10
222.4
 20
101.5
 30
0.0
 11
222.4
 21
124.0
 31
0.0
  0
LINE
  8
0
  6
CONTINUOUS
 62
     5
 10
222.4
 20
146.5
 30
0.0
 11
221.752952387
 21
144.085185434
 31
0.0
  0
LINE
  8
0
  6
CONTINUOUS
 62
     5
 10
222.4
 20
146.5
 30
0.0
 11
223.047047613
 21
144.085185434
 31
0.0
  0
LINE
  8
0
  6
CONTINUOUS
 62
     5
 10
214.5
 20
146.5
 30
0.0
 11
224.4
 21
146.5
 31
0.0
  0
LINE
  8
0
  6
CONTINUOUS
 62
     5
 10
222.4
 20
124.0
 30
0.0
 11
222.4
 21
146.5
 31
0.0
  0
LINE
  8
0
  6
CONTINUOUS
 62
     5
 10
197.025
 20
157.975
 30
0.0
 11
220.675
 21
157.975
 31
0.0
  0
LINE
  8
0
  6
CONTINUOUS
 62
     5
 10
191.825
 20
140.275
 30
0.0
 11
193.126481612
 21
142.409512969
 31
0.0
  0
LINE
  8
0
  6
CONTINUOUS
 62
     5
 10
191.825
 20
140.275
 30
0.0
 11
191.884859654
 21
142.774283262
 31
0.0
  0
LINE
  8
0
  6
CONTINUOUS
 62
     5
 10
191.825
 20
140.275
 30
0.0
 11
197.025
 21
157.975
 31
0.0
  0
LINE
  8
0
  6
CONTINUOUS
 62
     5
 10
210.3
 20
169.35
 30
0.0
 11
207.885185434
 21
169.997047613
 31
0.0
  0
LINE
  8
0
  6
CONTINUOUS
 62
     5
 10
210.3
 20
169.35
 30
0.0
 11
207.885185434
 21
168.702952387
 31
0.0
  0
LINE
  8
0
  6
CONTINUOUS
 62
     5
 10
210.3
 20
163.4
 30
0.0
 11
210.3
 21
171.35
 31
0.0
  0
LINE
  8
0
  6
CONTINUOUS
 62
     5
 10
210.3
 20
150.5
 30
0.0
 11
210.3
 21
157.1
 31
0.0
  0
LINE
  8
0
  6
CONTINUOUS
 62
     5
 10
187.8
 20
169.35
 30
0.0
 11
185.385185434
 21
169.997047613
 31
0.0
  0
LINE
  8
0
  6
CONTINUOUS
 62
     5
 10
187.8
 20
169.35
 30
0.0
 11
185.385185434
 21
168.702952387
 31
0.0
  0
LINE
  8
0
  6
CONTINUOUS
 62
     5
 10
187.8
 20
169.35
 30
0.0
 11
190.214814566
 21
168.702952387
 31
0.0
  0
LINE
  8
0
  6
CONTINUOUS
 62
     5
 10
187.8
 20
169.35
 30
0.0
 11
190.214814566
 21
169.997047613
 31
0.0
  0
LINE
  8
0
  6
CONTINUOUS
 62
     5
 10
187.8
 20
155.2
 30
0.0
 11
187.8
 21
171.35
 31
0.0
  0
LINE
  8
0
  6
CONTINUOUS
 62
     5
 10
187.8
 20
169.35
 30
0.0
 11
210.3
 21
169.35
 31
0.0
  0
LINE
  8
0
  6
CONTINUOUS
 62
     5
 10
165.3
 20
150.6
 30
0.0
 11
165.3
 21
171.35
 31
0.0
  0
LINE
  8
0
  6
CONTINUOUS
 62
     5
 10
165.3
 20
169.35
 30
0.0
 11
167.714814566
 21
168.702952387
 31
0.0
  0
LINE
  8
0
  6
CONTINUOUS
 62
     5
 10
165.3
 20
169.35
 30
0.0
 11
167.714814566
 21
169.997047613
 31
0.0
  0
LINE
  8
0
  6
CONTINUOUS
 62
     5
 10
165.3
 20
169.35
 30
0.0
 11
187.8
 21
169.35
 31
0.0
  0
LINE
  8
0
  6
CONTINUOUS
 62
     5
 10
153.3
 20
169.425001907
 30
0.0
 11
150.885185434
 21
170.07204952
 31
0.0
  0
LINE
  8
0
  6
CONTINUOUS
 62
     5
 10
153.3
 20
169.425001907
 30
0.0
 11
150.885185434
 21
168.777954295
 31
0.0
  0
LINE
  8
0
  6
CONTINUOUS
 62
     5
 10
151.5
 20
142.475
 30
0.0
 11
151.5
 21
159.7
 31
0.0
  0
LINE
  8
0
  6
CONTINUOUS
 62
     5
 10
153.2
 20
158.075
 30
0.0
 11
155.614814566
 21
157.427952387
 31
0.0
  0
LINE
  8
0
  6
CONTINUOUS
 62
     5
 10
153.2
 20
158.075
 30
0.0
 11
155.614814566
 21
158.722047613
 31
0.0
  0
LINE
  8
0
  6
CONTINUOUS
 62
     5
 10
153.3
 20
134.975
 30
0.0
 11
153.3
 21
171.425001907
 31
0.0
  0
LINE
  8
0
  6
CONTINUOUS
 62
     5
 10
146.5
 20
148.600001907
 30
0.0
 11
146.5
 21
159.575
 31
0.0
  0
LINE
  8
0
  6
CONTINUOUS
 62
     5
 10
146.5
 20
158.075
 30
0.0
 11
144.085185434
 21
158.722047613
 31
0.0
  0
LINE
  8
0
  6
CONTINUOUS
 62
     5
 10
146.5
 20
158.075
 30
0.0
 11
144.085185434
 21
157.427952387
 31
0.0
  0
LINE
  8
0
  6
CONTINUOUS
 62
     5
 10
141.7
 20
158.075
 30
0.0
 11
158.5
 21
158.075
 31
0.0
  0
LINE
  8
0
  6
CONTINUOUS
 62
     5
 10
111.75
 20
159.875001907
 30
0.0
 11
109.335185434
 21
160.52204952
 31
0.0
  0
LINE
  8
0
  6
CONTINUOUS
 62
     5
 10
111.75
 20
159.875001907
 30
0.0
 11
109.335185434
 21
159.227954295
 31
0.0
  0
LINE
  8
0
  6
CONTINUOUS
 62
     5
 10
111.75
 20
148.25
 30
0.0
 11
111.75
 21
161.875001907
 31
0.0
  0
LINE
  8
0
  6
CONTINUOUS
 62
     5
 10
104.25
 20
149.75
 30
0.0
 11
104.25
 21
161.875001907
 31
0.0
  0
LINE
  8
0
  6
CONTINUOUS
 62
     5
 10
104.25
 20
159.875001907
 30
0.0
 11
106.664814566
 21
159.227954295
 31
0.0
  0
LINE
  8
0
  6
CONTINUOUS
 62
     5
 10
104.25
 20
159.875001907
 30
0.0
 11
106.664814566
 21
160.52204952
 31
0.0
  0
LINE
  8
0
  6
CONTINUOUS
 62
     5
 10
104.0
 20
159.875001907
 30
0.0
 11
101.585185434
 21
160.52204952
 31
0.0
  0
LINE
  8
0
  6
CONTINUOUS
 62
     5
 10
104.0
 20
159.875001907
 30
0.0
 11
101.585185434
 21
159.227954295
 31
0.0
  0
LINE
  8
0
  6
CONTINUOUS
 62
     5
 10
93.0
 20
159.875001907
 30
0.0
 11
109.25
 21
159.875001907
 31
0.0
  0
LINE
  8
0
  6
CONTINUOUS
 62
     5
 10
104.25
 20
159.875001907
 30
0.0
 11
106.664814566
 21
159.227954295
 31
0.0
  0
LINE
  8
0
  6
CONTINUOUS
 62
     5
 10
104.25
 20
159.875001907
 30
0.0
 11
106.664814566
 21
160.52204952
 31
0.0
  0
LINE
  8
0
  6
CONTINUOUS
 62
     5
 10
104.25
 20
159.875001907
 30
0.0
 11
111.75
 21
159.875001907
 31
0.0
  0
LINE
  8
0
  6
CONTINUOUS
 62
     5
 10
104.0
 20
169.425001907
 30
0.0
 11
101.585185434
 21
170.07204952
 31
0.0
  0
LINE
  8
0
  6
CONTINUOUS
 62
     5
 10
104.0
 20
169.425001907
 30
0.0
 11
101.585185434
 21
168.777954295
 31
0.0
  0
LINE
  8
0
  6
CONTINUOUS
 62
     5
 10
104.0
 20
161.562500954
 30
0.0
 11
104.0
 21
171.425001907
 31
0.0
  0
LINE
  8
0
  6
CONTINUOUS
 62
     5
 10
104.0
 20
169.425001907
 30
0.0
 11
106.414814566
 21
168.777954295
 31
0.0
  0
LINE
  8
0
  6
CONTINUOUS
 62
     5
 10
104.0
 20
169.425001907
 30
0.0
 11
106.414814566
 21
170.07204952
 31
0.0
  0
LINE
  8
0
  6
CONTINUOUS
 62
     5
 10
104.0
 20
169.425001907
 30
0.0
 11
153.3
 21
169.425001907
 31
0.0
  0
LINE
  8
0
  6
CONTINUOUS
 62
     5
 10
104.0
 20
151.7
 30
0.0
 11
104.0
 21
171.425001907
 31
0.0
  0
LINE
  8
0
  6
CONTINUOUS
 62
     5
 10
92.0
 20
126.1
 30
0.0
 11
92.0
 21
171.425001907
 31
0.0
  0
LINE
  8
0
  6
CONTINUOUS
 62
     5
 10
92.0
 20
169.425001907
 30
0.0
 11
94.414814566
 21
168.777954295
 31
0.0
  0
LINE
  8
0
  6
CONTINUOUS
 62
     5
 10
92.0
 20
169.425001907
 30
0.0
 11
94.414814566
 21
170.07204952
 31
0.0
  0
LINE
  8
0
  6
CONTINUOUS
 62
     5
 10
92.0
 20
169.425001907
 30
0.0
 11
104.0
 21
169.425001907
 31
0.0
  0
LINE
  8
0
  6
CONTINUOUS
 62
     5
 10
89.125
 20
149.475
 30
0.0
 11
88.477952387
 21
147.060185434
 31
0.0
  0
LINE
  8
0
  6
CONTINUOUS
 62
     5
 10
89.125
 20
149.475
 30
0.0
 11
89.772047613
 21
147.060185434
 31
0.0
  0
LINE
  8
0
  6
CONTINUOUS
 62
     5
 10
94.55
 20
149.475
 30
0.0
 11
87.125
 21
149.475
 31
0.0
  0
LINE
  8
0
  6
CONTINUOUS
 62
     5
 10
81.913820798
 20
149.968245415
 30
0.0
 11
81.913820798
 21
171.218245415
 31
0.0
  0
LINE
  8
0
  6
CONTINUOUS
 62
     5
 10
81.913820798
 20
169.218245415
 30
0.0
 11
79.499006233
 21
169.865293027
 31
0.0
  0
LINE
  8
0
  6
CONTINUOUS
 62
     5
 10
81.913820798
 20
169.218245415
 30
0.0
 11
79.499006233
 21
168.571197802
 31
0.0
  0
LINE
  8
0
  6
CONTINUOUS
 62
     5
 10
81.913820798
 20
169.218245415
 30
0.0
 11
79.499006233
 21
169.865293027
 31
0.0
  0
LINE
  8
0
  6
CONTINUOUS
 62
     5
 10
81.913820798
 20
169.218245415
 30
0.0
 11
79.499006233
 21
168.571197802
 31
0.0
  0
LINE
  8
0
  6
CONTINUOUS
 62
     5
 10
94.55
 20
98.475
 30
0.0
 11
87.125
 21
98.475
 31
0.0
  0
LINE
  8
0
  6
CONTINUOUS
 62
     5
 10
89.125
 20
98.475
 30
0.0
 11
89.772047613
 21
100.889814566
 31
0.0
  0
LINE
  8
0
  6
CONTINUOUS
 62
     5
 10
89.125
 20
98.475
 30
0.0
 11
88.477952387
 21
100.889814566
 31
0.0
  0
LINE
  8
0
  6
CONTINUOUS
 62
     5
 10
89.125
 20
98.475
 30
0.0
 11
89.125
 21
149.475
 31
0.0
  0
LINE
  8
0
  6
CONTINUOUS
 62
     5
 10
110.15
 20
100.15
 30
0.0
 11
110.796786092
 21
97.735115375
 31
0.0
  0
LINE
  8
0
  6
CONTINUOUS
 62
     5
 10
110.15
 20
100.15
 30
0.0
 11
111.917575499
 21
98.382041614
 31
0.0
  0
LINE
  8
0
  6
CONTINUOUS
 62
     5
 10
110.15
 20
100.15
 30
0.0
 11
118.0
 21
86.55
 31
0.0
  0
LINE
  8
0
  6
CONTINUOUS
 62
     5
 10
118.0
 20
86.55
 30
0.0
 11
138.2
 21
86.55
 31
0.0
  0
LINE
  8
0
  6
CONTINUOUS
 62
     5
 10
152.325
 20
128.825
 30
0.0
 11
151.804623479
 21
126.379758033
 31
0.0
  0
LINE
  8
0
  6
CONTINUOUS
 62
     5
 10
152.325
 20
128.825
 30
0.0
 11
153.096961696
 21
126.447170078
 31
0.0
  0
LINE
  8
0
  6
CONTINUOUS
 62
     5
 10
152.325
 20
128.825
 30
0.0
 11
154.375
 21
89.525
 31
0.0
  0
LINE
  8
0
  6
CONTINUOUS
 62
     5
 10
154.369783715
 20
89.625
 30
0.0
 11
183.269783715
 21
89.625
 31
0.0
  0
LINE
  8
0
  6
CONTINUOUS
 62
     5
 10
165.3
 20
82.0
 30
0.0
 11
165.3
 21
84.65
 31
0.0
  0
LINE
  8
0
  6
CONTINUOUS
 62
     5
 10
165.3
 20
82.65
 30
0.0
 11
167.714814566
 21
82.002952387
 31
0.0
  0
LINE
  8
0
  6
CONTINUOUS
 62
     5
 10
165.3
 20
82.65
 30
0.0
 11
167.714814566
 21
83.297047613
 31
0.0
  0
LINE
  8
0
  6
CONTINUOUS
 62
     5
 10
187.8
 20
82.65
 30
0.0
 11
185.385185434
 21
83.297047613
 31
0.0
  0
LINE
  8
0
  6
CONTINUOUS
 62
     5
 10
187.8
 20
82.65
 30
0.0
 11
185.385185434
 21
82.002952387
 31
0.0
  0
LINE
  8
0
  6
CONTINUOUS
 62
     5
 10
187.8
 20
82.65
 30
0.0
 11
190.214814566
 21
82.002952387
 31
0.0
  0
LINE
  8
0
  6
CONTINUOUS
 62
     5
 10
187.8
 20
82.65
 30
0.0
 11
190.214814566
 21
83.297047613
 31
0.0
  0
LINE
  8
0
  6
CONTINUOUS
 62
     5
 10
165.3
 20
82.65
 30
0.0
 11
187.8
 21
82.65
 31
0.0
  0
LINE
  8
0
  6
CONTINUOUS
 62
     5
 10
210.3
 20
82.65
 30
0.0
 11
207.885185434
 21
83.297047613
 31
0.0
  0
LINE
  8
0
  6
CONTINUOUS
 62
     5
 10
210.3
 20
82.65
 30
0.0
 11
207.885185434
 21
82.002952387
 31
0.0
  0
LINE
  8
0
  6
CONTINUOUS
 62
     5
 10
187.8
 20
82.65
 30
0.0
 11
210.3
 21
82.65
 31
0.0
  0
LINE
  8
0
  6
CONTINUOUS
 62
     5
 10
221.8
 20
75.65
 30
0.0
 11
221.152952387
 21
73.235185434
 31
0.0
  0
LINE
  8
0
  6
CONTINUOUS
 62
     5
 10
221.8
 20
75.65
 30
0.0
 11
222.447047613
 21
73.235185434
 31
0.0
  0
LINE
  8
0
  6
CONTINUOUS
 62
     5
 10
217.55
 20
75.65
 30
0.0
 11
223.8
 21
75.65
 31
0.0
  0
LINE
  8
0
  6
CONTINUOUS
 62
     5
 10
221.8
 20
53.15
 30
0.0
 11
221.152952387
 21
50.735185434
 31
0.0
  0
LINE
  8
0
  6
CONTINUOUS
 62
     5
 10
221.8
 20
53.15
 30
0.0
 11
222.447047613
 21
50.735185434
 31
0.0
  0
LINE
  8
0
  6
CONTINUOUS
 62
     5
 10
217.2
 20
53.15
 30
0.0
 11
223.8
 21
53.15
 31
0.0
  0
LINE
  8
0
  6
CONTINUOUS
 62
     5
 10
221.8
 20
53.15
 30
0.0
 11
222.447047613
 21
55.564814566
 31
0.0
  0
LINE
  8
0
  6
CONTINUOUS
 62
     5
 10
221.8
 20
53.15
 30
0.0
 11
221.152952387
 21
55.564814566
 31
0.0
  0
LINE
  8
0
  6
CONTINUOUS
 62
     5
 10
221.8
 20
53.15
 30
0.0
 11
221.8
 21
75.65
 31
0.0
  0
LINE
  8
0
  6
CONTINUOUS
 62
     5
 10
215.35
 20
30.65
 30
0.0
 11
223.8
 21
30.65
 31
0.0
  0
LINE
  8
0
  6
CONTINUOUS
 62
     5
 10
221.8
 20
30.65
 30
0.0
 11
222.447047613
 21
33.064814566
 31
0.0
  0
LINE
  8
0
  6
CONTINUOUS
 62
     5
 10
221.8
 20
30.65
 30
0.0
 11
221.152952387
 21
33.064814566
 31
0.0
  0
LINE
  8
0
  6
CONTINUOUS
 62
     5
 10
221.8
 20
30.65
 30
0.0
 11
221.8
 21
53.15
 31
0.0
  0
LINE
  8
0
  6
CONTINUOUS
 62
     5
 10
205.402479274
 20
71.600006054
 30
0.0
 11
203.267390815
 21
70.299468754
 31
0.0
  0
LINE
  8
0
  6
CONTINUOUS
 62
     5
 10
205.402479274
 20
71.600006054
 30
0.0
 11
204.203707079
 21
69.406163484
 31
0.0
  0
LINE
  8
0
  6
CONTINUOUS
 62
     5
 10
170.197520726
 20
34.699993946
 30
0.0
 11
172.332609185
 21
36.000531246
 31
0.0
  0
LINE
  8
0
  6
CONTINUOUS
 62
     5
 10
170.197520726
 20
34.699993946
 30
0.0
 11
171.396292921
 21
36.893836516
 31
0.0
  0
LINE
  8
0
  6
CONTINUOUS
 62
     5
 10
170.197520726
 20
34.699993946
 30
0.0
 11
205.402479274
 21
71.600006054
 31
0.0
  0
LINE
  8
0
  6
CONTINUOUS
 62
     5
 10
164.4
 20
29.1
 30
0.0
 11
162.952635312
 21
27.061585062
 31
0.0
  0
LINE
  8
0
  6
CONTINUOUS
 62
     5
 10
164.4
 20
29.1
 30
0.0
 11
164.165752881
 21
26.610998536
 31
0.0
  0
LINE
  8
0
  6
CONTINUOUS
 62
     5
 10
164.4
 20
29.1
 30
0.0
 11
161.15
 21
20.35
 31
0.0
  0
LINE
  8
0
  6
CONTINUOUS
 62
     5
 10
161.15
 20
20.35
 30
0.0
 11
152.45
 21
20.35
 31
0.0
  0
LINE
  8
0
  6
CONTINUOUS
 62
     5
 10
164.409419538
 20
115.910300028
 30
0.0
 11
166.903089657
 21
116.088090172
 31
0.0
  0
LINE
  8
0
  6
CONTINUOUS
 62
     5
 10
164.409419538
 20
115.910300028
 30
0.0
 11
166.480106138
 21
117.311105869
 31
0.0
  0
LINE
  8
0
  6
CONTINUOUS
 62
     5
 10
211.190580462
 20
132.089699972
 30
0.0
 11
208.696910343
 21
131.911909828
 31
0.0
  0
LINE
  8
0
  6
CONTINUOUS
 62
     5
 10
211.190580462
 20
132.089699972
 30
0.0
 11
209.119893862
 21
130.688894131
 31
0.0
  0
LINE
  8
0
  6
CONTINUOUS
 62
     5
 10
164.409419538
 20
115.910300028
 30
0.0
 11
211.190580462
 21
132.089699972
 31
0.0
  0
LINE
  8
0
  6
CONTINUOUS
 62
     5
 10
16.363820798
 20
96.518245415
 30
0.0
 11
17.010868411
 21
98.93305998
 31
0.0
  0
LINE
  8
0
  6
CONTINUOUS
 62
     5
 10
16.363820798
 20
96.518245415
 30
0.0
 11
15.716773186
 21
98.93305998
 31
0.0
  0
LINE
  8
0
  6
CONTINUOUS
 62
     5
 10
29.263820798
 20
96.518245415
 30
0.0
 11
14.363820798
 21
96.518245415
 31
0.0
  0
LINE
  8
0
  6
CONTINUOUS
 62
     5
 10
29.263820798
 20
151.518245415
 30
0.0
 11
14.363820798
 21
151.518245415
 31
0.0
  0
LINE
  8
0
  6
CONTINUOUS
 62
     5
 10
16.363820798
 20
151.518245415
 30
0.0
 11
15.716773186
 21
149.103430849
 31
0.0
  0
LINE
  8
0
  6
CONTINUOUS
 62
     5
 10
16.363820798
 20
151.518245415
 30
0.0
 11
17.010868411
 21
149.103430849
 31
0.0
  0
LINE
  8
0
  6
CONTINUOUS
 62
     5
 10
16.363820798
 20
151.518245415
 30
0.0
 11
16.363820798
 21
96.518245415
 31
0.0
  0
LINE
  8
0
  6
CONTINUOUS
 62
     5
 10
26.913820798
 20
169.218245415
 30
0.0
 11
29.328635364
 21
168.571197802
 31
0.0
  0
LINE
  8
0
  6
CONTINUOUS
 62
     5
 10
26.913820798
 20
169.218245415
 30
0.0
 11
29.328635364
 21
169.865293027
 31
0.0
  0
LINE
  8
0
  6
CONTINUOUS
 62
     5
 10
26.913820798
 20
149.568245415
 30
0.0
 11
26.913820798
 21
171.218245415
 31
0.0
  0
LINE
  8
0
  6
CONTINUOUS
 62
     5
 10
26.913820798
 20
169.218245415
 30
0.0
 11
29.328635364
 21
168.571197802
 31
0.0
  0
LINE
  8
0
  6
CONTINUOUS
 62
     5
 10
26.913820798
 20
169.218245415
 30
0.0
 11
29.328635364
 21
169.865293027
 31
0.0
  0
LINE
  8
0
  6
CONTINUOUS
 62
     5
 10
26.913820798
 20
169.218245415
 30
0.0
 11
81.913820798
 21
169.218245415
 31
0.0
  0
LINE
  8
0
  6
CONTINUOUS
 62
     5
 10
26.913820798
 20
169.218245415
 30
0.0
 11
81.913820798
 21
169.218245415
 31
0.0
  0
LINE
  8
0
  6
CONTINUOUS
 62
     5
 10
210.3
 20
82.0
 30
0.0
 11
210.3
 21
84.0
 31
0.0
  0
LINE
  8
0
  6
CONTINUOUS
 62
     5
 10
42.7
 20
115.8
 30
0.0
 11
41.444929404
 21
113.637871928
 31
0.0
  0
LINE
  8
0
  6
CONTINUOUS
 62
     5
 10
42.7
 20
115.8
 30
0.0
 11
42.694141017
 21
113.300006866
 31
0.0
  0
LINE
  8
0
  6
CONTINUOUS
 62
     5
 10
42.7
 20
115.8
 30
0.0
 11
35.1
 21
87.7
 31
0.0
  0
LINE
  8
0
  6
CONTINUOUS
 62
     5
 10
35.1
 20
87.7
 30
0.0
 11
29.8
 21
87.7
 31
0.0
  0
TEXT
  8
0
  6
CONTINUOUS
 62
     2
 10
119.0
 20
81.55
 30
0.1
 40
3.0
  1
フランジ付六角ナット
 50
0.0
 41
0.6
 51
0.0
  7
KANJI13
  0
LINE
  8
0
  6
CONTINUOUS
 62
     5
 10
118.0
 20
80.55
 30
0.0
 11
137.9
 21
80.55
 31
0.0
  0
LINE
  8
0
  6
CONTINUOUS
 62
     5
 10
106.6
 20
98.45
 30
0.0
 11
107.351427383
 21
96.065601357
 31
0.0
  0
LINE
  8
0
  6
CONTINUOUS
 62
     5
 10
106.6
 20
98.45
 30
0.0
 11
108.442954524
 21
96.760763894
 31
0.0
  0
LINE
  8
0
  6
CONTINUOUS
 62
     5
 10
106.6
 20
98.45
 30
0.0
 11
118.0
 21
80.55
 31
0.0
  0
TEXT
  8
0
  6
CONTINUOUS
 62
     1
 10
238.6
 20
34.0
 30
0.5
 40
5.0
  1
ＶＦ－１１Ｎ
 50
0.0
 41
0.9
 51
0.0
  7
KANJI14
  0
TEXT
  8
0
  6
CONTINUOUS
 62
     1
 10
239.0
 20
28.5
 30
0.4
 40
4.0
  1
変換器内蔵形
 50
0.0
 41
0.9
 51
0.0
  7
KANJI15
  0
TEXT
  8
0
  6
CONTINUOUS
 62
     1
 10
239.0
 20
24.0
 30
0.4
 40
4.0
  1
広角度計器　外形図
 50
0.0
 41
0.9
 51
0.0
  7
KANJI15
  0
CIRCLE
  8
0
  6
CONTINUOUS
 62
     2
 10
151.5
 20
158.075
 30
0.0
 40
0.175
  0
CIRCLE
  8
0
  6
CONTINUOUS
 62
     2
 10
151.5
 20
158.075
 30
0.0
 40
0.125
  0
LINE
  8
0
  6
LTYPE3
 62
     5
 10
157.5
 20
124.0
 30
0.0
 11
209.7
 21
124.0
 31
0.0
  0
LINE
  8
0
  6
LTYPE3
 62
     5
 10
90.9
 20
124.0
 30
0.0
 11
149.6
 21
124.0
 31
0.0
  0
LINE
  8
0
  6
LTYPE3
 62
     5
 10
187.8
 20
92.875
 30
0.0
 11
187.8
 21
155.0
 31
0.0
  0
LINE
  8
0
  6
LTYPE3
 62
     5
 10
187.8
 20
23.5
 30
0.0
 11
187.8
 21
86.375
 31
0.0
  0
LINE
  8
0
  6
LTYPE3
 62
     5
 10
22.8
 20
124.0
 30
0.0
 11
83.0
 21
124.0
 31
0.0
  0
LINE
  8
0
  6
LTYPE3
 62
     5
 10
54.4
 20
154.375
 30
0.0
 11
54.4
 21
92.075
 31
0.0
  0
ENDSEC
  0
EOF
