  0
SECTION
  2
HEADER
  9
$ACADVER
  1
AC1009
  9
$DWGCODEPAGE
  3
dos932
  9
$EXTMIN
 10
0.0
 20
0.0
 30
0.0
  9
$EXTMAX
 10
297.0
 20
210.0
 30
0.0
  9
$LIMMIN
 10
0.0
 20
0.0
  9
$LIMMAX
 10
297.0
 20
210.0
  9
$LTSCALE
 40
1.0
  9
$PDMODE
 70
     0
  0
ENDSEC
  0
SECTION
  2
TABLES
  0
TABLE
  2
VPORT
 70
     1
  0
VPORT
  2
*ACTIVE
 70
     0
 10
0.0
 20
0.0
 11
1.0
 21
1.0
 12
148.5
 22
105.0
 13
0.0
 23
0.0
 14
10.0
 24
10.0
 15
10.0
 25
10.0
 16
0.0
 26
0.0
 36
1.0
 17
0.0
 27
0.0
 37
0.0
 40
297.0
 41
1.414285714
 42
50.0
 43
0.0
 44
0.0
 50
0.0
 51
0.0
 71
     0
 72
  1000
 73
     1
 74
     3
 75
     0
 76
     0
 77
     0
 78
     0
  0
ENDTAB
  0
TABLE
  2
LTYPE
 70
     6
  0
LTYPE
  2
CONTINUOUS
 70
    64
  3
Solid line
 72
    65
 73
     0
 40
0.0
  0
LTYPE
  2
LTYPE1
 70
    64
  3
CENTER
 72
    65
 73
     4
 40
5.0
 49
3.5
 49
-0.5
 49
0.5
 49
-0.5
  0
LTYPE
  2
LTYPE2
 70
    64
  3
CENTER
 72
    65
 73
     4
 40
8.0
 49
5.6
 49
-0.8
 49
0.8
 49
-0.8
  0
LTYPE
  2
LTYPE3
 70
    64
  3
CENTER
 72
    65
 73
     4
 40
15.0
 49
10.5
 49
-1.5
 49
1.5
 49
-1.5
  0
LTYPE
  2
LTYPE4
 70
    64
  3
HIDDEN
 72
    65
 73
     2
 40
1.0
 49
0.6
 49
-0.4
  0
LTYPE
  2
LTYPE5
 70
    64
  3
HIDDEN
 72
    65
 73
     2
 40
2.0
 49
1.2
 49
-0.8
  0
ENDTAB
  0
TABLE
  2
LAYER
 70
   128
  0
LAYER
  2
0
 70
     0
 62
     7
  6
CONTINUOUS
  0
LAYER
  2
2
 70
     0
 62
     7
  6
CONTINUOUS
  0
LAYER
  2
3
 70
     0
 62
     7
  6
CONTINUOUS
  0
LAYER
  2
4
 70
     0
 62
     7
  6
CONTINUOUS
  0
LAYER
  2
5
 70
     0
 62
     7
  6
CONTINUOUS
  0
LAYER
  2
6
 70
     0
 62
     7
  6
CONTINUOUS
  0
LAYER
  2
7
 70
     0
 62
     7
  6
CONTINUOUS
  0
LAYER
  2
8
 70
     0
 62
     7
  6
CONTINUOUS
  0
LAYER
  2
9
 70
     0
 62
     7
  6
CONTINUOUS
  0
LAYER
  2
10
 70
     0
 62
     7
  6
CONTINUOUS
  0
LAYER
  2
11
 70
     0
 62
     7
  6
CONTINUOUS
  0
LAYER
  2
12
 70
     0
 62
     7
  6
CONTINUOUS
  0
LAYER
  2
13
 70
     0
 62
     7
  6
CONTINUOUS
  0
LAYER
  2
14
 70
     0
 62
     7
  6
CONTINUOUS
  0
LAYER
  2
15
 70
     0
 62
     7
  6
CONTINUOUS
  0
LAYER
  2
16
 70
     0
 62
     7
  6
CONTINUOUS
  0
LAYER
  2
17
 70
     0
 62
     7
  6
CONTINUOUS
  0
LAYER
  2
18
 70
     0
 62
     7
  6
CONTINUOUS
  0
LAYER
  2
19
 70
     0
 62
     7
  6
CONTINUOUS
  0
LAYER
  2
20
 70
     0
 62
     7
  6
CONTINUOUS
  0
LAYER
  2
21
 70
     0
 62
     7
  6
CONTINUOUS
  0
LAYER
  2
22
 70
     0
 62
     7
  6
CONTINUOUS
  0
LAYER
  2
23
 70
     0
 62
     7
  6
CONTINUOUS
  0
LAYER
  2
24
 70
     0
 62
     7
  6
CONTINUOUS
  0
LAYER
  2
25
 70
     0
 62
     7
  6
CONTINUOUS
  0
LAYER
  2
26
 70
     0
 62
     7
  6
CONTINUOUS
  0
LAYER
  2
27
 70
     0
 62
     7
  6
CONTINUOUS
  0
LAYER
  2
28
 70
     0
 62
     7
  6
CONTINUOUS
  0
LAYER
  2
29
 70
     0
 62
     7
  6
CONTINUOUS
  0
LAYER
  2
30
 70
     0
 62
     7
  6
CONTINUOUS
  0
LAYER
  2
31
 70
     0
 62
     7
  6
CONTINUOUS
  0
LAYER
  2
32
 70
     0
 62
     7
  6
CONTINUOUS
  0
LAYER
  2
33
 70
     0
 62
     7
  6
CONTINUOUS
  0
LAYER
  2
34
 70
     0
 62
     7
  6
CONTINUOUS
  0
LAYER
  2
35
 70
     0
 62
     7
  6
CONTINUOUS
  0
LAYER
  2
36
 70
     0
 62
     7
  6
CONTINUOUS
  0
LAYER
  2
37
 70
     0
 62
     7
  6
CONTINUOUS
  0
LAYER
  2
38
 70
     0
 62
     7
  6
CONTINUOUS
  0
LAYER
  2
39
 70
     0
 62
     7
  6
CONTINUOUS
  0
LAYER
  2
40
 70
     0
 62
     7
  6
CONTINUOUS
  0
LAYER
  2
41
 70
     0
 62
     7
  6
CONTINUOUS
  0
LAYER
  2
42
 70
     0
 62
     7
  6
CONTINUOUS
  0
LAYER
  2
43
 70
     0
 62
     7
  6
CONTINUOUS
  0
LAYER
  2
44
 70
     0
 62
     7
  6
CONTINUOUS
  0
LAYER
  2
45
 70
     0
 62
     7
  6
CONTINUOUS
  0
LAYER
  2
46
 70
     0
 62
     7
  6
CONTINUOUS
  0
LAYER
  2
47
 70
     0
 62
     7
  6
CONTINUOUS
  0
LAYER
  2
48
 70
     0
 62
     7
  6
CONTINUOUS
  0
LAYER
  2
49
 70
     0
 62
     7
  6
CONTINUOUS
  0
LAYER
  2
50
 70
     0
 62
     7
  6
CONTINUOUS
  0
LAYER
  2
51
 70
     0
 62
     7
  6
CONTINUOUS
  0
LAYER
  2
52
 70
     0
 62
     7
  6
CONTINUOUS
  0
LAYER
  2
53
 70
     0
 62
     7
  6
CONTINUOUS
  0
LAYER
  2
54
 70
     0
 62
     7
  6
CONTINUOUS
  0
LAYER
  2
55
 70
     0
 62
     7
  6
CONTINUOUS
  0
LAYER
  2
56
 70
     0
 62
     7
  6
CONTINUOUS
  0
LAYER
  2
57
 70
     0
 62
     7
  6
CONTINUOUS
  0
LAYER
  2
58
 70
     0
 62
     7
  6
CONTINUOUS
  0
LAYER
  2
59
 70
     0
 62
     7
  6
CONTINUOUS
  0
LAYER
  2
60
 70
     0
 62
     7
  6
CONTINUOUS
  0
LAYER
  2
61
 70
     0
 62
     7
  6
CONTINUOUS
  0
LAYER
  2
62
 70
     0
 62
     7
  6
CONTINUOUS
  0
LAYER
  2
63
 70
     0
 62
     7
  6
CONTINUOUS
  0
LAYER
  2
64
 70
     0
 62
     7
  6
CONTINUOUS
  0
LAYER
  2
65
 70
     0
 62
     7
  6
CONTINUOUS
  0
LAYER
  2
66
 70
     0
 62
     7
  6
CONTINUOUS
  0
LAYER
  2
67
 70
     0
 62
     7
  6
CONTINUOUS
  0
LAYER
  2
68
 70
     0
 62
     7
  6
CONTINUOUS
  0
LAYER
  2
69
 70
     0
 62
     7
  6
CONTINUOUS
  0
LAYER
  2
70
 70
     0
 62
     7
  6
CONTINUOUS
  0
LAYER
  2
71
 70
     0
 62
     7
  6
CONTINUOUS
  0
LAYER
  2
72
 70
     0
 62
     7
  6
CONTINUOUS
  0
LAYER
  2
73
 70
     0
 62
     7
  6
CONTINUOUS
  0
LAYER
  2
74
 70
     0
 62
     7
  6
CONTINUOUS
  0
LAYER
  2
75
 70
     0
 62
     7
  6
CONTINUOUS
  0
LAYER
  2
76
 70
     0
 62
     7
  6
CONTINUOUS
  0
LAYER
  2
77
 70
     0
 62
     7
  6
CONTINUOUS
  0
LAYER
  2
78
 70
     0
 62
     7
  6
CONTINUOUS
  0
LAYER
  2
79
 70
     0
 62
     7
  6
CONTINUOUS
  0
LAYER
  2
80
 70
     0
 62
     7
  6
CONTINUOUS
  0
LAYER
  2
81
 70
     0
 62
     7
  6
CONTINUOUS
  0
LAYER
  2
82
 70
     0
 62
     7
  6
CONTINUOUS
  0
LAYER
  2
83
 70
     0
 62
     7
  6
CONTINUOUS
  0
LAYER
  2
84
 70
     0
 62
     7
  6
CONTINUOUS
  0
LAYER
  2
85
 70
     0
 62
     7
  6
CONTINUOUS
  0
LAYER
  2
86
 70
     0
 62
     7
  6
CONTINUOUS
  0
LAYER
  2
87
 70
     0
 62
     7
  6
CONTINUOUS
  0
LAYER
  2
88
 70
     0
 62
     7
  6
CONTINUOUS
  0
LAYER
  2
89
 70
     0
 62
     7
  6
CONTINUOUS
  0
LAYER
  2
90
 70
     0
 62
     7
  6
CONTINUOUS
  0
LAYER
  2
91
 70
     0
 62
     7
  6
CONTINUOUS
  0
LAYER
  2
92
 70
     0
 62
     7
  6
CONTINUOUS
  0
LAYER
  2
93
 70
     0
 62
     7
  6
CONTINUOUS
  0
LAYER
  2
94
 70
     0
 62
     7
  6
CONTINUOUS
  0
LAYER
  2
95
 70
     0
 62
     7
  6
CONTINUOUS
  0
LAYER
  2
96
 70
     0
 62
     7
  6
CONTINUOUS
  0
LAYER
  2
97
 70
     0
 62
     7
  6
CONTINUOUS
  0
LAYER
  2
98
 70
     0
 62
     7
  6
CONTINUOUS
  0
LAYER
  2
99
 70
     0
 62
     7
  6
CONTINUOUS
  0
LAYER
  2
100
 70
     0
 62
     7
  6
CONTINUOUS
  0
LAYER
  2
101
 70
     0
 62
     7
  6
CONTINUOUS
  0
LAYER
  2
102
 70
     0
 62
     7
  6
CONTINUOUS
  0
LAYER
  2
103
 70
     0
 62
     7
  6
CONTINUOUS
  0
LAYER
  2
104
 70
     0
 62
     7
  6
CONTINUOUS
  0
LAYER
  2
105
 70
     0
 62
     7
  6
CONTINUOUS
  0
LAYER
  2
106
 70
     0
 62
     7
  6
CONTINUOUS
  0
LAYER
  2
107
 70
     0
 62
     7
  6
CONTINUOUS
  0
LAYER
  2
108
 70
     0
 62
     7
  6
CONTINUOUS
  0
LAYER
  2
109
 70
     0
 62
     7
  6
CONTINUOUS
  0
LAYER
  2
110
 70
     0
 62
     7
  6
CONTINUOUS
  0
LAYER
  2
111
 70
     0
 62
     7
  6
CONTINUOUS
  0
LAYER
  2
112
 70
     0
 62
     7
  6
CONTINUOUS
  0
LAYER
  2
113
 70
     0
 62
     7
  6
CONTINUOUS
  0
LAYER
  2
114
 70
     0
 62
     7
  6
CONTINUOUS
  0
LAYER
  2
115
 70
     0
 62
     7
  6
CONTINUOUS
  0
LAYER
  2
116
 70
     0
 62
     7
  6
CONTINUOUS
  0
LAYER
  2
117
 70
     0
 62
     7
  6
CONTINUOUS
  0
LAYER
  2
118
 70
     0
 62
     7
  6
CONTINUOUS
  0
LAYER
  2
119
 70
     0
 62
     7
  6
CONTINUOUS
  0
LAYER
  2
120
 70
     0
 62
     7
  6
CONTINUOUS
  0
LAYER
  2
121
 70
     0
 62
     7
  6
CONTINUOUS
  0
LAYER
  2
122
 70
     0
 62
     7
  6
CONTINUOUS
  0
LAYER
  2
123
 70
     0
 62
     7
  6
CONTINUOUS
  0
LAYER
  2
124
 70
     0
 62
     7
  6
CONTINUOUS
  0
LAYER
  2
125
 70
     0
 62
     7
  6
CONTINUOUS
  0
LAYER
  2
126
 70
     0
 62
     7
  6
CONTINUOUS
  0
LAYER
  2
127
 70
     0
 62
     7
  6
CONTINUOUS
  0
LAYER
  2
128
 70
     0
 62
     7
  6
CONTINUOUS
  0
ENDTAB
  0
TABLE
  2
STYLE
 70
    17
  0
STYLE
  2
STANDARD
 70
     0
 40
0.0
 41
1.0
 50
0.0
 71
     0
 42
0.2
  3
txt.shx
  4
extfont.shx
  0
STYLE
  2
KANJI0
 70
     0
 40
3.0
 41
0.6
 50
0.0
 71
     0
 42
3.0
  3
txt.shx
  4
extfont.shx
  0
STYLE
  2
KANJI1
 70
     0
 40
1.8
 41
0.6
 50
0.0
 71
     0
 42
1.8
  3
txt.shx
  4
extfont.shx
  0
STYLE
  2
KANJI2
 70
     0
 40
3.0
 41
0.9
 50
0.0
 71
     0
 42
3.0
  3
txt.shx
  4
extfont.shx
  0
STYLE
  2
KANJI3
 70
     0
 40
3.0
 41
0.9
 50
0.0
 71
     0
 42
3.0
  3
txt.shx
  4
extfont.shx
  0
STYLE
  2
KANJI4
 70
     0
 40
3.0
 41
0.45
 50
0.0
 71
     0
 42
3.0
  3
txt.shx
  4
extfont.shx
  0
STYLE
  2
KANJI5
 70
     0
 40
3.0
 41
0.9
 50
0.0
 71
     0
 42
3.0
  3
txt.shx
  4
extfont.shx
  0
STYLE
  2
KANJI6
 70
     0
 40
4.0
 41
0.9
 50
0.0
 71
     0
 42
4.0
  3
txt.shx
  4
extfont.shx
  0
STYLE
  2
KANJI7
 70
     0
 40
3.0
 41
0.6
 50
0.0
 71
     0
 42
3.0
  3
txt.shx
  4
extfont.shx
  0
STYLE
  2
KANJI8
 70
     0
 40
4.0
 41
0.9
 50
0.0
 71
     0
 42
4.0
  3
txt.shx
  4
extfont.shx
  0
STYLE
  2
KANJI9
 70
     0
 40
4.8
 41
0.9
 50
0.0
 71
     0
 42
4.8
  3
txt.shx
  4
extfont.shx
  0
STYLE
  2
KANJI10
 70
     0
 40
3.2
 41
0.9
 50
0.0
 71
     0
 42
3.2
  3
txt.shx
  4
extfont.shx
  0
STYLE
  2
KANJI11
 70
     0
 40
2.4
 41
0.9
 50
0.0
 71
     0
 42
2.4
  3
txt.shx
  4
extfont.shx
  0
STYLE
  2
KANJI12
 70
     0
 40
4.0
 41
0.9
 50
0.0
 71
     0
 42
4.0
  3
txt.shx
  4
extfont.shx
  0
STYLE
  2
KANJI13
 70
     0
 40
3.0
 41
0.6
 50
0.0
 71
     0
 42
3.0
  3
txt.shx
  4
extfont.shx
  0
STYLE
  2
KANJI14
 70
     0
 40
2.0
 41
0.9
 50
0.0
 71
     0
 42
2.0
  3
txt.shx
  4
extfont.shx
  0
STYLE
  2
KANJI15
 70
     0
 40
2.0
 41
0.9
 50
0.0
 71
     0
 42
2.0
  3
txt.shx
  4
extfont.shx
  0
ENDTAB
  0
TABLE
  2
VIEW
 70
     0
  0
ENDTAB
  0
ENDSEC
  0
SECTION
  2
BLOCKS
  0
ENDSEC
  0
SECTION
  2
ENTITIES
  0
ARC
  8
0
  6
CONTINUOUS
 62
     1
 10
24.5
 20
92.475
 30
0.0
 40
5.0
 50
180.0
 51
270.0
  0
ARC
  8
0
  6
CONTINUOUS
 62
     1
 10
24.5
 20
157.475
 30
0.0
 40
5.0
 50
90.0
 51
180.0
  0
LINE
  8
0
  6
CONTINUOUS
 62
     1
 10
19.5
 20
157.475
 30
0.0
 11
19.5
 21
92.475
 31
0.0
  0
ARC
  8
0
  6
CONTINUOUS
 62
     2
 10
27.0
 20
94.975
 30
0.0
 40
2.0
 50
180.0
 51
270.0
  0
ARC
  8
0
  6
CONTINUOUS
 62
     2
 10
27.0
 20
154.975
 30
0.0
 40
2.0
 50
90.0
 51
180.0
  0
LINE
  8
0
  6
CONTINUOUS
 62
     2
 10
25.0
 20
154.975
 30
0.0
 11
25.0
 21
94.975
 31
0.0
  0
LINE
  8
0
  6
CONTINUOUS
 62
     1
 10
57.0
 20
162.475
 30
0.0
 11
24.5
 21
162.475
 31
0.0
  0
LINE
  8
0
  6
CONTINUOUS
 62
     2
 10
57.0
 20
156.975
 30
0.0
 11
27.0
 21
156.975
 31
0.0
  0
LINE
  8
0
  6
CONTINUOUS
 62
     2
 10
27.0
 20
92.975
 30
0.0
 11
57.0
 21
92.975
 31
0.0
  0
LINE
  8
0
  6
CONTINUOUS
 62
     1
 10
24.5
 20
87.475
 30
0.0
 11
57.0
 21
87.475
 31
0.0
  0
LINE
  8
0
  6
CONTINUOUS
 62
     2
 10
23.5
 20
162.475
 30
0.0
 11
12.5
 21
162.475
 31
0.0
  0
LINE
  8
0
  6
CONTINUOUS
 62
     2
 10
14.5
 20
162.475
 30
0.0
 11
13.852952387
 21
160.060185434
 31
0.0
  0
LINE
  8
0
  6
CONTINUOUS
 62
     2
 10
14.5
 20
162.475
 30
0.0
 11
15.147047613
 21
160.060185434
 31
0.0
  0
LINE
  8
0
  6
CONTINUOUS
 62
     2
 10
14.5
 20
162.475
 30
0.0
 11
14.5
 21
87.475
 31
0.0
  0
LINE
  8
0
  6
CONTINUOUS
 62
     2
 10
14.5
 20
87.475
 30
0.0
 11
15.147047613
 21
89.889814566
 31
0.0
  0
LINE
  8
0
  6
CONTINUOUS
 62
     2
 10
14.5
 20
87.475
 30
0.0
 11
13.852952387
 21
89.889814566
 31
0.0
  0
LINE
  8
0
  6
CONTINUOUS
 62
     2
 10
23.5
 20
87.475
 30
0.0
 11
12.5
 21
87.475
 31
0.0
  0
TEXT
  8
0
  6
CONTINUOUS
 62
     2
 10
13.5
 20
119.545
 30
0.3
 40
3.0
  1
１５０
 50
90.0
 41
0.6
 51
0.0
  7
KANJI0
  0
TEXT
  8
0
  6
CONTINUOUS
 62
     2
 10
13.5
 20
125.995
 30
0.18
 40
1.8
  1
±１．５
 50
90.0
 41
0.6
 51
0.0
  7
KANJI1
  0
LINE
  8
0
  6
CONTINUOUS
 62
     2
 10
19.5
 20
158.475
 30
0.0
 11
19.5
 21
169.475
 31
0.0
  0
LINE
  8
0
  6
CONTINUOUS
 62
     2
 10
19.5
 20
167.475
 30
0.0
 11
21.914814566
 21
166.827952387
 31
0.0
  0
LINE
  8
0
  6
CONTINUOUS
 62
     2
 10
19.5
 20
167.475
 30
0.0
 11
21.914814566
 21
168.122047613
 31
0.0
  0
TEXT
  8
0
  6
CONTINUOUS
 62
     2
 10
51.57
 20
168.475
 30
0.3
 40
3.0
  1
１５０
 50
0.0
 41
0.6
 51
0.0
  7
KANJI0
  0
TEXT
  8
0
  6
CONTINUOUS
 62
     2
 10
58.02
 20
168.475
 30
0.18
 40
1.8
  1
±１．５
 50
0.0
 41
0.6
 51
0.0
  7
KANJI1
  0
LINE
  8
0
  6
CONTINUOUS
 62
     2
 10
19.5
 20
167.475
 30
0.0
 11
57.0
 21
167.475
 31
0.0
  0
ARC
  8
0
  6
CONTINUOUS
 62
     2
 10
57.0
 20
124.975
 30
0.0
 40
31.5
 50
90.0
 51
270.0
  0
ARC
  8
0
  6
CONTINUOUS
 62
     2
 10
57.0
 20
124.975
 30
0.0
 40
9.75
 50
90.0
 51
270.0
  0
ARC
  8
0
  6
CONTINUOUS
 62
     2
 10
57.0
 20
124.975
 30
0.0
 40
3.0
 50
90.0
 51
270.0
  0
LINE
  8
0
  6
CONTINUOUS
 62
     2
 10
57.0
 20
124.375
 30
0.0
 11
55.759807621
 21
122.226923789
 31
0.0
  0
LINE
  8
0
  6
CONTINUOUS
 62
     2
 10
57.0
 20
125.575
 30
0.0
 11
55.240192379
 21
122.526923789
 31
0.0
  0
ARC
  8
0
  6
CONTINUOUS
 62
     2
 10
57.0
 20
124.975
 30
0.0
 40
2.75
 50
246.262913126
 51
270.0
  0
ARC
  8
0
  6
CONTINUOUS
 62
     2
 10
57.0
 20
124.975
 30
0.0
 40
2.75
 50
90.0
 51
233.737086874
  0
CIRCLE
  8
0
  6
CONTINUOUS
 62
     2
 10
48.5
 20
109.475
 30
0.0
 40
1.75
  0
CIRCLE
  8
0
  6
CONTINUOUS
 62
     2
 10
48.5
 20
109.475
 30
0.0
 40
1.5
  0
LINE
  8
0
  6
CONTINUOUS
 62
     2
 10
47.625
 20
109.675
 30
0.0
 11
48.1
 21
109.675
 31
0.0
  0
ARC
  8
0
  6
CONTINUOUS
 62
     2
 10
48.1
 20
109.875
 30
0.0
 40
0.2
 50
270.0
 51
0.0
  0
LINE
  8
0
  6
CONTINUOUS
 62
     2
 10
48.3
 20
109.875
 30
0.0
 11
48.3
 21
110.35
 31
0.0
  0
LINE
  8
0
  6
CONTINUOUS
 62
     2
 10
48.3
 20
110.35
 30
0.0
 11
48.7
 21
110.35
 31
0.0
  0
LINE
  8
0
  6
CONTINUOUS
 62
     2
 10
48.7
 20
110.35
 30
0.0
 11
48.7
 21
109.875
 31
0.0
  0
ARC
  8
0
  6
CONTINUOUS
 62
     2
 10
48.9
 20
109.875
 30
0.0
 40
0.2
 50
180.0
 51
270.0
  0
LINE
  8
0
  6
CONTINUOUS
 62
     2
 10
48.9
 20
109.675
 30
0.0
 11
49.375
 21
109.675
 31
0.0
  0
LINE
  8
0
  6
CONTINUOUS
 62
     2
 10
49.375
 20
109.675
 30
0.0
 11
49.375
 21
109.275
 31
0.0
  0
LINE
  8
0
  6
CONTINUOUS
 62
     2
 10
49.375
 20
109.275
 30
0.0
 11
48.9
 21
109.275
 31
0.0
  0
ARC
  8
0
  6
CONTINUOUS
 62
     2
 10
48.9
 20
109.075
 30
0.0
 40
0.2
 50
90.0
 51
180.0
  0
LINE
  8
0
  6
CONTINUOUS
 62
     2
 10
48.7
 20
109.075
 30
0.0
 11
48.7
 21
108.6
 31
0.0
  0
LINE
  8
0
  6
CONTINUOUS
 62
     2
 10
48.7
 20
108.6
 30
0.0
 11
48.3
 21
108.6
 31
0.0
  0
LINE
  8
0
  6
CONTINUOUS
 62
     2
 10
48.3
 20
108.6
 30
0.0
 11
48.3
 21
109.075
 31
0.0
  0
ARC
  8
0
  6
CONTINUOUS
 62
     2
 10
48.1
 20
109.075
 30
0.0
 40
0.2
 50
0.0
 51
90.0
  0
LINE
  8
0
  6
CONTINUOUS
 62
     2
 10
48.1
 20
109.275
 30
0.0
 11
47.625
 21
109.275
 31
0.0
  0
LINE
  8
0
  6
CONTINUOUS
 62
     2
 10
47.625
 20
109.275
 30
0.0
 11
47.625
 21
109.675
 31
0.0
  0
ARC
  8
0
  6
CONTINUOUS
 62
     2
 10
32.967795045
 20
111.1
 30
0.0
 40
0.25
 50
120.0
 51
300.0
  0
ARC
  8
0
  6
CONTINUOUS
 62
     2
 10
35.599364905
 20
112.041987298
 30
0.0
 40
0.25
 50
210.0
 51
300.0
  0
LINE
  8
0
  6
CONTINUOUS
 62
     2
 10
35.28261103
 20
112.090621104
 30
0.0
 11
35.382858554
 21
111.916987298
 31
0.0
  0
ARC
  8
0
  6
CONTINUOUS
 62
     2
 10
35.099364905
 20
112.908012702
 30
0.0
 40
0.25
 50
120.0
 51
210.0
  0
LINE
  8
0
  6
CONTINUOUS
 62
     2
 10
34.983106079
 20
112.609378896
 30
0.0
 11
34.882858554
 21
112.783012702
 31
0.0
  0
LINE
  8
0
  6
CONTINUOUS
 62
     2
 10
35.724364905
 20
111.825480947
 30
0.0
 11
48.95627088
 21
119.464925423
 31
0.0
  0
LINE
  8
0
  6
CONTINUOUS
 62
     2
 10
33.092795045
 20
110.883493649
 30
0.0
 11
48.876026291
 21
119.583937843
 31
0.0
  0
LINE
  8
0
  6
CONTINUOUS
 62
     2
 10
48.269216364
 20
120.634963467
 30
0.0
 11
32.842795045
 21
111.316506351
 31
0.0
  0
LINE
  8
0
  6
CONTINUOUS
 62
     2
 10
34.974364905
 20
113.124519053
 30
0.0
 11
48.20627088
 21
120.763963529
 31
0.0
  0
LINE
  8
0
  6
LTYPE1
 62
     2
 10
45.7
 20
109.475
 30
0.0
 11
51.25
 21
109.475
 31
0.0
  0
LINE
  8
0
  6
LTYPE1
 62
     2
 10
48.5
 20
112.225
 30
0.0
 11
48.5
 21
106.725
 31
0.0
  0
LINE
  8
0
  6
CONTINUOUS
 62
     2
 10
12.8
 20
64.7
 30
0.0
 11
137.8
 21
64.7
 31
0.0
  0
LINE
  8
0
  6
CONTINUOUS
 62
     2
 10
137.8
 20
24.7
 30
0.0
 11
12.8
 21
24.7
 31
0.0
  0
LINE
  8
0
  6
CONTINUOUS
 62
     2
 10
12.8
 20
59.7
 30
0.0
 11
137.8
 21
59.7
 31
0.0
  0
LINE
  8
0
  6
CONTINUOUS
 62
     2
 10
12.8
 20
49.7
 30
0.0
 11
107.8
 21
49.7
 31
0.0
  0
LINE
  8
0
  6
CONTINUOUS
 62
     2
 10
107.8
 20
44.7
 30
0.0
 11
12.8
 21
44.7
 31
0.0
  0
LINE
  8
0
  6
CONTINUOUS
 62
     2
 10
12.8
 20
39.7
 30
0.0
 11
107.8
 21
39.7
 31
0.0
  0
LINE
  8
0
  6
CONTINUOUS
 62
     2
 10
107.8
 20
34.7
 30
0.0
 11
12.8
 21
34.7
 31
0.0
  0
LINE
  8
0
  6
CONTINUOUS
 62
     2
 10
107.8
 20
34.7
 30
0.0
 11
137.8
 21
34.7
 31
0.0
  0
LINE
  8
0
  6
CONTINUOUS
 62
     2
 10
107.8
 20
34.7
 30
0.0
 11
137.8
 21
59.7
 31
0.0
  0
TEXT
  8
0
  6
CONTINUOUS
 62
     2
 10
13.8
 20
60.7
 30
0.3
 40
3.0
  1
項
 50
0.0
 41
0.9
 51
0.0
  7
KANJI2
  0
TEXT
  8
0
  6
CONTINUOUS
 62
     2
 10
13.8
 20
55.7
 30
0.3
 40
3.0
  1
１
 50
0.0
 41
0.9
 51
0.0
  7
KANJI2
  0
TEXT
  8
0
  6
CONTINUOUS
 62
     2
 10
13.8
 20
50.7
 30
0.3
 40
3.0
  1
２
 50
0.0
 41
0.9
 51
0.0
  7
KANJI2
  0
TEXT
  8
0
  6
CONTINUOUS
 62
     2
 10
13.8
 20
45.7
 30
0.3
 40
3.0
  1
３
 50
0.0
 41
0.9
 51
0.0
  7
KANJI2
  0
TEXT
  8
0
  6
CONTINUOUS
 62
     2
 10
13.8
 20
40.7
 30
0.3
 40
3.0
  1
４
 50
0.0
 41
0.9
 51
0.0
  7
KANJI2
  0
TEXT
  8
0
  6
CONTINUOUS
 62
     2
 10
13.8
 20
35.7
 30
0.3
 40
3.0
  1
５
 50
0.0
 41
0.9
 51
0.0
  7
KANJI2
  0
TEXT
  8
0
  6
CONTINUOUS
 62
     2
 10
13.8
 20
30.7
 30
0.3
 40
3.0
  1
６
 50
0.0
 41
0.9
 51
0.0
  7
KANJI2
  0
TEXT
  8
0
  6
CONTINUOUS
 62
     2
 10
13.8
 20
25.7
 30
0.3
 40
3.0
  1
７
 50
0.0
 41
0.9
 51
0.0
  7
KANJI2
  0
TEXT
  8
0
  6
CONTINUOUS
 62
     2
 10
22.8
 20
60.7
 30
1.0
 40
3.0
  1
計器形名
 50
0.0
 41
0.9
 51
0.0
  7
KANJI3
  0
TEXT
  8
0
  6
CONTINUOUS
 62
     2
 10
52.8
 20
60.7
 30
1.0
 40
3.0
  1
動作原理
 50
0.0
 41
0.9
 51
0.0
  7
KANJI3
  0
TEXT
  8
0
  6
CONTINUOUS
 62
     2
 10
108.8
 20
60.7
 30
1.0
 40
3.0
  1
感度調整用抵抗器
 50
0.0
 41
0.9
 51
0.0
  7
KANJI3
  0
TEXT
  8
0
  6
CONTINUOUS
 62
     2
 10
108.8
 20
30.7
 30
1.0
 40
3.0
  1
上図※印の位置に
 50
0.0
 41
0.9
 51
0.0
  7
KANJI3
  0
TEXT
  8
0
  6
CONTINUOUS
 62
     2
 10
22.8
 20
52.2
 30
0.5
 40
3.0
  1
Ｓ
 50
0.0
 41
0.45
 51
0.0
  7
KANJI4
  0
TEXT
  8
0
  6
CONTINUOUS
 62
     2
 10
22.8
 20
49.7
 30
0.5
 40
3.0
  1
Ｃ
 50
0.0
 41
0.45
 51
0.0
  7
KANJI4
  0
TEXT
  8
0
  6
CONTINUOUS
 62
     2
 10
23.0
 20
27.2
 30
0.5
 40
3.0
  1
Ｓ
 50
0.0
 41
0.45
 51
0.0
  7
KANJI4
  0
TEXT
  8
0
  6
CONTINUOUS
 62
     2
 10
23.0
 20
24.7
 30
0.5
 40
3.0
  1
Ｃ　
 50
0.0
 41
0.45
 51
0.0
  7
KANJI4
  0
TEXT
  8
0
  6
CONTINUOUS
 62
     2
 10
52.8
 20
50.7
 30
0.5
 40
3.0
  1
整流形
 50
0.0
 41
0.9
 51
0.0
  7
KANJI5
  0
TEXT
  8
0
  6
CONTINUOUS
 62
     2
 10
52.3
 20
35.7
 30
0.5
 40
3.0
  1
可動鉄片形
 50
0.0
 41
0.9
 51
0.0
  7
KANJI5
  0
TEXT
  8
0
  6
CONTINUOUS
 62
     2
 10
52.3
 20
25.7
 30
0.5
 40
3.0
  1
整流形
 50
0.0
 41
0.9
 51
0.0
  7
KANJI5
  0
TEXT
  8
0
  6
CONTINUOUS
 62
     2
 10
86.8
 20
55.7
 30
0.5
 40
3.0
  1
１０２
 50
0.0
 41
0.9
 51
0.0
  7
KANJI5
  0
TEXT
  8
0
  6
CONTINUOUS
 62
     2
 10
86.8
 20
50.7
 30
0.5
 40
3.0
  1
１０２
 50
0.0
 41
0.9
 51
0.0
  7
KANJI5
  0
TEXT
  8
0
  6
CONTINUOUS
 62
     2
 10
86.8
 20
45.7
 30
0.5
 40
3.0
  1
１０２
 50
0.0
 41
0.9
 51
0.0
  7
KANJI5
  0
TEXT
  8
0
  6
CONTINUOUS
 62
     2
 10
86.8
 20
40.7
 30
0.5
 40
3.0
  1
１０２
 50
0.0
 41
0.9
 51
0.0
  7
KANJI5
  0
TEXT
  8
0
  6
CONTINUOUS
 62
     2
 10
86.8
 20
35.7
 30
0.5
 40
3.0
  1
１２９
 50
0.0
 41
0.9
 51
0.0
  7
KANJI5
  0
TEXT
  8
0
  6
CONTINUOUS
 62
     2
 10
86.8
 20
30.7
 30
0.5
 40
3.0
  1
１０２
 50
0.0
 41
0.9
 51
0.0
  7
KANJI5
  0
TEXT
  8
0
  6
CONTINUOUS
 62
     2
 10
86.8
 20
25.7
 30
0.5
 40
3.0
  1
１０２
 50
0.0
 41
0.9
 51
0.0
  7
KANJI5
  0
TEXT
  8
0
  6
CONTINUOUS
 62
     2
 10
108.8
 20
25.7
 30
1.0
 40
3.0
  1
内蔵しています
 50
0.0
 41
0.9
 51
0.0
  7
KANJI3
  0
LINE
  8
0
  6
CONTINUOUS
 62
     2
 10
22.214213562
 20
54.7
 30
0.0
 11
12.8
 21
54.7
 31
0.0
  0
LINE
  8
0
  6
CONTINUOUS
 62
     2
 10
107.8
 20
54.7
 30
0.0
 11
24.214213562
 21
54.7
 31
0.0
  0
LINE
  8
0
  6
CONTINUOUS
 62
     2
 10
24.564213562
 20
29.7
 30
0.0
 11
107.8
 21
29.7
 31
0.0
  0
LINE
  8
0
  6
CONTINUOUS
 62
     2
 10
12.8
 20
29.7
 30
0.0
 11
22.464213562
 21
29.7
 31
0.0
  0
TEXT
  8
0
  6
CONTINUOUS
 62
     2
 10
83.414213562
 20
60.885786438
 30
0.5
 40
3.0
  1
計器胴寸法
 50
0.0
 41
0.9
 51
0.0
  7
KANJI5
  0
TEXT
  8
0
  6
CONTINUOUS
 62
     2
 10
100.914213562
 20
60.885786438
 30
0.666666667
 40
4.0
  1
ι
 50
0.0
 41
0.9
 51
0.0
  7
KANJI6
  0
LINE
  8
0
  6
LTYPE2
 62
     2
 10
61.1
 20
124.975
 30
0.0
 11
15.0
 21
124.975
 31
0.0
  0
LINE
  8
0
  6
LTYPE2
 62
     2
 10
57.0
 20
166.45
 30
0.0
 11
57.0
 21
80.475
 31
0.0
  0
TEXT
  8
0
  6
CONTINUOUS
 62
     2
 10
22.8
 20
55.7
 30
0.5
 40
3.0
  1
ＤＶＦ－１５
 50
0.0
 41
0.9
 51
0.0
  7
KANJI5
  0
TEXT
  8
0
  6
CONTINUOUS
 62
     2
 10
26.1
 20
50.7
 30
0.5
 40
3.0
  1
ＶＦ－１５
 50
0.0
 41
0.9
 51
0.0
  7
KANJI5
  0
TEXT
  8
0
  6
CONTINUOUS
 62
     2
 10
23.0
 20
45.7
 30
0.5
 40
3.0
  1
ＳｅＶＦ－１５
 50
0.0
 41
0.9
 51
0.0
  7
KANJI5
  0
TEXT
  8
0
  6
CONTINUOUS
 62
     2
 10
23.0
 20
40.7
 30
0.5
 40
3.0
  1
ＦＶＦ－１５　
 50
0.0
 41
0.9
 51
0.0
  7
KANJI5
  0
TEXT
  8
0
  6
CONTINUOUS
 62
     2
 10
23.0
 20
35.7
 30
0.5
 40
3.0
  1
ＡＶＦ－１５　
 50
0.0
 41
0.9
 51
0.0
  7
KANJI5
  0
TEXT
  8
0
  6
CONTINUOUS
 62
     2
 10
23.0
 20
30.7
 30
0.5
 40
3.0
  1
ＤＶＦ－１５Ｖ
 50
0.0
 41
0.9
 51
0.0
  7
KANJI5
  0
TEXT
  8
0
  6
CONTINUOUS
 62
     2
 10
26.0
 20
25.7
 30
0.5
 40
3.0
  1
ＶＦ－１５Ｖ
 50
0.0
 41
0.9
 51
0.0
  7
KANJI5
  0
LINE
  8
0
  6
CONTINUOUS
 62
     2
 10
137.8
 20
19.7
 30
0.0
 11
12.8
 21
19.7
 31
0.0
  0
TEXT
  8
0
  6
CONTINUOUS
 62
     2
 10
86.8
 20
20.7
 30
0.5
 40
3.0
  1
１０２
 50
0.0
 41
0.9
 51
0.0
  7
KANJI5
  0
LINE
  8
0
  6
CONTINUOUS
 62
     2
 10
137.8
 20
64.7
 30
0.0
 11
137.8
 21
19.7
 31
0.0
  0
LINE
  8
0
  6
CONTINUOUS
 62
     2
 10
12.8
 20
19.7
 30
0.0
 11
12.8
 21
64.7
 31
0.0
  0
LINE
  8
0
  6
CONTINUOUS
 62
     2
 10
107.8
 20
64.75
 30
0.0
 11
107.8
 21
19.7
 31
0.0
  0
LINE
  8
0
  6
CONTINUOUS
 62
     2
 10
77.8
 20
19.7
 30
0.0
 11
77.8
 21
64.7
 31
0.0
  0
LINE
  8
0
  6
CONTINUOUS
 62
     2
 10
47.8
 20
64.7
 30
0.0
 11
47.8
 21
19.7
 31
0.0
  0
LINE
  8
0
  6
CONTINUOUS
 62
     2
 10
17.8
 20
19.7
 30
0.0
 11
17.8
 21
64.7
 31
0.0
  0
TEXT
  8
0
  6
CONTINUOUS
 62
     2
 10
13.8
 20
20.7
 30
0.3
 40
3.0
  1
８
 50
0.0
 41
0.9
 51
0.0
  7
KANJI2
  0
TEXT
  8
0
  6
CONTINUOUS
 62
     2
 10
26.0
 20
20.7
 30
0.5
 40
3.0
  1
ＶＦ－１５
 50
0.0
 41
0.9
 51
0.0
  7
KANJI5
  0
LINE
  8
0
  6
CONTINUOUS
 62
     2
 10
107.8
 20
19.7
 30
0.0
 11
137.8
 21
24.7
 31
0.0
  0
POINT
  8
0
  6
LTYPE3
 62
     2
 10
219.8
 20
156.0
 30
0.0
  0
CIRCLE
  8
0
  6
LTYPE4
 62
     2
 10
219.8
 20
140.0
 30
0.0
 40
1.75
  0
CIRCLE
  8
0
  6
CONTINUOUS
 62
     2
 10
212.3
 20
129.95
 30
0.0
 40
3.175
  0
CIRCLE
  8
0
  6
CONTINUOUS
 62
     2
 10
212.3
 20
129.95
 30
0.0
 40
2.5
  0
LINE
  8
0
  6
CONTINUOUS
 62
     2
 10
213.675
 20
129.6
 30
0.0
 11
213.675
 21
130.3
 31
0.0
  0
LINE
  8
0
  6
CONTINUOUS
 62
     2
 10
210.925
 20
130.3
 30
0.0
 11
210.925
 21
129.6
 31
0.0
  0
LINE
  8
0
  6
CONTINUOUS
 62
     2
 10
213.675
 20
130.3
 30
0.0
 11
213.4
 21
130.3
 31
0.0
  0
LINE
  8
0
  6
CONTINUOUS
 62
     2
 10
212.65
 20
131.05
 30
0.0
 11
212.65
 21
132.425378759
 31
0.0
  0
ARC
  8
0
  6
CONTINUOUS
 62
     2
 10
213.4
 20
131.05
 30
0.0
 40
0.75
 50
180.0
 51
270.0
  0
LINE
  8
0
  6
CONTINUOUS
 62
     2
 10
213.4
 20
129.6
 30
0.0
 11
213.675
 21
129.6
 31
0.0
  0
LINE
  8
0
  6
CONTINUOUS
 62
     2
 10
212.65
 20
127.5
 30
0.0
 11
212.65
 21
128.85
 31
0.0
  0
ARC
  8
0
  6
CONTINUOUS
 62
     2
 10
213.4
 20
128.85
 30
0.0
 40
0.75
 50
90.0
 51
180.0
  0
LINE
  8
0
  6
CONTINUOUS
 62
     2
 10
210.925
 20
129.6
 30
0.0
 11
211.2
 21
129.6
 31
0.0
  0
LINE
  8
0
  6
CONTINUOUS
 62
     2
 10
211.95
 20
128.85
 30
0.0
 11
211.95
 21
127.474621241
 31
0.0
  0
ARC
  8
0
  6
CONTINUOUS
 62
     2
 10
211.2
 20
128.85
 30
0.0
 40
0.75
 50
0.0
 51
90.0
  0
LINE
  8
0
  6
CONTINUOUS
 62
     2
 10
211.2
 20
130.3
 30
0.0
 11
210.925
 21
130.3
 31
0.0
  0
LINE
  8
0
  6
CONTINUOUS
 62
     2
 10
211.95
 20
132.425378759
 30
0.0
 11
211.95
 21
131.05
 31
0.0
  0
ARC
  8
0
  6
CONTINUOUS
 62
     2
 10
211.2
 20
131.05
 30
0.0
 40
0.75
 50
270.0
 51
0.0
  0
CIRCLE
  8
0
  6
CONTINUOUS
 62
     2
 10
227.3
 20
129.95
 30
0.0
 40
3.175
  0
CIRCLE
  8
0
  6
CONTINUOUS
 62
     2
 10
227.3
 20
129.95
 30
0.0
 40
2.5
  0
LINE
  8
0
  6
CONTINUOUS
 62
     2
 10
228.675
 20
129.6
 30
0.0
 11
228.675
 21
130.3
 31
0.0
  0
LINE
  8
0
  6
CONTINUOUS
 62
     2
 10
225.925
 20
130.3
 30
0.0
 11
225.925
 21
129.6
 31
0.0
  0
LINE
  8
0
  6
CONTINUOUS
 62
     2
 10
228.675
 20
130.3
 30
0.0
 11
228.4
 21
130.3
 31
0.0
  0
LINE
  8
0
  6
CONTINUOUS
 62
     2
 10
227.65
 20
131.05
 30
0.0
 11
227.65
 21
132.425378759
 31
0.0
  0
ARC
  8
0
  6
CONTINUOUS
 62
     2
 10
228.4
 20
131.05
 30
0.0
 40
0.75
 50
180.0
 51
270.0
  0
LINE
  8
0
  6
CONTINUOUS
 62
     2
 10
228.4
 20
129.6
 30
0.0
 11
228.675
 21
129.6
 31
0.0
  0
LINE
  8
0
  6
CONTINUOUS
 62
     2
 10
227.65
 20
127.5
 30
0.0
 11
227.65
 21
128.85
 31
0.0
  0
ARC
  8
0
  6
CONTINUOUS
 62
     2
 10
228.4
 20
128.85
 30
0.0
 40
0.75
 50
90.0
 51
180.0
  0
LINE
  8
0
  6
CONTINUOUS
 62
     2
 10
225.925
 20
129.6
 30
0.0
 11
226.2
 21
129.6
 31
0.0
  0
LINE
  8
0
  6
CONTINUOUS
 62
     2
 10
226.95
 20
128.85
 30
0.0
 11
226.95
 21
127.474621241
 31
0.0
  0
ARC
  8
0
  6
CONTINUOUS
 62
     2
 10
226.2
 20
128.85
 30
0.0
 40
0.75
 50
0.0
 51
90.0
  0
LINE
  8
0
  6
CONTINUOUS
 62
     2
 10
226.2
 20
130.3
 30
0.0
 11
225.925
 21
130.3
 31
0.0
  0
LINE
  8
0
  6
CONTINUOUS
 62
     2
 10
226.95
 20
132.425378759
 30
0.0
 11
226.95
 21
131.05
 31
0.0
  0
ARC
  8
0
  6
CONTINUOUS
 62
     2
 10
226.2
 20
131.05
 30
0.0
 40
0.75
 50
270.0
 51
0.0
  0
LINE
  8
0
  6
CONTINUOUS
 62
     2
 10
220.95
 20
141.35
 30
0.0
 11
223.181017339
 21
142.478078735
 31
0.0
  0
LINE
  8
0
  6
CONTINUOUS
 62
     2
 10
220.95
 20
141.35
 30
0.0
 11
222.318078324
 21
143.442453512
 31
0.0
  0
LINE
  8
0
  6
LTYPE3
 62
     2
 10
217.414213562
 20
139.985786438
 30
0.0
 11
222.064213562
 21
139.985786438
 31
0.0
  0
LINE
  8
0
  6
LTYPE5
 62
     2
 10
215.05
 20
116.2
 30
0.0
 11
209.55
 21
116.2
 31
0.0
  0
LINE
  8
0
  6
LTYPE5
 62
     2
 10
215.05
 20
127.400490243
 30
0.0
 11
215.05
 21
116.2
 31
0.0
  0
LINE
  8
0
  6
LTYPE5
 62
     2
 10
209.55
 20
116.2
 30
0.0
 11
209.55
 21
127.400490243
 31
0.0
  0
ARC
  8
0
  6
LTYPE5
 62
     2
 10
212.3
 20
129.95
 30
0.0
 40
3.75
 50
317.166571934
 51
222.833428066
  0
LINE
  8
0
  6
LTYPE5
 62
     2
 10
230.05
 20
116.2
 30
0.0
 11
224.55
 21
116.2
 31
0.0
  0
LINE
  8
0
  6
LTYPE5
 62
     2
 10
230.05
 20
127.400490243
 30
0.0
 11
230.05
 21
116.2
 31
0.0
  0
LINE
  8
0
  6
LTYPE5
 62
     2
 10
224.55
 20
116.2
 30
0.0
 11
224.55
 21
127.400490243
 31
0.0
  0
ARC
  8
0
  6
LTYPE5
 62
     2
 10
227.3
 20
129.95
 30
0.0
 40
3.75
 50
317.166571934
 51
222.833428066
  0
CIRCLE
  8
0
  6
CONTINUOUS
 62
     1
 10
219.8
 20
125.0
 30
0.0
 40
27.25
  0
LINE
  8
0
  6
CONTINUOUS
 62
     2
 10
204.56612578
 20
102.405939359
 30
0.0
 11
206.452599701
 21
104.046432012
 31
0.0
  0
LINE
  8
0
  6
CONTINUOUS
 62
     2
 10
204.56612578
 20
102.405939359
 30
0.0
 11
205.379613793
 21
104.769884632
 31
0.0
  0
POLYLINE
  8
0
  6
CONTINUOUS
 62
     2
 66
     1
  0
VERTEX
  8
0
  6
CONTINUOUS
 62
     2
 10
204.56612578
 20
102.405939359
 30
0.0
  0
VERTEX
  8
0
  6
CONTINUOUS
 62
     2
 10
235.03387422
 20
147.594060641
 30
0.0
  0
VERTEX
  8
0
  6
CONTINUOUS
 62
     2
 10
233.147400299
 20
145.953567988
 30
0.0
  0
SEQEND
  0
LINE
  8
0
  6
CONTINUOUS
 62
     2
 10
235.03387422
 20
147.594060641
 30
0.0
 11
234.220386207
 21
145.230115368
 31
0.0
  0
TEXT
  8
0
  6
CONTINUOUS
 62
     2
 10
206.37086016
 20
106.759041256
 30
0.3
 40
3.0
  1
φ１０９
 50
56.010479907
 41
0.6
 51
0.0
  7
KANJI0
  0
TEXT
  8
0
  6
CONTINUOUS
 62
     2
 10
210.950662897
 20
113.648186888
 30
0.18
 40
1.8
  1
±１
 50
56.010479907
 41
0.6
 51
0.0
  7
KANJI1
  0
ARC
  8
0
  6
CONTINUOUS
 62
     1
 10
187.3
 20
92.5
 30
0.0
 40
5.0
 50
180.0
 51
270.0
  0
LINE
  8
0
  6
CONTINUOUS
 62
     1
 10
187.3
 20
87.5
 30
0.0
 11
252.3
 21
87.5
 31
0.0
  0
ARC
  8
0
  6
CONTINUOUS
 62
     1
 10
252.3
 20
92.5
 30
0.0
 40
5.0
 50
270.0
 51
0.0
  0
LINE
  8
0
  6
CONTINUOUS
 62
     1
 10
257.3
 20
92.5
 30
0.0
 11
257.3
 21
157.5
 31
0.0
  0
ARC
  8
0
  6
CONTINUOUS
 62
     1
 10
252.3
 20
157.5
 30
0.0
 40
5.0
 50
0.0
 51
90.0
  0
LINE
  8
0
  6
CONTINUOUS
 62
     1
 10
252.3
 20
162.5
 30
0.0
 11
187.3
 21
162.5
 31
0.0
  0
ARC
  8
0
  6
CONTINUOUS
 62
     1
 10
187.3
 20
157.5
 30
0.0
 40
5.0
 50
90.0
 51
180.0
  0
LINE
  8
0
  6
CONTINUOUS
 62
     1
 10
182.3
 20
157.5
 30
0.0
 11
182.3
 21
92.5
 31
0.0
  0
LINE
  8
0
  6
CONTINUOUS
 62
     2
 10
197.224871131
 20
151.4
 30
0.0
 11
194.8
 21
152.8
 31
0.0
  0
LINE
  8
0
  6
CONTINUOUS
 62
     2
 10
194.8
 20
152.8
 30
0.0
 11
192.375128869
 21
151.4
 31
0.0
  0
LINE
  8
0
  6
CONTINUOUS
 62
     2
 10
192.375128869
 20
151.4
 30
0.0
 11
192.375128869
 21
148.6
 31
0.0
  0
LINE
  8
0
  6
CONTINUOUS
 62
     2
 10
192.375128869
 20
148.6
 30
0.0
 11
194.8
 21
147.2
 31
0.0
  0
LINE
  8
0
  6
CONTINUOUS
 62
     2
 10
194.8
 20
147.2
 30
0.0
 11
197.224871131
 21
148.6
 31
0.0
  0
LINE
  8
0
  6
CONTINUOUS
 62
     2
 10
197.224871131
 20
148.6
 30
0.0
 11
197.224871131
 21
151.4
 31
0.0
  0
CIRCLE
  8
0
  6
CONTINUOUS
 62
     2
 10
194.8
 20
150.0
 30
0.0
 40
1.5
  0
CIRCLE
  8
0
  6
CONTINUOUS
 62
     2
 10
194.8
 20
150.0
 30
0.0
 40
1.4
  0
CIRCLE
  8
0
  6
CONTINUOUS
 62
     2
 10
194.8
 20
150.0
 30
0.0
 40
3.0
  0
CIRCLE
  8
0
  6
CONTINUOUS
 62
     2
 10
194.8
 20
150.0
 30
0.0
 40
2.5
  0
LINE
  8
0
  6
CONTINUOUS
 62
     2
 10
247.224871131
 20
151.4
 30
0.0
 11
244.8
 21
152.8
 31
0.0
  0
LINE
  8
0
  6
CONTINUOUS
 62
     2
 10
244.8
 20
152.8
 30
0.0
 11
242.375128869
 21
151.4
 31
0.0
  0
LINE
  8
0
  6
CONTINUOUS
 62
     2
 10
242.375128869
 20
151.4
 30
0.0
 11
242.375128869
 21
148.6
 31
0.0
  0
LINE
  8
0
  6
CONTINUOUS
 62
     2
 10
242.375128869
 20
148.6
 30
0.0
 11
244.8
 21
147.2
 31
0.0
  0
LINE
  8
0
  6
CONTINUOUS
 62
     2
 10
244.8
 20
147.2
 30
0.0
 11
247.224871131
 21
148.6
 31
0.0
  0
LINE
  8
0
  6
CONTINUOUS
 62
     2
 10
247.224871131
 20
148.6
 30
0.0
 11
247.224871131
 21
151.4
 31
0.0
  0
CIRCLE
  8
0
  6
CONTINUOUS
 62
     2
 10
244.8
 20
150.0
 30
0.0
 40
1.5
  0
CIRCLE
  8
0
  6
CONTINUOUS
 62
     2
 10
244.8
 20
150.0
 30
0.0
 40
1.4
  0
CIRCLE
  8
0
  6
CONTINUOUS
 62
     2
 10
244.8
 20
150.0
 30
0.0
 40
3.0
  0
CIRCLE
  8
0
  6
CONTINUOUS
 62
     2
 10
244.8
 20
150.0
 30
0.0
 40
2.5
  0
LINE
  8
0
  6
CONTINUOUS
 62
     2
 10
197.224871131
 20
101.4
 30
0.0
 11
194.8
 21
102.8
 31
0.0
  0
LINE
  8
0
  6
CONTINUOUS
 62
     2
 10
194.8
 20
102.8
 30
0.0
 11
192.375128869
 21
101.4
 31
0.0
  0
LINE
  8
0
  6
CONTINUOUS
 62
     2
 10
192.375128869
 20
101.4
 30
0.0
 11
192.375128869
 21
98.6
 31
0.0
  0
LINE
  8
0
  6
CONTINUOUS
 62
     2
 10
192.375128869
 20
98.6
 30
0.0
 11
194.8
 21
97.2
 31
0.0
  0
LINE
  8
0
  6
CONTINUOUS
 62
     2
 10
194.8
 20
97.2
 30
0.0
 11
197.224871131
 21
98.6
 31
0.0
  0
LINE
  8
0
  6
CONTINUOUS
 62
     2
 10
197.224871131
 20
98.6
 30
0.0
 11
197.224871131
 21
101.4
 31
0.0
  0
CIRCLE
  8
0
  6
CONTINUOUS
 62
     2
 10
194.8
 20
100.0
 30
0.0
 40
1.5
  0
CIRCLE
  8
0
  6
CONTINUOUS
 62
     2
 10
194.8
 20
100.0
 30
0.0
 40
1.4
  0
CIRCLE
  8
0
  6
CONTINUOUS
 62
     2
 10
194.8
 20
100.0
 30
0.0
 40
3.0
  0
CIRCLE
  8
0
  6
CONTINUOUS
 62
     2
 10
194.8
 20
100.0
 30
0.0
 40
2.5
  0
LINE
  8
0
  6
CONTINUOUS
 62
     2
 10
247.224871131
 20
101.4
 30
0.0
 11
244.8
 21
102.8
 31
0.0
  0
LINE
  8
0
  6
CONTINUOUS
 62
     2
 10
244.8
 20
102.8
 30
0.0
 11
242.375128869
 21
101.4
 31
0.0
  0
LINE
  8
0
  6
CONTINUOUS
 62
     2
 10
242.375128869
 20
101.4
 30
0.0
 11
242.375128869
 21
98.6
 31
0.0
  0
LINE
  8
0
  6
CONTINUOUS
 62
     2
 10
242.375128869
 20
98.6
 30
0.0
 11
244.8
 21
97.2
 31
0.0
  0
LINE
  8
0
  6
CONTINUOUS
 62
     2
 10
244.8
 20
97.2
 30
0.0
 11
247.224871131
 21
98.6
 31
0.0
  0
LINE
  8
0
  6
CONTINUOUS
 62
     2
 10
247.224871131
 20
98.6
 30
0.0
 11
247.224871131
 21
101.4
 31
0.0
  0
CIRCLE
  8
0
  6
CONTINUOUS
 62
     2
 10
244.8
 20
100.0
 30
0.0
 40
1.5
  0
CIRCLE
  8
0
  6
CONTINUOUS
 62
     2
 10
244.8
 20
100.0
 30
0.0
 40
1.4
  0
CIRCLE
  8
0
  6
CONTINUOUS
 62
     2
 10
244.8
 20
100.0
 30
0.0
 40
3.0
  0
CIRCLE
  8
0
  6
CONTINUOUS
 62
     2
 10
244.8
 20
100.0
 30
0.0
 40
2.5
  0
LINE
  8
0
  6
CONTINUOUS
 62
     2
 10
249.9
 20
100.0
 30
0.0
 11
264.3
 21
100.0
 31
0.0
  0
LINE
  8
0
  6
CONTINUOUS
 62
     2
 10
262.3
 20
100.0
 30
0.0
 11
262.947047613
 21
102.414814566
 31
0.0
  0
LINE
  8
0
  6
CONTINUOUS
 62
     2
 10
262.3
 20
100.0
 30
0.0
 11
261.652952387
 21
102.414814566
 31
0.0
  0
LINE
  8
0
  6
CONTINUOUS
 62
     2
 10
262.3
 20
100.0
 30
0.0
 11
262.3
 21
125.0
 31
0.0
  0
LINE
  8
0
  6
CONTINUOUS
 62
     2
 10
262.3
 20
125.0
 30
0.0
 11
261.652952387
 21
122.585185434
 31
0.0
  0
LINE
  8
0
  6
CONTINUOUS
 62
     2
 10
262.3
 20
125.0
 30
0.0
 11
262.947047613
 21
122.585185434
 31
0.0
  0
TEXT
  8
0
  6
CONTINUOUS
 62
     2
 10
261.3
 20
108.12
 30
0.3
 40
3.0
  1
５０
 50
90.0
 41
0.6
 51
0.0
  7
KANJI0
  0
TEXT
  8
0
  6
CONTINUOUS
 62
     2
 10
261.3
 20
112.47
 30
0.18
 40
1.8
  1
±０．５
 50
90.0
 41
0.6
 51
0.0
  7
KANJI1
  0
LINE
  8
0
  6
CONTINUOUS
 62
     2
 10
262.3
 20
125.0
 30
0.0
 11
262.947047613
 21
127.414814566
 31
0.0
  0
LINE
  8
0
  6
CONTINUOUS
 62
     2
 10
262.3
 20
125.0
 30
0.0
 11
261.652952387
 21
127.414814566
 31
0.0
  0
POLYLINE
  8
0
  6
CONTINUOUS
 62
     2
 66
     1
  0
VERTEX
  8
0
  6
CONTINUOUS
 62
     2
 10
262.3
 20
125.0
 30
0.0
  0
VERTEX
  8
0
  6
CONTINUOUS
 62
     2
 10
262.3
 20
150.0
 30
0.0
  0
VERTEX
  8
0
  6
CONTINUOUS
 62
     2
 10
261.652952387
 20
147.585185434
 30
0.0
  0
SEQEND
  0
LINE
  8
0
  6
CONTINUOUS
 62
     2
 10
262.3
 20
150.0
 30
0.0
 11
262.947047613
 21
147.585185434
 31
0.0
  0
LINE
  8
0
  6
CONTINUOUS
 62
     2
 10
249.9
 20
150.0
 30
0.0
 11
264.3
 21
150.0
 31
0.0
  0
TEXT
  8
0
  6
CONTINUOUS
 62
     2
 10
261.3
 20
137.47
 30
0.18
 40
1.8
  1
±０．５
 50
90.0
 41
0.6
 51
0.0
  7
KANJI1
  0
LINE
  8
0
  6
CONTINUOUS
 62
     2
 10
244.8
 20
154.9
 30
0.0
 11
244.8
 21
168.5
 31
0.0
  0
LINE
  8
0
  6
CONTINUOUS
 62
     2
 10
244.8
 20
166.5
 30
0.0
 11
242.385185434
 21
167.147047613
 31
0.0
  0
LINE
  8
0
  6
CONTINUOUS
 62
     2
 10
244.8
 20
166.5
 30
0.0
 11
242.385185434
 21
165.852952387
 31
0.0
  0
LINE
  8
0
  6
CONTINUOUS
 62
     2
 10
244.8
 20
166.5
 30
0.0
 11
219.8
 21
166.5
 31
0.0
  0
LINE
  8
0
  6
CONTINUOUS
 62
     2
 10
219.8
 20
166.5
 30
0.0
 11
222.214814566
 21
165.852952387
 31
0.0
  0
LINE
  8
0
  6
CONTINUOUS
 62
     2
 10
219.8
 20
166.5
 30
0.0
 11
222.214814566
 21
167.147047613
 31
0.0
  0
TEXT
  8
0
  6
CONTINUOUS
 62
     2
 10
232.27
 20
167.5
 30
0.18
 40
1.8
  1
±０．２
 50
0.0
 41
0.6
 51
0.0
  7
KANJI1
  0
LINE
  8
0
  6
CONTINUOUS
 62
     2
 10
219.8
 20
166.5
 30
0.0
 11
217.385185434
 21
167.147047613
 31
0.0
  0
LINE
  8
0
  6
CONTINUOUS
 62
     2
 10
219.8
 20
166.5
 30
0.0
 11
217.385185434
 21
165.852952387
 31
0.0
  0
POLYLINE
  8
0
  6
CONTINUOUS
 62
     2
 66
     1
  0
VERTEX
  8
0
  6
CONTINUOUS
 62
     2
 10
219.8
 20
166.5
 30
0.0
  0
VERTEX
  8
0
  6
CONTINUOUS
 62
     2
 10
194.8
 20
166.5
 30
0.0
  0
VERTEX
  8
0
  6
CONTINUOUS
 62
     2
 10
197.214814566
 20
165.852952387
 30
0.0
  0
SEQEND
  0
LINE
  8
0
  6
CONTINUOUS
 62
     2
 10
194.8
 20
166.5
 30
0.0
 11
197.214814566
 21
167.147047613
 31
0.0
  0
LINE
  8
0
  6
CONTINUOUS
 62
     2
 10
194.8
 20
154.9
 30
0.0
 11
194.8
 21
168.5
 31
0.0
  0
TEXT
  8
0
  6
CONTINUOUS
 62
     2
 10
202.92
 20
167.5
 30
0.3
 40
3.0
  1
５０
 50
0.0
 41
0.6
 51
0.0
  7
KANJI0
  0
TEXT
  8
0
  6
CONTINUOUS
 62
     2
 10
207.27
 20
167.5
 30
0.18
 40
1.8
  1
±０．２
 50
0.0
 41
0.6
 51
0.0
  7
KANJI1
  0
TEXT
  8
0
  6
CONTINUOUS
 62
     2
 10
227.92
 20
167.5
 30
0.3
 40
3.0
  1
５０
 50
0.0
 41
0.6
 51
0.0
  7
KANJI0
  0
LINE
  8
0
  6
CONTINUOUS
 62
     2
 10
249.279812606
 20
166.7
 30
0.0
 11
273.65
 21
166.7
 31
0.0
  0
LINE
  8
0
  6
CONTINUOUS
 62
     2
 10
220.95
 20
141.35
 30
0.0
 11
249.279812606
 21
166.7
 31
0.0
  0
TEXT
  8
0
  6
CONTINUOUS
 62
     2
 10
253.45
 20
167.7
 30
0.5
 40
3.0
  1
感度調整用抵抗器
 50
0.0
 41
0.6
 51
0.0
  7
KANJI7
  0
TEXT
  8
0
  6
CONTINUOUS
 62
     2
 10
250.2
 20
167.8
 30
0.5
 40
3.0
  1
※
 50
0.0
 41
0.9
 51
0.0
  7
KANJI5
  0
CIRCLE
  8
0
  6
CONTINUOUS
 62
     2
 10
198.582377607
 20
112.75
 30
0.0
 40
1.75
  0
CIRCLE
  8
0
  6
CONTINUOUS
 62
     2
 10
198.582377607
 20
112.75
 30
0.0
 40
1.5
  0
LINE
  8
0
  6
CONTINUOUS
 62
     2
 10
197.707377607
 20
112.95
 30
0.0
 11
198.182377607
 21
112.95
 31
0.0
  0
ARC
  8
0
  6
CONTINUOUS
 62
     2
 10
198.182377607
 20
113.15
 30
0.0
 40
0.2
 50
270.0
 51
0.0
  0
LINE
  8
0
  6
CONTINUOUS
 62
     2
 10
198.382377607
 20
113.15
 30
0.0
 11
198.382377607
 21
113.625
 31
0.0
  0
LINE
  8
0
  6
CONTINUOUS
 62
     2
 10
198.382377607
 20
113.625
 30
0.0
 11
198.782377607
 21
113.625
 31
0.0
  0
LINE
  8
0
  6
CONTINUOUS
 62
     2
 10
198.782377607
 20
113.625
 30
0.0
 11
198.782377607
 21
113.15
 31
0.0
  0
ARC
  8
0
  6
CONTINUOUS
 62
     2
 10
198.982377607
 20
113.15
 30
0.0
 40
0.2
 50
180.0
 51
270.0
  0
LINE
  8
0
  6
CONTINUOUS
 62
     2
 10
198.982377607
 20
112.95
 30
0.0
 11
199.457377607
 21
112.95
 31
0.0
  0
LINE
  8
0
  6
CONTINUOUS
 62
     2
 10
199.457377607
 20
112.95
 30
0.0
 11
199.457377607
 21
112.55
 31
0.0
  0
LINE
  8
0
  6
CONTINUOUS
 62
     2
 10
199.457377607
 20
112.55
 30
0.0
 11
198.982377607
 21
112.55
 31
0.0
  0
ARC
  8
0
  6
CONTINUOUS
 62
     2
 10
198.982377607
 20
112.35
 30
0.0
 40
0.2
 50
90.0
 51
180.0
  0
LINE
  8
0
  6
CONTINUOUS
 62
     2
 10
198.782377607
 20
112.35
 30
0.0
 11
198.782377607
 21
111.875
 31
0.0
  0
LINE
  8
0
  6
CONTINUOUS
 62
     2
 10
198.782377607
 20
111.875
 30
0.0
 11
198.382377607
 21
111.875
 31
0.0
  0
LINE
  8
0
  6
CONTINUOUS
 62
     2
 10
198.382377607
 20
111.875
 30
0.0
 11
198.382377607
 21
112.35
 31
0.0
  0
ARC
  8
0
  6
CONTINUOUS
 62
     2
 10
198.182377607
 20
112.35
 30
0.0
 40
0.2
 50
0.0
 51
90.0
  0
LINE
  8
0
  6
CONTINUOUS
 62
     2
 10
198.182377607
 20
112.55
 30
0.0
 11
197.707377607
 21
112.55
 31
0.0
  0
LINE
  8
0
  6
CONTINUOUS
 62
     2
 10
197.707377607
 20
112.55
 30
0.0
 11
197.707377607
 21
112.95
 31
0.0
  0
LINE
  8
0
  6
LTYPE1
 62
     2
 10
196.582377607
 20
112.75
 30
0.0
 11
200.582377607
 21
112.75
 31
0.0
  0
LINE
  8
0
  6
LTYPE1
 62
     2
 10
198.582377607
 20
114.75
 30
0.0
 11
198.582377607
 21
110.75
 31
0.0
  0
CIRCLE
  8
0
  6
CONTINUOUS
 62
     2
 10
241.017622393
 20
112.75
 30
0.0
 40
1.75
  0
CIRCLE
  8
0
  6
CONTINUOUS
 62
     2
 10
241.017622393
 20
112.75
 30
0.0
 40
1.5
  0
LINE
  8
0
  6
CONTINUOUS
 62
     2
 10
240.142622393
 20
112.95
 30
0.0
 11
240.617622393
 21
112.95
 31
0.0
  0
ARC
  8
0
  6
CONTINUOUS
 62
     2
 10
240.617622393
 20
113.15
 30
0.0
 40
0.2
 50
270.0
 51
0.0
  0
LINE
  8
0
  6
CONTINUOUS
 62
     2
 10
240.817622393
 20
113.15
 30
0.0
 11
240.817622393
 21
113.625
 31
0.0
  0
LINE
  8
0
  6
CONTINUOUS
 62
     2
 10
240.817622393
 20
113.625
 30
0.0
 11
241.217622393
 21
113.625
 31
0.0
  0
LINE
  8
0
  6
CONTINUOUS
 62
     2
 10
241.217622393
 20
113.625
 30
0.0
 11
241.217622393
 21
113.15
 31
0.0
  0
ARC
  8
0
  6
CONTINUOUS
 62
     2
 10
241.417622393
 20
113.15
 30
0.0
 40
0.2
 50
180.0
 51
270.0
  0
LINE
  8
0
  6
CONTINUOUS
 62
     2
 10
241.417622393
 20
112.95
 30
0.0
 11
241.892622393
 21
112.95
 31
0.0
  0
LINE
  8
0
  6
CONTINUOUS
 62
     2
 10
241.892622393
 20
112.95
 30
0.0
 11
241.892622393
 21
112.55
 31
0.0
  0
LINE
  8
0
  6
CONTINUOUS
 62
     2
 10
241.892622393
 20
112.55
 30
0.0
 11
241.417622393
 21
112.55
 31
0.0
  0
ARC
  8
0
  6
CONTINUOUS
 62
     2
 10
241.417622393
 20
112.35
 30
0.0
 40
0.2
 50
90.0
 51
180.0
  0
LINE
  8
0
  6
CONTINUOUS
 62
     2
 10
241.217622393
 20
112.35
 30
0.0
 11
241.217622393
 21
111.875
 31
0.0
  0
LINE
  8
0
  6
CONTINUOUS
 62
     2
 10
241.217622393
 20
111.875
 30
0.0
 11
240.817622393
 21
111.875
 31
0.0
  0
LINE
  8
0
  6
CONTINUOUS
 62
     2
 10
240.817622393
 20
111.875
 30
0.0
 11
240.817622393
 21
112.35
 31
0.0
  0
ARC
  8
0
  6
CONTINUOUS
 62
     2
 10
240.617622393
 20
112.35
 30
0.0
 40
0.2
 50
0.0
 51
90.0
  0
LINE
  8
0
  6
CONTINUOUS
 62
     2
 10
240.617622393
 20
112.55
 30
0.0
 11
240.142622393
 21
112.55
 31
0.0
  0
LINE
  8
0
  6
CONTINUOUS
 62
     2
 10
240.142622393
 20
112.55
 30
0.0
 11
240.142622393
 21
112.95
 31
0.0
  0
LINE
  8
0
  6
LTYPE1
 62
     2
 10
239.017622393
 20
112.75
 30
0.0
 11
243.017622393
 21
112.75
 31
0.0
  0
LINE
  8
0
  6
LTYPE1
 62
     2
 10
241.017622393
 20
114.75
 30
0.0
 11
241.017622393
 21
110.75
 31
0.0
  0
CIRCLE
  8
0
  6
CONTINUOUS
 62
     2
 10
219.8
 20
149.5
 30
0.0
 40
1.75
  0
CIRCLE
  8
0
  6
CONTINUOUS
 62
     2
 10
219.8
 20
149.5
 30
0.0
 40
1.5
  0
LINE
  8
0
  6
CONTINUOUS
 62
     2
 10
218.925
 20
149.7
 30
0.0
 11
219.4
 21
149.7
 31
0.0
  0
ARC
  8
0
  6
CONTINUOUS
 62
     2
 10
219.4
 20
149.9
 30
0.0
 40
0.2
 50
270.0
 51
0.0
  0
LINE
  8
0
  6
CONTINUOUS
 62
     2
 10
219.6
 20
149.9
 30
0.0
 11
219.6
 21
150.375
 31
0.0
  0
LINE
  8
0
  6
CONTINUOUS
 62
     2
 10
219.6
 20
150.375
 30
0.0
 11
220.0
 21
150.375
 31
0.0
  0
LINE
  8
0
  6
CONTINUOUS
 62
     2
 10
220.0
 20
150.375
 30
0.0
 11
220.0
 21
149.9
 31
0.0
  0
ARC
  8
0
  6
CONTINUOUS
 62
     2
 10
220.2
 20
149.9
 30
0.0
 40
0.2
 50
180.0
 51
270.0
  0
LINE
  8
0
  6
CONTINUOUS
 62
     2
 10
220.2
 20
149.7
 30
0.0
 11
220.675
 21
149.7
 31
0.0
  0
LINE
  8
0
  6
CONTINUOUS
 62
     2
 10
220.675
 20
149.7
 30
0.0
 11
220.675
 21
149.3
 31
0.0
  0
LINE
  8
0
  6
CONTINUOUS
 62
     2
 10
220.675
 20
149.3
 30
0.0
 11
220.2
 21
149.3
 31
0.0
  0
ARC
  8
0
  6
CONTINUOUS
 62
     2
 10
220.2
 20
149.1
 30
0.0
 40
0.2
 50
90.0
 51
180.0
  0
LINE
  8
0
  6
CONTINUOUS
 62
     2
 10
220.0
 20
149.1
 30
0.0
 11
220.0
 21
148.625
 31
0.0
  0
LINE
  8
0
  6
CONTINUOUS
 62
     2
 10
220.0
 20
148.625
 30
0.0
 11
219.6
 21
148.625
 31
0.0
  0
LINE
  8
0
  6
CONTINUOUS
 62
     2
 10
219.6
 20
148.625
 30
0.0
 11
219.6
 21
149.1
 31
0.0
  0
ARC
  8
0
  6
CONTINUOUS
 62
     2
 10
219.4
 20
149.1
 30
0.0
 40
0.2
 50
0.0
 51
90.0
  0
LINE
  8
0
  6
CONTINUOUS
 62
     2
 10
219.4
 20
149.3
 30
0.0
 11
218.925
 21
149.3
 31
0.0
  0
LINE
  8
0
  6
CONTINUOUS
 62
     2
 10
218.925
 20
149.3
 30
0.0
 11
218.925
 21
149.7
 31
0.0
  0
LINE
  8
0
  6
LTYPE1
 62
     2
 10
217.8
 20
149.5
 30
0.0
 11
221.8
 21
149.5
 31
0.0
  0
LINE
  8
0
  6
LTYPE1
 62
     2
 10
219.8
 20
151.5
 30
0.0
 11
219.8
 21
147.5
 31
0.0
  0
TEXT
  8
0
  6
CONTINUOUS
 62
     2
 10
261.3
 20
133.12
 30
0.3
 40
3.0
  1
５０
 50
90.0
 41
0.6
 51
0.0
  7
KANJI0
  0
LINE
  8
0
  6
LTYPE2
 62
     2
 10
219.8
 20
168.5
 30
0.0
 11
219.8
 21
83.75
 31
0.0
  0
LINE
  8
0
  6
LTYPE2
 62
     2
 10
190.925
 20
150.0
 30
0.0
 11
198.9
 21
150.0
 31
0.0
  0
LINE
  8
0
  6
LTYPE2
 62
     2
 10
194.8
 20
153.9
 30
0.0
 11
194.8
 21
146.175
 31
0.0
  0
LINE
  8
0
  6
LTYPE2
 62
     2
 10
240.925
 20
150.0
 30
0.0
 11
248.9
 21
150.0
 31
0.0
  0
LINE
  8
0
  6
LTYPE2
 62
     2
 10
244.8
 20
153.9
 30
0.0
 11
244.8
 21
146.175
 31
0.0
  0
LINE
  8
0
  6
LTYPE2
 62
     2
 10
240.925
 20
100.0
 30
0.0
 11
248.9
 21
100.0
 31
0.0
  0
LINE
  8
0
  6
LTYPE2
 62
     2
 10
244.8
 20
103.9
 30
0.0
 11
244.8
 21
96.175
 31
0.0
  0
LINE
  8
0
  6
LTYPE2
 62
     2
 10
190.925
 20
100.0
 30
0.0
 11
198.9
 21
100.0
 31
0.0
  0
LINE
  8
0
  6
LTYPE2
 62
     2
 10
194.8
 20
103.9
 30
0.0
 11
194.8
 21
96.175
 31
0.0
  0
LINE
  8
0
  6
LTYPE2
 62
     2
 10
264.3
 20
125.0
 30
0.0
 11
179.0
 21
125.0
 31
0.0
  0
TEXT
  8
0
  6
CONTINUOUS
 62
     1
 10
210.65
 20
12.9
 30
0.5
 40
3.0
  1
パネルカット
 50
0.0
 41
0.9
 51
0.0
  7
KANJI5
  0
LINE
  8
0
  6
CONTINUOUS
 62
     1
 10
209.4
 20
12.05
 30
0.0
 11
230.3
 21
12.05
 31
0.0
  0
POINT
  8
0
  6
LTYPE3
 62
     2
 10
219.8
 20
17.5
 30
0.0
  0
LINE
  8
0
  6
CONTINUOUS
 62
     2
 10
253.8
 20
47.15
 30
0.0
 11
253.152952387
 21
44.735185434
 31
0.0
  0
LINE
  8
0
  6
CONTINUOUS
 62
     2
 10
253.8
 20
47.15
 30
0.0
 11
254.447047613
 21
44.735185434
 31
0.0
  0
LINE
  8
0
  6
CONTINUOUS
 62
     2
 10
249.2
 20
47.15
 30
0.0
 11
255.8
 21
47.15
 31
0.0
  0
LINE
  8
0
  6
CONTINUOUS
 62
     2
 10
253.8
 20
47.15
 30
0.0
 11
254.447047613
 21
49.564814566
 31
0.0
  0
LINE
  8
0
  6
CONTINUOUS
 62
     2
 10
253.8
 20
47.15
 30
0.0
 11
253.152952387
 21
49.564814566
 31
0.0
  0
TEXT
  8
0
  6
CONTINUOUS
 62
     2
 10
252.8
 20
57.92
 30
0.18
 40
1.8
  1
±０．５
 50
90.0
 41
0.6
 51
0.0
  7
KANJI1
  0
TEXT
  8
0
  6
CONTINUOUS
 62
     2
 10
252.8
 20
35.42
 30
0.18
 40
1.8
  1
±０．５
 50
90.0
 41
0.6
 51
0.0
  7
KANJI1
  0
LINE
  8
0
  6
CONTINUOUS
 62
     2
 10
219.8
 20
76.65
 30
0.0
 11
217.385185434
 21
77.297047613
 31
0.0
  0
LINE
  8
0
  6
CONTINUOUS
 62
     2
 10
219.8
 20
76.65
 30
0.0
 11
217.385185434
 21
76.002952387
 31
0.0
  0
LINE
  8
0
  6
CONTINUOUS
 62
     2
 10
219.8
 20
76.0
 30
0.0
 11
219.8
 21
78.65
 31
0.0
  0
TEXT
  8
0
  6
CONTINUOUS
 62
     2
 10
208.07
 20
77.65
 30
0.18
 40
1.8
  1
±０．５
 50
0.0
 41
0.6
 51
0.0
  7
KANJI1
  0
LINE
  8
0
  6
CONTINUOUS
 62
     2
 10
219.8
 20
76.65
 30
0.0
 11
222.214814566
 21
76.002952387
 31
0.0
  0
LINE
  8
0
  6
CONTINUOUS
 62
     2
 10
219.8
 20
76.65
 30
0.0
 11
222.214814566
 21
77.297047613
 31
0.0
  0
TEXT
  8
0
  6
CONTINUOUS
 62
     2
 10
230.57
 20
77.65
 30
0.18
 40
1.8
  1
±０．５
 50
0.0
 41
0.6
 51
0.0
  7
KANJI1
  0
CIRCLE
  8
0
  6
CONTINUOUS
 62
     1
 10
219.8
 20
47.15
 30
0.0
 40
28.0
  0
LINE
  8
0
  6
CONTINUOUS
 62
     2
 10
247.35
 20
22.15
 30
0.0
 11
255.8
 21
22.15
 31
0.0
  0
LINE
  8
0
  6
CONTINUOUS
 62
     2
 10
253.8
 20
22.15
 30
0.0
 11
254.447047613
 21
24.564814566
 31
0.0
  0
LINE
  8
0
  6
CONTINUOUS
 62
     2
 10
253.8
 20
22.15
 30
0.0
 11
253.152952387
 21
24.564814566
 31
0.0
  0
LINE
  8
0
  6
CONTINUOUS
 62
     2
 10
253.8
 20
72.15
 30
0.0
 11
253.152952387
 21
69.735185434
 31
0.0
  0
LINE
  8
0
  6
CONTINUOUS
 62
     2
 10
253.8
 20
72.15
 30
0.0
 11
254.447047613
 21
69.735185434
 31
0.0
  0
LINE
  8
0
  6
CONTINUOUS
 62
     2
 10
249.55
 20
72.15
 30
0.0
 11
255.8
 21
72.15
 31
0.0
  0
LINE
  8
0
  6
CONTINUOUS
 62
     2
 10
253.8
 20
47.15
 30
0.0
 11
253.8
 21
72.15
 31
0.0
  0
LINE
  8
0
  6
CONTINUOUS
 62
     2
 10
253.8
 20
22.15
 30
0.0
 11
253.8
 21
47.15
 31
0.0
  0
CIRCLE
  8
0
  6
CONTINUOUS
 62
     1
 10
194.8
 20
72.15
 30
0.0
 40
1.75
  0
CIRCLE
  8
0
  6
CONTINUOUS
 62
     1
 10
244.8
 20
72.15
 30
0.0
 40
1.75
  0
LINE
  8
0
  6
CONTINUOUS
 62
     2
 10
244.8
 20
76.65
 30
0.0
 11
242.385185434
 21
77.297047613
 31
0.0
  0
LINE
  8
0
  6
CONTINUOUS
 62
     2
 10
244.8
 20
76.65
 30
0.0
 11
242.385185434
 21
76.002952387
 31
0.0
  0
LINE
  8
0
  6
CONTINUOUS
 62
     2
 10
194.8
 20
76.0
 30
0.0
 11
194.8
 21
78.65
 31
0.0
  0
LINE
  8
0
  6
CONTINUOUS
 62
     2
 10
194.8
 20
76.65
 30
0.0
 11
197.214814566
 21
76.002952387
 31
0.0
  0
LINE
  8
0
  6
CONTINUOUS
 62
     2
 10
194.8
 20
76.65
 30
0.0
 11
197.214814566
 21
77.297047613
 31
0.0
  0
LINE
  8
0
  6
CONTINUOUS
 62
     2
 10
194.8
 20
76.65
 30
0.0
 11
219.8
 21
76.65
 31
0.0
  0
LINE
  8
0
  6
CONTINUOUS
 62
     2
 10
219.8
 20
76.65
 30
0.0
 11
244.8
 21
76.65
 31
0.0
  0
TEXT
  8
0
  6
CONTINUOUS
 62
     2
 10
204.17
 20
77.65
 30
0.3
 40
3.0
  1
５０
 50
0.0
 41
0.6
 51
0.0
  7
KANJI0
  0
TEXT
  8
0
  6
CONTINUOUS
 62
     2
 10
226.67
 20
77.65
 30
0.3
 40
3.0
  1
５０
 50
0.0
 41
0.6
 51
0.0
  7
KANJI0
  0
TEXT
  8
0
  6
CONTINUOUS
 62
     2
 10
252.8
 20
54.02
 30
0.3
 40
3.0
  1
５０
 50
90.0
 41
0.6
 51
0.0
  7
KANJI0
  0
TEXT
  8
0
  6
CONTINUOUS
 62
     2
 10
252.8
 20
31.52
 30
0.3
 40
3.0
  1
５０
 50
90.0
 41
0.6
 51
0.0
  7
KANJI0
  0
LINE
  8
0
  6
CONTINUOUS
 62
     2
 10
201.851618122
 20
25.65917433
 30
0.0
 11
203.896175316
 21
27.097849374
 31
0.0
  0
LINE
  8
0
  6
CONTINUOUS
 62
     2
 10
201.851618122
 20
25.65917433
 30
0.0
 11
202.90291907
 21
27.927382063
 31
0.0
  0
POLYLINE
  8
0
  6
CONTINUOUS
 62
     2
 66
     1
  0
VERTEX
  8
0
  6
CONTINUOUS
 62
     2
 10
201.851618122
 20
25.65917433
 30
0.0
  0
VERTEX
  8
0
  6
CONTINUOUS
 62
     2
 10
237.748381878
 20
68.64082567
 30
0.0
  0
VERTEX
  8
0
  6
CONTINUOUS
 62
     2
 10
235.703824684
 20
67.202150626
 30
0.0
  0
SEQEND
  0
LINE
  8
0
  6
CONTINUOUS
 62
     2
 10
237.748381878
 20
68.64082567
 30
0.0
 11
236.69708093
 21
66.372617937
 31
0.0
  0
TEXT
  8
0
  6
CONTINUOUS
 62
     2
 10
211.432470512
 20
38.691013638
 30
0.3
 40
3.0
  1
φ１１２
 50
50.13255444
 41
0.6
 51
0.0
  7
KANJI0
  0
CIRCLE
  8
0
  6
CONTINUOUS
 62
     1
 10
194.8
 20
22.15
 30
0.0
 40
1.75
  0
LINE
  8
0
  6
CONTINUOUS
 62
     2
 10
193.925
 20
20.634455543
 30
0.0
 11
192.157233047
 21
18.86668859
 31
0.0
  0
LINE
  8
0
  6
CONTINUOUS
 62
     2
 10
193.925
 20
20.634455543
 30
0.0
 11
193.277952387
 21
18.219640978
 31
0.0
  0
LINE
  8
0
  6
CONTINUOUS
 62
     2
 10
195.675
 20
23.665544457
 30
0.0
 11
197.442766953
 21
25.43331141
 31
0.0
  0
LINE
  8
0
  6
CONTINUOUS
 62
     2
 10
195.675
 20
23.665544457
 30
0.0
 11
196.322047613
 21
26.080359022
 31
0.0
  0
LINE
  8
0
  6
CONTINUOUS
 62
     2
 10
195.675
 20
23.665544457
 30
0.0
 11
197.571281292
 21
26.95
 31
0.0
  0
TEXT
  8
0
  6
CONTINUOUS
 62
     2
 10
181.953292227
 20
14.85
 30
0.3
 40
3.0
  1
４－φ７
 50
0.0
 41
0.6
 51
0.0
  7
KANJI0
  0
LINE
  8
0
  6
CONTINUOUS
 62
     2
 10
190.007992766
 20
13.85
 30
0.0
 11
181.953292227
 21
13.85
 31
0.0
  0
LINE
  8
0
  6
CONTINUOUS
 62
     2
 10
193.925
 20
20.634455543
 30
0.0
 11
190.007992766
 21
13.85
 31
0.0
  0
CIRCLE
  8
0
  6
CONTINUOUS
 62
     1
 10
244.8
 20
22.15
 30
0.0
 40
1.75
  0
LINE
  8
0
  6
LTYPE2
 62
     2
 10
190.5
 20
47.15
 30
0.0
 11
249.2
 21
47.15
 31
0.0
  0
LINE
  8
0
  6
LTYPE2
 62
     2
 10
194.8
 20
78.5
 30
0.0
 11
194.8
 21
67.75
 31
0.0
  0
LINE
  8
0
  6
LTYPE2
 62
     2
 10
190.75
 20
72.15
 30
0.0
 11
201.4
 21
72.15
 31
0.0
  0
LINE
  8
0
  6
LTYPE2
 62
     2
 10
244.8
 20
66.75
 30
0.0
 11
244.8
 21
78.5
 31
0.0
  0
LINE
  8
0
  6
LTYPE2
 62
     2
 10
239.0
 20
72.15
 30
0.0
 11
252.05
 21
72.15
 31
0.0
  0
LINE
  8
0
  6
LTYPE2
 62
     2
 10
240.4
 20
22.15
 30
0.0
 11
249.7
 21
22.15
 31
0.0
  0
LINE
  8
0
  6
LTYPE2
 62
     2
 10
244.8
 20
17.8
 30
0.0
 11
244.8
 21
27.15
 31
0.0
  0
LINE
  8
0
  6
LTYPE2
 62
     2
 10
190.7
 20
22.15
 30
0.0
 11
197.85
 21
22.15
 31
0.0
  0
LINE
  8
0
  6
LTYPE2
 62
     2
 10
194.8
 20
27.35
 30
0.0
 11
194.8
 21
17.05
 31
0.0
  0
LINE
  8
0
  6
LTYPE2
 62
     2
 10
219.8
 20
17.5
 30
0.0
 11
219.8
 21
80.0
 31
0.0
  0
ARC
  8
0
  6
CONTINUOUS
 62
     2
 10
170.675
 20
128.925
 30
0.0
 40
1.475
 50
270.0
 51
0.0
  0
ARC
  8
0
  6
CONTINUOUS
 62
     2
 10
170.675
 20
131.075
 30
0.0
 40
1.475
 50
0.0
 51
90.0
  0
LINE
  8
0
  6
CONTINUOUS
 62
     2
 10
172.15
 20
131.075
 30
0.0
 11
172.15
 21
128.925
 31
0.0
  0
LINE
  8
0
  6
CONTINUOUS
 62
     2
 10
170.675
 20
127.45
 30
0.0
 11
170.175
 21
127.45
 31
0.0
  0
POLYLINE
  8
0
  6
CONTINUOUS
 62
     2
 66
     1
  0
VERTEX
  8
0
  6
CONTINUOUS
 62
     2
 10
170.175
 20
127.45
 30
0.0
  0
VERTEX
  8
0
  6
CONTINUOUS
 62
     2
 10
170.175
 20
132.55
 30
0.0
  0
VERTEX
  8
0
  6
CONTINUOUS
 62
     2
 10
170.675000132
 20
132.55
 30
0.0
  0
SEQEND
  0
LINE
  8
0
  6
CONTINUOUS
 62
     2
 10
169.475
 20
132.75
 30
0.0
 11
170.15
 21
132.75
 31
0.0
  0
POLYLINE
  8
0
  6
CONTINUOUS
 62
     2
 66
     1
  0
VERTEX
  8
0
  6
CONTINUOUS
 62
     2
 10
170.15
 20
132.75
 30
0.0
  0
VERTEX
  8
0
  6
CONTINUOUS
 62
     2
 10
170.15
 20
127.2475
 30
0.0
  0
VERTEX
  8
0
  6
CONTINUOUS
 62
     2
 10
169.475
 20
127.2475
 30
0.0
  0
VERTEX
  8
0
  6
CONTINUOUS
 62
     2
 10
169.475
 20
132.75
 30
0.0
  0
SEQEND
  0
LINE
  8
0
  6
CONTINUOUS
 62
     2
 10
169.475
 20
130.06
 30
0.0
 11
170.15
 21
130.06
 31
0.0
  0
LINE
  8
0
  6
CONTINUOUS
 62
     2
 10
170.15
 20
129.96
 30
0.0
 11
169.475
 21
129.96
 31
0.0
  0
LINE
  8
0
  6
CONTINUOUS
 62
     2
 10
169.0
 20
126.825
 30
0.0
 11
169.475
 21
126.825
 31
0.0
  0
POLYLINE
  8
0
  6
CONTINUOUS
 62
     2
 66
     1
  0
VERTEX
  8
0
  6
CONTINUOUS
 62
     2
 10
169.475
 20
126.825
 30
0.0
  0
VERTEX
  8
0
  6
CONTINUOUS
 62
     2
 10
169.475
 20
133.175
 30
0.0
  0
VERTEX
  8
0
  6
CONTINUOUS
 62
     2
 10
169.0
 20
133.175
 30
0.0
  0
VERTEX
  8
0
  6
CONTINUOUS
 62
     2
 10
169.0
 20
126.825
 30
0.0
  0
SEQEND
  0
LINE
  8
0
  6
CONTINUOUS
 62
     2
 10
169.0
 20
128.0
 30
0.0
 11
164.5
 21
128.0
 31
0.0
  0
LINE
  8
0
  6
CONTINUOUS
 62
     2
 10
164.5
 20
132.0
 30
0.0
 11
169.0
 21
132.0
 31
0.0
  0
LINE
  8
0
  6
CONTINUOUS
 62
     2
 10
164.5
 20
132.0
 30
0.0
 11
164.5
 21
128.0
 31
0.0
  0
LINE
  8
0
  6
CONTINUOUS
 62
     2
 10
172.15
 20
170.425001907
 30
0.0
 11
169.735185434
 21
171.07204952
 31
0.0
  0
LINE
  8
0
  6
CONTINUOUS
 62
     2
 10
172.15
 20
170.425001907
 30
0.0
 11
169.735185434
 21
169.777954295
 31
0.0
  0
LINE
  8
0
  6
CONTINUOUS
 62
     2
 10
172.15
 20
131.9
 30
0.0
 11
172.15
 21
172.425001907
 31
0.0
  0
LINE
  8
0
  6
CONTINUOUS
 62
     2
 10
170.5
 20
127.8
 30
0.0
 11
169.634658514
 21
125.45453968
 31
0.0
  0
LINE
  8
0
  6
CONTINUOUS
 62
     2
 10
170.5
 20
127.8
 30
0.0
 11
170.923322451
 21
125.336101036
 31
0.0
  0
LINE
  8
0
  6
CONTINUOUS
 62
     2
 10
167.192057942
 20
92.15
 30
0.0
 11
167.169080919
 21
91.9
 31
0.0
  0
LINE
  8
0
  6
LTYPE5
 62
     2
 10
164.5
 20
134.25
 30
0.0
 11
172.75
 21
134.25
 31
0.0
  0
ARC
  8
0
  6
LTYPE5
 62
     2
 10
172.75
 20
130.5
 30
0.0
 40
3.75
 50
288.946940915
 51
90.0
  0
ARC
  8
0
  6
LTYPE5
 62
     2
 10
174.25
 20
125.48
 30
0.0
 40
1.5
 50
100.851780463
 51
180.000079263
  0
LINE
  8
0
  6
LTYPE5
 62
     2
 10
172.75
 20
125.479997925
 30
0.0
 11
172.75
 21
116.75
 31
0.0
  0
LINE
  8
0
  6
LTYPE5
 62
     2
 10
172.75
 20
116.75
 30
0.0
 11
167.25
 21
116.75
 31
0.0
  0
LINE
  8
0
  6
LTYPE5
 62
     2
 10
167.25
 20
116.75
 30
0.0
 11
167.25
 21
125.249998584
 31
0.0
  0
ARC
  8
0
  6
LTYPE5
 62
     2
 10
165.75
 20
125.25
 30
0.0
 40
1.5
 50
359.999920737
 51
90.000053515
  0
LINE
  8
0
  6
LTYPE5
 62
     2
 10
165.749998599
 20
126.75
 30
0.0
 11
164.5
 21
126.75
 31
0.0
  0
LINE
  8
0
  6
LTYPE5
 62
     2
 10
164.5
 20
126.75
 30
0.0
 11
164.5
 21
134.25
 31
0.0
  0
ARC
  8
0
  6
LTYPE5
 62
     2
 10
165.62500003
 20
125.37499996
 30
0.0
 40
2.128673299
 50
356.633524267
 51
86.6335563
  0
LINE
  8
0
  6
LTYPE5
 62
     2
 10
164.5
 20
133.5
 30
0.0
 11
172.749999239
 21
133.5
 31
0.0
  0
LINE
  8
0
  6
LTYPE5
 62
     2
 10
165.749999401
 20
127.5
 30
0.0
 11
164.5
 21
127.5
 31
0.0
  0
ARC
  8
0
  6
LTYPE5
 62
     2
 10
172.75
 20
130.5
 30
0.0
 40
3.0
 50
289.802312412
 51
90.000014534
  0
LINE
  8
0
  6
LTYPE5
 62
     2
 10
172.25
 20
125.479999068
 30
0.0
 11
172.25
 21
116.75
 31
0.0
  0
ARC
  8
0
  6
LTYPE5
 62
     2
 10
174.60676817
 20
125.475573199
 30
0.0
 40
2.356772326
 50
110.891939386
 51
179.892402096
  0
LINE
  8
0
  6
LTYPE5
 62
     2
 10
167.75
 20
116.75
 30
0.0
 11
167.75
 21
125.249999401
 31
0.0
  0
LINE
  8
0
  6
CONTINUOUS
 62
     2
 10
167.75
 20
116.75
 30
0.0
 11
166.865880531
 21
114.411553343
 31
0.0
  0
LINE
  8
0
  6
CONTINUOUS
 62
     2
 10
167.75
 20
116.75
 30
0.0
 11
168.153553408
 21
114.282786056
 31
0.0
  0
ARC
  8
0
  6
CONTINUOUS
 62
     1
 10
164.0
 20
98.25
 30
0.0
 40
0.5
 50
270.0
 51
0.0
  0
ARC
  8
0
  6
CONTINUOUS
 62
     1
 10
164.0
 20
151.75
 30
0.0
 40
0.5
 50
360.0
 51
90.0
  0
LINE
  8
0
  6
CONTINUOUS
 62
     1
 10
162.0
 20
152.25
 30
0.0
 11
162.0
 21
97.75
 31
0.0
  0
LINE
  8
0
  6
CONTINUOUS
 62
     1
 10
164.5
 20
151.75
 30
0.0
 11
164.5
 21
98.25
 31
0.0
  0
ARC
  8
0
  6
CONTINUOUS
 62
     2
 10
175.5875
 20
138.6125
 30
0.0
 40
32.216324472
 50
154.956246189
 51
205.043753811
  0
ARC
  8
0
  6
CONTINUOUS
 62
     2
 10
117.2125
 20
111.3375
 30
0.0
 40
32.216324472
 50
334.956246189
 51
25.043753811
  0
ARC
  8
0
  6
CONTINUOUS
 62
     2
 10
117.2125
 20
111.3375
 30
0.0
 40
33.216324472
 50
335.854143562
 51
25.043753811
  0
ARC
  8
0
  6
CONTINUOUS
 62
     2
 10
175.5875
 20
138.6125
 30
0.0
 40
31.216324472
 50
154.095605658
 51
205.043753811
  0
LINE
  8
0
  6
CONTINUOUS
 62
     2
 10
127.0
 20
160.875001907
 30
0.0
 11
129.414814566
 21
160.227954295
 31
0.0
  0
LINE
  8
0
  6
CONTINUOUS
 62
     2
 10
127.0
 20
160.875001907
 30
0.0
 11
129.414814566
 21
161.52204952
 31
0.0
  0
POLYLINE
  8
0
  6
CONTINUOUS
 62
     2
 66
     1
  0
VERTEX
  8
0
  6
CONTINUOUS
 62
     2
 10
127.0
 20
160.875001907
 30
0.0
  0
VERTEX
  8
0
  6
CONTINUOUS
 62
     2
 10
134.5
 20
160.875001907
 30
0.0
  0
VERTEX
  8
0
  6
CONTINUOUS
 62
     2
 10
132.085185434
 20
161.52204952
 30
0.0
  0
SEQEND
  0
LINE
  8
0
  6
CONTINUOUS
 62
     2
 10
134.5
 20
160.875001907
 30
0.0
 11
132.085185434
 21
160.227954295
 31
0.0
  0
LINE
  8
0
  6
CONTINUOUS
 62
     2
 10
134.5
 20
149.25
 30
0.0
 11
134.5
 21
162.875001907
 31
0.0
  0
TEXT
  8
0
  6
CONTINUOUS
 62
     2
 10
128.8
 20
161.875001907
 30
0.3
 40
3.0
  1
１５
 50
0.0
 41
0.6
 51
0.0
  7
KANJI0
  0
LINE
  8
0
  6
CONTINUOUS
 62
     2
 10
127.0
 20
160.875001907
 30
0.0
 11
129.414814566
 21
160.227954295
 31
0.0
  0
LINE
  8
0
  6
CONTINUOUS
 62
     2
 10
127.0
 20
160.875001907
 30
0.0
 11
129.414814566
 21
161.52204952
 31
0.0
  0
TEXT
  8
0
  6
CONTINUOUS
 62
     2
 10
140.75
 20
88.55
 30
0.5
 40
3.0
  1
４－Ｍ６取付ボルト
 50
0.0
 41
0.6
 51
0.0
  7
KANJI7
  0
LINE
  8
0
  6
CONTINUOUS
 62
     1
 10
127.0
 20
87.475
 30
0.0
 11
127.0
 21
162.475
 31
0.0
  0
LINE
  8
0
  6
CONTINUOUS
 62
     2
 10
132.5
 20
151.5
 30
0.0
 11
134.5
 21
151.5
 31
0.0
  0
LINE
  8
0
  6
CONTINUOUS
 62
     2
 10
134.5
 20
151.5
 30
0.0
 11
134.5
 21
148.5
 31
0.0
  0
LINE
  8
0
  6
CONTINUOUS
 62
     2
 10
134.5
 20
148.5
 30
0.0
 11
132.5
 21
148.5
 31
0.0
  0
ARC
  8
0
  6
CONTINUOUS
 62
     2
 10
127.5
 20
150.0
 30
0.0
 40
5.0
 50
343.5
 51
16.5
  0
ARC
  8
0
  6
CONTINUOUS
 62
     2
 10
135.0
 20
150.0
 30
0.0
 40
5.0
 50
163.5
 51
196.3
  0
ARC
  8
0
  6
CONTINUOUS
 62
     2
 10
131.25
 20
152.125
 30
0.0
 40
1.25
 50
325.0
 51
35.0
  0
ARC
  8
0
  6
CONTINUOUS
 62
     2
 10
131.25
 20
152.125
 30
0.0
 40
1.25
 50
145.0
 51
215.0
  0
ARC
  8
0
  6
CONTINUOUS
 62
     2
 10
131.25
 20
147.875
 30
0.0
 40
1.25
 50
145.0
 51
215.0
  0
ARC
  8
0
  6
CONTINUOUS
 62
     2
 10
131.25
 20
147.875
 30
0.0
 40
1.25
 50
325.0
 51
35.0
  0
LINE
  8
0
  6
CONTINUOUS
 62
     2
 10
130.20097354
 20
148.596666455
 30
0.0
 11
132.27597354
 21
148.596666455
 31
0.0
  0
LINE
  8
0
  6
CONTINUOUS
 62
     2
 10
132.294098674
 20
151.420076724
 30
0.0
 11
130.205901326
 21
151.420076724
 31
0.0
  0
LINE
  8
0
  6
CONTINUOUS
 62
     2
 10
132.5
 20
147.875
 30
0.0
 11
132.5
 21
152.125
 31
0.0
  0
LINE
  8
0
  6
CONTINUOUS
 62
     2
 10
132.505
 20
148.625
 30
0.0
 11
134.48
 21
148.625
 31
0.0
  0
LINE
  8
0
  6
CONTINUOUS
 62
     2
 10
134.5
 20
151.385
 30
0.0
 11
132.51
 21
151.385
 31
0.0
  0
LINE
  8
0
  6
CONTINUOUS
 62
     2
 10
132.280901326
 20
152.85
 30
0.0
 11
130.0
 21
152.85
 31
0.0
  0
LINE
  8
0
  6
CONTINUOUS
 62
     2
 10
130.0
 20
147.15
 30
0.0
 11
132.275
 21
147.15
 31
0.0
  0
LINE
  8
0
  6
CONTINUOUS
 62
     2
 10
130.0
 20
152.85
 30
0.0
 11
130.0
 21
147.15
 31
0.0
  0
LINE
  8
0
  6
CONTINUOUS
 62
     2
 10
129.0
 20
153.35
 30
0.0
 11
130.0
 21
152.85
 31
0.0
  0
LINE
  8
0
  6
CONTINUOUS
 62
     2
 10
129.0
 20
146.65
 30
0.0
 11
130.0
 21
147.15
 31
0.0
  0
LINE
  8
0
  6
CONTINUOUS
 62
     2
 10
129.0
 20
153.35
 30
0.0
 11
129.0
 21
146.65
 31
0.0
  0
LINE
  8
0
  6
CONTINUOUS
 62
     2
 10
129.0
 20
151.5
 30
0.0
 11
127.0
 21
151.5
 31
0.0
  0
LINE
  8
0
  6
CONTINUOUS
 62
     2
 10
129.0
 20
151.385
 30
0.0
 11
127.0
 21
151.385
 31
0.0
  0
LINE
  8
0
  6
CONTINUOUS
 62
     2
 10
127.0
 20
148.505
 30
0.0
 11
129.0
 21
148.505
 31
0.0
  0
LINE
  8
0
  6
CONTINUOUS
 62
     2
 10
129.0
 20
148.625
 30
0.0
 11
127.0
 21
148.625
 31
0.0
  0
LINE
  8
0
  6
CONTINUOUS
 62
     2
 10
132.5
 20
101.5
 30
0.0
 11
134.5
 21
101.5
 31
0.0
  0
LINE
  8
0
  6
CONTINUOUS
 62
     2
 10
134.5
 20
101.5
 30
0.0
 11
134.5
 21
98.5
 31
0.0
  0
LINE
  8
0
  6
CONTINUOUS
 62
     2
 10
134.5
 20
98.5
 30
0.0
 11
132.5
 21
98.5
 31
0.0
  0
ARC
  8
0
  6
CONTINUOUS
 62
     2
 10
127.5
 20
100.0
 30
0.0
 40
5.0
 50
343.5
 51
16.5
  0
ARC
  8
0
  6
CONTINUOUS
 62
     2
 10
135.0
 20
100.0
 30
0.0
 40
5.0
 50
163.5
 51
196.3
  0
ARC
  8
0
  6
CONTINUOUS
 62
     2
 10
131.25
 20
102.125
 30
0.0
 40
1.25
 50
325.0
 51
35.0
  0
ARC
  8
0
  6
CONTINUOUS
 62
     2
 10
131.25
 20
102.125
 30
0.0
 40
1.25
 50
145.0
 51
215.0
  0
ARC
  8
0
  6
CONTINUOUS
 62
     2
 10
131.25
 20
97.875
 30
0.0
 40
1.25
 50
145.0
 51
215.0
  0
ARC
  8
0
  6
CONTINUOUS
 62
     2
 10
131.25
 20
97.875
 30
0.0
 40
1.25
 50
325.0
 51
35.0
  0
LINE
  8
0
  6
CONTINUOUS
 62
     2
 10
130.20097354
 20
98.596666455
 30
0.0
 11
132.27597354
 21
98.596666455
 31
0.0
  0
LINE
  8
0
  6
CONTINUOUS
 62
     2
 10
132.294098674
 20
101.420076724
 30
0.0
 11
130.205901326
 21
101.420076724
 31
0.0
  0
LINE
  8
0
  6
CONTINUOUS
 62
     2
 10
132.280901326
 20
102.85
 30
0.0
 11
130.0
 21
102.85
 31
0.0
  0
LINE
  8
0
  6
CONTINUOUS
 62
     2
 10
132.5
 20
97.875
 30
0.0
 11
132.5
 21
102.125
 31
0.0
  0
LINE
  8
0
  6
CONTINUOUS
 62
     2
 10
132.505
 20
98.625
 30
0.0
 11
134.48
 21
98.625
 31
0.0
  0
LINE
  8
0
  6
CONTINUOUS
 62
     2
 10
134.5
 20
101.385
 30
0.0
 11
132.51
 21
101.385
 31
0.0
  0
LINE
  8
0
  6
CONTINUOUS
 62
     2
 10
132.9
 20
98.65
 30
0.0
 11
133.546786092
 21
96.235115375
 31
0.0
  0
LINE
  8
0
  6
CONTINUOUS
 62
     2
 10
132.9
 20
98.65
 30
0.0
 11
134.667575499
 21
96.882041614
 31
0.0
  0
LINE
  8
0
  6
CONTINUOUS
 62
     2
 10
127.0
 20
98.505
 30
0.0
 11
129.1
 21
98.505
 31
0.0
  0
LINE
  8
0
  6
CONTINUOUS
 62
     2
 10
129.1
 20
98.625
 30
0.0
 11
127.0
 21
98.625
 31
0.0
  0
LINE
  8
0
  6
CONTINUOUS
 62
     2
 10
129.0
 20
103.35
 30
0.0
 11
130.0
 21
102.85
 31
0.0
  0
LINE
  8
0
  6
CONTINUOUS
 62
     2
 10
129.0
 20
103.35
 30
0.0
 11
129.0
 21
96.65
 31
0.0
  0
LINE
  8
0
  6
CONTINUOUS
 62
     2
 10
129.0
 20
96.65
 30
0.0
 11
130.0
 21
97.15
 31
0.0
  0
LINE
  8
0
  6
CONTINUOUS
 62
     2
 10
130.0
 20
97.15
 30
0.0
 11
132.275
 21
97.15
 31
0.0
  0
LINE
  8
0
  6
CONTINUOUS
 62
     2
 10
130.0
 20
102.85
 30
0.0
 11
130.0
 21
97.15
 31
0.0
  0
LINE
  8
0
  6
CONTINUOUS
 62
     2
 10
129.0
 20
101.4
 30
0.0
 11
127.0
 21
101.4
 31
0.0
  0
LINE
  8
0
  6
CONTINUOUS
 62
     2
 10
129.0
 20
101.285
 30
0.0
 11
127.0
 21
101.285
 31
0.0
  0
LINE
  8
0
  6
CONTINUOUS
 62
     1
 10
129.0
 20
97.875001326
 30
0.0
 11
127.0
 21
97.875001326
 31
0.0
  0
LINE
  8
0
  6
CONTINUOUS
 62
     1
 10
127.0
 20
152.25
 30
0.0
 11
129.0
 21
152.25
 31
0.0
  0
ARC
  8
0
  6
CONTINUOUS
 62
     1
 10
116.75
 20
161.475
 30
0.0
 40
1.0
 50
90.0
 51
180.0
  0
LINE
  8
0
  6
CONTINUOUS
 62
     1
 10
115.75
 20
161.475
 30
0.0
 11
115.75
 21
88.475
 31
0.0
  0
ARC
  8
0
  6
CONTINUOUS
 62
     1
 10
116.75
 20
88.475
 30
0.0
 40
1.0
 50
180.0
 51
270.0
  0
LINE
  8
0
  6
CONTINUOUS
 62
     1
 10
116.75
 20
87.475
 30
0.0
 11
127.0
 21
87.475
 31
0.0
  0
LINE
  8
0
  6
CONTINUOUS
 62
     1
 10
127.0
 20
162.475
 30
0.0
 11
116.75
 21
162.475
 31
0.0
  0
LINE
  8
0
  6
CONTINUOUS
 62
     2
 10
125.75
 20
87.475
 30
0.0
 11
125.75
 21
162.475
 31
0.0
  0
LINE
  8
0
  6
CONTINUOUS
 62
     2
 10
127.0
 20
170.425001907
 30
0.0
 11
129.414814566
 21
169.777954295
 31
0.0
  0
LINE
  8
0
  6
CONTINUOUS
 62
     2
 10
127.0
 20
170.425001907
 30
0.0
 11
129.414814566
 21
171.07204952
 31
0.0
  0
LINE
  8
0
  6
CONTINUOUS
 62
     2
 10
127.0
 20
170.425001907
 30
0.0
 11
172.15
 21
170.425001907
 31
0.0
  0
TEXT
  8
0
  6
CONTINUOUS
 62
     2
 10
168.169080919
 20
82.9
 30
0.5
 40
3.0
  1
２－Ｍ６ターミナルネジ
 50
0.0
 41
0.6
 51
0.0
  7
KANJI7
  0
TEXT
  8
0
  6
CONTINUOUS
 62
     2
 10
165.95
 20
76.75
 30
0.3
 40
3.0
  1
端子キャップ
 50
0.0
 41
0.9
 51
0.0
  7
KANJI2
  0
TEXT
  8
0
  6
CONTINUOUS
 62
     2
 10
163.45
 20
71.75
 30
0.3
 40
3.0
  1
（オプション）
 50
0.0
 41
0.9
 51
0.0
  7
KANJI2
  0
LINE
  8
0
  6
CONTINUOUS
 62
     2
 10
191.969080919
 20
81.9
 30
0.0
 11
166.281418581
 21
81.9
 31
0.0
  0
LINE
  8
0
  6
CONTINUOUS
 62
     2
 10
170.5
 20
127.8
 30
0.0
 11
166.281418581
 21
81.9
 31
0.0
  0
LINE
  8
0
  6
CONTINUOUS
 62
     2
 10
167.75
 20
116.75
 30
0.0
 11
163.65
 21
75.75
 31
0.0
  0
LINE
  8
0
  6
CONTINUOUS
 62
     2
 10
182.35
 20
75.75
 30
0.0
 11
163.65
 21
75.75
 31
0.0
  0
LINE
  8
0
  6
CONTINUOUS
 62
     2
 10
164.5
 20
156.875001907
 30
0.0
 11
166.914814566
 21
156.227954295
 31
0.0
  0
LINE
  8
0
  6
CONTINUOUS
 62
     2
 10
164.5
 20
156.875001907
 30
0.0
 11
166.914814566
 21
157.52204952
 31
0.0
  0
POLYLINE
  8
0
  6
CONTINUOUS
 62
     2
 66
     1
  0
VERTEX
  8
0
  6
CONTINUOUS
 62
     2
 10
164.5
 20
156.875001907
 30
0.0
  0
VERTEX
  8
0
  6
CONTINUOUS
 62
     2
 10
172.15
 20
156.875001907
 30
0.0
  0
VERTEX
  8
0
  6
CONTINUOUS
 62
     2
 10
169.735185434
 20
157.52204952
 30
0.0
  0
SEQEND
  0
LINE
  8
0
  6
CONTINUOUS
 62
     2
 10
172.15
 20
156.875001907
 30
0.0
 11
169.735185434
 21
156.227954295
 31
0.0
  0
LINE
  8
0
  6
CONTINUOUS
 62
     2
 10
172.15
 20
157.150001907
 30
0.0
 11
172.15
 21
154.875001907
 31
0.0
  0
TEXT
  8
0
  6
CONTINUOUS
 62
     2
 10
166.375
 20
157.875001907
 30
0.3
 40
3.0
  1
１７
 50
0.0
 41
0.6
 51
0.0
  7
KANJI0
  0
LINE
  8
0
  6
CONTINUOUS
 62
     2
 10
164.5
 20
158.875001907
 30
0.0
 11
164.5
 21
163.875001907
 31
0.0
  0
LINE
  8
0
  6
CONTINUOUS
 62
     2
 10
164.5
 20
161.875001907
 30
0.0
 11
166.914814566
 21
161.227954295
 31
0.0
  0
LINE
  8
0
  6
CONTINUOUS
 62
     2
 10
164.5
 20
161.875001907
 30
0.0
 11
166.914814566
 21
162.52204952
 31
0.0
  0
LINE
  8
0
  6
CONTINUOUS
 62
     2
 10
164.5
 20
161.875001907
 30
0.0
 11
176.5
 21
161.875001907
 31
0.0
  0
LINE
  8
0
  6
CONTINUOUS
 62
     2
 10
176.5
 20
161.875001907
 30
0.0
 11
174.085185434
 21
162.52204952
 31
0.0
  0
LINE
  8
0
  6
CONTINUOUS
 62
     2
 10
176.5
 20
161.875001907
 30
0.0
 11
174.085185434
 21
161.227954295
 31
0.0
  0
LINE
  8
0
  6
CONTINUOUS
 62
     2
 10
176.5
 20
131.0
 30
0.0
 11
176.5
 21
163.875001907
 31
0.0
  0
TEXT
  8
0
  6
CONTINUOUS
 62
     2
 10
168.55
 20
162.875001907
 30
0.3
 40
3.0
  1
２４
 50
0.0
 41
0.6
 51
0.0
  7
KANJI0
  0
LINE
  8
0
  6
CONTINUOUS
 62
     2
 10
127.0
 20
172.425001907
 30
0.0
 11
127.0
 21
162.425001907
 31
0.0
  0
LINE
  8
0
  6
CONTINUOUS
 62
     2
 10
164.5
 20
152.75
 30
0.0
 11
164.5
 21
158.875001907
 31
0.0
  0
LINE
  8
0
  6
CONTINUOUS
 62
     2
 10
164.5
 20
114.325
 30
0.0
 11
164.5
 21
111.175
 31
0.0
  0
LINE
  8
0
  6
CONTINUOUS
 62
     2
 10
164.5
 20
114.325
 30
0.0
 11
165.15
 21
114.268132369
 31
0.0
  0
LINE
  8
0
  6
CONTINUOUS
 62
     2
 10
164.5
 20
111.175
 30
0.0
 11
165.15
 21
111.231867631
 31
0.0
  0
LINE
  8
0
  6
CONTINUOUS
 62
     2
 10
165.444985838
 20
112.55
 30
0.0
 11
164.95
 21
112.55
 31
0.0
  0
LINE
  8
0
  6
CONTINUOUS
 62
     2
 10
164.95
 20
112.95
 30
0.0
 11
164.95
 21
112.55
 31
0.0
  0
LINE
  8
0
  6
CONTINUOUS
 62
     2
 10
165.444985838
 20
112.95
 30
0.0
 11
164.95
 21
112.95
 31
0.0
  0
LINE
  8
0
  6
CONTINUOUS
 62
     2
 10
165.15
 20
112.95
 30
0.0
 11
165.15
 21
114.268132369
 31
0.0
  0
LINE
  8
0
  6
CONTINUOUS
 62
     2
 10
165.15
 20
111.231867631
 30
0.0
 11
165.15
 21
112.55
 31
0.0
  0
ARC
  8
0
  6
CONTINUOUS
 62
     2
 10
161.458790185
 20
112.75
 30
0.0
 40
3.991209815
 50
2.872301273
 51
22.356539414
  0
ARC
  8
0
  6
CONTINUOUS
 62
     2
 10
161.458790185
 20
112.75
 30
0.0
 40
3.991209815
 50
337.643460586
 51
357.127698727
  0
LINE
  8
0
  6
CONTINUOUS
 62
     2
 10
164.5
 20
151.075
 30
0.0
 11
164.5
 21
147.925
 31
0.0
  0
LINE
  8
0
  6
CONTINUOUS
 62
     2
 10
164.5
 20
151.075
 30
0.0
 11
165.15
 21
151.018132369
 31
0.0
  0
LINE
  8
0
  6
CONTINUOUS
 62
     2
 10
164.5
 20
147.925
 30
0.0
 11
165.15
 21
147.981867631
 31
0.0
  0
LINE
  8
0
  6
CONTINUOUS
 62
     2
 10
165.444985838
 20
149.3
 30
0.0
 11
164.95
 21
149.3
 31
0.0
  0
LINE
  8
0
  6
CONTINUOUS
 62
     2
 10
164.95
 20
149.7
 30
0.0
 11
164.95
 21
149.3
 31
0.0
  0
LINE
  8
0
  6
CONTINUOUS
 62
     2
 10
165.444985838
 20
149.7
 30
0.0
 11
164.95
 21
149.7
 31
0.0
  0
LINE
  8
0
  6
CONTINUOUS
 62
     2
 10
165.15
 20
149.7
 30
0.0
 11
165.15
 21
151.018132369
 31
0.0
  0
LINE
  8
0
  6
CONTINUOUS
 62
     2
 10
165.15
 20
147.981867631
 30
0.0
 11
165.15
 21
149.3
 31
0.0
  0
ARC
  8
0
  6
CONTINUOUS
 62
     2
 10
161.458790185
 20
149.5
 30
0.0
 40
3.991209815
 50
2.872301273
 51
22.356539414
  0
ARC
  8
0
  6
CONTINUOUS
 62
     2
 10
161.458790185
 20
149.5
 30
0.0
 40
3.991209815
 50
337.643460586
 51
357.127698727
  0
LINE
  8
0
  6
CONTINUOUS
 62
     2
 10
139.306985294
 20
87.55
 30
0.0
 11
160.95
 21
87.55
 31
0.0
  0
LINE
  8
0
  6
CONTINUOUS
 62
     2
 10
132.9
 20
98.65
 30
0.0
 11
139.306985294
 21
87.55
 31
0.0
  0
LINE
  8
0
  6
CONTINUOUS
 62
     1
 10
147.507658346
 20
152.25
 30
0.0
 11
164.000001835
 21
152.25
 31
0.0
  0
LINE
  8
0
  6
CONTINUOUS
 62
     1
 10
132.493734296
 20
152.25
 30
0.0
 11
146.4
 21
152.25
 31
0.0
  0
LINE
  8
0
  6
CONTINUOUS
 62
     1
 10
146.42330975
 20
97.75
 30
0.0
 11
132.493734296
 21
97.75
 31
0.0
  0
LINE
  8
0
  6
CONTINUOUS
 62
     1
 10
164.000000253
 20
97.75
 30
0.0
 11
147.52263123
 21
97.75
 31
0.0
  0
LINE
  8
0
  6
LTYPE3
 62
     2
 10
164.5
 20
149.5
 30
0.0
 11
166.5
 21
149.5
 31
0.0
  0
LINE
  8
0
  6
LTYPE3
 62
     2
 10
164.5
 20
112.75
 30
0.0
 11
166.5
 21
112.75
 31
0.0
  0
LINE
  8
0
  6
CONTINUOUS
 62
     2
 10
127.0
 20
170.425001907
 30
0.0
 11
124.585185434
 21
171.07204952
 31
0.0
  0
LINE
  8
0
  6
CONTINUOUS
 62
     2
 10
127.0
 20
170.425001907
 30
0.0
 11
124.585185434
 21
169.777954295
 31
0.0
  0
POLYLINE
  8
0
  6
CONTINUOUS
 62
     2
 66
     1
  0
VERTEX
  8
0
  6
CONTINUOUS
 62
     2
 10
127.0
 20
170.425001907
 30
0.0
  0
VERTEX
  8
0
  6
CONTINUOUS
 62
     2
 10
115.75
 20
170.425001907
 30
0.0
  0
VERTEX
  8
0
  6
CONTINUOUS
 62
     2
 10
118.164814566
 20
169.777954295
 30
0.0
  0
SEQEND
  0
LINE
  8
0
  6
CONTINUOUS
 62
     2
 10
115.75
 20
170.425001907
 30
0.0
 11
118.164814566
 21
171.07204952
 31
0.0
  0
LINE
  8
0
  6
CONTINUOUS
 62
     2
 10
115.75
 20
162.475
 30
0.0
 11
115.75
 21
172.425001907
 31
0.0
  0
TEXT
  8
0
  6
CONTINUOUS
 62
     2
 10
117.325
 20
171.425001907
 30
0.3
 40
3.0
  1
２２．５
 50
0.0
 41
0.6
 51
0.0
  7
KANJI0
  0
LINE
  8
0
  6
LTYPE2
 62
     2
 10
127.0
 20
124.975
 30
0.0
 11
129.25
 21
124.975
 31
0.0
  0
LINE
  8
0
  6
LTYPE2
 62
     2
 10
111.5
 20
124.975
 30
0.0
 11
175.6
 21
124.975
 31
0.0
  0
LINE
  8
0
  6
LTYPE2
 62
     2
 10
124.95
 20
150.0
 30
0.0
 11
136.8
 21
150.0
 31
0.0
  0
LINE
  8
0
  6
LTYPE2
 62
     2
 10
124.95
 20
100.0
 30
0.0
 11
136.8
 21
100.0
 31
0.0
  0
LINE
  8
0
  6
LTYPE2
 62
     2
 10
161.725
 20
130.0
 30
0.0
 11
174.45
 21
130.0
 31
0.0
  0
TEXT
  8
0
  6
CONTINUOUS
 62
     2
 10
147.0125
 20
171.100001907
 30
0.4
 40
4.0
  1
ι
 50
0.0
 41
0.9
 51
0.0
  7
KANJI8
  0
ARC
  8
0
  6
CONTINUOUS
 62
     1
 10
89.5
 20
92.475
 30
0.0
 40
5.0
 50
270.0
 51
0.0
  0
ARC
  8
0
  6
CONTINUOUS
 62
     1
 10
89.5
 20
157.475
 30
0.0
 40
5.0
 50
0.0
 51
90.0
  0
LINE
  8
0
  6
CONTINUOUS
 62
     1
 10
94.5
 20
157.475
 30
0.0
 11
94.5
 21
92.475
 31
0.0
  0
ARC
  8
0
  6
CONTINUOUS
 62
     2
 10
87.0
 20
94.975
 30
0.0
 40
2.0
 50
270.0
 51
0.0
  0
ARC
  8
0
  6
CONTINUOUS
 62
     2
 10
87.0
 20
154.975
 30
0.0
 40
2.0
 50
0.0
 51
90.0
  0
LINE
  8
0
  6
CONTINUOUS
 62
     2
 10
89.0
 20
154.975
 30
0.0
 11
89.0
 21
94.975
 31
0.0
  0
LINE
  8
0
  6
CONTINUOUS
 62
     1
 10
57.0
 20
162.475
 30
0.0
 11
89.5
 21
162.475
 31
0.0
  0
LINE
  8
0
  6
CONTINUOUS
 62
     2
 10
57.0
 20
156.975
 30
0.0
 11
87.0
 21
156.975
 31
0.0
  0
LINE
  8
0
  6
CONTINUOUS
 62
     2
 10
87.0
 20
92.975
 30
0.0
 11
57.0
 21
92.975
 31
0.0
  0
LINE
  8
0
  6
CONTINUOUS
 62
     1
 10
89.5
 20
87.475
 30
0.0
 11
57.0
 21
87.475
 31
0.0
  0
LINE
  8
0
  6
CONTINUOUS
 62
     2
 10
94.5
 20
158.475
 30
0.0
 11
94.5
 21
169.475
 31
0.0
  0
ARC
  8
0
  6
CONTINUOUS
 62
     2
 10
57.0
 20
124.975
 30
0.0
 40
31.5
 50
270.0
 51
90.0
  0
ARC
  8
0
  6
CONTINUOUS
 62
     2
 10
57.0
 20
124.975
 30
0.0
 40
9.75
 50
270.0
 51
90.0
  0
ARC
  8
0
  6
CONTINUOUS
 62
     2
 10
57.0
 20
124.975
 30
0.0
 40
2.75
 50
270.0
 51
293.737086874
  0
CIRCLE
  8
0
  6
CONTINUOUS
 62
     2
 10
65.5
 20
109.475
 30
0.0
 40
1.75
  0
CIRCLE
  8
0
  6
CONTINUOUS
 62
     2
 10
65.5
 20
109.475
 30
0.0
 40
1.5
  0
LINE
  8
0
  6
CONTINUOUS
 62
     2
 10
66.375
 20
109.675
 30
0.0
 11
65.9
 21
109.675
 31
0.0
  0
ARC
  8
0
  6
CONTINUOUS
 62
     2
 10
65.9
 20
109.875
 30
0.0
 40
0.2
 50
180.0
 51
270.0
  0
LINE
  8
0
  6
CONTINUOUS
 62
     2
 10
65.7
 20
109.875
 30
0.0
 11
65.7
 21
110.35
 31
0.0
  0
LINE
  8
0
  6
CONTINUOUS
 62
     2
 10
65.7
 20
110.35
 30
0.0
 11
65.3
 21
110.35
 31
0.0
  0
LINE
  8
0
  6
CONTINUOUS
 62
     2
 10
65.3
 20
110.35
 30
0.0
 11
65.3
 21
109.875
 31
0.0
  0
ARC
  8
0
  6
CONTINUOUS
 62
     2
 10
65.1
 20
109.875
 30
0.0
 40
0.2
 50
270.0
 51
0.0
  0
LINE
  8
0
  6
CONTINUOUS
 62
     2
 10
65.1
 20
109.675
 30
0.0
 11
64.625
 21
109.675
 31
0.0
  0
LINE
  8
0
  6
CONTINUOUS
 62
     2
 10
64.625
 20
109.675
 30
0.0
 11
64.625
 21
109.275
 31
0.0
  0
LINE
  8
0
  6
CONTINUOUS
 62
     2
 10
64.625
 20
109.275
 30
0.0
 11
65.1
 21
109.275
 31
0.0
  0
ARC
  8
0
  6
CONTINUOUS
 62
     2
 10
65.1
 20
109.075
 30
0.0
 40
0.2
 50
0.0
 51
90.0
  0
LINE
  8
0
  6
CONTINUOUS
 62
     2
 10
65.3
 20
109.075
 30
0.0
 11
65.3
 21
108.6
 31
0.0
  0
LINE
  8
0
  6
CONTINUOUS
 62
     2
 10
65.3
 20
108.6
 30
0.0
 11
65.7
 21
108.6
 31
0.0
  0
LINE
  8
0
  6
CONTINUOUS
 62
     2
 10
65.7
 20
108.6
 30
0.0
 11
65.7
 21
109.075
 31
0.0
  0
ARC
  8
0
  6
CONTINUOUS
 62
     2
 10
65.9
 20
109.075
 30
0.0
 40
0.2
 50
90.0
 51
180.0
  0
LINE
  8
0
  6
CONTINUOUS
 62
     2
 10
65.9
 20
109.275
 30
0.0
 11
66.375
 21
109.275
 31
0.0
  0
LINE
  8
0
  6
CONTINUOUS
 62
     2
 10
66.375
 20
109.275
 30
0.0
 11
66.375
 21
109.675
 31
0.0
  0
LINE
  8
0
  6
LTYPE1
 62
     2
 10
68.3
 20
109.475
 30
0.0
 11
62.75
 21
109.475
 31
0.0
  0
LINE
  8
0
  6
LTYPE1
 62
     2
 10
65.5
 20
112.225
 30
0.0
 11
65.5
 21
106.725
 31
0.0
  0
LINE
  8
0
  6
LTYPE2
 62
     2
 10
52.9
 20
124.975
 30
0.0
 11
99.0
 21
124.975
 31
0.0
  0
LINE
  8
0
  6
CONTINUOUS
 62
     2
 10
57.0
 20
125.575
 30
0.0
 11
58.240192379
 21
127.723076211
 31
0.0
  0
LINE
  8
0
  6
CONTINUOUS
 62
     2
 10
57.0
 20
124.375
 30
0.0
 11
58.759807621
 21
127.423076211
 31
0.0
  0
ARC
  8
0
  6
CONTINUOUS
 62
     2
 10
57.0
 20
124.975
 30
0.0
 40
3.0
 50
270.0
 51
90.0
  0
ARC
  8
0
  6
CONTINUOUS
 62
     2
 10
57.0
 20
124.975
 30
0.0
 40
2.75
 50
66.262913126
 51
90.0
  0
ARC
  8
0
  6
CONTINUOUS
 62
     2
 10
57.0
 20
124.975
 30
0.0
 40
2.75
 50
293.737086874
 51
53.737086874
  0
LINE
  8
0
  6
CONTINUOUS
 62
     2
 10
94.5
 20
167.475
 30
0.0
 11
92.085185434
 21
166.827952387
 31
0.0
  0
LINE
  8
0
  6
CONTINUOUS
 62
     2
 10
94.5
 20
167.475
 30
0.0
 11
92.085185434
 21
168.122047613
 31
0.0
  0
LINE
  8
0
  6
CONTINUOUS
 62
     2
 10
94.5
 20
167.475
 30
0.0
 11
57.0
 21
167.475
 31
0.0
  0
TEXT
  8
0
  6
CONTINUOUS
 62
     3
 10
146.76
 20
28.735
 30
0.48
 40
4.8
  1
ＭＳ－９６４６Ａ
 50
0.0
 41
0.9
 51
0.0
  7
KANJI9
  0
TEXT
  8
0
  6
CONTINUOUS
 62
     1
 10
149.56
 20
37.535
 30
0.32
 40
3.2
  1
広角度計器　外形図
 50
0.0
 41
0.9
 51
0.0
  7
KANJI10
  0
TEXT
  8
0
  6
CONTINUOUS
 62
     2
 10
149.56
 20
41.535
 30
0.24
 40
2.4
  1
端子キャップ付（オプション）
 50
0.0
 41
0.9
 51
0.0
  7
KANJI11
  0
TEXT
  8
0
  6
CONTINUOUS
 62
     1
 10
145.96
 20
47.535
 30
0.4
 40
4.0
  1
□ＶＦ－１５（Ｖ）
 50
0.0
 41
0.9
 51
0.0
  7
KANJI12
  0
LINE
  8
0
  6
CONTINUOUS
 62
     2
 10
130.506985294
 20
97.45
 30
0.0
 11
131.110212209
 21
95.023867834
 31
0.0
  0
LINE
  8
0
  6
CONTINUOUS
 62
     2
 10
130.506985294
 20
97.45
 30
0.0
 11
132.24246121
 21
95.650521369
 31
0.0
  0
LINE
  8
0
  6
CONTINUOUS
 62
     2
 10
130.506985294
 20
97.45
 30
0.0
 11
139.306985294
 21
81.55
 31
0.0
  0
TEXT
  8
0
  6
CONTINUOUS
 62
     2
 10
140.306985294
 20
82.55
 30
0.1
 40
3.0
  1
フランジ付六角ナット
 50
0.0
 41
0.6
 51
0.0
  7
KANJI13
  0
LINE
  8
0
  6
CONTINUOUS
 62
     2
 10
139.306985294
 20
81.55
 30
0.0
 11
159.206985294
 21
81.55
 31
0.0
  0
TEXT
  8
0
  6
CONTINUOUS
 62
     2
 10
52.8
 20
45.7
 30
0.5
 40
3.0
  1
電子デバイス形
 50
0.0
 41
0.9
 51
0.0
  7
KANJI5
  0
TEXT
  8
0
  6
CONTINUOUS
 62
     2
 10
52.8
 20
40.7
 30
0.5
 40
3.0
  1
電子デバイス形
 50
0.0
 41
0.9
 51
0.0
  7
KANJI5
  0
TEXT
  8
0
  6
CONTINUOUS
 62
     2
 10
52.8
 20
20.7
 30
0.5
 40
3.0
  1
電子デバイス形
 50
0.0
 41
0.9
 51
0.0
  7
KANJI5
  0
TEXT
  8
0
  6
CONTINUOUS
 62
     2
 10
52.9
 20
54.9
 30
0.1
 40
2.0
  1
可動コイル形
 50
0.0
 41
0.9
 51
0.0
  7
KANJI14
  0
TEXT
  8
0
  6
CONTINUOUS
 62
     2
 10
52.9
 20
57.4
 30
0.2
 40
2.0
  1
永久磁石
 50
0.0
 41
0.9
 51
0.0
  7
KANJI15
  0
TEXT
  8
0
  6
CONTINUOUS
 62
     2
 10
52.4
 20
29.9
 30
0.1
 40
2.0
  1
可動コイル形
 50
0.0
 41
0.9
 51
0.0
  7
KANJI14
  0
TEXT
  8
0
  6
CONTINUOUS
 62
     2
 10
52.4
 20
32.4
 30
0.2
 40
2.0
  1
永久磁石
 50
0.0
 41
0.9
 51
0.0
  7
KANJI15
  0
ENDSEC
  0
EOF
