  0
SECTION
  2
HEADER
  9
$ACADVER
  1
AC1009
  9
$DWGCODEPAGE
  3
dos932
  9
$EXTMIN
 10
0.0
 20
0.0
 30
0.0
  9
$EXTMAX
 10
297.0
 20
210.0
 30
0.0
  9
$LIMMIN
 10
0.0
 20
0.0
  9
$LIMMAX
 10
297.0
 20
210.0
  9
$LTSCALE
 40
1.0
  9
$PDMODE
 70
     0
  0
ENDSEC
  0
SECTION
  2
TABLES
  0
TABLE
  2
VPORT
 70
     1
  0
VPORT
  2
*ACTIVE
 70
     0
 10
0.0
 20
0.0
 11
1.0
 21
1.0
 12
148.5
 22
105.0
 13
0.0
 23
0.0
 14
10.0
 24
10.0
 15
10.0
 25
10.0
 16
0.0
 26
0.0
 36
1.0
 17
0.0
 27
0.0
 37
0.0
 40
297.0
 41
1.414285714
 42
50.0
 43
0.0
 44
0.0
 50
0.0
 51
0.0
 71
     0
 72
  1000
 73
     1
 74
     3
 75
     0
 76
     0
 77
     0
 78
     0
  0
ENDTAB
  0
TABLE
  2
LTYPE
 70
     5
  0
LTYPE
  2
CONTINUOUS
 70
    64
  3
Solid line
 72
    65
 73
     0
 40
0.0
  0
LTYPE
  2
LTYPE1
 70
    64
  3
CENTER
 72
    65
 73
     4
 40
15.0
 49
10.5
 49
-1.5
 49
1.5
 49
-1.5
  0
LTYPE
  2
LTYPE2
 70
    64
  3
CENTER
 72
    65
 73
     4
 40
5.0
 49
3.5
 49
-0.5
 49
0.5
 49
-0.5
  0
LTYPE
  2
LTYPE3
 70
    64
  3
HIDDEN
 72
    65
 73
     2
 40
1.0
 49
0.6
 49
-0.4
  0
LTYPE
  2
LTYPE4
 70
    64
  3
HIDDEN
 72
    65
 73
     2
 40
2.0
 49
1.2
 49
-0.8
  0
ENDTAB
  0
TABLE
  2
LAYER
 70
   128
  0
LAYER
  2
0
 70
     0
 62
     7
  6
CONTINUOUS
  0
LAYER
  2
2
 70
     0
 62
     7
  6
CONTINUOUS
  0
LAYER
  2
3
 70
     0
 62
     7
  6
CONTINUOUS
  0
LAYER
  2
4
 70
     0
 62
     7
  6
CONTINUOUS
  0
LAYER
  2
5
 70
     0
 62
     7
  6
CONTINUOUS
  0
LAYER
  2
6
 70
     0
 62
     7
  6
CONTINUOUS
  0
LAYER
  2
7
 70
     0
 62
     7
  6
CONTINUOUS
  0
LAYER
  2
8
 70
     0
 62
     7
  6
CONTINUOUS
  0
LAYER
  2
9
 70
     0
 62
     7
  6
CONTINUOUS
  0
LAYER
  2
10
 70
     0
 62
     7
  6
CONTINUOUS
  0
LAYER
  2
11
 70
     0
 62
     7
  6
CONTINUOUS
  0
LAYER
  2
12
 70
     0
 62
     7
  6
CONTINUOUS
  0
LAYER
  2
13
 70
     0
 62
     7
  6
CONTINUOUS
  0
LAYER
  2
14
 70
     0
 62
     7
  6
CONTINUOUS
  0
LAYER
  2
15
 70
     0
 62
     7
  6
CONTINUOUS
  0
LAYER
  2
16
 70
     0
 62
     7
  6
CONTINUOUS
  0
LAYER
  2
17
 70
     0
 62
     7
  6
CONTINUOUS
  0
LAYER
  2
18
 70
     0
 62
     7
  6
CONTINUOUS
  0
LAYER
  2
19
 70
     0
 62
     7
  6
CONTINUOUS
  0
LAYER
  2
20
 70
     0
 62
     7
  6
CONTINUOUS
  0
LAYER
  2
21
 70
     0
 62
     7
  6
CONTINUOUS
  0
LAYER
  2
22
 70
     0
 62
     7
  6
CONTINUOUS
  0
LAYER
  2
23
 70
     0
 62
     7
  6
CONTINUOUS
  0
LAYER
  2
24
 70
     0
 62
     7
  6
CONTINUOUS
  0
LAYER
  2
25
 70
     0
 62
     7
  6
CONTINUOUS
  0
LAYER
  2
26
 70
     0
 62
     7
  6
CONTINUOUS
  0
LAYER
  2
27
 70
     0
 62
     7
  6
CONTINUOUS
  0
LAYER
  2
28
 70
     0
 62
     7
  6
CONTINUOUS
  0
LAYER
  2
29
 70
     0
 62
     7
  6
CONTINUOUS
  0
LAYER
  2
30
 70
     0
 62
     7
  6
CONTINUOUS
  0
LAYER
  2
31
 70
     0
 62
     7
  6
CONTINUOUS
  0
LAYER
  2
32
 70
     0
 62
     7
  6
CONTINUOUS
  0
LAYER
  2
33
 70
     0
 62
     7
  6
CONTINUOUS
  0
LAYER
  2
34
 70
     0
 62
     7
  6
CONTINUOUS
  0
LAYER
  2
35
 70
     0
 62
     7
  6
CONTINUOUS
  0
LAYER
  2
36
 70
     0
 62
     7
  6
CONTINUOUS
  0
LAYER
  2
37
 70
     0
 62
     7
  6
CONTINUOUS
  0
LAYER
  2
38
 70
     0
 62
     7
  6
CONTINUOUS
  0
LAYER
  2
39
 70
     0
 62
     7
  6
CONTINUOUS
  0
LAYER
  2
40
 70
     0
 62
     7
  6
CONTINUOUS
  0
LAYER
  2
41
 70
     0
 62
     7
  6
CONTINUOUS
  0
LAYER
  2
42
 70
     0
 62
     7
  6
CONTINUOUS
  0
LAYER
  2
43
 70
     0
 62
     7
  6
CONTINUOUS
  0
LAYER
  2
44
 70
     0
 62
     7
  6
CONTINUOUS
  0
LAYER
  2
45
 70
     0
 62
     7
  6
CONTINUOUS
  0
LAYER
  2
46
 70
     0
 62
     7
  6
CONTINUOUS
  0
LAYER
  2
47
 70
     0
 62
     7
  6
CONTINUOUS
  0
LAYER
  2
48
 70
     0
 62
     7
  6
CONTINUOUS
  0
LAYER
  2
49
 70
     0
 62
     7
  6
CONTINUOUS
  0
LAYER
  2
50
 70
     0
 62
     7
  6
CONTINUOUS
  0
LAYER
  2
51
 70
     0
 62
     7
  6
CONTINUOUS
  0
LAYER
  2
52
 70
     0
 62
     7
  6
CONTINUOUS
  0
LAYER
  2
53
 70
     0
 62
     7
  6
CONTINUOUS
  0
LAYER
  2
54
 70
     0
 62
     7
  6
CONTINUOUS
  0
LAYER
  2
55
 70
     0
 62
     7
  6
CONTINUOUS
  0
LAYER
  2
56
 70
     0
 62
     7
  6
CONTINUOUS
  0
LAYER
  2
57
 70
     0
 62
     7
  6
CONTINUOUS
  0
LAYER
  2
58
 70
     0
 62
     7
  6
CONTINUOUS
  0
LAYER
  2
59
 70
     0
 62
     7
  6
CONTINUOUS
  0
LAYER
  2
60
 70
     0
 62
     7
  6
CONTINUOUS
  0
LAYER
  2
61
 70
     0
 62
     7
  6
CONTINUOUS
  0
LAYER
  2
62
 70
     0
 62
     7
  6
CONTINUOUS
  0
LAYER
  2
63
 70
     0
 62
     7
  6
CONTINUOUS
  0
LAYER
  2
64
 70
     0
 62
     7
  6
CONTINUOUS
  0
LAYER
  2
65
 70
     0
 62
     7
  6
CONTINUOUS
  0
LAYER
  2
66
 70
     0
 62
     7
  6
CONTINUOUS
  0
LAYER
  2
67
 70
     0
 62
     7
  6
CONTINUOUS
  0
LAYER
  2
68
 70
     0
 62
     7
  6
CONTINUOUS
  0
LAYER
  2
69
 70
     0
 62
     7
  6
CONTINUOUS
  0
LAYER
  2
70
 70
     0
 62
     7
  6
CONTINUOUS
  0
LAYER
  2
71
 70
     0
 62
     7
  6
CONTINUOUS
  0
LAYER
  2
72
 70
     0
 62
     7
  6
CONTINUOUS
  0
LAYER
  2
73
 70
     0
 62
     7
  6
CONTINUOUS
  0
LAYER
  2
74
 70
     0
 62
     7
  6
CONTINUOUS
  0
LAYER
  2
75
 70
     0
 62
     7
  6
CONTINUOUS
  0
LAYER
  2
76
 70
     0
 62
     7
  6
CONTINUOUS
  0
LAYER
  2
77
 70
     0
 62
     7
  6
CONTINUOUS
  0
LAYER
  2
78
 70
     0
 62
     7
  6
CONTINUOUS
  0
LAYER
  2
79
 70
     0
 62
     7
  6
CONTINUOUS
  0
LAYER
  2
80
 70
     0
 62
     7
  6
CONTINUOUS
  0
LAYER
  2
81
 70
     0
 62
     7
  6
CONTINUOUS
  0
LAYER
  2
82
 70
     0
 62
     7
  6
CONTINUOUS
  0
LAYER
  2
83
 70
     0
 62
     7
  6
CONTINUOUS
  0
LAYER
  2
84
 70
     0
 62
     7
  6
CONTINUOUS
  0
LAYER
  2
85
 70
     0
 62
     7
  6
CONTINUOUS
  0
LAYER
  2
86
 70
     0
 62
     7
  6
CONTINUOUS
  0
LAYER
  2
87
 70
     0
 62
     7
  6
CONTINUOUS
  0
LAYER
  2
88
 70
     0
 62
     7
  6
CONTINUOUS
  0
LAYER
  2
89
 70
     0
 62
     7
  6
CONTINUOUS
  0
LAYER
  2
90
 70
     0
 62
     7
  6
CONTINUOUS
  0
LAYER
  2
91
 70
     0
 62
     7
  6
CONTINUOUS
  0
LAYER
  2
92
 70
     0
 62
     7
  6
CONTINUOUS
  0
LAYER
  2
93
 70
     0
 62
     7
  6
CONTINUOUS
  0
LAYER
  2
94
 70
     0
 62
     7
  6
CONTINUOUS
  0
LAYER
  2
95
 70
     0
 62
     7
  6
CONTINUOUS
  0
LAYER
  2
96
 70
     0
 62
     7
  6
CONTINUOUS
  0
LAYER
  2
97
 70
     0
 62
     7
  6
CONTINUOUS
  0
LAYER
  2
98
 70
     0
 62
     7
  6
CONTINUOUS
  0
LAYER
  2
99
 70
     0
 62
     7
  6
CONTINUOUS
  0
LAYER
  2
100
 70
     0
 62
     7
  6
CONTINUOUS
  0
LAYER
  2
101
 70
     0
 62
     7
  6
CONTINUOUS
  0
LAYER
  2
102
 70
     0
 62
     7
  6
CONTINUOUS
  0
LAYER
  2
103
 70
     0
 62
     7
  6
CONTINUOUS
  0
LAYER
  2
104
 70
     0
 62
     7
  6
CONTINUOUS
  0
LAYER
  2
105
 70
     0
 62
     7
  6
CONTINUOUS
  0
LAYER
  2
106
 70
     0
 62
     7
  6
CONTINUOUS
  0
LAYER
  2
107
 70
     0
 62
     7
  6
CONTINUOUS
  0
LAYER
  2
108
 70
     0
 62
     7
  6
CONTINUOUS
  0
LAYER
  2
109
 70
     0
 62
     7
  6
CONTINUOUS
  0
LAYER
  2
110
 70
     0
 62
     7
  6
CONTINUOUS
  0
LAYER
  2
111
 70
     0
 62
     7
  6
CONTINUOUS
  0
LAYER
  2
112
 70
     0
 62
     7
  6
CONTINUOUS
  0
LAYER
  2
113
 70
     0
 62
     7
  6
CONTINUOUS
  0
LAYER
  2
114
 70
     0
 62
     7
  6
CONTINUOUS
  0
LAYER
  2
115
 70
     0
 62
     7
  6
CONTINUOUS
  0
LAYER
  2
116
 70
     0
 62
     7
  6
CONTINUOUS
  0
LAYER
  2
117
 70
     0
 62
     7
  6
CONTINUOUS
  0
LAYER
  2
118
 70
     0
 62
     7
  6
CONTINUOUS
  0
LAYER
  2
119
 70
     0
 62
     7
  6
CONTINUOUS
  0
LAYER
  2
120
 70
     0
 62
     7
  6
CONTINUOUS
  0
LAYER
  2
121
 70
     0
 62
     7
  6
CONTINUOUS
  0
LAYER
  2
122
 70
     0
 62
     7
  6
CONTINUOUS
  0
LAYER
  2
123
 70
     0
 62
     7
  6
CONTINUOUS
  0
LAYER
  2
124
 70
     0
 62
     7
  6
CONTINUOUS
  0
LAYER
  2
125
 70
     0
 62
     7
  6
CONTINUOUS
  0
LAYER
  2
126
 70
     0
 62
     7
  6
CONTINUOUS
  0
LAYER
  2
127
 70
     0
 62
     7
  6
CONTINUOUS
  0
LAYER
  2
128
 70
     0
 62
     7
  6
CONTINUOUS
  0
ENDTAB
  0
TABLE
  2
STYLE
 70
    16
  0
STYLE
  2
STANDARD
 70
     0
 40
0.0
 41
1.0
 50
0.0
 71
     0
 42
0.2
  3
txt.shx
  4
extfont.shx
  0
STYLE
  2
KANJI0
 70
     0
 40
3.0
 41
0.9
 50
0.0
 71
     0
 42
3.0
  3
txt.shx
  4
extfont.shx
  0
STYLE
  2
KANJI1
 70
     0
 40
3.0
 41
0.6
 50
0.0
 71
     0
 42
3.0
  3
txt.shx
  4
extfont.shx
  0
STYLE
  2
KANJI2
 70
     0
 40
1.8
 41
0.6
 50
0.0
 71
     0
 42
1.8
  3
txt.shx
  4
extfont.shx
  0
STYLE
  2
KANJI3
 70
     0
 40
3.0
 41
0.6
 50
0.0
 71
     0
 42
3.0
  3
txt.shx
  4
extfont.shx
  0
STYLE
  2
KANJI4
 70
     0
 40
3.0
 41
0.9
 50
0.0
 71
     0
 42
3.0
  3
txt.shx
  4
extfont.shx
  0
STYLE
  2
KANJI5
 70
     0
 40
3.0
 41
0.9
 50
0.0
 71
     0
 42
3.0
  3
txt.shx
  4
extfont.shx
  0
STYLE
  2
KANJI6
 70
     0
 40
3.0
 41
0.45
 50
0.0
 71
     0
 42
3.0
  3
txt.shx
  4
extfont.shx
  0
STYLE
  2
KANJI7
 70
     0
 40
2.5
 41
0.72
 50
0.0
 71
     0
 42
2.5
  3
txt.shx
  4
extfont.shx
  0
STYLE
  2
KANJI8
 70
     0
 40
6.0
 41
0.9
 50
0.0
 71
     0
 42
6.0
  3
txt.shx
  4
extfont.shx
  0
STYLE
  2
KANJI9
 70
     0
 40
3.0
 41
0.9
 50
0.0
 71
     0
 42
3.0
  3
txt.shx
  4
extfont.shx
  0
STYLE
  2
KANJI10
 70
     0
 40
3.0
 41
0.9
 50
0.0
 71
     0
 42
3.0
  3
txt.shx
  4
extfont.shx
  0
STYLE
  2
KANJI11
 70
     0
 40
4.0
 41
0.9
 50
0.0
 71
     0
 42
4.0
  3
txt.shx
  4
extfont.shx
  0
STYLE
  2
KANJI12
 70
     0
 40
3.0
 41
0.833333333
 50
0.0
 71
     0
 42
3.0
  3
txt.shx
  4
extfont.shx
  0
STYLE
  2
KANJI13
 70
     0
 40
5.0
 41
0.9
 50
0.0
 71
     0
 42
5.0
  3
txt.shx
  4
extfont.shx
  0
STYLE
  2
KANJI14
 70
     0
 40
3.0
 41
0.6
 50
0.0
 71
     0
 42
3.0
  3
txt.shx
  4
extfont.shx
  0
ENDTAB
  0
TABLE
  2
VIEW
 70
     0
  0
ENDTAB
  0
ENDSEC
  0
SECTION
  2
BLOCKS
  0
ENDSEC
  0
SECTION
  2
ENTITIES
  0
ARC
  8
0
  6
CONTINUOUS
 62
     1
 10
77.7
 20
101.2
 30
0.0
 40
3.0
 50
270.0
 51
0.0
  0
LINE
  8
0
  6
CONTINUOUS
 62
     1
 10
80.7
 20
101.2
 30
0.0
 11
80.7
 21
150.2
 31
0.0
  0
ARC
  8
0
  6
CONTINUOUS
 62
     1
 10
77.7
 20
150.2
 30
0.0
 40
3.0
 50
0.0
 51
90.0
  0
LINE
  8
0
  6
CONTINUOUS
 62
     1
 10
77.7
 20
153.2
 30
0.0
 11
28.7
 21
153.2
 31
0.0
  0
ARC
  8
0
  6
CONTINUOUS
 62
     1
 10
28.7
 20
150.2
 30
0.0
 40
3.0
 50
90.0
 51
180.0
  0
LINE
  8
0
  6
CONTINUOUS
 62
     1
 10
28.7
 20
98.2
 30
0.0
 11
77.7
 21
98.2
 31
0.0
  0
LINE
  8
0
  6
CONTINUOUS
 62
     1
 10
25.7
 20
150.2
 30
0.0
 11
25.7
 21
101.2
 31
0.0
  0
ARC
  8
0
  6
CONTINUOUS
 62
     1
 10
28.7
 20
101.2
 30
0.0
 40
3.0
 50
180.0
 51
270.0
  0
CIRCLE
  8
0
  6
CONTINUOUS
 62
     1
 10
53.2
 20
125.7
 30
0.0
 40
25.5
  0
LINE
  8
0
  6
CONTINUOUS
 62
     1
 10
102.8
 20
153.175
 30
0.0
 11
97.55
 21
153.175
 31
0.0
  0
ARC
  8
0
  6
CONTINUOUS
 62
     1
 10
97.55
 20
152.675
 30
0.0
 40
0.5
 50
90.0
 51
180.0
  0
LINE
  8
0
  6
CONTINUOUS
 62
     1
 10
97.05
 20
151.175
 30
0.0
 11
93.55
 21
151.175
 31
0.0
  0
ARC
  8
0
  6
CONTINUOUS
 62
     1
 10
93.55
 20
150.925
 30
0.0
 40
0.25
 50
90.0
 51
180.0
  0
LINE
  8
0
  6
CONTINUOUS
 62
     1
 10
102.8
 20
98.175
 30
0.0
 11
97.55
 21
98.175
 31
0.0
  0
ARC
  8
0
  6
CONTINUOUS
 62
     1
 10
97.55
 20
98.675
 30
0.0
 40
0.5
 50
180.0
 51
270.0
  0
LINE
  8
0
  6
CONTINUOUS
 62
     1
 10
97.05
 20
100.175
 30
0.0
 11
93.55
 21
100.175
 31
0.0
  0
ARC
  8
0
  6
CONTINUOUS
 62
     1
 10
93.55
 20
100.425
 30
0.0
 40
0.25
 50
180.0
 51
270.0
  0
LINE
  8
0
  6
CONTINUOUS
 62
     1
 10
92.5
 20
123.425
 30
0.0
 11
93.3
 21
100.425
 31
0.0
  0
LINE
  8
0
  6
CONTINUOUS
 62
     1
 10
97.05
 20
98.675
 30
0.0
 11
97.05
 21
125.675
 31
0.0
  0
LINE
  8
0
  6
CONTINUOUS
 62
     1
 10
92.477077922
 20
127.265990258
 30
0.0
 11
93.3
 21
150.925
 31
0.0
  0
LINE
  8
0
  6
CONTINUOUS
 62
     1
 10
97.05
 20
152.675
 30
0.0
 11
97.05
 21
151.325
 31
0.0
  0
LINE
  8
0
  6
CONTINUOUS
 62
     1
 10
102.8
 20
153.175
 30
0.0
 11
102.8
 21
152.525
 31
0.0
  0
LINE
  8
0
  6
CONTINUOUS
 62
     1
 10
97.05
 20
151.325
 30
0.0
 11
97.05
 21
151.175
 31
0.0
  0
LINE
  8
0
  6
CONTINUOUS
 62
     1
 10
102.8
 20
152.525
 30
0.0
 11
102.8
 21
125.925
 31
0.0
  0
LINE
  8
0
  6
CONTINUOUS
 62
     1
 10
102.8
 20
125.925
 30
0.0
 11
102.8
 21
98.175
 31
0.0
  0
LINE
  8
0
  6
CONTINUOUS
 62
     1
 10
97.05
 20
125.7
 30
0.0
 11
97.05
 21
151.175
 31
0.0
  0
LINE
  8
0
  6
CONTINUOUS
 62
     1
 10
142.8
 20
150.45
 30
0.0
 11
142.8
 21
100.95
 31
0.0
  0
LINE
  8
0
  6
CONTINUOUS
 62
     1
 10
144.8
 20
100.95
 30
0.0
 11
108.6
 21
100.95
 31
0.0
  0
ARC
  8
0
  6
CONTINUOUS
 62
     1
 10
144.8
 20
101.45
 30
0.0
 40
0.5
 50
270.0
 51
0.0
  0
LINE
  8
0
  6
CONTINUOUS
 62
     1
 10
108.55
 20
150.45
 30
0.0
 11
144.8
 21
150.45
 31
0.0
  0
LINE
  8
0
  6
CONTINUOUS
 62
     1
 10
145.3
 20
149.95
 30
0.0
 11
145.3
 21
101.45
 31
0.0
  0
ARC
  8
0
  6
CONTINUOUS
 62
     1
 10
144.8
 20
149.95
 30
0.0
 40
0.5
 50
0.0
 51
90.0
  0
LINE
  8
0
  6
CONTINUOUS
 62
     1
 10
97.05
 20
143.675
 30
0.0
 11
97.05
 21
152.675001907
 31
0.0
  0
ARC
  8
0
  6
CONTINUOUS
 62
     1
 10
211.1
 20
101.2
 30
0.0
 40
3.0
 50
270.0
 51
0.0
  0
LINE
  8
0
  6
CONTINUOUS
 62
     1
 10
162.1
 20
98.2
 30
0.0
 11
211.1
 21
98.2
 31
0.0
  0
ARC
  8
0
  6
CONTINUOUS
 62
     1
 10
162.1
 20
101.2
 30
0.0
 40
3.0
 50
180.0
 51
270.0
  0
LINE
  8
0
  6
CONTINUOUS
 62
     1
 10
159.1
 20
150.2
 30
0.0
 11
159.1
 21
101.2
 31
0.0
  0
ARC
  8
0
  6
CONTINUOUS
 62
     1
 10
162.1
 20
150.2
 30
0.0
 40
3.0
 50
90.0
 51
180.0
  0
LINE
  8
0
  6
CONTINUOUS
 62
     1
 10
214.1
 20
101.2
 30
0.0
 11
214.1
 21
150.2
 31
0.0
  0
LINE
  8
0
  6
CONTINUOUS
 62
     1
 10
211.1
 20
153.2
 30
0.0
 11
162.1
 21
153.2
 31
0.0
  0
ARC
  8
0
  6
CONTINUOUS
 62
     1
 10
211.1
 20
150.2
 30
0.0
 40
3.0
 50
0.0
 51
90.0
  0
CIRCLE
  8
0
  6
CONTINUOUS
 62
     1
 10
186.6
 20
125.7
 30
0.0
 40
24.75
  0
CIRCLE
  8
0
  6
CONTINUOUS
 62
     1
 10
186.6
 20
54.85
 30
0.0
 40
25.5
  0
CIRCLE
  8
0
  6
CONTINUOUS
 62
     1
 10
164.1
 20
77.35
 30
0.0
 40
1.75
  0
CIRCLE
  8
0
  6
CONTINUOUS
 62
     1
 10
164.1
 20
32.35
 30
0.0
 40
1.75
  0
CIRCLE
  8
0
  6
CONTINUOUS
 62
     1
 10
209.1
 20
32.35
 30
0.0
 40
1.75
  0
CIRCLE
  8
0
  6
CONTINUOUS
 62
     1
 10
209.1
 20
77.35
 30
0.0
 40
1.75
  0
TEXT
  8
0
  6
CONTINUOUS
 62
     1
 10
177.45
 20
20.6
 30
0.5
 40
3.0
  1
パネルカット
 50
0.0
 41
0.9
 51
0.0
  7
KANJI0
  0
LINE
  8
0
  6
LTYPE1
 62
     2
 10
53.2
 20
157.2
 30
0.0
 11
53.2
 21
90.7
 31
0.0
  0
CIRCLE
  8
0
  6
CONTINUOUS
 62
     2
 10
75.7
 20
148.2
 30
0.0
 40
1.5
  0
LINE
  8
0
  6
CONTINUOUS
 62
     2
 10
74.825
 20
148.4
 30
0.0
 11
75.3
 21
148.4
 31
0.0
  0
ARC
  8
0
  6
CONTINUOUS
 62
     2
 10
75.3
 20
148.6
 30
0.0
 40
0.2
 50
270.0
 51
0.0
  0
LINE
  8
0
  6
CONTINUOUS
 62
     2
 10
75.5
 20
148.6
 30
0.0
 11
75.5
 21
149.075
 31
0.0
  0
LINE
  8
0
  6
CONTINUOUS
 62
     2
 10
75.5
 20
149.075
 30
0.0
 11
75.9
 21
149.075
 31
0.0
  0
LINE
  8
0
  6
CONTINUOUS
 62
     2
 10
75.9
 20
149.075
 30
0.0
 11
75.9
 21
148.6
 31
0.0
  0
ARC
  8
0
  6
CONTINUOUS
 62
     2
 10
76.1
 20
148.6
 30
0.0
 40
0.2
 50
180.0
 51
270.0
  0
LINE
  8
0
  6
CONTINUOUS
 62
     2
 10
76.1
 20
148.4
 30
0.0
 11
76.575
 21
148.4
 31
0.0
  0
LINE
  8
0
  6
CONTINUOUS
 62
     2
 10
76.575
 20
148.4
 30
0.0
 11
76.575
 21
148.0
 31
0.0
  0
LINE
  8
0
  6
CONTINUOUS
 62
     2
 10
76.575
 20
148.0
 30
0.0
 11
76.1
 21
148.0
 31
0.0
  0
ARC
  8
0
  6
CONTINUOUS
 62
     2
 10
76.1
 20
147.8
 30
0.0
 40
0.2
 50
90.0
 51
180.0
  0
LINE
  8
0
  6
CONTINUOUS
 62
     2
 10
75.9
 20
147.8
 30
0.0
 11
75.9
 21
147.325
 31
0.0
  0
LINE
  8
0
  6
CONTINUOUS
 62
     2
 10
75.9
 20
147.325
 30
0.0
 11
75.5
 21
147.325
 31
0.0
  0
LINE
  8
0
  6
CONTINUOUS
 62
     2
 10
75.5
 20
147.325
 30
0.0
 11
75.5
 21
147.8
 31
0.0
  0
ARC
  8
0
  6
CONTINUOUS
 62
     2
 10
75.3
 20
147.8
 30
0.0
 40
0.2
 50
0.0
 51
90.0
  0
LINE
  8
0
  6
CONTINUOUS
 62
     2
 10
75.3
 20
148.0
 30
0.0
 11
74.825
 21
148.0
 31
0.0
  0
LINE
  8
0
  6
CONTINUOUS
 62
     2
 10
74.825
 20
148.0
 30
0.0
 11
74.825
 21
148.4
 31
0.0
  0
LINE
  8
0
  6
LTYPE2
 62
     2
 10
73.7
 20
148.2
 30
0.0
 11
77.7
 21
148.2
 31
0.0
  0
LINE
  8
0
  6
LTYPE2
 62
     2
 10
75.7
 20
150.2
 30
0.0
 11
75.7
 21
146.2
 31
0.0
  0
CIRCLE
  8
0
  6
CONTINUOUS
 62
     2
 10
30.7
 20
148.2
 30
0.0
 40
1.5
  0
LINE
  8
0
  6
CONTINUOUS
 62
     2
 10
29.825
 20
148.4
 30
0.0
 11
30.3
 21
148.4
 31
0.0
  0
ARC
  8
0
  6
CONTINUOUS
 62
     2
 10
30.3
 20
148.6
 30
0.0
 40
0.2
 50
270.0
 51
0.0
  0
LINE
  8
0
  6
CONTINUOUS
 62
     2
 10
30.5
 20
148.6
 30
0.0
 11
30.5
 21
149.075
 31
0.0
  0
LINE
  8
0
  6
CONTINUOUS
 62
     2
 10
30.5
 20
149.075
 30
0.0
 11
30.9
 21
149.075
 31
0.0
  0
LINE
  8
0
  6
CONTINUOUS
 62
     2
 10
30.9
 20
149.075
 30
0.0
 11
30.9
 21
148.6
 31
0.0
  0
ARC
  8
0
  6
CONTINUOUS
 62
     2
 10
31.1
 20
148.6
 30
0.0
 40
0.2
 50
180.0
 51
270.0
  0
LINE
  8
0
  6
CONTINUOUS
 62
     2
 10
31.1
 20
148.4
 30
0.0
 11
31.575
 21
148.4
 31
0.0
  0
LINE
  8
0
  6
CONTINUOUS
 62
     2
 10
31.575
 20
148.4
 30
0.0
 11
31.575
 21
148.0
 31
0.0
  0
LINE
  8
0
  6
CONTINUOUS
 62
     2
 10
31.575
 20
148.0
 30
0.0
 11
31.1
 21
148.0
 31
0.0
  0
ARC
  8
0
  6
CONTINUOUS
 62
     2
 10
31.1
 20
147.8
 30
0.0
 40
0.2
 50
90.0
 51
180.0
  0
LINE
  8
0
  6
CONTINUOUS
 62
     2
 10
30.9
 20
147.8
 30
0.0
 11
30.9
 21
147.325
 31
0.0
  0
LINE
  8
0
  6
CONTINUOUS
 62
     2
 10
30.9
 20
147.325
 30
0.0
 11
30.5
 21
147.325
 31
0.0
  0
LINE
  8
0
  6
CONTINUOUS
 62
     2
 10
30.5
 20
147.325
 30
0.0
 11
30.5
 21
147.8
 31
0.0
  0
ARC
  8
0
  6
CONTINUOUS
 62
     2
 10
30.3
 20
147.8
 30
0.0
 40
0.2
 50
0.0
 51
90.0
  0
LINE
  8
0
  6
CONTINUOUS
 62
     2
 10
30.3
 20
148.0
 30
0.0
 11
29.825
 21
148.0
 31
0.0
  0
LINE
  8
0
  6
CONTINUOUS
 62
     2
 10
29.825
 20
148.0
 30
0.0
 11
29.825
 21
148.4
 31
0.0
  0
LINE
  8
0
  6
LTYPE2
 62
     2
 10
28.7
 20
148.2
 30
0.0
 11
32.7
 21
148.2
 31
0.0
  0
LINE
  8
0
  6
LTYPE2
 62
     2
 10
30.7
 20
150.2
 30
0.0
 11
30.7
 21
146.2
 31
0.0
  0
CIRCLE
  8
0
  6
CONTINUOUS
 62
     2
 10
30.7
 20
103.2
 30
0.0
 40
1.5
  0
LINE
  8
0
  6
CONTINUOUS
 62
     2
 10
29.825
 20
103.4
 30
0.0
 11
30.3
 21
103.4
 31
0.0
  0
ARC
  8
0
  6
CONTINUOUS
 62
     2
 10
30.3
 20
103.6
 30
0.0
 40
0.2
 50
270.0
 51
0.0
  0
LINE
  8
0
  6
CONTINUOUS
 62
     2
 10
30.5
 20
103.6
 30
0.0
 11
30.5
 21
104.075
 31
0.0
  0
LINE
  8
0
  6
CONTINUOUS
 62
     2
 10
30.5
 20
104.075
 30
0.0
 11
30.9
 21
104.075
 31
0.0
  0
LINE
  8
0
  6
CONTINUOUS
 62
     2
 10
30.9
 20
104.075
 30
0.0
 11
30.9
 21
103.6
 31
0.0
  0
ARC
  8
0
  6
CONTINUOUS
 62
     2
 10
31.1
 20
103.6
 30
0.0
 40
0.2
 50
180.0
 51
270.0
  0
LINE
  8
0
  6
CONTINUOUS
 62
     2
 10
31.1
 20
103.4
 30
0.0
 11
31.575
 21
103.4
 31
0.0
  0
LINE
  8
0
  6
CONTINUOUS
 62
     2
 10
31.575
 20
103.4
 30
0.0
 11
31.575
 21
103.0
 31
0.0
  0
LINE
  8
0
  6
CONTINUOUS
 62
     2
 10
31.575
 20
103.0
 30
0.0
 11
31.1
 21
103.0
 31
0.0
  0
ARC
  8
0
  6
CONTINUOUS
 62
     2
 10
31.1
 20
102.8
 30
0.0
 40
0.2
 50
90.0
 51
180.0
  0
LINE
  8
0
  6
CONTINUOUS
 62
     2
 10
30.9
 20
102.8
 30
0.0
 11
30.9
 21
102.325
 31
0.0
  0
LINE
  8
0
  6
CONTINUOUS
 62
     2
 10
30.9
 20
102.325
 30
0.0
 11
30.5
 21
102.325
 31
0.0
  0
LINE
  8
0
  6
CONTINUOUS
 62
     2
 10
30.5
 20
102.325
 30
0.0
 11
30.5
 21
102.8
 31
0.0
  0
ARC
  8
0
  6
CONTINUOUS
 62
     2
 10
30.3
 20
102.8
 30
0.0
 40
0.2
 50
0.0
 51
90.0
  0
LINE
  8
0
  6
CONTINUOUS
 62
     2
 10
30.3
 20
103.0
 30
0.0
 11
29.825
 21
103.0
 31
0.0
  0
LINE
  8
0
  6
CONTINUOUS
 62
     2
 10
29.825
 20
103.0
 30
0.0
 11
29.825
 21
103.4
 31
0.0
  0
LINE
  8
0
  6
LTYPE2
 62
     2
 10
28.7
 20
103.2
 30
0.0
 11
32.7
 21
103.2
 31
0.0
  0
LINE
  8
0
  6
LTYPE2
 62
     2
 10
30.7
 20
105.2
 30
0.0
 11
30.7
 21
101.2
 31
0.0
  0
CIRCLE
  8
0
  6
CONTINUOUS
 62
     2
 10
75.7
 20
103.2
 30
0.0
 40
1.5
  0
LINE
  8
0
  6
CONTINUOUS
 62
     2
 10
74.825
 20
103.4
 30
0.0
 11
75.3
 21
103.4
 31
0.0
  0
ARC
  8
0
  6
CONTINUOUS
 62
     2
 10
75.3
 20
103.6
 30
0.0
 40
0.2
 50
270.0
 51
0.0
  0
LINE
  8
0
  6
CONTINUOUS
 62
     2
 10
75.5
 20
103.6
 30
0.0
 11
75.5
 21
104.075
 31
0.0
  0
LINE
  8
0
  6
CONTINUOUS
 62
     2
 10
75.5
 20
104.075
 30
0.0
 11
75.9
 21
104.075
 31
0.0
  0
LINE
  8
0
  6
CONTINUOUS
 62
     2
 10
75.9
 20
104.075
 30
0.0
 11
75.9
 21
103.6
 31
0.0
  0
ARC
  8
0
  6
CONTINUOUS
 62
     2
 10
76.1
 20
103.6
 30
0.0
 40
0.2
 50
180.0
 51
270.0
  0
LINE
  8
0
  6
CONTINUOUS
 62
     2
 10
76.1
 20
103.4
 30
0.0
 11
76.575
 21
103.4
 31
0.0
  0
LINE
  8
0
  6
CONTINUOUS
 62
     2
 10
76.575
 20
103.4
 30
0.0
 11
76.575
 21
103.0
 31
0.0
  0
LINE
  8
0
  6
CONTINUOUS
 62
     2
 10
76.575
 20
103.0
 30
0.0
 11
76.1
 21
103.0
 31
0.0
  0
ARC
  8
0
  6
CONTINUOUS
 62
     2
 10
76.1
 20
102.8
 30
0.0
 40
0.2
 50
90.0
 51
180.0
  0
LINE
  8
0
  6
CONTINUOUS
 62
     2
 10
75.9
 20
102.8
 30
0.0
 11
75.9
 21
102.325
 31
0.0
  0
LINE
  8
0
  6
CONTINUOUS
 62
     2
 10
75.9
 20
102.325
 30
0.0
 11
75.5
 21
102.325
 31
0.0
  0
LINE
  8
0
  6
CONTINUOUS
 62
     2
 10
75.5
 20
102.325
 30
0.0
 11
75.5
 21
102.8
 31
0.0
  0
ARC
  8
0
  6
CONTINUOUS
 62
     2
 10
75.3
 20
102.8
 30
0.0
 40
0.2
 50
0.0
 51
90.0
  0
LINE
  8
0
  6
CONTINUOUS
 62
     2
 10
75.3
 20
103.0
 30
0.0
 11
74.825
 21
103.0
 31
0.0
  0
LINE
  8
0
  6
CONTINUOUS
 62
     2
 10
74.825
 20
103.0
 30
0.0
 11
74.825
 21
103.4
 31
0.0
  0
LINE
  8
0
  6
LTYPE2
 62
     2
 10
73.7
 20
103.2
 30
0.0
 11
77.7
 21
103.2
 31
0.0
  0
LINE
  8
0
  6
LTYPE2
 62
     2
 10
75.7
 20
105.2
 30
0.0
 11
75.7
 21
101.2
 31
0.0
  0
CIRCLE
  8
0
  6
CONTINUOUS
 62
     2
 10
53.2
 20
125.7
 30
0.0
 40
8.5
  0
CIRCLE
  8
0
  6
CONTINUOUS
 62
     2
 10
53.2
 20
125.7
 30
0.0
 40
7.8
  0
CIRCLE
  8
0
  6
CONTINUOUS
 62
     2
 10
53.2
 20
125.7
 30
0.0
 40
7.1
  0
CIRCLE
  8
0
  6
CONTINUOUS
 62
     2
 10
53.2
 20
125.7
 30
0.0
 40
6.4
  0
CIRCLE
  8
0
  6
CONTINUOUS
 62
     2
 10
53.2
 20
125.7
 30
0.0
 40
5.7
  0
CIRCLE
  8
0
  6
CONTINUOUS
 62
     2
 10
53.2
 20
125.7
 30
0.0
 40
5.0
  0
CIRCLE
  8
0
  6
CONTINUOUS
 62
     2
 10
53.2
 20
125.7
 30
0.0
 40
4.3
  0
CIRCLE
  8
0
  6
CONTINUOUS
 62
     2
 10
53.2
 20
125.7
 30
0.0
 40
3.6
  0
CIRCLE
  8
0
  6
CONTINUOUS
 62
     2
 10
53.2
 20
125.7
 30
0.0
 40
24.25
  0
CIRCLE
  8
0
  6
CONTINUOUS
 62
     2
 10
53.2
 20
125.7
 30
0.0
 40
21.0
  0
CIRCLE
  8
0
  6
CONTINUOUS
 62
     2
 10
44.7
 20
110.2
 30
0.0
 40
1.5
  0
LINE
  8
0
  6
CONTINUOUS
 62
     2
 10
43.93986021
 20
109.722702923
 30
0.0
 11
44.275735931
 21
110.058578644
 31
0.0
  0
ARC
  8
0
  6
CONTINUOUS
 62
     2
 10
44.134314575
 20
110.2
 30
0.0
 40
0.2
 50
315.0
 51
45.0
  0
LINE
  8
0
  6
CONTINUOUS
 62
     2
 10
44.275735931
 20
110.341421356
 30
0.0
 11
43.93986021
 21
110.677297077
 31
0.0
  0
LINE
  8
0
  6
CONTINUOUS
 62
     2
 10
43.93986021
 20
110.677297077
 30
0.0
 11
44.222702923
 21
110.96013979
 31
0.0
  0
LINE
  8
0
  6
CONTINUOUS
 62
     2
 10
44.222702923
 20
110.96013979
 30
0.0
 11
44.558578644
 21
110.624264069
 31
0.0
  0
ARC
  8
0
  6
CONTINUOUS
 62
     2
 10
44.7
 20
110.765685425
 30
0.0
 40
0.2
 50
225.0
 51
315.0
  0
LINE
  8
0
  6
CONTINUOUS
 62
     2
 10
44.841421356
 20
110.624264069
 30
0.0
 11
45.177297077
 21
110.96013979
 31
0.0
  0
LINE
  8
0
  6
CONTINUOUS
 62
     2
 10
45.177297077
 20
110.96013979
 30
0.0
 11
45.46013979
 21
110.677297077
 31
0.0
  0
LINE
  8
0
  6
CONTINUOUS
 62
     2
 10
45.46013979
 20
110.677297077
 30
0.0
 11
45.124264069
 21
110.341421356
 31
0.0
  0
ARC
  8
0
  6
CONTINUOUS
 62
     2
 10
45.265685425
 20
110.2
 30
0.0
 40
0.2
 50
135.0
 51
225.0
  0
LINE
  8
0
  6
CONTINUOUS
 62
     2
 10
45.124264069
 20
110.058578644
 30
0.0
 11
45.46013979
 21
109.722702923
 31
0.0
  0
LINE
  8
0
  6
CONTINUOUS
 62
     2
 10
45.46013979
 20
109.722702923
 30
0.0
 11
45.177297077
 21
109.43986021
 31
0.0
  0
LINE
  8
0
  6
CONTINUOUS
 62
     2
 10
45.177297077
 20
109.43986021
 30
0.0
 11
44.841421356
 21
109.775735931
 31
0.0
  0
ARC
  8
0
  6
CONTINUOUS
 62
     2
 10
44.7
 20
109.634314575
 30
0.0
 40
0.2
 50
45.0
 51
135.0
  0
LINE
  8
0
  6
CONTINUOUS
 62
     2
 10
44.558578644
 20
109.775735931
 30
0.0
 11
44.222702923
 21
109.43986021
 31
0.0
  0
LINE
  8
0
  6
CONTINUOUS
 62
     2
 10
44.222702923
 20
109.43986021
 30
0.0
 11
43.93986021
 21
109.722702923
 31
0.0
  0
CIRCLE
  8
0
  6
CONTINUOUS
 62
     2
 10
61.7
 20
110.2
 30
0.0
 40
1.5
  0
LINE
  8
0
  6
CONTINUOUS
 62
     2
 10
60.93986021
 20
109.722702923
 30
0.0
 11
61.275735931
 21
110.058578644
 31
0.0
  0
ARC
  8
0
  6
CONTINUOUS
 62
     2
 10
61.134314575
 20
110.2
 30
0.0
 40
0.2
 50
315.0
 51
45.0
  0
LINE
  8
0
  6
CONTINUOUS
 62
     2
 10
61.275735931
 20
110.341421356
 30
0.0
 11
60.93986021
 21
110.677297077
 31
0.0
  0
LINE
  8
0
  6
CONTINUOUS
 62
     2
 10
60.93986021
 20
110.677297077
 30
0.0
 11
61.222702923
 21
110.96013979
 31
0.0
  0
LINE
  8
0
  6
CONTINUOUS
 62
     2
 10
61.222702923
 20
110.96013979
 30
0.0
 11
61.558578644
 21
110.624264069
 31
0.0
  0
ARC
  8
0
  6
CONTINUOUS
 62
     2
 10
61.7
 20
110.765685425
 30
0.0
 40
0.2
 50
225.0
 51
315.0
  0
LINE
  8
0
  6
CONTINUOUS
 62
     2
 10
61.841421356
 20
110.624264069
 30
0.0
 11
62.177297077
 21
110.96013979
 31
0.0
  0
LINE
  8
0
  6
CONTINUOUS
 62
     2
 10
62.177297077
 20
110.96013979
 30
0.0
 11
62.46013979
 21
110.677297077
 31
0.0
  0
LINE
  8
0
  6
CONTINUOUS
 62
     2
 10
62.46013979
 20
110.677297077
 30
0.0
 11
62.124264069
 21
110.341421356
 31
0.0
  0
ARC
  8
0
  6
CONTINUOUS
 62
     2
 10
62.265685425
 20
110.2
 30
0.0
 40
0.2
 50
135.0
 51
225.0
  0
LINE
  8
0
  6
CONTINUOUS
 62
     2
 10
62.124264069
 20
110.058578644
 30
0.0
 11
62.46013979
 21
109.722702923
 31
0.0
  0
LINE
  8
0
  6
CONTINUOUS
 62
     2
 10
62.46013979
 20
109.722702923
 30
0.0
 11
62.177297077
 21
109.43986021
 31
0.0
  0
LINE
  8
0
  6
CONTINUOUS
 62
     2
 10
62.177297077
 20
109.43986021
 30
0.0
 11
61.841421356
 21
109.775735931
 31
0.0
  0
ARC
  8
0
  6
CONTINUOUS
 62
     2
 10
61.7
 20
109.634314575
 30
0.0
 40
0.2
 50
45.0
 51
135.0
  0
LINE
  8
0
  6
CONTINUOUS
 62
     2
 10
61.558578644
 20
109.775735931
 30
0.0
 11
61.222702923
 21
109.43986021
 31
0.0
  0
LINE
  8
0
  6
CONTINUOUS
 62
     2
 10
61.222702923
 20
109.43986021
 30
0.0
 11
60.93986021
 21
109.722702923
 31
0.0
  0
LINE
  8
0
  6
CONTINUOUS
 62
     2
 10
37.902240015
 20
118.24741391
 30
0.0
 11
35.18424919
 21
115.918245415
 31
0.0
  0
LINE
  8
0
  6
CONTINUOUS
 62
     2
 10
35.18424919
 20
115.918245415
 30
0.0
 11
38.617978155
 21
116.929188241
 31
0.0
  0
LINE
  8
0
  6
CONTINUOUS
 62
     2
 10
38.617978155
 20
116.929188241
 30
0.0
 11
46.117058939
 21
121.000856895
 31
0.0
  0
LINE
  8
0
  6
CONTINUOUS
 62
     2
 10
37.381291972
 20
117.111142315
 30
0.0
 11
45.901656687
 21
121.342915552
 31
0.0
  0
LINE
  8
0
  6
CONTINUOUS
 62
     2
 10
45.570878852
 20
121.952132538
 30
0.0
 11
37.381291972
 21
117.111142315
 31
0.0
  0
LINE
  8
0
  6
CONTINUOUS
 62
     2
 10
45.401320798
 20
122.319082564
 30
0.0
 11
37.902240015
 21
118.24741391
 31
0.0
  0
LINE
  8
0
  6
CONTINUOUS
 62
     2
 10
25.713820798
 20
151.268245415
 30
0.0
 11
25.713820798
 21
172.918245415
 31
0.0
  0
LINE
  8
0
  6
CONTINUOUS
 62
     2
 10
25.713820798
 20
170.918245415
 30
0.0
 11
28.128635364
 21
170.271197802
 31
0.0
  0
LINE
  8
0
  6
CONTINUOUS
 62
     2
 10
25.713820798
 20
170.918245415
 30
0.0
 11
28.128635364
 21
171.565293027
 31
0.0
  0
LINE
  8
0
  6
CONTINUOUS
 62
     2
 10
25.713820798
 20
170.918245415
 30
0.0
 11
80.713820798
 21
170.918245415
 31
0.0
  0
LINE
  8
0
  6
CONTINUOUS
 62
     2
 10
80.713820798
 20
170.918245415
 30
0.0
 11
78.299006233
 21
171.565293027
 31
0.0
  0
LINE
  8
0
  6
CONTINUOUS
 62
     2
 10
80.713820798
 20
170.918245415
 30
0.0
 11
78.299006233
 21
170.271197802
 31
0.0
  0
LINE
  8
0
  6
CONTINUOUS
 62
     2
 10
80.713820798
 20
151.668245415
 30
0.0
 11
80.713820798
 21
172.918245415
 31
0.0
  0
TEXT
  8
0
  6
CONTINUOUS
 62
     2
 10
47.783820798
 20
171.918245415
 30
0.3
 40
3.0
  1
１１０
 50
0.0
 41
0.6
 51
0.0
  7
KANJI1
  0
TEXT
  8
0
  6
CONTINUOUS
 62
     2
 10
53.783820798
 20
171.918245415
 30
0.18
 40
1.8
  1
±１．５
 50
0.0
 41
0.6
 51
0.0
  7
KANJI2
  0
LINE
  8
0
  6
CONTINUOUS
 62
     2
 10
28.063820798
 20
153.218245415
 30
0.0
 11
13.163820798
 21
153.218245415
 31
0.0
  0
LINE
  8
0
  6
CONTINUOUS
 62
     2
 10
15.163820798
 20
153.218245415
 30
0.0
 11
14.516773186
 21
150.803430849
 31
0.0
  0
LINE
  8
0
  6
CONTINUOUS
 62
     2
 10
15.163820798
 20
153.218245415
 30
0.0
 11
15.810868411
 21
150.803430849
 31
0.0
  0
LINE
  8
0
  6
CONTINUOUS
 62
     2
 10
15.163820798
 20
153.218245415
 30
0.0
 11
15.163820798
 21
98.218245415
 31
0.0
  0
LINE
  8
0
  6
CONTINUOUS
 62
     2
 10
15.163820798
 20
98.218245415
 30
0.0
 11
15.810868411
 21
100.63305998
 31
0.0
  0
LINE
  8
0
  6
CONTINUOUS
 62
     2
 10
15.163820798
 20
98.218245415
 30
0.0
 11
14.516773186
 21
100.63305998
 31
0.0
  0
LINE
  8
0
  6
CONTINUOUS
 62
     2
 10
28.063820798
 20
98.218245415
 30
0.0
 11
13.163820798
 21
98.218245415
 31
0.0
  0
TEXT
  8
0
  6
CONTINUOUS
 62
     2
 10
14.163820798
 20
120.288245415
 30
0.3
 40
3.0
  1
１１０
 50
90.0
 41
0.6
 51
0.0
  7
KANJI1
  0
TEXT
  8
0
  6
CONTINUOUS
 62
     2
 10
14.163820798
 20
126.288245415
 30
0.18
 40
1.8
  1
±１．５
 50
90.0
 41
0.6
 51
0.0
  7
KANJI2
  0
LINE
  8
0
  6
CONTINUOUS
 62
     2
 10
97.05
 20
104.425
 30
0.0
 11
96.95
 21
104.425
 31
0.0
  0
LINE
  8
0
  6
CONTINUOUS
 62
     2
 10
96.95
 20
104.425
 30
0.0
 11
96.95
 21
101.925
 31
0.0
  0
LINE
  8
0
  6
CONTINUOUS
 62
     2
 10
96.95
 20
101.925
 30
0.0
 11
97.05
 21
101.925
 31
0.0
  0
LINE
  8
0
  6
CONTINUOUS
 62
     2
 10
102.8
 20
145.2
 30
0.0
 11
103.05
 21
145.2
 31
0.0
  0
LINE
  8
0
  6
CONTINUOUS
 62
     2
 10
103.05
 20
145.2
 30
0.0
 11
103.05
 21
151.2
 31
0.0
  0
LINE
  8
0
  6
CONTINUOUS
 62
     2
 10
103.05
 20
151.2
 30
0.0
 11
102.8
 21
151.2
 31
0.0
  0
LINE
  8
0
  6
CONTINUOUS
 62
     2
 10
108.55
 20
149.7
 30
0.0
 11
110.55
 21
149.7
 31
0.0
  0
LINE
  8
0
  6
CONTINUOUS
 62
     2
 10
110.55
 20
149.7
 30
0.0
 11
110.55
 21
146.7
 31
0.0
  0
LINE
  8
0
  6
CONTINUOUS
 62
     2
 10
110.55
 20
146.7
 30
0.0
 11
108.55
 21
146.7
 31
0.0
  0
LINE
  8
0
  6
LTYPE1
 62
     2
 10
101.0
 20
148.2
 30
0.0
 11
112.85
 21
148.2
 31
0.0
  0
ARC
  8
0
  6
CONTINUOUS
 62
     2
 10
103.55
 20
148.2
 30
0.0
 40
5.0
 50
343.5
 51
16.5
  0
ARC
  8
0
  6
CONTINUOUS
 62
     2
 10
111.05
 20
148.2
 30
0.0
 40
5.0
 50
163.5
 51
196.3
  0
ARC
  8
0
  6
CONTINUOUS
 62
     2
 10
107.3
 20
150.325
 30
0.0
 40
1.25
 50
325.0
 51
35.0
  0
ARC
  8
0
  6
CONTINUOUS
 62
     2
 10
107.3
 20
150.325
 30
0.0
 40
1.25
 50
145.0
 51
215.0
  0
ARC
  8
0
  6
CONTINUOUS
 62
     2
 10
107.3
 20
146.075
 30
0.0
 40
1.25
 50
145.0
 51
215.0
  0
ARC
  8
0
  6
CONTINUOUS
 62
     2
 10
107.3
 20
146.075
 30
0.0
 40
1.25
 50
325.0
 51
35.0
  0
LINE
  8
0
  6
CONTINUOUS
 62
     2
 10
106.25097354
 20
146.796666455
 30
0.0
 11
108.32597354
 21
146.796666455
 31
0.0
  0
LINE
  8
0
  6
CONTINUOUS
 62
     2
 10
108.344098674
 20
149.620076724
 30
0.0
 11
106.255901326
 21
149.620076724
 31
0.0
  0
LINE
  8
0
  6
CONTINUOUS
 62
     2
 10
108.55
 20
146.075
 30
0.0
 11
108.55
 21
150.325
 31
0.0
  0
LINE
  8
0
  6
CONTINUOUS
 62
     2
 10
108.555
 20
146.825
 30
0.0
 11
110.53
 21
146.825
 31
0.0
  0
LINE
  8
0
  6
CONTINUOUS
 62
     2
 10
110.55
 20
149.585
 30
0.0
 11
108.56
 21
149.585
 31
0.0
  0
LINE
  8
0
  6
CONTINUOUS
 62
     2
 10
102.8
 20
100.2
 30
0.0
 11
103.05
 21
100.2
 31
0.0
  0
LINE
  8
0
  6
CONTINUOUS
 62
     2
 10
103.05
 20
100.2
 30
0.0
 11
103.05
 21
106.2
 31
0.0
  0
LINE
  8
0
  6
CONTINUOUS
 62
     2
 10
103.05
 20
106.2
 30
0.0
 11
102.8
 21
106.2
 31
0.0
  0
LINE
  8
0
  6
CONTINUOUS
 62
     2
 10
108.55
 20
104.7
 30
0.0
 11
110.55
 21
104.7
 31
0.0
  0
LINE
  8
0
  6
CONTINUOUS
 62
     2
 10
110.55
 20
104.7
 30
0.0
 11
110.55
 21
101.7
 31
0.0
  0
LINE
  8
0
  6
CONTINUOUS
 62
     2
 10
110.55
 20
101.7
 30
0.0
 11
108.55
 21
101.7
 31
0.0
  0
LINE
  8
0
  6
LTYPE1
 62
     2
 10
101.0
 20
103.2
 30
0.0
 11
112.85
 21
103.2
 31
0.0
  0
ARC
  8
0
  6
CONTINUOUS
 62
     2
 10
103.55
 20
103.2
 30
0.0
 40
5.0
 50
343.5
 51
16.5
  0
ARC
  8
0
  6
CONTINUOUS
 62
     2
 10
111.05
 20
103.2
 30
0.0
 40
5.0
 50
163.5
 51
196.3
  0
ARC
  8
0
  6
CONTINUOUS
 62
     2
 10
107.3
 20
105.325
 30
0.0
 40
1.25
 50
325.0
 51
35.0
  0
ARC
  8
0
  6
CONTINUOUS
 62
     2
 10
107.3
 20
105.325
 30
0.0
 40
1.25
 50
145.0
 51
215.0
  0
ARC
  8
0
  6
CONTINUOUS
 62
     2
 10
107.3
 20
101.075
 30
0.0
 40
1.25
 50
145.0
 51
215.0
  0
ARC
  8
0
  6
CONTINUOUS
 62
     2
 10
107.3
 20
101.075
 30
0.0
 40
1.25
 50
325.0
 51
35.0
  0
LINE
  8
0
  6
CONTINUOUS
 62
     2
 10
106.25097354
 20
101.796666455
 30
0.0
 11
108.32597354
 21
101.796666455
 31
0.0
  0
LINE
  8
0
  6
CONTINUOUS
 62
     2
 10
108.344098674
 20
104.620076724
 30
0.0
 11
106.255901326
 21
104.620076724
 31
0.0
  0
LINE
  8
0
  6
CONTINUOUS
 62
     2
 10
108.330901326
 20
106.05
 30
0.0
 11
106.05
 21
106.05
 31
0.0
  0
LINE
  8
0
  6
CONTINUOUS
 62
     2
 10
108.55
 20
101.075
 30
0.0
 11
108.55
 21
105.325
 31
0.0
  0
LINE
  8
0
  6
CONTINUOUS
 62
     2
 10
108.555
 20
101.825
 30
0.0
 11
110.53
 21
101.825
 31
0.0
  0
LINE
  8
0
  6
CONTINUOUS
 62
     2
 10
110.55
 20
104.585
 30
0.0
 11
108.56
 21
104.585
 31
0.0
  0
LINE
  8
0
  6
CONTINUOUS
 62
     2
 10
96.95
 20
104.7
 30
0.0
 11
96.95
 21
101.7
 31
0.0
  0
LINE
  8
0
  6
CONTINUOUS
 62
     2
 10
96.6
 20
101.7
 30
0.0
 11
96.95
 21
101.7
 31
0.0
  0
ARC
  8
0
  6
CONTINUOUS
 62
     2
 10
96.6
 20
102.1
 30
0.0
 40
0.4
 50
180.0
 51
270.0
  0
LINE
  8
0
  6
CONTINUOUS
 62
     2
 10
96.6
 20
104.7
 30
0.0
 11
97.05
 21
104.7
 31
0.0
  0
LINE
  8
0
  6
CONTINUOUS
 62
     2
 10
96.2
 20
102.1
 30
0.0
 11
96.2
 21
104.3
 31
0.0
  0
ARC
  8
0
  6
CONTINUOUS
 62
     2
 10
96.6
 20
104.3
 30
0.0
 40
0.4
 50
90.0
 51
180.0
  0
LINE
  8
0
  6
CONTINUOUS
 62
     2
 10
96.2
 20
103.3
 30
0.0
 11
96.3
 21
103.3
 31
0.0
  0
LINE
  8
0
  6
CONTINUOUS
 62
     2
 10
96.3
 20
103.3
 30
0.0
 11
96.3
 21
103.1
 31
0.0
  0
LINE
  8
0
  6
CONTINUOUS
 62
     2
 10
96.3
 20
103.1
 30
0.0
 11
96.2
 21
103.1
 31
0.0
  0
LINE
  8
0
  6
CONTINUOUS
 62
     2
 10
97.05
 20
149.425
 30
0.0
 11
96.95
 21
149.425
 31
0.0
  0
LINE
  8
0
  6
CONTINUOUS
 62
     2
 10
96.95
 20
149.425
 30
0.0
 11
96.95
 21
146.925
 31
0.0
  0
LINE
  8
0
  6
CONTINUOUS
 62
     2
 10
96.95
 20
146.925
 30
0.0
 11
97.05
 21
146.925
 31
0.0
  0
LINE
  8
0
  6
CONTINUOUS
 62
     2
 10
96.95
 20
149.7
 30
0.0
 11
96.95
 21
146.7
 31
0.0
  0
LINE
  8
0
  6
CONTINUOUS
 62
     2
 10
96.6
 20
146.7
 30
0.0
 11
96.95
 21
146.7
 31
0.0
  0
ARC
  8
0
  6
CONTINUOUS
 62
     2
 10
96.6
 20
147.1
 30
0.0
 40
0.4
 50
180.0
 51
270.0
  0
LINE
  8
0
  6
CONTINUOUS
 62
     2
 10
96.6
 20
149.7
 30
0.0
 11
97.05
 21
149.7
 31
0.0
  0
LINE
  8
0
  6
CONTINUOUS
 62
     2
 10
96.2
 20
147.1
 30
0.0
 11
96.2
 21
149.3
 31
0.0
  0
ARC
  8
0
  6
CONTINUOUS
 62
     2
 10
96.6
 20
149.3
 30
0.0
 40
0.4
 50
90.0
 51
180.0
  0
LINE
  8
0
  6
CONTINUOUS
 62
     2
 10
96.2
 20
148.3
 30
0.0
 11
96.3
 21
148.3
 31
0.0
  0
LINE
  8
0
  6
CONTINUOUS
 62
     2
 10
96.3
 20
148.3
 30
0.0
 11
96.3
 21
148.1
 31
0.0
  0
LINE
  8
0
  6
CONTINUOUS
 62
     2
 10
96.3
 20
148.1
 30
0.0
 11
96.2
 21
148.1
 31
0.0
  0
POINT
  8
0
  6
CONTINUOUS
 62
     2
 10
92.3
 20
128.85
 30
0.0
  0
LINE
  8
0
  6
CONTINUOUS
 62
     2
 10
93.35
 20
100.175
 30
0.0
 11
85.925
 21
100.175
 31
0.0
  0
LINE
  8
0
  6
CONTINUOUS
 62
     2
 10
87.925
 20
100.175
 30
0.0
 11
88.572047613
 21
102.589814566
 31
0.0
  0
LINE
  8
0
  6
CONTINUOUS
 62
     2
 10
87.925
 20
100.175
 30
0.0
 11
87.277952387
 21
102.589814566
 31
0.0
  0
LINE
  8
0
  6
CONTINUOUS
 62
     2
 10
87.925
 20
100.175
 30
0.0
 11
87.925
 21
151.175
 31
0.0
  0
LINE
  8
0
  6
CONTINUOUS
 62
     2
 10
87.925
 20
151.175
 30
0.0
 11
87.277952387
 21
148.760185434
 31
0.0
  0
LINE
  8
0
  6
CONTINUOUS
 62
     2
 10
87.925
 20
151.175
 30
0.0
 11
88.572047613
 21
148.760185434
 31
0.0
  0
LINE
  8
0
  6
CONTINUOUS
 62
     2
 10
93.35
 20
151.175
 30
0.0
 11
85.925
 21
151.175
 31
0.0
  0
TEXT
  8
0
  6
CONTINUOUS
 62
     2
 10
86.925
 20
121.625
 30
0.3
 40
3.0
  1
φ１０２
 50
90.0
 41
0.6
 51
0.0
  7
KANJI1
  0
LINE
  8
0
  6
CONTINUOUS
 62
     2
 10
90.8
 20
127.8
 30
0.0
 11
90.8
 21
173.125001907
 31
0.0
  0
LINE
  8
0
  6
CONTINUOUS
 62
     2
 10
90.8
 20
171.125001907
 30
0.0
 11
93.214814566
 21
170.477954295
 31
0.0
  0
LINE
  8
0
  6
CONTINUOUS
 62
     2
 10
90.8
 20
171.125001907
 30
0.0
 11
93.214814566
 21
171.77204952
 31
0.0
  0
LINE
  8
0
  6
CONTINUOUS
 62
     2
 10
90.8
 20
171.125001907
 30
0.0
 11
102.8
 21
171.125001907
 31
0.0
  0
LINE
  8
0
  6
CONTINUOUS
 62
     2
 10
102.8
 20
171.125001907
 30
0.0
 11
100.385185434
 21
171.77204952
 31
0.0
  0
LINE
  8
0
  6
CONTINUOUS
 62
     2
 10
102.8
 20
171.125001907
 30
0.0
 11
100.385185434
 21
170.477954295
 31
0.0
  0
LINE
  8
0
  6
CONTINUOUS
 62
     2
 10
102.8
 20
153.4
 30
0.0
 11
102.8
 21
173.125001907
 31
0.0
  0
LINE
  8
0
  6
CONTINUOUS
 62
     2
 10
102.8
 20
171.125001907
 30
0.0
 11
105.214814566
 21
170.477954295
 31
0.0
  0
LINE
  8
0
  6
CONTINUOUS
 62
     2
 10
102.8
 20
171.125001907
 30
0.0
 11
105.214814566
 21
171.77204952
 31
0.0
  0
LINE
  8
0
  6
CONTINUOUS
 62
     2
 10
102.8
 20
171.125001907
 30
0.0
 11
152.95
 21
171.125001907
 31
0.0
  0
LINE
  8
0
  6
CONTINUOUS
 62
     2
 10
152.95
 20
171.125001907
 30
0.0
 11
150.535185434
 21
171.77204952
 31
0.0
  0
LINE
  8
0
  6
CONTINUOUS
 62
     2
 10
152.95
 20
171.125001907
 30
0.0
 11
150.535185434
 21
170.477954295
 31
0.0
  0
LINE
  8
0
  6
CONTINUOUS
 62
     2
 10
152.95
 20
132.6
 30
0.0
 11
152.95
 21
173.125001907
 31
0.0
  0
LINE
  8
0
  6
CONTINUOUS
 62
     2
 10
145.3
 20
150.300001907
 30
0.0
 11
145.3
 21
163.575001907
 31
0.0
  0
LINE
  8
0
  6
CONTINUOUS
 62
     2
 10
152.95
 20
161.850001907
 30
0.0
 11
152.95
 21
159.575001907
 31
0.0
  0
LINE
  8
0
  6
CONTINUOUS
 62
     2
 10
103.05
 20
151.45
 30
0.0
 11
103.05
 21
163.575001907
 31
0.0
  0
LINE
  8
0
  6
CONTINUOUS
 62
     2
 10
103.05
 20
161.575001907
 30
0.0
 11
105.464814566
 21
160.927954295
 31
0.0
  0
LINE
  8
0
  6
CONTINUOUS
 62
     2
 10
103.05
 20
161.575001907
 30
0.0
 11
105.464814566
 21
162.22204952
 31
0.0
  0
LINE
  8
0
  6
CONTINUOUS
 62
     2
 10
103.05
 20
161.575001907
 30
0.0
 11
110.55
 21
161.575001907
 31
0.0
  0
LINE
  8
0
  6
CONTINUOUS
 62
     2
 10
110.55
 20
161.575001907
 30
0.0
 11
108.135185434
 21
162.22204952
 31
0.0
  0
LINE
  8
0
  6
CONTINUOUS
 62
     2
 10
110.55
 20
161.575001907
 30
0.0
 11
108.135185434
 21
160.927954295
 31
0.0
  0
LINE
  8
0
  6
CONTINUOUS
 62
     2
 10
110.55
 20
149.95
 30
0.0
 11
110.55
 21
163.575001907
 31
0.0
  0
TEXT
  8
0
  6
CONTINUOUS
 62
     2
 10
104.85
 20
162.575001907
 30
0.3
 40
3.0
  1
１５
 50
0.0
 41
0.6
 51
0.0
  7
KANJI1
  0
LINE
  8
0
  6
CONTINUOUS
 62
     2
 10
102.8
 20
161.575001907
 30
0.0
 11
100.385185434
 21
162.22204952
 31
0.0
  0
LINE
  8
0
  6
CONTINUOUS
 62
     2
 10
102.8
 20
161.575001907
 30
0.0
 11
100.385185434
 21
160.927954295
 31
0.0
  0
LINE
  8
0
  6
CONTINUOUS
 62
     2
 10
91.8
 20
161.575001907
 30
0.0
 11
108.05
 21
161.575001907
 31
0.0
  0
LINE
  8
0
  6
CONTINUOUS
 62
     2
 10
103.05
 20
161.575001907
 30
0.0
 11
105.464814566
 21
160.927954295
 31
0.0
  0
LINE
  8
0
  6
CONTINUOUS
 62
     2
 10
103.05
 20
161.575001907
 30
0.0
 11
105.464814566
 21
162.22204952
 31
0.0
  0
TEXT
  8
0
  6
CONTINUOUS
 62
     2
 10
92.95
 20
162.575001907
 30
0.3
 40
3.0
  1
０．５
 50
0.0
 41
0.6
 51
0.0
  7
KANJI1
  0
POINT
  8
0
  6
LTYPE1
 62
     2
 10
186.6
 20
25.2
 30
0.0
  0
POINT
  8
0
  6
LTYPE1
 62
     2
 10
186.6
 20
156.7
 30
0.0
  0
ARC
  8
0
  6
CONTINUOUS
 62
     2
 10
161.85
 20
100.95
 30
0.0
 40
1.5
 50
180.0
 51
270.0
  0
LINE
  8
0
  6
CONTINUOUS
 62
     2
 10
160.35
 20
150.45
 30
0.0
 11
160.35
 21
100.95
 31
0.0
  0
ARC
  8
0
  6
CONTINUOUS
 62
     2
 10
161.85
 20
150.45
 30
0.0
 40
1.5
 50
90.0
 51
180.0
  0
LINE
  8
0
  6
CONTINUOUS
 62
     2
 10
211.35
 20
151.95
 30
0.0
 11
161.85
 21
151.95
 31
0.0
  0
ARC
  8
0
  6
CONTINUOUS
 62
     2
 10
211.35
 20
150.45
 30
0.0
 40
1.5
 50
0.0
 51
90.0
  0
LINE
  8
0
  6
CONTINUOUS
 62
     2
 10
161.85
 20
99.45
 30
0.0
 11
211.35
 21
99.45
 31
0.0
  0
LINE
  8
0
  6
CONTINUOUS
 62
     2
 10
212.85
 20
100.95
 30
0.0
 11
212.85
 21
150.45
 31
0.0
  0
ARC
  8
0
  6
CONTINUOUS
 62
     2
 10
211.35
 20
100.95
 30
0.0
 40
1.5
 50
270.0
 51
0.0
  0
LINE
  8
0
  6
CONTINUOUS
 62
     2
 10
211.524871131
 20
149.6
 30
0.0
 11
209.1
 21
151.0
 31
0.0
  0
LINE
  8
0
  6
CONTINUOUS
 62
     2
 10
209.1
 20
151.0
 30
0.0
 11
206.675128869
 21
149.6
 31
0.0
  0
LINE
  8
0
  6
CONTINUOUS
 62
     2
 10
206.675128869
 20
149.6
 30
0.0
 11
206.675128869
 21
146.8
 31
0.0
  0
LINE
  8
0
  6
CONTINUOUS
 62
     2
 10
206.675128869
 20
146.8
 30
0.0
 11
209.1
 21
145.4
 31
0.0
  0
LINE
  8
0
  6
CONTINUOUS
 62
     2
 10
209.1
 20
145.4
 30
0.0
 11
211.524871131
 21
146.8
 31
0.0
  0
LINE
  8
0
  6
CONTINUOUS
 62
     2
 10
211.524871131
 20
146.8
 30
0.0
 11
211.524871131
 21
149.6
 31
0.0
  0
CIRCLE
  8
0
  6
CONTINUOUS
 62
     2
 10
209.1
 20
148.2
 30
0.0
 40
1.5
  0
CIRCLE
  8
0
  6
CONTINUOUS
 62
     2
 10
209.1
 20
148.2
 30
0.0
 40
1.4
  0
CIRCLE
  8
0
  6
CONTINUOUS
 62
     2
 10
209.1
 20
148.2
 30
0.0
 40
3.0
  0
CIRCLE
  8
0
  6
CONTINUOUS
 62
     2
 10
209.1
 20
148.2
 30
0.0
 40
2.5
  0
LINE
  8
0
  6
LTYPE1
 62
     2
 10
205.225
 20
148.2
 30
0.0
 11
213.2
 21
148.2
 31
0.0
  0
LINE
  8
0
  6
LTYPE1
 62
     2
 10
209.1
 20
152.1
 30
0.0
 11
209.1
 21
144.375
 31
0.0
  0
LINE
  8
0
  6
CONTINUOUS
 62
     2
 10
166.524871131
 20
149.6
 30
0.0
 11
164.1
 21
151.0
 31
0.0
  0
LINE
  8
0
  6
CONTINUOUS
 62
     2
 10
164.1
 20
151.0
 30
0.0
 11
161.675128869
 21
149.6
 31
0.0
  0
LINE
  8
0
  6
CONTINUOUS
 62
     2
 10
161.675128869
 20
149.6
 30
0.0
 11
161.675128869
 21
146.8
 31
0.0
  0
LINE
  8
0
  6
CONTINUOUS
 62
     2
 10
161.675128869
 20
146.8
 30
0.0
 11
164.1
 21
145.4
 31
0.0
  0
LINE
  8
0
  6
CONTINUOUS
 62
     2
 10
164.1
 20
145.4
 30
0.0
 11
166.524871131
 21
146.8
 31
0.0
  0
LINE
  8
0
  6
CONTINUOUS
 62
     2
 10
166.524871131
 20
146.8
 30
0.0
 11
166.524871131
 21
149.6
 31
0.0
  0
CIRCLE
  8
0
  6
CONTINUOUS
 62
     2
 10
164.1
 20
148.2
 30
0.0
 40
1.5
  0
CIRCLE
  8
0
  6
CONTINUOUS
 62
     2
 10
164.1
 20
148.2
 30
0.0
 40
1.4
  0
CIRCLE
  8
0
  6
CONTINUOUS
 62
     2
 10
164.1
 20
148.2
 30
0.0
 40
3.0
  0
CIRCLE
  8
0
  6
CONTINUOUS
 62
     2
 10
164.1
 20
148.2
 30
0.0
 40
2.5
  0
LINE
  8
0
  6
LTYPE1
 62
     2
 10
160.225
 20
148.2
 30
0.0
 11
168.2
 21
148.2
 31
0.0
  0
LINE
  8
0
  6
LTYPE1
 62
     2
 10
164.1
 20
152.1
 30
0.0
 11
164.1
 21
144.375
 31
0.0
  0
LINE
  8
0
  6
CONTINUOUS
 62
     2
 10
166.524871131
 20
104.6
 30
0.0
 11
164.1
 21
106.0
 31
0.0
  0
LINE
  8
0
  6
CONTINUOUS
 62
     2
 10
164.1
 20
106.0
 30
0.0
 11
161.675128869
 21
104.6
 31
0.0
  0
LINE
  8
0
  6
CONTINUOUS
 62
     2
 10
161.675128869
 20
104.6
 30
0.0
 11
161.675128869
 21
101.8
 31
0.0
  0
LINE
  8
0
  6
CONTINUOUS
 62
     2
 10
161.675128869
 20
101.8
 30
0.0
 11
164.1
 21
100.4
 31
0.0
  0
LINE
  8
0
  6
CONTINUOUS
 62
     2
 10
164.1
 20
100.4
 30
0.0
 11
166.524871131
 21
101.8
 31
0.0
  0
LINE
  8
0
  6
CONTINUOUS
 62
     2
 10
166.524871131
 20
101.8
 30
0.0
 11
166.524871131
 21
104.6
 31
0.0
  0
CIRCLE
  8
0
  6
CONTINUOUS
 62
     2
 10
164.1
 20
103.2
 30
0.0
 40
1.5
  0
CIRCLE
  8
0
  6
CONTINUOUS
 62
     2
 10
164.1
 20
103.2
 30
0.0
 40
1.4
  0
CIRCLE
  8
0
  6
CONTINUOUS
 62
     2
 10
164.1
 20
103.2
 30
0.0
 40
3.0
  0
CIRCLE
  8
0
  6
CONTINUOUS
 62
     2
 10
164.1
 20
103.2
 30
0.0
 40
2.5
  0
LINE
  8
0
  6
LTYPE1
 62
     2
 10
160.225
 20
103.2
 30
0.0
 11
168.2
 21
103.2
 31
0.0
  0
LINE
  8
0
  6
LTYPE1
 62
     2
 10
164.1
 20
107.1
 30
0.0
 11
164.1
 21
99.375
 31
0.0
  0
LINE
  8
0
  6
CONTINUOUS
 62
     2
 10
211.524871131
 20
104.6
 30
0.0
 11
209.1
 21
106.0
 31
0.0
  0
LINE
  8
0
  6
CONTINUOUS
 62
     2
 10
209.1
 20
106.0
 30
0.0
 11
206.675128869
 21
104.6
 31
0.0
  0
LINE
  8
0
  6
CONTINUOUS
 62
     2
 10
206.675128869
 20
104.6
 30
0.0
 11
206.675128869
 21
101.8
 31
0.0
  0
LINE
  8
0
  6
CONTINUOUS
 62
     2
 10
206.675128869
 20
101.8
 30
0.0
 11
209.1
 21
100.4
 31
0.0
  0
LINE
  8
0
  6
CONTINUOUS
 62
     2
 10
209.1
 20
100.4
 30
0.0
 11
211.524871131
 21
101.8
 31
0.0
  0
LINE
  8
0
  6
CONTINUOUS
 62
     2
 10
211.524871131
 20
101.8
 30
0.0
 11
211.524871131
 21
104.6
 31
0.0
  0
CIRCLE
  8
0
  6
CONTINUOUS
 62
     2
 10
209.1
 20
103.2
 30
0.0
 40
1.5
  0
CIRCLE
  8
0
  6
CONTINUOUS
 62
     2
 10
209.1
 20
103.2
 30
0.0
 40
1.4
  0
CIRCLE
  8
0
  6
CONTINUOUS
 62
     2
 10
209.1
 20
103.2
 30
0.0
 40
3.0
  0
CIRCLE
  8
0
  6
CONTINUOUS
 62
     2
 10
209.1
 20
103.2
 30
0.0
 40
2.5
  0
LINE
  8
0
  6
LTYPE1
 62
     2
 10
205.225
 20
103.2
 30
0.0
 11
213.2
 21
103.2
 31
0.0
  0
LINE
  8
0
  6
LTYPE1
 62
     2
 10
209.1
 20
107.1
 30
0.0
 11
209.1
 21
99.375
 31
0.0
  0
CIRCLE
  8
0
  6
CONTINUOUS
 62
     2
 10
205.652558883
 20
114.7
 30
0.0
 40
1.75
  0
CIRCLE
  8
0
  6
CONTINUOUS
 62
     2
 10
186.6
 20
147.7
 30
0.0
 40
1.75
  0
CIRCLE
  8
0
  6
CONTINUOUS
 62
     2
 10
167.547441117
 20
114.7
 30
0.0
 40
1.75
  0
CIRCLE
  8
0
  6
CONTINUOUS
 62
     2
 10
167.547441117
 20
114.7
 30
0.0
 40
1.5
  0
LINE
  8
0
  6
CONTINUOUS
 62
     2
 10
166.672441117
 20
114.9
 30
0.0
 11
167.147441117
 21
114.9
 31
0.0
  0
ARC
  8
0
  6
CONTINUOUS
 62
     2
 10
167.147441117
 20
115.1
 30
0.0
 40
0.2
 50
270.0
 51
0.0
  0
LINE
  8
0
  6
CONTINUOUS
 62
     2
 10
167.347441117
 20
115.1
 30
0.0
 11
167.347441117
 21
115.575
 31
0.0
  0
LINE
  8
0
  6
CONTINUOUS
 62
     2
 10
167.347441117
 20
115.575
 30
0.0
 11
167.747441117
 21
115.575
 31
0.0
  0
LINE
  8
0
  6
CONTINUOUS
 62
     2
 10
167.747441117
 20
115.575
 30
0.0
 11
167.747441117
 21
115.1
 31
0.0
  0
ARC
  8
0
  6
CONTINUOUS
 62
     2
 10
167.947441117
 20
115.1
 30
0.0
 40
0.2
 50
180.0
 51
270.0
  0
LINE
  8
0
  6
CONTINUOUS
 62
     2
 10
167.947441117
 20
114.9
 30
0.0
 11
168.422441117
 21
114.9
 31
0.0
  0
LINE
  8
0
  6
CONTINUOUS
 62
     2
 10
168.422441117
 20
114.9
 30
0.0
 11
168.422441117
 21
114.5
 31
0.0
  0
LINE
  8
0
  6
CONTINUOUS
 62
     2
 10
168.422441117
 20
114.5
 30
0.0
 11
167.947441117
 21
114.5
 31
0.0
  0
ARC
  8
0
  6
CONTINUOUS
 62
     2
 10
167.947441117
 20
114.3
 30
0.0
 40
0.2
 50
90.0
 51
180.0
  0
LINE
  8
0
  6
CONTINUOUS
 62
     2
 10
167.747441117
 20
114.3
 30
0.0
 11
167.747441117
 21
113.825
 31
0.0
  0
LINE
  8
0
  6
CONTINUOUS
 62
     2
 10
167.747441117
 20
113.825
 30
0.0
 11
167.347441117
 21
113.825
 31
0.0
  0
LINE
  8
0
  6
CONTINUOUS
 62
     2
 10
167.347441117
 20
113.825
 30
0.0
 11
167.347441117
 21
114.3
 31
0.0
  0
ARC
  8
0
  6
CONTINUOUS
 62
     2
 10
167.147441117
 20
114.3
 30
0.0
 40
0.2
 50
0.0
 51
90.0
  0
LINE
  8
0
  6
CONTINUOUS
 62
     2
 10
167.147441117
 20
114.5
 30
0.0
 11
166.672441117
 21
114.5
 31
0.0
  0
LINE
  8
0
  6
CONTINUOUS
 62
     2
 10
166.672441117
 20
114.5
 30
0.0
 11
166.672441117
 21
114.9
 31
0.0
  0
LINE
  8
0
  6
LTYPE2
 62
     2
 10
165.547441117
 20
114.7
 30
0.0
 11
169.547441117
 21
114.7
 31
0.0
  0
LINE
  8
0
  6
LTYPE2
 62
     2
 10
167.547441117
 20
116.7
 30
0.0
 11
167.547441117
 21
112.7
 31
0.0
  0
CIRCLE
  8
0
  6
CONTINUOUS
 62
     2
 10
186.6
 20
147.7
 30
0.0
 40
1.5
  0
LINE
  8
0
  6
CONTINUOUS
 62
     2
 10
185.725
 20
147.9
 30
0.0
 11
186.2
 21
147.9
 31
0.0
  0
ARC
  8
0
  6
CONTINUOUS
 62
     2
 10
186.2
 20
148.1
 30
0.0
 40
0.2
 50
270.0
 51
0.0
  0
LINE
  8
0
  6
CONTINUOUS
 62
     2
 10
186.4
 20
148.1
 30
0.0
 11
186.4
 21
148.575
 31
0.0
  0
LINE
  8
0
  6
CONTINUOUS
 62
     2
 10
186.4
 20
148.575
 30
0.0
 11
186.8
 21
148.575
 31
0.0
  0
LINE
  8
0
  6
CONTINUOUS
 62
     2
 10
186.8
 20
148.575
 30
0.0
 11
186.8
 21
148.1
 31
0.0
  0
ARC
  8
0
  6
CONTINUOUS
 62
     2
 10
187.0
 20
148.1
 30
0.0
 40
0.2
 50
180.0
 51
270.0
  0
LINE
  8
0
  6
CONTINUOUS
 62
     2
 10
187.0
 20
147.9
 30
0.0
 11
187.475
 21
147.9
 31
0.0
  0
LINE
  8
0
  6
CONTINUOUS
 62
     2
 10
187.475
 20
147.9
 30
0.0
 11
187.475
 21
147.5
 31
0.0
  0
LINE
  8
0
  6
CONTINUOUS
 62
     2
 10
187.475
 20
147.5
 30
0.0
 11
187.0
 21
147.5
 31
0.0
  0
ARC
  8
0
  6
CONTINUOUS
 62
     2
 10
187.0
 20
147.3
 30
0.0
 40
0.2
 50
90.0
 51
180.0
  0
LINE
  8
0
  6
CONTINUOUS
 62
     2
 10
186.8
 20
147.3
 30
0.0
 11
186.8
 21
146.825
 31
0.0
  0
LINE
  8
0
  6
CONTINUOUS
 62
     2
 10
186.8
 20
146.825
 30
0.0
 11
186.4
 21
146.825
 31
0.0
  0
LINE
  8
0
  6
CONTINUOUS
 62
     2
 10
186.4
 20
146.825
 30
0.0
 11
186.4
 21
147.3
 31
0.0
  0
ARC
  8
0
  6
CONTINUOUS
 62
     2
 10
186.2
 20
147.3
 30
0.0
 40
0.2
 50
0.0
 51
90.0
  0
LINE
  8
0
  6
CONTINUOUS
 62
     2
 10
186.2
 20
147.5
 30
0.0
 11
185.725
 21
147.5
 31
0.0
  0
LINE
  8
0
  6
CONTINUOUS
 62
     2
 10
185.725
 20
147.5
 30
0.0
 11
185.725
 21
147.9
 31
0.0
  0
LINE
  8
0
  6
LTYPE2
 62
     2
 10
184.6
 20
147.7
 30
0.0
 11
188.6
 21
147.7
 31
0.0
  0
LINE
  8
0
  6
LTYPE2
 62
     2
 10
186.6
 20
149.7
 30
0.0
 11
186.6
 21
145.7
 31
0.0
  0
CIRCLE
  8
0
  6
CONTINUOUS
 62
     2
 10
205.652558883
 20
114.7
 30
0.0
 40
1.5
  0
LINE
  8
0
  6
CONTINUOUS
 62
     2
 10
204.777558883
 20
114.9
 30
0.0
 11
205.252558883
 21
114.9
 31
0.0
  0
ARC
  8
0
  6
CONTINUOUS
 62
     2
 10
205.252558883
 20
115.1
 30
0.0
 40
0.2
 50
270.0
 51
0.0
  0
LINE
  8
0
  6
CONTINUOUS
 62
     2
 10
205.452558883
 20
115.1
 30
0.0
 11
205.452558883
 21
115.575
 31
0.0
  0
LINE
  8
0
  6
CONTINUOUS
 62
     2
 10
205.452558883
 20
115.575
 30
0.0
 11
205.852558883
 21
115.575
 31
0.0
  0
LINE
  8
0
  6
CONTINUOUS
 62
     2
 10
205.852558883
 20
115.575
 30
0.0
 11
205.852558883
 21
115.1
 31
0.0
  0
ARC
  8
0
  6
CONTINUOUS
 62
     2
 10
206.052558883
 20
115.1
 30
0.0
 40
0.2
 50
180.0
 51
270.0
  0
LINE
  8
0
  6
CONTINUOUS
 62
     2
 10
206.052558883
 20
114.9
 30
0.0
 11
206.527558883
 21
114.9
 31
0.0
  0
LINE
  8
0
  6
CONTINUOUS
 62
     2
 10
206.527558883
 20
114.9
 30
0.0
 11
206.527558883
 21
114.5
 31
0.0
  0
LINE
  8
0
  6
CONTINUOUS
 62
     2
 10
206.527558883
 20
114.5
 30
0.0
 11
206.052558883
 21
114.5
 31
0.0
  0
ARC
  8
0
  6
CONTINUOUS
 62
     2
 10
206.052558883
 20
114.3
 30
0.0
 40
0.2
 50
90.0
 51
180.0
  0
LINE
  8
0
  6
CONTINUOUS
 62
     2
 10
205.852558883
 20
114.3
 30
0.0
 11
205.852558883
 21
113.825
 31
0.0
  0
LINE
  8
0
  6
CONTINUOUS
 62
     2
 10
205.852558883
 20
113.825
 30
0.0
 11
205.452558883
 21
113.825
 31
0.0
  0
LINE
  8
0
  6
CONTINUOUS
 62
     2
 10
205.452558883
 20
113.825
 30
0.0
 11
205.452558883
 21
114.3
 31
0.0
  0
ARC
  8
0
  6
CONTINUOUS
 62
     2
 10
205.252558883
 20
114.3
 30
0.0
 40
0.2
 50
0.0
 51
90.0
  0
LINE
  8
0
  6
CONTINUOUS
 62
     2
 10
205.252558883
 20
114.5
 30
0.0
 11
204.777558883
 21
114.5
 31
0.0
  0
LINE
  8
0
  6
CONTINUOUS
 62
     2
 10
204.777558883
 20
114.5
 30
0.0
 11
204.777558883
 21
114.9
 31
0.0
  0
LINE
  8
0
  6
LTYPE2
 62
     2
 10
203.652558883
 20
114.7
 30
0.0
 11
207.652558883
 21
114.7
 31
0.0
  0
LINE
  8
0
  6
LTYPE2
 62
     2
 10
205.652558883
 20
116.7
 30
0.0
 11
205.652558883
 21
112.7
 31
0.0
  0
CIRCLE
  8
0
  6
LTYPE3
 62
     2
 10
186.6
 20
140.7
 30
0.0
 40
1.75
  0
LINE
  8
0
  6
CONTINUOUS
 62
     2
 10
164.1
 20
152.3
 30
0.0
 11
164.1
 21
173.05
 31
0.0
  0
LINE
  8
0
  6
CONTINUOUS
 62
     2
 10
164.1
 20
171.05
 30
0.0
 11
166.514814566
 21
170.402952387
 31
0.0
  0
LINE
  8
0
  6
CONTINUOUS
 62
     2
 10
164.1
 20
171.05
 30
0.0
 11
166.514814566
 21
171.697047613
 31
0.0
  0
LINE
  8
0
  6
CONTINUOUS
 62
     2
 10
164.1
 20
171.05
 30
0.0
 11
186.6
 21
171.05
 31
0.0
  0
LINE
  8
0
  6
CONTINUOUS
 62
     2
 10
186.6
 20
171.05
 30
0.0
 11
184.185185434
 21
171.697047613
 31
0.0
  0
LINE
  8
0
  6
CONTINUOUS
 62
     2
 10
186.6
 20
171.05
 30
0.0
 11
184.185185434
 21
170.402952387
 31
0.0
  0
LINE
  8
0
  6
CONTINUOUS
 62
     2
 10
186.6
 20
156.9
 30
0.0
 11
186.6
 21
173.05
 31
0.0
  0
TEXT
  8
0
  6
CONTINUOUS
 62
     2
 10
170.97
 20
172.05
 30
0.3
 40
3.0
  1
４５
 50
0.0
 41
0.6
 51
0.0
  7
KANJI1
  0
TEXT
  8
0
  6
CONTINUOUS
 62
     2
 10
174.87
 20
172.05
 30
0.18
 40
1.8
  1
±０．５
 50
0.0
 41
0.6
 51
0.0
  7
KANJI2
  0
LINE
  8
0
  6
CONTINUOUS
 62
     2
 10
186.6
 20
171.05
 30
0.0
 11
189.014814566
 21
170.402952387
 31
0.0
  0
LINE
  8
0
  6
CONTINUOUS
 62
     2
 10
186.6
 20
171.05
 30
0.0
 11
189.014814566
 21
171.697047613
 31
0.0
  0
LINE
  8
0
  6
CONTINUOUS
 62
     2
 10
186.6
 20
171.05
 30
0.0
 11
209.1
 21
171.05
 31
0.0
  0
LINE
  8
0
  6
CONTINUOUS
 62
     2
 10
209.1
 20
171.05
 30
0.0
 11
206.685185434
 21
171.697047613
 31
0.0
  0
LINE
  8
0
  6
CONTINUOUS
 62
     2
 10
209.1
 20
171.05
 30
0.0
 11
206.685185434
 21
170.402952387
 31
0.0
  0
TEXT
  8
0
  6
CONTINUOUS
 62
     2
 10
193.47
 20
172.05
 30
0.3
 40
3.0
  1
４５
 50
0.0
 41
0.6
 51
0.0
  7
KANJI1
  0
TEXT
  8
0
  6
CONTINUOUS
 62
     2
 10
197.37
 20
172.05
 30
0.18
 40
1.8
  1
±０．５
 50
0.0
 41
0.6
 51
0.0
  7
KANJI2
  0
LINE
  8
0
  6
CONTINUOUS
 62
     2
 10
213.35
 20
103.2
 30
0.0
 11
223.2
 21
103.2
 31
0.0
  0
LINE
  8
0
  6
CONTINUOUS
 62
     2
 10
221.2
 20
103.2
 30
0.0
 11
221.847047613
 21
105.614814566
 31
0.0
  0
LINE
  8
0
  6
CONTINUOUS
 62
     2
 10
221.2
 20
103.2
 30
0.0
 11
220.552952387
 21
105.614814566
 31
0.0
  0
LINE
  8
0
  6
CONTINUOUS
 62
     2
 10
221.2
 20
103.2
 30
0.0
 11
221.2
 21
125.7
 31
0.0
  0
LINE
  8
0
  6
CONTINUOUS
 62
     2
 10
221.2
 20
125.7
 30
0.0
 11
220.552952387
 21
123.285185434
 31
0.0
  0
LINE
  8
0
  6
CONTINUOUS
 62
     2
 10
221.2
 20
125.7
 30
0.0
 11
221.847047613
 21
123.285185434
 31
0.0
  0
LINE
  8
0
  6
CONTINUOUS
 62
     2
 10
208.8
 20
125.7
 30
0.0
 11
223.2
 21
125.7
 31
0.0
  0
TEXT
  8
0
  6
CONTINUOUS
 62
     2
 10
220.2
 20
110.07
 30
0.3
 40
3.0
  1
４５
 50
90.0
 41
0.6
 51
0.0
  7
KANJI1
  0
TEXT
  8
0
  6
CONTINUOUS
 62
     2
 10
220.2
 20
113.97
 30
0.18
 40
1.8
  1
±０．５
 50
90.0
 41
0.6
 51
0.0
  7
KANJI2
  0
LINE
  8
0
  6
CONTINUOUS
 62
     2
 10
221.2
 20
125.7
 30
0.0
 11
221.847047613
 21
128.114814566
 31
0.0
  0
LINE
  8
0
  6
CONTINUOUS
 62
     2
 10
221.2
 20
125.7
 30
0.0
 11
220.552952387
 21
128.114814566
 31
0.0
  0
LINE
  8
0
  6
CONTINUOUS
 62
     2
 10
221.2
 20
125.7
 30
0.0
 11
221.2
 21
148.2
 31
0.0
  0
LINE
  8
0
  6
CONTINUOUS
 62
     2
 10
221.2
 20
148.2
 30
0.0
 11
220.552952387
 21
145.785185434
 31
0.0
  0
LINE
  8
0
  6
CONTINUOUS
 62
     2
 10
221.2
 20
148.2
 30
0.0
 11
221.847047613
 21
145.785185434
 31
0.0
  0
LINE
  8
0
  6
CONTINUOUS
 62
     2
 10
213.3
 20
148.2
 30
0.0
 11
223.2
 21
148.2
 31
0.0
  0
TEXT
  8
0
  6
CONTINUOUS
 62
     2
 10
220.2
 20
132.57
 30
0.3
 40
3.0
  1
４５
 50
90.0
 41
0.6
 51
0.0
  7
KANJI1
  0
TEXT
  8
0
  6
CONTINUOUS
 62
     2
 10
220.2
 20
136.47
 30
0.18
 40
1.8
  1
±０．５
 50
90.0
 41
0.6
 51
0.0
  7
KANJI2
  0
LINE
  8
0
  6
CONTINUOUS
 62
     2
 10
173.76294005
 20
104.539366932
 30
0.0
 11
175.568639301
 21
106.268369597
 31
0.0
  0
LINE
  8
0
  6
CONTINUOUS
 62
     2
 10
173.76294005
 20
104.539366932
 30
0.0
 11
174.46222014
 21
106.939576788
 31
0.0
  0
LINE
  8
0
  6
CONTINUOUS
 62
     2
 10
173.76294005
 20
104.539366932
 30
0.0
 11
199.43705995
 21
146.860633068
 31
0.0
  0
LINE
  8
0
  6
CONTINUOUS
 62
     2
 10
199.43705995
 20
146.860633068
 30
0.0
 11
197.631360699
 21
145.131630403
 31
0.0
  0
LINE
  8
0
  6
CONTINUOUS
 62
     2
 10
199.43705995
 20
146.860633068
 30
0.0
 11
198.73777986
 21
144.460423212
 31
0.0
  0
LINE
  8
0
  6
CONTINUOUS
 62
     2
 10
108.95
 20
101.85
 30
0.0
 11
109.596786092
 21
99.435115375
 31
0.0
  0
LINE
  8
0
  6
CONTINUOUS
 62
     2
 10
108.95
 20
101.85
 30
0.0
 11
110.717575499
 21
100.082041614
 31
0.0
  0
LINE
  8
0
  6
CONTINUOUS
 62
     2
 10
108.95
 20
101.85
 30
0.0
 11
116.8
 21
88.25
 31
0.0
  0
LINE
  8
0
  6
LTYPE1
 62
     2
 10
157.3
 20
54.85
 30
0.0
 11
216.0
 21
54.85
 31
0.0
  0
LINE
  8
0
  6
LTYPE1
 62
     2
 10
160.0
 20
32.35
 30
0.0
 11
167.15
 21
32.35
 31
0.0
  0
LINE
  8
0
  6
LTYPE1
 62
     2
 10
204.7
 20
32.35
 30
0.0
 11
214.0
 21
32.35
 31
0.0
  0
LINE
  8
0
  6
LTYPE1
 62
     2
 10
209.1
 20
28.0
 30
0.0
 11
209.1
 21
37.35
 31
0.0
  0
LINE
  8
0
  6
LTYPE1
 62
     2
 10
209.1
 20
71.95
 30
0.0
 11
209.1
 21
83.7
 31
0.0
  0
LINE
  8
0
  6
LTYPE1
 62
     2
 10
164.1
 20
83.7
 30
0.0
 11
164.1
 21
72.95
 31
0.0
  0
LINE
  8
0
  6
LTYPE1
 62
     2
 10
164.1
 20
37.55
 30
0.0
 11
164.1
 21
27.25
 31
0.0
  0
LINE
  8
0
  6
LTYPE1
 62
     2
 10
160.05
 20
77.35
 30
0.0
 11
170.7
 21
77.35
 31
0.0
  0
LINE
  8
0
  6
LTYPE1
 62
     2
 10
203.3
 20
77.35
 30
0.0
 11
216.35
 21
77.35
 31
0.0
  0
LINE
  8
0
  6
CONTINUOUS
 62
     2
 10
214.15
 20
32.35
 30
0.0
 11
222.6
 21
32.35
 31
0.0
  0
LINE
  8
0
  6
CONTINUOUS
 62
     2
 10
220.6
 20
32.35
 30
0.0
 11
221.247047613
 21
34.764814566
 31
0.0
  0
LINE
  8
0
  6
CONTINUOUS
 62
     2
 10
220.6
 20
32.35
 30
0.0
 11
219.952952387
 21
34.764814566
 31
0.0
  0
LINE
  8
0
  6
CONTINUOUS
 62
     2
 10
220.6
 20
54.85
 30
0.0
 11
219.952952387
 21
52.435185434
 31
0.0
  0
LINE
  8
0
  6
CONTINUOUS
 62
     2
 10
220.6
 20
54.85
 30
0.0
 11
221.247047613
 21
52.435185434
 31
0.0
  0
LINE
  8
0
  6
CONTINUOUS
 62
     2
 10
216.0
 20
54.85
 30
0.0
 11
222.6
 21
54.85
 31
0.0
  0
LINE
  8
0
  6
CONTINUOUS
 62
     2
 10
220.6
 20
54.85
 30
0.0
 11
221.247047613
 21
57.264814566
 31
0.0
  0
LINE
  8
0
  6
CONTINUOUS
 62
     2
 10
220.6
 20
54.85
 30
0.0
 11
219.952952387
 21
57.264814566
 31
0.0
  0
LINE
  8
0
  6
CONTINUOUS
 62
     2
 10
220.6
 20
54.85
 30
0.0
 11
220.6
 21
77.35
 31
0.0
  0
LINE
  8
0
  6
CONTINUOUS
 62
     2
 10
220.6
 20
77.35
 30
0.0
 11
219.952952387
 21
74.935185434
 31
0.0
  0
LINE
  8
0
  6
CONTINUOUS
 62
     2
 10
220.6
 20
77.35
 30
0.0
 11
221.247047613
 21
74.935185434
 31
0.0
  0
LINE
  8
0
  6
CONTINUOUS
 62
     2
 10
216.35
 20
77.35
 30
0.0
 11
222.6
 21
77.35
 31
0.0
  0
TEXT
  8
0
  6
CONTINUOUS
 62
     2
 10
219.6
 20
61.72
 30
0.3
 40
3.0
  1
４５
 50
90.0
 41
0.6
 51
0.0
  7
KANJI1
  0
TEXT
  8
0
  6
CONTINUOUS
 62
     2
 10
219.6
 20
65.62
 30
0.18
 40
1.8
  1
±０．５
 50
90.0
 41
0.6
 51
0.0
  7
KANJI2
  0
LINE
  8
0
  6
CONTINUOUS
 62
     2
 10
220.6
 20
32.35
 30
0.0
 11
220.6
 21
54.85
 31
0.0
  0
TEXT
  8
0
  6
CONTINUOUS
 62
     2
 10
219.6
 20
39.22
 30
0.3
 40
3.0
  1
４５
 50
90.0
 41
0.6
 51
0.0
  7
KANJI1
  0
TEXT
  8
0
  6
CONTINUOUS
 62
     2
 10
219.6
 20
43.12
 30
0.18
 40
1.8
  1
±０．５
 50
90.0
 41
0.6
 51
0.0
  7
KANJI2
  0
LINE
  8
0
  6
CONTINUOUS
 62
     2
 10
164.1
 20
83.7
 30
0.0
 11
164.1
 21
86.35
 31
0.0
  0
LINE
  8
0
  6
CONTINUOUS
 62
     2
 10
164.1
 20
84.35
 30
0.0
 11
166.514814566
 21
83.702952387
 31
0.0
  0
LINE
  8
0
  6
CONTINUOUS
 62
     2
 10
164.1
 20
84.35
 30
0.0
 11
166.514814566
 21
84.997047613
 31
0.0
  0
LINE
  8
0
  6
CONTINUOUS
 62
     2
 10
164.1
 20
84.35
 30
0.0
 11
186.6
 21
84.35
 31
0.0
  0
LINE
  8
0
  6
CONTINUOUS
 62
     2
 10
186.6
 20
84.35
 30
0.0
 11
184.185185434
 21
84.997047613
 31
0.0
  0
LINE
  8
0
  6
CONTINUOUS
 62
     2
 10
186.6
 20
84.35
 30
0.0
 11
184.185185434
 21
83.702952387
 31
0.0
  0
LINE
  8
0
  6
CONTINUOUS
 62
     2
 10
186.6
 20
83.7
 30
0.0
 11
186.6
 21
86.35
 31
0.0
  0
TEXT
  8
0
  6
CONTINUOUS
 62
     2
 10
170.97
 20
85.35
 30
0.3
 40
3.0
  1
４５
 50
0.0
 41
0.6
 51
0.0
  7
KANJI1
  0
TEXT
  8
0
  6
CONTINUOUS
 62
     2
 10
174.87
 20
85.35
 30
0.18
 40
1.8
  1
±０．５
 50
0.0
 41
0.6
 51
0.0
  7
KANJI2
  0
LINE
  8
0
  6
CONTINUOUS
 62
     2
 10
186.6
 20
84.35
 30
0.0
 11
189.014814566
 21
83.702952387
 31
0.0
  0
LINE
  8
0
  6
CONTINUOUS
 62
     2
 10
186.6
 20
84.35
 30
0.0
 11
189.014814566
 21
84.997047613
 31
0.0
  0
LINE
  8
0
  6
CONTINUOUS
 62
     2
 10
186.6
 20
84.35
 30
0.0
 11
209.1
 21
84.35
 31
0.0
  0
LINE
  8
0
  6
CONTINUOUS
 62
     2
 10
209.1
 20
84.35
 30
0.0
 11
206.685185434
 21
84.997047613
 31
0.0
  0
LINE
  8
0
  6
CONTINUOUS
 62
     2
 10
209.1
 20
84.35
 30
0.0
 11
206.685185434
 21
83.702952387
 31
0.0
  0
TEXT
  8
0
  6
CONTINUOUS
 62
     2
 10
193.47
 20
85.35
 30
0.3
 40
3.0
  1
４５
 50
0.0
 41
0.6
 51
0.0
  7
KANJI1
  0
TEXT
  8
0
  6
CONTINUOUS
 62
     2
 10
197.37
 20
85.35
 30
0.18
 40
1.8
  1
±０．５
 50
0.0
 41
0.6
 51
0.0
  7
KANJI2
  0
LINE
  8
0
  6
CONTINUOUS
 62
     2
 10
168.997520726
 20
36.399993946
 30
0.0
 11
171.132609185
 21
37.700531246
 31
0.0
  0
LINE
  8
0
  6
CONTINUOUS
 62
     2
 10
168.997520726
 20
36.399993946
 30
0.0
 11
170.196292921
 21
38.593836516
 31
0.0
  0
LINE
  8
0
  6
CONTINUOUS
 62
     2
 10
168.997520726
 20
36.399993946
 30
0.0
 11
204.202479274
 21
73.300006054
 31
0.0
  0
LINE
  8
0
  6
CONTINUOUS
 62
     2
 10
204.202479274
 20
73.300006054
 30
0.0
 11
202.067390815
 21
71.999468754
 31
0.0
  0
LINE
  8
0
  6
CONTINUOUS
 62
     2
 10
204.202479274
 20
73.300006054
 30
0.0
 11
203.003707079
 21
71.106163484
 31
0.0
  0
LINE
  8
0
  6
CONTINUOUS
 62
     2
 10
187.75
 20
142.05
 30
0.0
 11
189.981017339
 21
143.178078735
 31
0.0
  0
LINE
  8
0
  6
CONTINUOUS
 62
     2
 10
187.75
 20
142.05
 30
0.0
 11
189.118078324
 21
144.142453512
 31
0.0
  0
LINE
  8
0
  6
CONTINUOUS
 62
     2
 10
187.75
 20
142.05
 30
0.0
 11
220.55
 21
171.4
 31
0.0
  0
LINE
  8
0
  6
CONTINUOUS
 62
     2
 10
163.2
 20
30.8
 30
0.0
 11
161.752635312
 21
28.761585062
 31
0.0
  0
LINE
  8
0
  6
CONTINUOUS
 62
     2
 10
163.2
 20
30.8
 30
0.0
 11
162.965752881
 21
28.310998536
 31
0.0
  0
LINE
  8
0
  6
CONTINUOUS
 62
     2
 10
163.2
 20
30.8
 30
0.0
 11
159.95
 21
22.05
 31
0.0
  0
LINE
  8
0
  6
CONTINUOUS
 62
     2
 10
159.95
 20
22.05
 30
0.0
 11
151.25
 21
22.05
 31
0.0
  0
TEXT
  8
0
  6
CONTINUOUS
 62
     2
 10
151.25
 20
23.05
 30
0.5
 40
3.0
  1
４－φ７
 50
0.0
 41
0.6
 51
0.0
  7
KANJI3
  0
ARC
  8
0
  6
LTYPE3
 62
     2
 10
128.8
 20
105.55
 30
0.0
 40
1.0
 50
0.0
 51
180.0
  0
ARC
  8
0
  6
LTYPE3
 62
     2
 10
132.3
 20
105.55
 30
0.0
 40
1.0
 50
0.0
 51
180.0
  0
ARC
  8
0
  6
LTYPE3
 62
     2
 10
135.8
 20
105.55
 30
0.0
 40
1.0
 50
0.0
 51
180.0
  0
ARC
  8
0
  6
LTYPE3
 62
     2
 10
139.3
 20
105.55
 30
0.0
 40
1.0
 50
0.0
 51
180.0
  0
ARC
  8
0
  6
LTYPE3
 62
     2
 10
139.3
 20
102.95
 30
0.0
 40
1.0
 50
180.0
 51
0.0
  0
ARC
  8
0
  6
LTYPE3
 62
     2
 10
135.8
 20
102.95
 30
0.0
 40
1.0
 50
180.0
 51
0.0
  0
ARC
  8
0
  6
LTYPE3
 62
     2
 10
132.3
 20
102.95
 30
0.0
 40
1.0
 50
180.0
 51
0.0
  0
ARC
  8
0
  6
LTYPE3
 62
     2
 10
128.8
 20
102.95
 30
0.0
 40
1.0
 50
180.0
 51
0.0
  0
ARC
  8
0
  6
LTYPE3
 62
     2
 10
128.8
 20
148.45
 30
0.0
 40
1.0
 50
0.0
 51
180.0
  0
ARC
  8
0
  6
LTYPE3
 62
     2
 10
132.3
 20
148.45
 30
0.0
 40
1.0
 50
0.0
 51
180.0
  0
ARC
  8
0
  6
LTYPE3
 62
     2
 10
135.8
 20
148.45
 30
0.0
 40
1.0
 50
0.0
 51
180.0
  0
ARC
  8
0
  6
LTYPE3
 62
     2
 10
139.3
 20
148.45
 30
0.0
 40
1.0
 50
0.0
 51
180.0
  0
ARC
  8
0
  6
LTYPE3
 62
     2
 10
139.3
 20
145.95
 30
0.0
 40
1.0
 50
180.0
 51
0.0
  0
ARC
  8
0
  6
LTYPE3
 62
     2
 10
135.8
 20
145.95
 30
0.0
 40
1.0
 50
180.0
 51
0.0
  0
ARC
  8
0
  6
LTYPE3
 62
     2
 10
132.3
 20
145.95
 30
0.0
 40
1.0
 50
180.0
 51
0.0
  0
ARC
  8
0
  6
LTYPE3
 62
     2
 10
128.8
 20
145.95
 30
0.0
 40
1.0
 50
180.0
 51
0.0
  0
LINE
  8
0
  6
LTYPE3
 62
     2
 10
127.8
 20
148.45
 30
0.0
 11
127.8
 21
145.95
 31
0.0
  0
LINE
  8
0
  6
LTYPE3
 62
     2
 10
129.8
 20
145.95
 30
0.0
 11
129.8
 21
148.45
 31
0.0
  0
LINE
  8
0
  6
LTYPE3
 62
     2
 10
131.3
 20
148.45
 30
0.0
 11
131.3
 21
145.95
 31
0.0
  0
POINT
  8
0
  6
LTYPE3
 62
     2
 10
133.3
 20
145.95
 30
0.0
  0
POINT
  8
0
  6
LTYPE3
 62
     2
 10
133.3
 20
145.95
 30
0.0
  0
POINT
  8
0
  6
LTYPE3
 62
     2
 10
133.3
 20
145.95
 30
0.0
  0
POINT
  8
0
  6
LTYPE3
 62
     2
 10
133.3
 20
145.95
 30
0.0
  0
POINT
  8
0
  6
LTYPE3
 62
     2
 10
133.3
 20
145.95
 30
0.0
  0
LINE
  8
0
  6
LTYPE3
 62
     2
 10
133.3
 20
145.95
 30
0.0
 11
133.3
 21
148.45
 31
0.0
  0
LINE
  8
0
  6
LTYPE3
 62
     2
 10
134.8
 20
148.45
 30
0.0
 11
134.8
 21
145.95
 31
0.0
  0
LINE
  8
0
  6
LTYPE3
 62
     2
 10
136.8
 20
145.95
 30
0.0
 11
136.8
 21
148.45
 31
0.0
  0
LINE
  8
0
  6
LTYPE3
 62
     2
 10
138.3
 20
148.45
 30
0.0
 11
138.3
 21
145.95
 31
0.0
  0
LINE
  8
0
  6
LTYPE3
 62
     2
 10
140.3
 20
145.95
 30
0.0
 11
140.3
 21
148.45
 31
0.0
  0
LINE
  8
0
  6
LTYPE3
 62
     2
 10
140.3
 20
102.95
 30
0.0
 11
140.3
 21
105.55
 31
0.0
  0
LINE
  8
0
  6
LTYPE3
 62
     2
 10
138.3
 20
105.55
 30
0.0
 11
138.3
 21
102.95
 31
0.0
  0
POINT
  8
0
  6
LTYPE3
 62
     2
 10
136.8
 20
102.95
 30
0.0
  0
POINT
  8
0
  6
LTYPE3
 62
     2
 10
136.8
 20
102.95
 30
0.0
  0
POINT
  8
0
  6
LTYPE3
 62
     2
 10
136.8
 20
102.95
 30
0.0
  0
POINT
  8
0
  6
LTYPE3
 62
     2
 10
136.8
 20
102.95
 30
0.0
  0
POINT
  8
0
  6
LTYPE3
 62
     2
 10
136.8
 20
102.95
 30
0.0
  0
LINE
  8
0
  6
LTYPE3
 62
     2
 10
136.8
 20
102.95
 30
0.0
 11
136.8
 21
105.55
 31
0.0
  0
LINE
  8
0
  6
LTYPE3
 62
     2
 10
134.8
 20
105.55
 30
0.0
 11
134.8
 21
102.95
 31
0.0
  0
POINT
  8
0
  6
LTYPE3
 62
     2
 10
133.3
 20
102.95
 30
0.0
  0
POINT
  8
0
  6
LTYPE3
 62
     2
 10
133.3
 20
102.95
 30
0.0
  0
LINE
  8
0
  6
LTYPE3
 62
     2
 10
133.3
 20
102.95
 30
0.0
 11
133.3
 21
105.55
 31
0.0
  0
LINE
  8
0
  6
LTYPE3
 62
     2
 10
131.3
 20
105.55
 30
0.0
 11
131.3
 21
102.95
 31
0.0
  0
LINE
  8
0
  6
LTYPE3
 62
     2
 10
129.8
 20
102.95
 30
0.0
 11
129.8
 21
105.55
 31
0.0
  0
LINE
  8
0
  6
LTYPE3
 62
     2
 10
127.8
 20
105.55
 30
0.0
 11
127.8
 21
102.95
 31
0.0
  0
LINE
  8
0
  6
CONTINUOUS
 62
     2
 10
139.4
 20
149.45
 30
0.0
 11
139.786107626
 21
151.920004231
 31
0.0
  0
LINE
  8
0
  6
CONTINUOUS
 62
     2
 10
139.4
 20
149.45
 30
0.0
 11
138.499376897
 21
151.782140224
 31
0.0
  0
LINE
  8
0
  6
CONTINUOUS
 62
     2
 10
139.4
 20
149.45
 30
0.0
 11
138.5
 21
157.85
 31
0.0
  0
LINE
  8
0
  6
CONTINUOUS
 62
     2
 10
138.5
 20
157.85
 30
0.0
 11
111.5
 21
157.85
 31
0.0
  0
TEXT
  8
0
  6
CONTINUOUS
 62
     2
 10
111.5
 20
158.85
 30
0.3
 40
3.0
  1
ＡＶＦ－１１形電圧計放熱穴
 50
0.0
 41
0.6
 51
0.0
  7
KANJI1
  0
TEXT
  8
0
  6
CONTINUOUS
 62
     2
 10
218.4
 20
175.9
 30
0.5
 40
3.0
  1
※
 50
0.0
 41
0.9
 51
0.0
  7
KANJI0
  0
LINE
  8
0
  6
CONTINUOUS
 62
     2
 10
25.6
 20
76.1
 30
0.0
 11
150.6
 21
76.1
 31
0.0
  0
LINE
  8
0
  6
CONTINUOUS
 62
     2
 10
150.6
 20
76.1
 30
0.0
 11
150.6
 21
36.1
 31
0.0
  0
LINE
  8
0
  6
CONTINUOUS
 62
     2
 10
150.6
 20
36.1
 30
0.0
 11
25.6
 21
36.1
 31
0.0
  0
LINE
  8
0
  6
CONTINUOUS
 62
     2
 10
25.6
 20
36.1
 30
0.0
 11
25.6
 21
76.1
 31
0.0
  0
LINE
  8
0
  6
CONTINUOUS
 62
     2
 10
25.6
 20
71.1
 30
0.0
 11
150.6
 21
71.1
 31
0.0
  0
LINE
  8
0
  6
CONTINUOUS
 62
     2
 10
120.6
 20
76.15
 30
0.0
 11
120.6
 21
36.1
 31
0.0
  0
LINE
  8
0
  6
CONTINUOUS
 62
     2
 10
60.6
 20
76.1
 30
0.0
 11
60.6
 21
36.1
 31
0.0
  0
LINE
  8
0
  6
CONTINUOUS
 62
     2
 10
30.6
 20
36.1
 30
0.0
 11
30.6
 21
76.1
 31
0.0
  0
LINE
  8
0
  6
CONTINUOUS
 62
     2
 10
25.6
 20
61.1
 30
0.0
 11
120.6
 21
61.1
 31
0.0
  0
LINE
  8
0
  6
CONTINUOUS
 62
     2
 10
120.6
 20
56.1
 30
0.0
 11
25.6
 21
56.1
 31
0.0
  0
LINE
  8
0
  6
CONTINUOUS
 62
     2
 10
25.6
 20
51.1
 30
0.0
 11
120.6
 21
51.1
 31
0.0
  0
LINE
  8
0
  6
CONTINUOUS
 62
     2
 10
120.6
 20
46.1
 30
0.0
 11
25.6
 21
46.1
 31
0.0
  0
LINE
  8
0
  6
CONTINUOUS
 62
     2
 10
120.6
 20
46.1
 30
0.0
 11
150.6
 21
46.1
 31
0.0
  0
LINE
  8
0
  6
CONTINUOUS
 62
     2
 10
120.6
 20
46.1
 30
0.0
 11
150.6
 21
71.1
 31
0.0
  0
TEXT
  8
0
  6
CONTINUOUS
 62
     2
 10
26.6
 20
72.1
 30
0.3
 40
3.0
  1
項
 50
0.0
 41
0.9
 51
0.0
  7
KANJI4
  0
TEXT
  8
0
  6
CONTINUOUS
 62
     2
 10
26.6
 20
67.1
 30
0.3
 40
3.0
  1
１
 50
0.0
 41
0.9
 51
0.0
  7
KANJI4
  0
TEXT
  8
0
  6
CONTINUOUS
 62
     2
 10
26.6
 20
62.1
 30
0.3
 40
3.0
  1
２
 50
0.0
 41
0.9
 51
0.0
  7
KANJI4
  0
TEXT
  8
0
  6
CONTINUOUS
 62
     2
 10
26.6
 20
57.1
 30
0.3
 40
3.0
  1
３
 50
0.0
 41
0.9
 51
0.0
  7
KANJI4
  0
TEXT
  8
0
  6
CONTINUOUS
 62
     2
 10
26.6
 20
52.1
 30
0.3
 40
3.0
  1
４
 50
0.0
 41
0.9
 51
0.0
  7
KANJI4
  0
TEXT
  8
0
  6
CONTINUOUS
 62
     2
 10
26.6
 20
47.1
 30
0.3
 40
3.0
  1
５
 50
0.0
 41
0.9
 51
0.0
  7
KANJI4
  0
TEXT
  8
0
  6
CONTINUOUS
 62
     2
 10
26.6
 20
42.1
 30
0.3
 40
3.0
  1
６
 50
0.0
 41
0.9
 51
0.0
  7
KANJI4
  0
TEXT
  8
0
  6
CONTINUOUS
 62
     2
 10
26.6
 20
37.1
 30
0.3
 40
3.0
  1
７
 50
0.0
 41
0.9
 51
0.0
  7
KANJI4
  0
TEXT
  8
0
  6
CONTINUOUS
 62
     2
 10
35.6
 20
72.1
 30
1.0
 40
3.0
  1
計器形名
 50
0.0
 41
0.9
 51
0.0
  7
KANJI5
  0
TEXT
  8
0
  6
CONTINUOUS
 62
     2
 10
121.6
 20
72.1
 30
1.0
 40
3.0
  1
感度調整用抵抗器
 50
0.0
 41
0.9
 51
0.0
  7
KANJI5
  0
TEXT
  8
0
  6
CONTINUOUS
 62
     2
 10
121.6
 20
42.1
 30
1.0
 40
3.0
  1
上図※印の位置に
 50
0.0
 41
0.9
 51
0.0
  7
KANJI5
  0
TEXT
  8
0
  6
CONTINUOUS
 62
     2
 10
35.6
 20
67.1
 30
0.5
 40
3.0
  1
ＤＶＦ－１１
 50
0.0
 41
0.9
 51
0.0
  7
KANJI0
  0
TEXT
  8
0
  6
CONTINUOUS
 62
     2
 10
35.6
 20
63.6
 30
0.5
 40
3.0
  1
Ｓ
 50
0.0
 41
0.45
 51
0.0
  7
KANJI6
  0
TEXT
  8
0
  6
CONTINUOUS
 62
     2
 10
35.6
 20
61.1
 30
0.5
 40
3.0
  1
Ｃ
 50
0.0
 41
0.45
 51
0.0
  7
KANJI6
  0
TEXT
  8
0
  6
CONTINUOUS
 62
     2
 10
38.9
 20
62.1
 30
0.5
 40
3.0
  1
ＶＦ－１１
 50
0.0
 41
0.9
 51
0.0
  7
KANJI0
  0
TEXT
  8
0
  6
CONTINUOUS
 62
     2
 10
35.8
 20
57.1
 30
0.5
 40
3.0
  1
ＳｅＶＦ－１１
 50
0.0
 41
0.9
 51
0.0
  7
KANJI0
  0
TEXT
  8
0
  6
CONTINUOUS
 62
     2
 10
35.8
 20
52.1
 30
0.5
 40
3.0
  1
ＦＶＦ－１１　
 50
0.0
 41
0.9
 51
0.0
  7
KANJI0
  0
TEXT
  8
0
  6
CONTINUOUS
 62
     2
 10
35.8
 20
47.1
 30
0.5
 40
3.0
  1
ＡＶＦ－１１　
 50
0.0
 41
0.9
 51
0.0
  7
KANJI0
  0
TEXT
  8
0
  6
CONTINUOUS
 62
     2
 10
35.8
 20
42.1
 30
0.5
 40
3.0
  1
ＤＶＦ－１１Ｖ
 50
0.0
 41
0.9
 51
0.0
  7
KANJI0
  0
TEXT
  8
0
  6
CONTINUOUS
 62
     2
 10
35.8
 20
38.6
 30
0.5
 40
3.0
  1
Ｓ
 50
0.0
 41
0.45
 51
0.0
  7
KANJI6
  0
TEXT
  8
0
  6
CONTINUOUS
 62
     2
 10
35.8
 20
36.1
 30
0.5
 40
3.0
  1
Ｃ　
 50
0.0
 41
0.45
 51
0.0
  7
KANJI6
  0
TEXT
  8
0
  6
CONTINUOUS
 62
     2
 10
38.8
 20
37.1
 30
0.5
 40
3.0
  1
ＶＦ－１１Ｖ
 50
0.0
 41
0.9
 51
0.0
  7
KANJI0
  0
TEXT
  8
0
  6
CONTINUOUS
 62
     2
 10
99.6
 20
67.1
 30
0.5
 40
3.0
  1
１０２
 50
0.0
 41
0.9
 51
0.0
  7
KANJI0
  0
TEXT
  8
0
  6
CONTINUOUS
 62
     2
 10
99.6
 20
62.1
 30
0.5
 40
3.0
  1
１０２
 50
0.0
 41
0.9
 51
0.0
  7
KANJI0
  0
TEXT
  8
0
  6
CONTINUOUS
 62
     2
 10
99.6
 20
57.1
 30
0.5
 40
3.0
  1
１０２
 50
0.0
 41
0.9
 51
0.0
  7
KANJI0
  0
TEXT
  8
0
  6
CONTINUOUS
 62
     2
 10
99.6
 20
52.1
 30
0.5
 40
3.0
  1
１０２
 50
0.0
 41
0.9
 51
0.0
  7
KANJI0
  0
TEXT
  8
0
  6
CONTINUOUS
 62
     2
 10
99.6
 20
47.1
 30
0.5
 40
3.0
  1
１２９
 50
0.0
 41
0.9
 51
0.0
  7
KANJI0
  0
TEXT
  8
0
  6
CONTINUOUS
 62
     2
 10
99.6
 20
42.1
 30
0.5
 40
3.0
  1
１０２
 50
0.0
 41
0.9
 51
0.0
  7
KANJI0
  0
TEXT
  8
0
  6
CONTINUOUS
 62
     2
 10
99.6
 20
37.1
 30
0.5
 40
3.0
  1
１０２
 50
0.0
 41
0.9
 51
0.0
  7
KANJI0
  0
LINE
  8
0
  6
CONTINUOUS
 62
     2
 10
39.2
 20
117.3
 30
0.0
 11
38.16730914
 21
115.023258999
 31
0.0
  0
LINE
  8
0
  6
CONTINUOUS
 62
     2
 10
39.2
 20
117.3
 30
0.0
 11
39.444033981
 21
114.811939025
 31
0.0
  0
LINE
  8
0
  6
CONTINUOUS
 62
     2
 10
39.2
 20
117.3
 30
0.0
 11
34.4
 21
88.3
 31
0.0
  0
LINE
  8
0
  6
LTYPE1
 62
     2
 10
184.214213562
 20
140.685786438
 30
0.0
 11
188.864213562
 21
140.685786438
 31
0.0
  0
TEXT
  8
0
  6
CONTINUOUS
 62
     2
 10
121.6
 20
37.1
 30
1.0
 40
3.0
  1
内蔵しています
 50
0.0
 41
0.9
 51
0.0
  7
KANJI5
  0
LINE
  8
0
  6
CONTINUOUS
 62
     2
 10
35.014213562
 20
66.1
 30
0.0
 11
25.6
 21
66.1
 31
0.0
  0
LINE
  8
0
  6
CONTINUOUS
 62
     2
 10
120.6
 20
66.1
 30
0.0
 11
37.014213562
 21
66.1
 31
0.0
  0
LINE
  8
0
  6
CONTINUOUS
 62
     2
 10
37.364213562
 20
41.1
 30
0.0
 11
120.6
 21
41.1
 31
0.0
  0
LINE
  8
0
  6
CONTINUOUS
 62
     2
 10
25.6
 20
41.1
 30
0.0
 11
35.264213562
 21
41.1
 31
0.0
  0
TEXT
  8
0
  6
CONTINUOUS
 62
     2
 10
96.214213562
 20
72.285786438
 30
0.5
 40
3.0
  1
計器胴寸法
 50
0.0
 41
0.9
 51
0.0
  7
KANJI0
  0
LINE
  8
0
  6
CONTINUOUS
 62
     2
 10
108.330901326
 20
151.05
 30
0.0
 11
106.05
 21
151.05
 31
0.0
  0
LINE
  8
0
  6
CONTINUOUS
 62
     2
 10
106.05
 20
145.35
 30
0.0
 11
108.325
 21
145.35
 31
0.0
  0
LINE
  8
0
  6
CONTINUOUS
 62
     2
 10
106.05
 20
151.05
 30
0.0
 11
106.05
 21
145.35
 31
0.0
  0
LINE
  8
0
  6
CONTINUOUS
 62
     2
 10
105.05
 20
151.55
 30
0.0
 11
106.05
 21
151.05
 31
0.0
  0
LINE
  8
0
  6
CONTINUOUS
 62
     2
 10
105.05
 20
144.85
 30
0.0
 11
106.05
 21
145.35
 31
0.0
  0
LINE
  8
0
  6
CONTINUOUS
 62
     2
 10
105.05
 20
151.55
 30
0.0
 11
105.05
 21
144.85
 31
0.0
  0
LINE
  8
0
  6
CONTINUOUS
 62
     2
 10
105.05
 20
149.7
 30
0.0
 11
103.05
 21
149.7
 31
0.0
  0
LINE
  8
0
  6
CONTINUOUS
 62
     2
 10
105.05
 20
149.585
 30
0.0
 11
103.05
 21
149.585
 31
0.0
  0
LINE
  8
0
  6
CONTINUOUS
 62
     1
 10
105.05
 20
150.45
 30
0.0
 11
103.05
 21
150.45
 31
0.0
  0
LINE
  8
0
  6
CONTINUOUS
 62
     2
 10
103.05
 20
146.705
 30
0.0
 11
105.05
 21
146.705
 31
0.0
  0
LINE
  8
0
  6
CONTINUOUS
 62
     2
 10
105.05
 20
146.825
 30
0.0
 11
103.05
 21
146.825
 31
0.0
  0
LINE
  8
0
  6
CONTINUOUS
 62
     1
 10
106.05
 20
100.95
 30
0.0
 11
103.05
 21
100.95
 31
0.0
  0
LINE
  8
0
  6
CONTINUOUS
 62
     2
 10
103.05
 20
101.705
 30
0.0
 11
105.15
 21
101.705
 31
0.0
  0
LINE
  8
0
  6
CONTINUOUS
 62
     2
 10
105.15
 20
101.825
 30
0.0
 11
103.05
 21
101.825
 31
0.0
  0
LINE
  8
0
  6
CONTINUOUS
 62
     2
 10
105.05
 20
106.55
 30
0.0
 11
106.05
 21
106.05
 31
0.0
  0
LINE
  8
0
  6
CONTINUOUS
 62
     2
 10
105.05
 20
106.55
 30
0.0
 11
105.05
 21
99.85
 31
0.0
  0
LINE
  8
0
  6
CONTINUOUS
 62
     2
 10
105.05
 20
99.85
 30
0.0
 11
106.05
 21
100.35
 31
0.0
  0
LINE
  8
0
  6
CONTINUOUS
 62
     2
 10
106.05
 20
100.35
 30
0.0
 11
108.325
 21
100.35
 31
0.0
  0
LINE
  8
0
  6
CONTINUOUS
 62
     2
 10
106.05
 20
106.05
 30
0.0
 11
106.05
 21
100.35
 31
0.0
  0
LINE
  8
0
  6
CONTINUOUS
 62
     2
 10
105.05
 20
104.6
 30
0.0
 11
103.05
 21
104.6
 31
0.0
  0
LINE
  8
0
  6
CONTINUOUS
 62
     2
 10
105.05
 20
104.485
 30
0.0
 11
103.05
 21
104.485
 31
0.0
  0
LINE
  8
0
  6
CONTINUOUS
 62
     2
 10
90.477077922
 20
127.95
 30
0.0
 11
90.727077922
 21
128.2
 31
0.0
  0
LINE
  8
0
  6
CONTINUOUS
 62
     2
 10
90.477077922
 20
127.95
 30
0.0
 11
90.477077922
 21
123.45
 31
0.0
  0
LINE
  8
0
  6
CONTINUOUS
 62
     2
 10
90.727077922
 20
123.2
 30
0.0
 11
90.477077922
 21
123.45
 31
0.0
  0
LINE
  8
0
  6
CONTINUOUS
 62
     2
 10
91.977077922
 20
128.2
 30
0.0
 11
90.727077922
 21
128.2
 31
0.0
  0
LINE
  8
0
  6
CONTINUOUS
 62
     2
 10
92.477077922
 20
127.7
 30
0.0
 11
91.977077922
 21
128.2
 31
0.0
  0
LINE
  8
0
  6
CONTINUOUS
 62
     2
 10
90.727077922
 20
123.2
 30
0.0
 11
91.977077922
 21
123.2
 31
0.0
  0
LINE
  8
0
  6
CONTINUOUS
 62
     2
 10
92.477077922
 20
127.7
 30
0.0
 11
92.477077922
 21
123.7
 31
0.0
  0
LINE
  8
0
  6
CONTINUOUS
 62
     2
 10
91.977077922
 20
123.2
 30
0.0
 11
92.477077922
 21
123.7
 31
0.0
  0
LINE
  8
0
  6
CONTINUOUS
 62
     2
 10
90.727077922
 20
123.2
 30
0.0
 11
90.727077922
 21
128.2
 31
0.0
  0
LINE
  8
0
  6
CONTINUOUS
 62
     2
 10
91.977077922
 20
128.2
 30
0.0
 11
91.977077922
 21
123.2
 31
0.0
  0
LINE
  8
0
  6
CONTINUOUS
 62
     2
 10
90.727077922
 20
125.7
 30
0.0
 11
91.977077922
 21
125.7
 31
0.0
  0
LINE
  8
0
  6
CONTINUOUS
 62
     2
 10
90.727077922
 20
128.2
 30
0.0
 11
91.977077922
 21
128.2
 31
0.0
  0
CIRCLE
  8
0
  6
CONTINUOUS
 62
     2
 10
53.2
 20
125.7
 30
0.0
 40
2.25
  0
CIRCLE
  8
0
  6
CONTINUOUS
 62
     2
 10
53.2
 20
125.7
 30
0.0
 40
1.375
  0
CIRCLE
  8
0
  6
CONTINUOUS
 62
     2
 10
53.2
 20
125.7
 30
0.0
 40
1.25
  0
LINE
  8
0
  6
CONTINUOUS
 62
     2
 10
51.975255129
 20
125.45
 30
0.0
 11
54.424744871
 21
125.45
 31
0.0
  0
LINE
  8
0
  6
CONTINUOUS
 62
     2
 10
54.424744871
 20
125.95
 30
0.0
 11
51.975255129
 21
125.95
 31
0.0
  0
CIRCLE
  8
0
  6
CONTINUOUS
 62
     1
 10
53.2
 20
125.7
 30
0.0
 40
2.5
  0
CIRCLE
  8
0
  6
CONTINUOUS
 62
     2
 10
53.2
 20
125.7
 30
0.0
 40
3.05
  0
LINE
  8
0
  6
CONTINUOUS
 62
     2
 10
63.276794919
 20
143.553520778
 30
0.0
 11
63.623205081
 21
143.353520778
 31
0.0
  0
LINE
  8
0
  6
CONTINUOUS
 62
     2
 10
63.623205081
 20
143.353520778
 30
0.0
 11
57.938820904
 21
132.756456366
 31
0.0
  0
LINE
  8
0
  6
CONTINUOUS
 62
     2
 10
63.276794919
 20
143.553520778
 30
0.0
 11
56.941660022
 21
133.33216747
 31
0.0
  0
LINE
  8
0
  6
CONTINUOUS
 62
     2
 10
63.3
 20
143.5
 30
0.0
 11
63.183751247
 21
145.997295783
 31
0.0
  0
LINE
  8
0
  6
CONTINUOUS
 62
     2
 10
63.3
 20
143.5
 30
0.0
 11
61.950677735
 21
145.604597212
 31
0.0
  0
LINE
  8
0
  6
CONTINUOUS
 62
     2
 10
63.3
 20
143.5
 30
0.0
 11
58.3
 21
159.2
 31
0.0
  0
LINE
  8
0
  6
CONTINUOUS
 62
     2
 10
70.0
 20
159.2
 30
0.0
 11
58.3
 21
159.2
 31
0.0
  0
TEXT
  8
0
  6
CONTINUOUS
 62
     2
 10
58.3
 20
160.2
 30
0.3
 40
3.0
  1
予定指針
 50
0.0
 41
0.9
 51
0.0
  7
KANJI4
  0
LINE
  8
0
  6
CONTINUOUS
 62
     2
 10
53.6
 20
124.65
 30
0.0
 11
53.856992767
 21
122.163244138
 31
0.0
  0
LINE
  8
0
  6
CONTINUOUS
 62
     2
 10
53.6
 20
124.65
 30
0.0
 11
55.065940196
 21
122.624902634
 31
0.0
  0
LINE
  8
0
  6
CONTINUOUS
 62
     2
 10
91.0
 20
122.95
 30
0.0
 11
90.181096958
 21
120.587925105
 31
0.0
  0
LINE
  8
0
  6
CONTINUOUS
 62
     2
 10
91.0
 20
122.95
 30
0.0
 11
91.47184661
 21
120.494931615
 31
0.0
  0
TEXT
  8
0
  6
CONTINUOUS
 62
     2
 10
89.5
 20
89.25
 30
0.3
 40
3.0
  1
予定指針ツマミ
 50
0.0
 41
0.9
 51
0.0
  7
KANJI4
  0
LINE
  8
0
  6
CONTINUOUS
 62
     2
 10
110.2
 20
88.25
 30
0.0
 11
88.5
 21
88.25
 31
0.0
  0
LINE
  8
0
  6
CONTINUOUS
 62
     2
 10
91.0
 20
122.95
 30
0.0
 11
88.5
 21
88.25
 31
0.0
  0
TEXT
  8
0
  6
CONTINUOUS
 62
     2
 10
65.6
 20
72.1
 30
1.0
 40
3.0
  1
動作原理
 50
0.0
 41
0.9
 51
0.0
  7
KANJI5
  0
TEXT
  8
0
  6
CONTINUOUS
 62
     2
 10
65.6
 20
62.1
 30
0.5
 40
3.0
  1
整流形
 50
0.0
 41
0.9
 51
0.0
  7
KANJI0
  0
TEXT
  8
0
  6
CONTINUOUS
 62
     2
 10
65.1
 20
47.1
 30
0.5
 40
3.0
  1
可動鉄片形
 50
0.0
 41
0.9
 51
0.0
  7
KANJI0
  0
TEXT
  8
0
  6
CONTINUOUS
 62
     2
 10
65.1
 20
42.1
 30
0.5
 40
3.0
  1
可動コイル形
 50
0.0
 41
0.9
 51
0.0
  7
KANJI0
  0
TEXT
  8
0
  6
CONTINUOUS
 62
     2
 10
65.1
 20
37.1
 30
0.5
 40
3.0
  1
整流形
 50
0.0
 41
0.9
 51
0.0
  7
KANJI0
  0
LINE
  8
0
  6
CONTINUOUS
 62
     2
 10
90.6
 20
36.1
 30
0.0
 11
90.6
 21
76.1
 31
0.0
  0
LINE
  8
0
  6
CONTINUOUS
 62
     2
 10
106.7
 20
100.55
 30
0.0
 11
107.300352308
 21
98.123154907
 31
0.0
  0
LINE
  8
0
  6
CONTINUOUS
 62
     2
 10
106.7
 20
100.55
 30
0.0
 11
108.433342897
 21
98.748466652
 31
0.0
  0
LINE
  8
0
  6
CONTINUOUS
 62
     2
 10
106.7
 20
100.55
 30
0.0
 11
116.8
 21
82.25
 31
0.0
  0
TEXT
  8
0
  6
CONTINUOUS
 62
     2
 10
65.6
 20
67.3
 30
0.1
 40
2.5
  1
永久磁石可動コイル形
 50
0.0
 41
0.72
 51
0.0
  7
KANJI7
  0
TEXT
  8
0
  6
CONTINUOUS
 62
     2
 10
183.976470351
 20
53.190293305
 30
0.3
 40
3.0
  1
１０２
 50
46.346669025
 41
0.6
 51
0.0
  7
KANJI1
  0
TEXT
  8
0
  6
CONTINUOUS
 62
     2
 10
185.90703946
 20
126.79851953
 30
0.18
 40
1.8
  1
±１
 50
58.756981116
 41
0.6
 51
0.0
  7
KANJI2
  0
TEXT
  8
0
  6
CONTINUOUS
 62
     2
 10
183.895024927
 20
123.568669089
 30
0.3
 40
3.0
  1
９９
 50
58.756981116
 41
0.6
 51
0.0
  7
KANJI1
  0
TEXT
  8
0
  6
CONTINUOUS
 62
     2
 10
94.85
 20
172.125001907
 30
0.3
 40
3.0
  1
２５
 50
0.0
 41
0.6
 51
0.0
  7
KANJI1
  0
CIRCLE
  8
0
  6
CONTINUOUS
 62
     2
 10
179.060941828
 20
130.55
 30
0.0
 40
3.175
  0
CIRCLE
  8
0
  6
CONTINUOUS
 62
     2
 10
179.060941828
 20
130.55
 30
0.0
 40
2.5
  0
LINE
  8
0
  6
CONTINUOUS
 62
     2
 10
180.435941828
 20
130.2
 30
0.0
 11
180.435941828
 21
130.9
 31
0.0
  0
LINE
  8
0
  6
CONTINUOUS
 62
     2
 10
177.685941828
 20
130.9
 30
0.0
 11
177.685941828
 21
130.2
 31
0.0
  0
LINE
  8
0
  6
CONTINUOUS
 62
     2
 10
180.435941828
 20
130.9
 30
0.0
 11
180.160941828
 21
130.9
 31
0.0
  0
LINE
  8
0
  6
CONTINUOUS
 62
     2
 10
179.410941828
 20
131.65
 30
0.0
 11
179.410941828
 21
133.025378759
 31
0.0
  0
ARC
  8
0
  6
CONTINUOUS
 62
     2
 10
180.160941828
 20
131.65
 30
0.0
 40
0.75
 50
180.0
 51
270.0
  0
LINE
  8
0
  6
CONTINUOUS
 62
     2
 10
180.160941828
 20
130.2
 30
0.0
 11
180.435941828
 21
130.2
 31
0.0
  0
LINE
  8
0
  6
CONTINUOUS
 62
     2
 10
179.410941828
 20
128.1
 30
0.0
 11
179.410941828
 21
129.45
 31
0.0
  0
ARC
  8
0
  6
CONTINUOUS
 62
     2
 10
180.160941828
 20
129.45
 30
0.0
 40
0.75
 50
90.0
 51
180.0
  0
LINE
  8
0
  6
CONTINUOUS
 62
     2
 10
177.685941828
 20
130.2
 30
0.0
 11
177.960941828
 21
130.2
 31
0.0
  0
LINE
  8
0
  6
CONTINUOUS
 62
     2
 10
178.710941828
 20
129.45
 30
0.0
 11
178.710941828
 21
128.074621241
 31
0.0
  0
ARC
  8
0
  6
CONTINUOUS
 62
     2
 10
177.960941828
 20
129.45
 30
0.0
 40
0.75
 50
0.0
 51
90.0
  0
LINE
  8
0
  6
CONTINUOUS
 62
     2
 10
177.960941828
 20
130.9
 30
0.0
 11
177.685941828
 21
130.9
 31
0.0
  0
LINE
  8
0
  6
CONTINUOUS
 62
     2
 10
178.710941828
 20
133.025378759
 30
0.0
 11
178.710941828
 21
131.65
 31
0.0
  0
ARC
  8
0
  6
CONTINUOUS
 62
     2
 10
177.960941828
 20
131.65
 30
0.0
 40
0.75
 50
270.0
 51
0.0
  0
CIRCLE
  8
0
  6
CONTINUOUS
 62
     2
 10
194.060941828
 20
130.55
 30
0.0
 40
3.175
  0
CIRCLE
  8
0
  6
CONTINUOUS
 62
     2
 10
194.060941828
 20
130.55
 30
0.0
 40
2.5
  0
LINE
  8
0
  6
CONTINUOUS
 62
     2
 10
195.435941828
 20
130.2
 30
0.0
 11
195.435941828
 21
130.9
 31
0.0
  0
LINE
  8
0
  6
CONTINUOUS
 62
     2
 10
192.685941828
 20
130.9
 30
0.0
 11
192.685941828
 21
130.2
 31
0.0
  0
LINE
  8
0
  6
CONTINUOUS
 62
     2
 10
195.435941828
 20
130.9
 30
0.0
 11
195.160941828
 21
130.9
 31
0.0
  0
LINE
  8
0
  6
CONTINUOUS
 62
     2
 10
194.410941828
 20
131.65
 30
0.0
 11
194.410941828
 21
133.025378759
 31
0.0
  0
ARC
  8
0
  6
CONTINUOUS
 62
     2
 10
195.160941828
 20
131.65
 30
0.0
 40
0.75
 50
180.0
 51
270.0
  0
LINE
  8
0
  6
CONTINUOUS
 62
     2
 10
195.160941828
 20
130.2
 30
0.0
 11
195.435941828
 21
130.2
 31
0.0
  0
LINE
  8
0
  6
CONTINUOUS
 62
     2
 10
194.410941828
 20
128.1
 30
0.0
 11
194.410941828
 21
129.45
 31
0.0
  0
ARC
  8
0
  6
CONTINUOUS
 62
     2
 10
195.160941828
 20
129.45
 30
0.0
 40
0.75
 50
90.0
 51
180.0
  0
LINE
  8
0
  6
CONTINUOUS
 62
     2
 10
192.685941828
 20
130.2
 30
0.0
 11
192.960941828
 21
130.2
 31
0.0
  0
LINE
  8
0
  6
CONTINUOUS
 62
     2
 10
193.710941828
 20
129.45
 30
0.0
 11
193.710941828
 21
128.074621241
 31
0.0
  0
ARC
  8
0
  6
CONTINUOUS
 62
     2
 10
192.960941828
 20
129.45
 30
0.0
 40
0.75
 50
0.0
 51
90.0
  0
LINE
  8
0
  6
CONTINUOUS
 62
     2
 10
192.960941828
 20
130.9
 30
0.0
 11
192.685941828
 21
130.9
 31
0.0
  0
LINE
  8
0
  6
CONTINUOUS
 62
     2
 10
193.710941828
 20
133.025378759
 30
0.0
 11
193.710941828
 21
131.65
 31
0.0
  0
ARC
  8
0
  6
CONTINUOUS
 62
     2
 10
192.960941828
 20
131.65
 30
0.0
 40
0.75
 50
270.0
 51
0.0
  0
LINE
  8
0
  6
CONTINUOUS
 62
     1
 10
179.060941828
 20
137.55
 30
0.0
 11
194.060941828
 21
137.55
 31
0.0
  0
ARC
  8
0
  6
CONTINUOUS
 62
     1
 10
194.060941828
 20
130.55
 30
0.0
 40
7.0
 50
24.160871774
 51
90.0
  0
LINE
  8
0
  6
CONTINUOUS
 62
     1
 10
200.447741111
 20
133.415099462
 30
0.0
 11
205.438641393
 21
122.289524673
 31
0.0
  0
ARC
  8
0
  6
CONTINUOUS
 62
     1
 10
201.560941828
 20
120.55
 30
0.0
 40
4.25
 50
0.0
 51
24.160864651
  0
LINE
  8
0
  6
CONTINUOUS
 62
     1
 10
205.810941828
 20
113.5499984
 30
0.0
 11
205.810941828
 21
120.55
 31
0.0
  0
LINE
  8
0
  6
CONTINUOUS
 62
     1
 10
167.310941828
 20
113.5499984
 30
0.0
 11
167.310941828
 21
120.55
 31
0.0
  0
ARC
  8
0
  6
CONTINUOUS
 62
     1
 10
171.560941828
 20
120.55
 30
0.0
 40
4.25
 50
155.839135349
 51
180.0
  0
LINE
  8
0
  6
CONTINUOUS
 62
     1
 10
172.674142546
 20
133.415099462
 30
0.0
 11
167.683242264
 21
122.289524673
 31
0.0
  0
ARC
  8
0
  6
CONTINUOUS
 62
     1
 10
179.060941828
 20
130.55
 30
0.0
 40
7.0
 50
90.0
 51
155.839128226
  0
LINE
  8
0
  6
CONTINUOUS
 62
     1
 10
167.310941828
 20
113.55
 30
0.0
 11
205.810941828
 21
113.55
 31
0.0
  0
LINE
  8
0
  6
LTYPE1
 62
     5
 10
175.060941828
 20
130.55
 30
0.0
 11
183.060941828
 21
130.55
 31
0.0
  0
LINE
  8
0
  6
LTYPE1
 62
     5
 10
190.060941828
 20
130.55
 30
0.0
 11
198.060941828
 21
130.55
 31
0.0
  0
LINE
  8
0
  6
LTYPE1
 62
     5
 10
194.060941828
 20
126.55
 30
0.0
 11
194.060941828
 21
138.55
 31
0.0
  0
LINE
  8
0
  6
LTYPE1
 62
     5
 10
179.060941828
 20
126.55
 30
0.0
 11
179.060941828
 21
138.55
 31
0.0
  0
LINE
  8
0
  6
LTYPE4
 62
     2
 10
191.860941828
 20
128.55
 30
0.0
 11
191.360941828
 21
128.55
 31
0.0
  0
ARC
  8
0
  6
LTYPE4
 62
     2
 10
190.610941828
 20
136.05
 30
0.0
 40
0.75
 50
0.0
 51
90.0
  0
LINE
  8
0
  6
LTYPE4
 62
     2
 10
191.360941828
 20
128.55
 30
0.0
 11
191.360941828
 21
136.05
 31
0.0
  0
LINE
  8
0
  6
LTYPE4
 62
     2
 10
179.035941828
 20
136.8
 30
0.0
 11
194.060941828
 21
136.8
 31
0.0
  0
ARC
  8
0
  6
LTYPE4
 62
     2
 10
194.060941828
 20
130.55
 30
0.0
 40
6.25
 50
24.160864651
 51
90.000006668
  0
ARC
  8
0
  6
LTYPE4
 62
     2
 10
182.510941828
 20
136.05
 30
0.0
 40
0.75
 50
90.0
 51
180.0
  0
LINE
  8
0
  6
LTYPE4
 62
     2
 10
181.760941828
 20
128.55
 30
0.0
 11
181.760941828
 21
136.05
 31
0.0
  0
ARC
  8
0
  6
LTYPE4
 62
     2
 10
179.060941828
 20
130.55
 30
0.0
 40
6.25
 50
89.999993332
 51
155.839135349
  0
ARC
  8
0
  6
LTYPE4
 62
     2
 10
197.260941828
 20
135.327290027
 30
0.0
 40
0.5
 50
56.184407518
 51
180.0
  0
LINE
  8
0
  6
LTYPE4
 62
     2
 10
196.760941828
 20
128.55
 30
0.0
 11
196.760941828
 21
135.327290027
 31
0.0
  0
LINE
  8
0
  6
LTYPE4
 62
     2
 10
176.360941828
 20
128.55
 30
0.0
 11
176.360941828
 21
135.327290027
 31
0.0
  0
ARC
  8
0
  6
LTYPE4
 62
     2
 10
175.860941828
 20
135.327290027
 30
0.0
 40
0.5
 50
0.0
 51
123.815592482
  0
ARC
  8
0
  6
LTYPE4
 62
     2
 10
178.310940875
 20
136.55
 30
0.0
 40
0.25
 50
0.0
 51
90.0
  0
ARC
  8
0
  6
LTYPE4
 62
     2
 10
179.810942782
 20
136.55
 30
0.0
 40
0.25
 50
90.0
 51
180.0
  0
ARC
  8
0
  6
LTYPE4
 62
     2
 10
194.810942782
 20
136.55
 30
0.0
 40
0.25
 50
90.0
 51
180.0
  0
ARC
  8
0
  6
LTYPE4
 62
     2
 10
193.310940875
 20
136.55
 30
0.0
 40
0.25
 50
0.0
 51
90.0
  0
LINE
  8
0
  6
LTYPE4
 62
     2
 10
179.560942782
 20
136.55
 30
0.0
 11
179.560942782
 21
134.55
 31
0.0
  0
LINE
  8
0
  6
LTYPE4
 62
     2
 10
179.560942782
 20
134.55
 30
0.0
 11
178.560942782
 21
134.55
 31
0.0
  0
LINE
  8
0
  6
LTYPE4
 62
     2
 10
178.560942782
 20
136.55
 30
0.0
 11
178.560942782
 21
134.55
 31
0.0
  0
LINE
  8
0
  6
LTYPE4
 62
     2
 10
177.810941828
 20
133.25
 30
0.0
 11
177.810941828
 21
132.174807681
 31
0.0
  0
LINE
  8
0
  6
LTYPE4
 62
     2
 10
177.410941828
 20
133.25
 30
0.0
 11
177.410941828
 21
137.352756794
 31
0.0
  0
LINE
  8
0
  6
LTYPE4
 62
     2
 10
177.210941828
 20
128.55
 30
0.0
 11
176.360941828
 21
128.55
 31
0.0
  0
ARC
  8
0
  6
LTYPE4
 62
     2
 10
179.060941828
 20
130.55
 30
0.0
 40
2.05
 50
127.57186932
 51
228.748359415
  0
ARC
  8
0
  6
LTYPE4
 62
     2
 10
177.210941828
 20
129.05
 30
0.0
 40
0.5
 50
270.0
 51
355.269685628
  0
LINE
  8
0
  6
LTYPE4
 62
     2
 10
180.310941828
 20
133.25
 30
0.0
 11
180.310941828
 21
132.174807681
 31
0.0
  0
LINE
  8
0
  6
LTYPE4
 62
     2
 10
180.710941828
 20
133.25
 30
0.0
 11
180.710941828
 21
137.352756794
 31
0.0
  0
ARC
  8
0
  6
LTYPE4
 62
     2
 10
179.060941828
 20
130.55
 30
0.0
 40
2.05
 50
311.251640585
 51
52.42813068
  0
LINE
  8
0
  6
LTYPE4
 62
     2
 10
180.910941828
 20
128.55
 30
0.0
 11
181.760941828
 21
128.55
 31
0.0
  0
ARC
  8
0
  6
LTYPE4
 62
     2
 10
180.910941828
 20
129.05
 30
0.0
 40
0.5
 50
184.730314372
 51
270.0
  0
LINE
  8
0
  6
LTYPE4
 62
     2
 10
194.560940875
 20
136.55
 30
0.0
 11
194.560940875
 21
134.55
 31
0.0
  0
LINE
  8
0
  6
LTYPE4
 62
     2
 10
193.560940875
 20
134.55
 30
0.0
 11
194.560940875
 21
134.55
 31
0.0
  0
LINE
  8
0
  6
LTYPE4
 62
     2
 10
193.560940875
 20
136.55
 30
0.0
 11
193.560940875
 21
134.55
 31
0.0
  0
LINE
  8
0
  6
LTYPE4
 62
     2
 10
192.810941828
 20
133.25
 30
0.0
 11
192.810941828
 21
132.174807681
 31
0.0
  0
LINE
  8
0
  6
LTYPE4
 62
     2
 10
192.410941828
 20
133.25
 30
0.0
 11
192.410941828
 21
137.352756794
 31
0.0
  0
ARC
  8
0
  6
LTYPE4
 62
     2
 10
194.060941828
 20
130.55
 30
0.0
 40
2.05
 50
127.57186932
 51
228.748359415
  0
LINE
  8
0
  6
LTYPE4
 62
     2
 10
192.210941828
 20
128.55
 30
0.0
 11
191.360941828
 21
128.55
 31
0.0
  0
ARC
  8
0
  6
LTYPE4
 62
     2
 10
192.210941828
 20
129.05
 30
0.0
 40
0.5
 50
270.0
 51
355.269685628
  0
LINE
  8
0
  6
LTYPE4
 62
     2
 10
195.310941828
 20
133.25
 30
0.0
 11
195.310941828
 21
132.174807681
 31
0.0
  0
LINE
  8
0
  6
LTYPE4
 62
     2
 10
195.710941828
 20
133.25
 30
0.0
 11
195.710941828
 21
137.352756794
 31
0.0
  0
ARC
  8
0
  6
LTYPE4
 62
     2
 10
194.060941828
 20
130.55
 30
0.0
 40
2.05
 50
311.251640585
 51
52.42813068
  0
LINE
  8
0
  6
LTYPE4
 62
     2
 10
196.260941828
 20
128.55
 30
0.0
 11
196.760941828
 21
128.55
 31
0.0
  0
LINE
  8
0
  6
LTYPE4
 62
     2
 10
195.910941828
 20
128.55
 30
0.0
 11
196.760941828
 21
128.55
 31
0.0
  0
ARC
  8
0
  6
LTYPE4
 62
     2
 10
195.910941828
 20
129.05
 30
0.0
 40
0.5
 50
184.730314372
 51
270.0
  0
ARC
  8
0
  6
LTYPE4
 62
     2
 10
171.560941828
 20
120.55
 30
0.0
 40
3.5
 50
154.667064238
 51
180.0
  0
ARC
  8
0
  6
LTYPE4
 62
     2
 10
171.560941828
 20
120.55
 30
0.0
 40
3.5
 50
155.83910686
 51
180.0
  0
LINE
  8
0
  6
LTYPE4
 62
     2
 10
168.367542187
 20
121.982549731
 30
0.0
 11
173.358442469
 21
133.108124519
 31
0.0
  0
LINE
  8
0
  6
LTYPE4
 62
     2
 10
168.060941828
 20
120.55
 30
0.0
 11
168.060941828
 21
113.55
 31
0.0
  0
LINE
  8
0
  6
LTYPE4
 62
     2
 10
205.060941828
 20
120.55
 30
0.0
 11
205.060941828
 21
113.55
 31
0.0
  0
ARC
  8
0
  6
LTYPE4
 62
     2
 10
201.560941828
 20
120.55
 30
0.0
 40
3.5
 50
0.0
 51
24.16089314
  0
LINE
  8
0
  6
LTYPE4
 62
     2
 10
204.754341469
 20
121.982549731
 30
0.0
 11
199.763441188
 21
133.108124519
 31
0.0
  0
LINE
  8
0
  6
CONTINUOUS
 62
     5
 10
167.338941828
 20
120.55
 30
0.0
 11
167.310941828
 21
120.55
 31
0.0
  0
LINE
  8
0
  6
CONTINUOUS
 62
     2
 10
180.710941828
 20
133.25
 30
0.0
 11
180.310941828
 21
133.25
 31
0.0
  0
LINE
  8
0
  6
CONTINUOUS
 62
     2
 10
192.410941828
 20
133.25
 30
0.0
 11
192.810941828
 21
133.25
 31
0.0
  0
LINE
  8
0
  6
CONTINUOUS
 62
     2
 10
177.410941828
 20
133.25
 30
0.0
 11
177.810941828
 21
133.25
 31
0.0
  0
LINE
  8
0
  6
CONTINUOUS
 62
     2
 10
210.909385409
 20
137.55
 30
0.0
 11
210.262337796
 21
135.135185434
 31
0.0
  0
LINE
  8
0
  6
CONTINUOUS
 62
     2
 10
210.909385409
 20
137.55
 30
0.0
 11
211.556433022
 21
135.135185434
 31
0.0
  0
LINE
  8
0
  6
CONTINUOUS
 62
     2
 10
210.909385409
 20
137.55
 30
0.0
 11
210.909385409
 21
125.7
 31
0.0
  0
LINE
  8
0
  6
CONTINUOUS
 62
     2
 10
210.909385409
 20
125.7
 30
0.0
 11
211.556433022
 21
128.114814566
 31
0.0
  0
LINE
  8
0
  6
CONTINUOUS
 62
     2
 10
210.909385409
 20
125.7
 30
0.0
 11
210.262337796
 21
128.114814566
 31
0.0
  0
TEXT
  8
0
  6
CONTINUOUS
 62
     2
 10
209.909385409
 20
129.675
 30
0.3
 40
3.0
  1
２４
 50
90.0
 41
0.6
 51
0.0
  7
KANJI1
  0
POLYLINE
  8
0
  6
CONTINUOUS
 62
     2
 66
     1
  0
VERTEX
  8
0
  6
CONTINUOUS
 62
     2
 10
210.909007449
 20
113.65
 30
0.0
  0
VERTEX
  8
0
  6
CONTINUOUS
 62
     2
 10
210.909007449
 20
125.5
 30
0.0
  0
VERTEX
  8
0
  6
CONTINUOUS
 62
     2
 10
211.556055062
 20
123.085185434
 30
0.0
  0
SEQEND
  0
LINE
  8
0
  6
CONTINUOUS
 62
     2
 10
210.909007449
 20
125.5
 30
0.0
 11
210.261959836
 21
123.085185434
 31
0.0
  0
TEXT
  8
0
  6
CONTINUOUS
 62
     2
 10
209.909007449
 20
117.625
 30
0.3
 40
3.0
  1
２４
 50
90.0
 41
0.6
 51
0.0
  7
KANJI1
  0
LINE
  8
0
  6
CONTINUOUS
 62
     2
 10
210.909007449
 20
113.65
 30
0.0
 11
210.261959836
 21
116.064814566
 31
0.0
  0
LINE
  8
0
  6
CONTINUOUS
 62
     2
 10
210.909007449
 20
113.65
 30
0.0
 11
211.556055062
 21
116.064814566
 31
0.0
  0
LINE
  8
0
  6
CONTINUOUS
 62
     2
 10
194.788781163
 20
113.65
 30
0.0
 11
212.291007449
 21
113.65
 31
0.0
  0
LINE
  8
0
  6
CONTINUOUS
 62
     2
 10
204.908712145
 20
125.7
 30
0.0
 11
212.291007449
 21
125.7
 31
0.0
  0
LINE
  8
0
  6
CONTINUOUS
 62
     2
 10
194.788781163
 20
137.55
 30
0.0
 11
212.291007449
 21
137.55
 31
0.0
  0
LINE
  8
0
  6
CONTINUOUS
 62
     2
 10
167.310941828
 20
112.55
 30
0.0
 11
167.310941828
 21
104.126
 31
0.0
  0
LINE
  8
0
  6
CONTINUOUS
 62
     2
 10
167.310941828
 20
106.126
 30
0.0
 11
169.725756394
 21
105.478952387
 31
0.0
  0
LINE
  8
0
  6
CONTINUOUS
 62
     2
 10
167.310941828
 20
106.126
 30
0.0
 11
169.725756394
 21
106.773047613
 31
0.0
  0
LINE
  8
0
  6
CONTINUOUS
 62
     2
 10
167.310941828
 20
106.126
 30
0.0
 11
205.810941828
 21
106.126
 31
0.0
  0
LINE
  8
0
  6
CONTINUOUS
 62
     2
 10
205.810941828
 20
106.126
 30
0.0
 11
203.396127263
 21
106.773047613
 31
0.0
  0
LINE
  8
0
  6
CONTINUOUS
 62
     2
 10
205.810941828
 20
106.126
 30
0.0
 11
203.396127263
 21
105.478952387
 31
0.0
  0
LINE
  8
0
  6
CONTINUOUS
 62
     2
 10
205.810941828
 20
112.55
 30
0.0
 11
205.810941828
 21
104.126
 31
0.0
  0
ARC
  8
0
  6
CONTINUOUS
 62
     2
 10
151.475
 20
129.625
 30
0.0
 40
1.475
 50
270.0
 51
0.0
  0
ARC
  8
0
  6
CONTINUOUS
 62
     2
 10
151.475
 20
131.775
 30
0.0
 40
1.475
 50
0.0
 51
90.0
  0
LINE
  8
0
  6
CONTINUOUS
 62
     2
 10
152.95
 20
131.775
 30
0.0
 11
152.95
 21
129.625
 31
0.0
  0
LINE
  8
0
  6
CONTINUOUS
 62
     2
 10
151.475
 20
128.15
 30
0.0
 11
150.975
 21
128.15
 31
0.0
  0
LINE
  8
0
  6
CONTINUOUS
 62
     2
 10
150.975
 20
128.15
 30
0.0
 11
150.975
 21
133.25
 31
0.0
  0
LINE
  8
0
  6
CONTINUOUS
 62
     2
 10
150.975
 20
133.25
 30
0.0
 11
151.475000132
 21
133.25
 31
0.0
  0
LINE
  8
0
  6
CONTINUOUS
 62
     2
 10
150.275
 20
133.45
 30
0.0
 11
150.95
 21
133.45
 31
0.0
  0
LINE
  8
0
  6
CONTINUOUS
 62
     2
 10
150.95
 20
133.45
 30
0.0
 11
150.95
 21
127.9475
 31
0.0
  0
LINE
  8
0
  6
CONTINUOUS
 62
     2
 10
150.95
 20
127.9475
 30
0.0
 11
150.275
 21
127.9475
 31
0.0
  0
LINE
  8
0
  6
CONTINUOUS
 62
     2
 10
150.275
 20
127.9475
 30
0.0
 11
150.275
 21
133.45
 31
0.0
  0
LINE
  8
0
  6
CONTINUOUS
 62
     2
 10
150.275
 20
130.76
 30
0.0
 11
150.95
 21
130.76
 31
0.0
  0
LINE
  8
0
  6
CONTINUOUS
 62
     2
 10
150.95
 20
130.66
 30
0.0
 11
150.275
 21
130.66
 31
0.0
  0
LINE
  8
0
  6
CONTINUOUS
 62
     2
 10
149.8
 20
127.525
 30
0.0
 11
150.275
 21
127.525
 31
0.0
  0
LINE
  8
0
  6
CONTINUOUS
 62
     2
 10
150.275
 20
127.525
 30
0.0
 11
150.275
 21
133.875
 31
0.0
  0
LINE
  8
0
  6
CONTINUOUS
 62
     2
 10
150.275
 20
133.875
 30
0.0
 11
149.8
 21
133.875
 31
0.0
  0
LINE
  8
0
  6
CONTINUOUS
 62
     2
 10
149.8
 20
133.875
 30
0.0
 11
149.8
 21
127.525
 31
0.0
  0
LINE
  8
0
  6
CONTINUOUS
 62
     2
 10
149.8
 20
128.7
 30
0.0
 11
145.3
 21
128.7
 31
0.0
  0
LINE
  8
0
  6
CONTINUOUS
 62
     2
 10
145.3
 20
132.7
 30
0.0
 11
149.8
 21
132.7
 31
0.0
  0
LINE
  8
0
  6
CONTINUOUS
 62
     2
 10
145.3
 20
132.7
 30
0.0
 11
145.3
 21
128.7
 31
0.0
  0
LINE
  8
0
  6
LTYPE1
 62
     2
 10
142.525
 20
130.7
 30
0.0
 11
155.25
 21
130.7
 31
0.0
  0
LINE
  8
0
  6
LTYPE4
 62
     2
 10
145.3
 20
127.45
 30
0.0
 11
145.3
 21
134.95
 31
0.0
  0
LINE
  8
0
  6
CONTINUOUS
 62
     2
 10
151.0
 20
128.1
 30
0.0
 11
150.700961894
 21
125.617949192
 31
0.0
  0
LINE
  8
0
  6
CONTINUOUS
 62
     2
 10
151.0
 20
128.1
 30
0.0
 11
151.982050808
 21
125.800961894
 31
0.0
  0
LINE
  8
0
  6
CONTINUOUS
 62
     2
 10
151.0
 20
128.1
 30
0.0
 11
156.0
 21
93.1
 31
0.0
  0
LINE
  8
0
  6
CONTINUOUS
 62
     1
 10
145.3
 20
113.7
 30
0.0
 11
145.3
 21
137.7
 31
0.0
  0
LINE
  8
0
  6
CONTINUOUS
 62
     1
 10
154.8
 20
134.7
 30
0.0
 11
154.8
 21
113.7
 31
0.0
  0
LINE
  8
0
  6
CONTINUOUS
 62
     1
 10
154.8
 20
113.7
 30
0.0
 11
145.3
 21
113.7
 31
0.0
  0
ARC
  8
0
  6
CONTINUOUS
 62
     1
 10
151.8
 20
134.7
 30
0.0
 40
3.0
 50
0.0
 51
90.0
  0
LINE
  8
0
  6
CONTINUOUS
 62
     1
 10
145.3
 20
137.7
 30
0.0
 11
151.8
 21
137.7
 31
0.0
  0
LINE
  8
0
  6
LTYPE4
 62
     2
 10
145.3
 20
136.95
 30
0.0
 11
151.8
 21
136.95
 31
0.0
  0
LINE
  8
0
  6
LTYPE4
 62
     2
 10
154.05
 20
134.7
 30
0.0
 11
154.05
 21
113.7
 31
0.0
  0
ARC
  8
0
  6
LTYPE4
 62
     2
 10
151.8
 20
134.7
 30
0.0
 40
2.25
 50
0.0
 51
90.0
  0
LINE
  8
0
  6
LTYPE4
 62
     2
 10
145.3
 20
132.324807681
 30
0.0
 11
149.7
 21
132.324807681
 31
0.0
  0
LINE
  8
0
  6
LTYPE4
 62
     2
 10
149.7
 20
128.7
 30
0.0
 11
145.3
 21
128.7
 31
0.0
  0
LINE
  8
0
  6
LTYPE4
 62
     2
 10
149.7
 20
129.158767098
 30
0.0
 11
145.3
 21
129.158767098
 31
0.0
  0
LINE
  8
0
  6
LTYPE1
 62
     5
 10
156.0115
 20
130.7
 30
0.0
 11
144.3305
 21
130.7
 31
0.0
  0
LINE
  8
0
  6
CONTINUOUS
 62
     2
 10
147.997367505
 20
118.168427908
 30
0.0
 11
147.675702855
 21
115.689207899
 31
0.0
  0
LINE
  8
0
  6
CONTINUOUS
 62
     2
 10
147.997367505
 20
118.168427908
 30
0.0
 11
148.958407751
 21
115.860528074
 31
0.0
  0
LINE
  8
0
  6
CONTINUOUS
 62
     2
 10
147.997367505
 20
118.168427908
 30
0.0
 11
152.0
 21
88.2
 31
0.0
  0
LINE
  8
0
  6
CONTINUOUS
 62
     2
 10
145.3
 20
145.275001907
 30
0.0
 11
145.3
 21
158.550001907
 31
0.0
  0
TEXT
  8
0
  6
CONTINUOUS
 62
     3
 10
233.0
 20
14.0
 30
0.6
 40
6.0
  1
ＭＳ－６８０１
 50
0.0
 41
0.9
 51
0.0
  7
KANJI8
  0
TEXT
  8
0
  6
CONTINUOUS
 62
     3
 10
278.0
 20
14.0
 30
0.6
 40
6.0
  1
Ｃ
 50
0.0
 41
0.9
 51
0.0
  7
KANJI8
  0
LINE
  8
0
  6
CONTINUOUS
 62
     2
 10
154.8
 20
163.580001907
 30
0.0
 11
154.8
 21
131.612001907
 31
0.0
  0
LINE
  8
0
  6
CONTINUOUS
 62
     2
 10
145.31
 20
155.645001907
 30
0.0
 11
147.724814566
 21
154.997954295
 31
0.0
  0
LINE
  8
0
  6
CONTINUOUS
 62
     2
 10
145.31
 20
155.645001907
 30
0.0
 11
147.724814566
 21
156.29204952
 31
0.0
  0
LINE
  8
0
  6
CONTINUOUS
 62
     2
 10
145.31
 20
155.645001907
 30
0.0
 11
152.96
 21
155.645001907
 31
0.0
  0
LINE
  8
0
  6
CONTINUOUS
 62
     2
 10
152.96
 20
155.645001907
 30
0.0
 11
150.545185434
 21
156.29204952
 31
0.0
  0
LINE
  8
0
  6
CONTINUOUS
 62
     2
 10
152.96
 20
155.645001907
 30
0.0
 11
150.545185434
 21
154.997954295
 31
0.0
  0
TEXT
  8
0
  6
CONTINUOUS
 62
     2
 10
147.175
 20
157.075001907
 30
0.3
 40
3.0
  1
１７
 50
0.0
 41
0.6
 51
0.0
  7
KANJI1
  0
LINE
  8
0
  6
CONTINUOUS
 62
     2
 10
145.3
 20
161.580001907
 30
0.0
 11
147.714814566
 21
160.932954295
 31
0.0
  0
LINE
  8
0
  6
CONTINUOUS
 62
     2
 10
145.3
 20
161.580001907
 30
0.0
 11
147.714814566
 21
162.22704952
 31
0.0
  0
LINE
  8
0
  6
CONTINUOUS
 62
     2
 10
154.8
 20
161.580001907
 30
0.0
 11
152.385185434
 21
162.22704952
 31
0.0
  0
LINE
  8
0
  6
CONTINUOUS
 62
     2
 10
154.8
 20
161.580001907
 30
0.0
 11
152.385185434
 21
160.932954295
 31
0.0
  0
LINE
  8
0
  6
CONTINUOUS
 62
     2
 10
145.3
 20
161.580001907
 30
0.0
 11
154.8
 21
161.580001907
 31
0.0
  0
TEXT
  8
0
  6
CONTINUOUS
 62
     2
 10
148.175
 20
162.580001907
 30
0.3
 40
3.0
  1
１９
 50
0.0
 41
0.6
 51
0.0
  7
KANJI1
  0
TEXT
  8
0
  6
CONTINUOUS
 62
     2
 10
177.660941828
 20
138.5
 30
1.5
 40
3.0
  1
＋
 50
0.0
 41
0.9
 51
0.0
  7
KANJI9
  0
LINE
  8
0
  6
CONTINUOUS
 62
     2
 10
178.950941828
 20
142.22
 30
0.0
 11
180.926567937
 21
143.751960013
 31
0.0
  0
LINE
  8
0
  6
CONTINUOUS
 62
     2
 10
178.950941828
 20
142.22
 30
0.0
 11
179.89590422
 21
144.534529343
 31
0.0
  0
TEXT
  8
0
  6
CONTINUOUS
 62
     2
 10
28.4
 20
89.3
 30
0.3
 40
3.0
  1
指針
 50
0.0
 41
0.9
 51
0.0
  7
KANJI4
  0
LINE
  8
0
  6
CONTINUOUS
 62
     2
 10
34.4
 20
88.3
 30
0.0
 11
28.007441117
 21
88.3
 31
0.0
  0
LINE
  8
0
  6
CONTINUOUS
 62
     2
 10
53.6
 20
124.65
 30
0.0
 11
69.363516484
 21
83.37
 31
0.0
  0
TEXT
  8
0
  6
CONTINUOUS
 62
     2
 10
69.363516484
 20
84.37
 30
0.3
 40
3.0
  1
機械的零位調整器
 50
0.0
 41
0.9
 51
0.0
  7
KANJI4
  0
LINE
  8
0
  6
CONTINUOUS
 62
     2
 10
69.363516484
 20
83.37
 30
0.0
 11
93.343516484
 21
83.37
 31
0.0
  0
TEXT
  8
0
  6
CONTINUOUS
 62
     2
 10
116.8
 20
89.25
 30
0.3
 40
3.0
  1
４－Ｍ６取付ボルト
 50
0.0
 41
0.9
 51
0.0
  7
KANJI4
  0
LINE
  8
0
  6
CONTINUOUS
 62
     2
 10
116.8
 20
88.25
 30
0.0
 11
143.2
 21
88.25
 31
0.0
  0
TEXT
  8
0
  6
CONTINUOUS
 62
     2
 10
117.8
 20
83.25
 30
0.3
 40
3.0
  1
フランジ付六角ナット
 50
0.0
 41
0.9
 51
0.0
  7
KANJI4
  0
LINE
  8
0
  6
CONTINUOUS
 62
     2
 10
116.8
 20
82.25
 30
0.0
 11
146.9
 21
82.25
 31
0.0
  0
TEXT
  8
0
  6
CONTINUOUS
 62
     2
 10
220.55
 20
172.4
 30
0.3
 40
3.0
  1
感度調整用抵抗器
 50
0.0
 41
0.9
 51
0.0
  7
KANJI4
  0
LINE
  8
0
  6
CONTINUOUS
 62
     2
 10
220.55
 20
171.4
 30
0.0
 11
244.42
 21
171.4
 31
0.0
  0
TEXT
  8
0
  6
CONTINUOUS
 62
     2
 10
155.7
 20
94.1
 30
0.1
 40
3.0
  1
２－Ｍ６ターミナルネジ
 50
0.0
 41
0.9
 51
0.0
  7
KANJI10
  0
LINE
  8
0
  6
CONTINUOUS
 62
     2
 10
156.0
 20
93.1
 30
0.0
 11
186.08
 21
93.1
 31
0.0
  0
TEXT
  8
0
  6
CONTINUOUS
 62
     2
 10
153.12
 20
89.2
 30
0.3
 40
3.0
  1
端子キャップ
 50
0.0
 41
0.9
 51
0.0
  7
KANJI4
  0
LINE
  8
0
  6
CONTINUOUS
 62
     2
 10
152.0
 20
88.2
 30
0.0
 11
170.587441117
 21
88.2
 31
0.0
  0
TEXT
  8
0
  6
CONTINUOUS
 62
     2
 10
125.2125
 20
171.200001907
 30
0.4
 40
4.0
  1
ι
 50
0.0
 41
0.9
 51
0.0
  7
KANJI11
  0
CIRCLE
  8
0
  6
CONTINUOUS
 62
     2
 10
126.7
 20
174.4
 30
0.0
 40
0.2
  0
TEXT
  8
0
  6
CONTINUOUS
 62
     2
 10
114.2225
 20
71.790001907
 30
0.4
 40
4.0
  1
ι
 50
0.0
 41
0.9
 51
0.0
  7
KANJI11
  0
CIRCLE
  8
0
  6
CONTINUOUS
 62
     2
 10
115.71
 20
74.99
 30
0.0
 40
0.2
  0
LINE
  8
0
  6
CONTINUOUS
 62
     2
 10
209.1
 20
152.2
 30
0.0
 11
209.1
 21
159.17
 31
0.0
  0
TEXT
  8
0
  6
CONTINUOUS
 62
     1
 10
242.6
 20
27.9
 30
0.4
 40
4.0
  1
広角度計器　外形図
 50
0.0
 41
0.9
 51
0.0
  7
KANJI11
  0
TEXT
  8
0
  6
CONTINUOUS
 62
     2
 10
242.6
 20
32.9
 30
0.1
 40
3.0
  1
予定指針付，端子キャップ付
 50
0.0
 41
0.833333333
 51
0.0
  7
KANJI12
  0
TEXT
  8
0
  6
CONTINUOUS
 62
     6
 10
238.0
 20
39.4
 30
1.0
 40
5.0
  1
□ＶＦ－１１
 50
0.0
 41
0.9
 51
0.0
  7
KANJI13
  0
LINE
  8
0
  6
LTYPE1
 62
     2
 10
22.0
 20
125.7
 30
0.0
 11
83.0
 21
125.7
 31
0.0
  0
LINE
  8
0
  6
LTYPE1
 62
     2
 10
186.6
 20
96.0
 30
0.0
 11
186.6
 21
156.7
 31
0.0
  0
LINE
  8
0
  6
LTYPE1
 62
     2
 10
186.6
 20
25.2
 30
0.0
 11
186.6
 21
87.0
 31
0.0
  0
LINE
  8
0
  6
LTYPE1
 62
     2
 10
157.0
 20
125.7
 30
0.0
 11
208.5
 21
125.7
 31
0.0
  0
LINE
  8
0
  6
LTYPE1
 62
     2
 10
89.0
 20
125.7
 30
0.0
 11
156.0
 21
125.7
 31
0.0
  0
TEXT
  8
0
  6
CONTINUOUS
 62
     2
 10
187.610941828
 20
107.126
 30
0.3
 40
3.0
  1
７７
 50
0.0
 41
0.6
 51
0.0
  7
KANJI1
  0
LINE
  8
0
  6
CONTINUOUS
 62
     2
 10
178.950941828
 20
142.22
 30
0.0
 11
208.707390566
 21
181.41
 31
0.0
  0
LINE
  8
0
  6
CONTINUOUS
 62
     2
 10
208.707390566
 20
181.41
 30
0.0
 11
234.887047613
 21
181.41
 31
0.0
  0
TEXT
  8
0
  6
CONTINUOUS
 62
     2
 10
211.243794726
 20
182.41
 30
0.0
 40
3.0
  1
直流計器のみ＋記号を表示
 50
0.0
 41
0.6
 51
0.0
  7
KANJI14
  0
LINE
  8
0
  6
CONTINUOUS
 62
     2
 10
209.1
 20
159.17
 30
0.0
 11
209.1
 21
173.05
 31
0.0
  0
TEXT
  8
0
  6
CONTINUOUS
 62
     2
 10
65.1
 20
57.1
 30
0.5
 40
3.0
  1
電子テ゛ハ゛イス形
 50
0.0
 41
0.9
 51
0.0
  7
KANJI0
  0
TEXT
  8
0
  6
CONTINUOUS
 62
     2
 10
65.1
 20
52.1
 30
0.5
 40
3.0
  1
電子テ゛ハ゛イス形
 50
0.0
 41
0.9
 51
0.0
  7
KANJI0
  0
LINE
  8
0
  6
CONTINUOUS
 62
     4
 10
90.727077922
 20
125.95
 30
0.0
 11
91.977077922
 21
125.95
 31
0.0
  0
LINE
  8
0
  6
CONTINUOUS
 62
     4
 10
90.727077922
 20
126.2
 30
0.0
 11
91.977077922
 21
126.2
 31
0.0
  0
LINE
  8
0
  6
CONTINUOUS
 62
     4
 10
90.727077922
 20
126.45
 30
0.0
 11
91.977077922
 21
126.45
 31
0.0
  0
LINE
  8
0
  6
CONTINUOUS
 62
     4
 10
90.727077922
 20
126.7
 30
0.0
 11
91.977077922
 21
126.7
 31
0.0
  0
LINE
  8
0
  6
CONTINUOUS
 62
     4
 10
90.727077922
 20
126.95
 30
0.0
 11
91.977077922
 21
126.95
 31
0.0
  0
LINE
  8
0
  6
CONTINUOUS
 62
     4
 10
90.727077922
 20
127.2
 30
0.0
 11
91.977077922
 21
127.2
 31
0.0
  0
LINE
  8
0
  6
CONTINUOUS
 62
     4
 10
90.727077922
 20
127.45
 30
0.0
 11
91.977077922
 21
127.45
 31
0.0
  0
LINE
  8
0
  6
CONTINUOUS
 62
     4
 10
90.727077922
 20
127.7
 30
0.0
 11
91.977077922
 21
127.7
 31
0.0
  0
LINE
  8
0
  6
CONTINUOUS
 62
     4
 10
90.727077922
 20
127.95
 30
0.0
 11
91.977077922
 21
127.95
 31
0.0
  0
LINE
  8
0
  6
CONTINUOUS
 62
     4
 10
90.727077922
 20
123.45
 30
0.0
 11
91.977077922
 21
123.45
 31
0.0
  0
LINE
  8
0
  6
CONTINUOUS
 62
     4
 10
90.727077922
 20
123.7
 30
0.0
 11
91.977077922
 21
123.7
 31
0.0
  0
LINE
  8
0
  6
CONTINUOUS
 62
     4
 10
90.727077922
 20
123.95
 30
0.0
 11
91.977077922
 21
123.95
 31
0.0
  0
LINE
  8
0
  6
CONTINUOUS
 62
     4
 10
90.727077922
 20
124.2
 30
0.0
 11
91.977077922
 21
124.2
 31
0.0
  0
LINE
  8
0
  6
CONTINUOUS
 62
     4
 10
90.727077922
 20
124.45
 30
0.0
 11
91.977077922
 21
124.45
 31
0.0
  0
LINE
  8
0
  6
CONTINUOUS
 62
     4
 10
90.727077922
 20
124.7
 30
0.0
 11
91.977077922
 21
124.7
 31
0.0
  0
LINE
  8
0
  6
CONTINUOUS
 62
     4
 10
90.727077922
 20
124.95
 30
0.0
 11
91.977077922
 21
124.95
 31
0.0
  0
LINE
  8
0
  6
CONTINUOUS
 62
     4
 10
90.727077922
 20
125.2
 30
0.0
 11
91.977077922
 21
125.2
 31
0.0
  0
LINE
  8
0
  6
CONTINUOUS
 62
     4
 10
90.727077922
 20
125.45
 30
0.0
 11
91.977077922
 21
125.45
 31
0.0
  0
ENDSEC
  0
EOF
