  0
SECTION
  2
HEADER
  9
$ACADVER
  1
AC1009
  9
$DWGCODEPAGE
  3
dos932
  9
$EXTMIN
 10
0.0
 20
0.0
 30
0.0
  9
$EXTMAX
 10
297.0
 20
210.0
 30
0.0
  9
$LIMMIN
 10
0.0
 20
0.0
  9
$LIMMAX
 10
297.0
 20
210.0
  9
$LTSCALE
 40
1.0
  9
$PDMODE
 70
     0
  0
ENDSEC
  0
SECTION
  2
TABLES
  0
TABLE
  2
VPORT
 70
     1
  0
VPORT
  2
*ACTIVE
 70
     0
 10
0.0
 20
0.0
 11
1.0
 21
1.0
 12
148.5
 22
105.0
 13
0.0
 23
0.0
 14
10.0
 24
10.0
 15
10.0
 25
10.0
 16
0.0
 26
0.0
 36
1.0
 17
0.0
 27
0.0
 37
0.0
 40
297.0
 41
1.414285714
 42
50.0
 43
0.0
 44
0.0
 50
0.0
 51
0.0
 71
     0
 72
  1000
 73
     1
 74
     3
 75
     0
 76
     0
 77
     0
 78
     0
  0
ENDTAB
  0
TABLE
  2
LTYPE
 70
     4
  0
LTYPE
  2
CONTINUOUS
 70
    64
  3
Solid line
 72
    65
 73
     0
 40
0.0
  0
LTYPE
  2
LTYPE1
 70
    64
  3
CENTER
 72
    65
 73
     4
 40
15.0
 49
10.5
 49
-1.5
 49
1.5
 49
-1.5
  0
LTYPE
  2
LTYPE2
 70
    64
  3
HIDDEN
 72
    65
 73
     2
 40
3.0
 49
1.8
 49
-1.2
  0
LTYPE
  2
LTYPE3
 70
    64
  3
HIDDEN
 72
    65
 73
     2
 40
2.0
 49
1.2
 49
-0.8
  0
ENDTAB
  0
TABLE
  2
LAYER
 70
   128
  0
LAYER
  2
0
 70
     0
 62
     7
  6
CONTINUOUS
  0
LAYER
  2
2
 70
     0
 62
     7
  6
CONTINUOUS
  0
LAYER
  2
3
 70
     0
 62
     7
  6
CONTINUOUS
  0
LAYER
  2
4
 70
     0
 62
     7
  6
CONTINUOUS
  0
LAYER
  2
5
 70
     0
 62
     7
  6
CONTINUOUS
  0
LAYER
  2
6
 70
     0
 62
     7
  6
CONTINUOUS
  0
LAYER
  2
7
 70
     0
 62
     7
  6
CONTINUOUS
  0
LAYER
  2
8
 70
     0
 62
     7
  6
CONTINUOUS
  0
LAYER
  2
9
 70
     0
 62
     7
  6
CONTINUOUS
  0
LAYER
  2
10
 70
     0
 62
     7
  6
CONTINUOUS
  0
LAYER
  2
11
 70
     0
 62
     7
  6
CONTINUOUS
  0
LAYER
  2
12
 70
     0
 62
     7
  6
CONTINUOUS
  0
LAYER
  2
13
 70
     0
 62
     7
  6
CONTINUOUS
  0
LAYER
  2
14
 70
     0
 62
     7
  6
CONTINUOUS
  0
LAYER
  2
15
 70
     0
 62
     7
  6
CONTINUOUS
  0
LAYER
  2
16
 70
     0
 62
     7
  6
CONTINUOUS
  0
LAYER
  2
17
 70
     0
 62
     7
  6
CONTINUOUS
  0
LAYER
  2
18
 70
     0
 62
     7
  6
CONTINUOUS
  0
LAYER
  2
19
 70
     0
 62
     7
  6
CONTINUOUS
  0
LAYER
  2
20
 70
     0
 62
     7
  6
CONTINUOUS
  0
LAYER
  2
21
 70
     0
 62
     7
  6
CONTINUOUS
  0
LAYER
  2
22
 70
     0
 62
     7
  6
CONTINUOUS
  0
LAYER
  2
23
 70
     0
 62
     7
  6
CONTINUOUS
  0
LAYER
  2
24
 70
     0
 62
     7
  6
CONTINUOUS
  0
LAYER
  2
25
 70
     0
 62
     7
  6
CONTINUOUS
  0
LAYER
  2
26
 70
     0
 62
     7
  6
CONTINUOUS
  0
LAYER
  2
27
 70
     0
 62
     7
  6
CONTINUOUS
  0
LAYER
  2
28
 70
     0
 62
     7
  6
CONTINUOUS
  0
LAYER
  2
29
 70
     0
 62
     7
  6
CONTINUOUS
  0
LAYER
  2
30
 70
     0
 62
     7
  6
CONTINUOUS
  0
LAYER
  2
31
 70
     0
 62
     7
  6
CONTINUOUS
  0
LAYER
  2
32
 70
     0
 62
     7
  6
CONTINUOUS
  0
LAYER
  2
33
 70
     0
 62
     7
  6
CONTINUOUS
  0
LAYER
  2
34
 70
     0
 62
     7
  6
CONTINUOUS
  0
LAYER
  2
35
 70
     0
 62
     7
  6
CONTINUOUS
  0
LAYER
  2
36
 70
     0
 62
     7
  6
CONTINUOUS
  0
LAYER
  2
37
 70
     0
 62
     7
  6
CONTINUOUS
  0
LAYER
  2
38
 70
     0
 62
     7
  6
CONTINUOUS
  0
LAYER
  2
39
 70
     0
 62
     7
  6
CONTINUOUS
  0
LAYER
  2
40
 70
     0
 62
     7
  6
CONTINUOUS
  0
LAYER
  2
41
 70
     0
 62
     7
  6
CONTINUOUS
  0
LAYER
  2
42
 70
     0
 62
     7
  6
CONTINUOUS
  0
LAYER
  2
43
 70
     0
 62
     7
  6
CONTINUOUS
  0
LAYER
  2
44
 70
     0
 62
     7
  6
CONTINUOUS
  0
LAYER
  2
45
 70
     0
 62
     7
  6
CONTINUOUS
  0
LAYER
  2
46
 70
     0
 62
     7
  6
CONTINUOUS
  0
LAYER
  2
47
 70
     0
 62
     7
  6
CONTINUOUS
  0
LAYER
  2
48
 70
     0
 62
     7
  6
CONTINUOUS
  0
LAYER
  2
49
 70
     0
 62
     7
  6
CONTINUOUS
  0
LAYER
  2
50
 70
     0
 62
     7
  6
CONTINUOUS
  0
LAYER
  2
51
 70
     0
 62
     7
  6
CONTINUOUS
  0
LAYER
  2
52
 70
     0
 62
     7
  6
CONTINUOUS
  0
LAYER
  2
53
 70
     0
 62
     7
  6
CONTINUOUS
  0
LAYER
  2
54
 70
     0
 62
     7
  6
CONTINUOUS
  0
LAYER
  2
55
 70
     0
 62
     7
  6
CONTINUOUS
  0
LAYER
  2
56
 70
     0
 62
     7
  6
CONTINUOUS
  0
LAYER
  2
57
 70
     0
 62
     7
  6
CONTINUOUS
  0
LAYER
  2
58
 70
     0
 62
     7
  6
CONTINUOUS
  0
LAYER
  2
59
 70
     0
 62
     7
  6
CONTINUOUS
  0
LAYER
  2
60
 70
     0
 62
     7
  6
CONTINUOUS
  0
LAYER
  2
61
 70
     0
 62
     7
  6
CONTINUOUS
  0
LAYER
  2
62
 70
     0
 62
     7
  6
CONTINUOUS
  0
LAYER
  2
63
 70
     0
 62
     7
  6
CONTINUOUS
  0
LAYER
  2
64
 70
     0
 62
     7
  6
CONTINUOUS
  0
LAYER
  2
65
 70
     0
 62
     7
  6
CONTINUOUS
  0
LAYER
  2
66
 70
     0
 62
     7
  6
CONTINUOUS
  0
LAYER
  2
67
 70
     0
 62
     7
  6
CONTINUOUS
  0
LAYER
  2
68
 70
     0
 62
     7
  6
CONTINUOUS
  0
LAYER
  2
69
 70
     0
 62
     7
  6
CONTINUOUS
  0
LAYER
  2
70
 70
     0
 62
     7
  6
CONTINUOUS
  0
LAYER
  2
71
 70
     0
 62
     7
  6
CONTINUOUS
  0
LAYER
  2
72
 70
     0
 62
     7
  6
CONTINUOUS
  0
LAYER
  2
73
 70
     0
 62
     7
  6
CONTINUOUS
  0
LAYER
  2
74
 70
     0
 62
     7
  6
CONTINUOUS
  0
LAYER
  2
75
 70
     0
 62
     7
  6
CONTINUOUS
  0
LAYER
  2
76
 70
     0
 62
     7
  6
CONTINUOUS
  0
LAYER
  2
77
 70
     0
 62
     7
  6
CONTINUOUS
  0
LAYER
  2
78
 70
     0
 62
     7
  6
CONTINUOUS
  0
LAYER
  2
79
 70
     0
 62
     7
  6
CONTINUOUS
  0
LAYER
  2
80
 70
     0
 62
     7
  6
CONTINUOUS
  0
LAYER
  2
81
 70
     0
 62
     7
  6
CONTINUOUS
  0
LAYER
  2
82
 70
     0
 62
     7
  6
CONTINUOUS
  0
LAYER
  2
83
 70
     0
 62
     7
  6
CONTINUOUS
  0
LAYER
  2
84
 70
     0
 62
     7
  6
CONTINUOUS
  0
LAYER
  2
85
 70
     0
 62
     7
  6
CONTINUOUS
  0
LAYER
  2
86
 70
     0
 62
     7
  6
CONTINUOUS
  0
LAYER
  2
87
 70
     0
 62
     7
  6
CONTINUOUS
  0
LAYER
  2
88
 70
     0
 62
     7
  6
CONTINUOUS
  0
LAYER
  2
89
 70
     0
 62
     7
  6
CONTINUOUS
  0
LAYER
  2
90
 70
     0
 62
     7
  6
CONTINUOUS
  0
LAYER
  2
91
 70
     0
 62
     7
  6
CONTINUOUS
  0
LAYER
  2
92
 70
     0
 62
     7
  6
CONTINUOUS
  0
LAYER
  2
93
 70
     0
 62
     7
  6
CONTINUOUS
  0
LAYER
  2
94
 70
     0
 62
     7
  6
CONTINUOUS
  0
LAYER
  2
95
 70
     0
 62
     7
  6
CONTINUOUS
  0
LAYER
  2
96
 70
     0
 62
     7
  6
CONTINUOUS
  0
LAYER
  2
97
 70
     0
 62
     7
  6
CONTINUOUS
  0
LAYER
  2
98
 70
     0
 62
     7
  6
CONTINUOUS
  0
LAYER
  2
99
 70
     0
 62
     7
  6
CONTINUOUS
  0
LAYER
  2
100
 70
     0
 62
     7
  6
CONTINUOUS
  0
LAYER
  2
101
 70
     0
 62
     7
  6
CONTINUOUS
  0
LAYER
  2
102
 70
     0
 62
     7
  6
CONTINUOUS
  0
LAYER
  2
103
 70
     0
 62
     7
  6
CONTINUOUS
  0
LAYER
  2
104
 70
     0
 62
     7
  6
CONTINUOUS
  0
LAYER
  2
105
 70
     0
 62
     7
  6
CONTINUOUS
  0
LAYER
  2
106
 70
     0
 62
     7
  6
CONTINUOUS
  0
LAYER
  2
107
 70
     0
 62
     7
  6
CONTINUOUS
  0
LAYER
  2
108
 70
     0
 62
     7
  6
CONTINUOUS
  0
LAYER
  2
109
 70
     0
 62
     7
  6
CONTINUOUS
  0
LAYER
  2
110
 70
     0
 62
     7
  6
CONTINUOUS
  0
LAYER
  2
111
 70
     0
 62
     7
  6
CONTINUOUS
  0
LAYER
  2
112
 70
     0
 62
     7
  6
CONTINUOUS
  0
LAYER
  2
113
 70
     0
 62
     7
  6
CONTINUOUS
  0
LAYER
  2
114
 70
     0
 62
     7
  6
CONTINUOUS
  0
LAYER
  2
115
 70
     0
 62
     7
  6
CONTINUOUS
  0
LAYER
  2
116
 70
     0
 62
     7
  6
CONTINUOUS
  0
LAYER
  2
117
 70
     0
 62
     7
  6
CONTINUOUS
  0
LAYER
  2
118
 70
     0
 62
     7
  6
CONTINUOUS
  0
LAYER
  2
119
 70
     0
 62
     7
  6
CONTINUOUS
  0
LAYER
  2
120
 70
     0
 62
     7
  6
CONTINUOUS
  0
LAYER
  2
121
 70
     0
 62
     7
  6
CONTINUOUS
  0
LAYER
  2
122
 70
     0
 62
     7
  6
CONTINUOUS
  0
LAYER
  2
123
 70
     0
 62
     7
  6
CONTINUOUS
  0
LAYER
  2
124
 70
     0
 62
     7
  6
CONTINUOUS
  0
LAYER
  2
125
 70
     0
 62
     7
  6
CONTINUOUS
  0
LAYER
  2
126
 70
     0
 62
     7
  6
CONTINUOUS
  0
LAYER
  2
127
 70
     0
 62
     7
  6
CONTINUOUS
  0
LAYER
  2
128
 70
     0
 62
     7
  6
CONTINUOUS
  0
ENDTAB
  0
TABLE
  2
STYLE
 70
    23
  0
STYLE
  2
STANDARD
 70
     0
 40
0.0
 41
1.0
 50
0.0
 71
     0
 42
0.2
  3
txt.shx
  4
extfont.shx
  0
STYLE
  2
KANJI0
 70
     0
 40
2.5
 41
0.6
 50
0.0
 71
     0
 42
2.5
  3
txt.shx
  4
extfont.shx
  0
STYLE
  2
KANJI1
 70
     0
 40
2.0
 41
0.5
 50
0.0
 71
     0
 42
2.0
  3
txt.shx
  4
extfont.shx
  0
STYLE
  2
KANJI2
 70
     0
 40
1.5
 41
0.666666667
 50
0.0
 71
     0
 42
1.5
  3
txt.shx
  4
extfont.shx
  0
STYLE
  2
KANJI3
 70
     0
 40
3.0
 41
0.9
 50
0.0
 71
     0
 42
3.0
  3
txt.shx
  4
extfont.shx
  0
STYLE
  2
KANJI4
 70
     0
 40
3.0
 41
0.9
 50
0.0
 71
     0
 42
3.0
  3
txt.shx
  4
extfont.shx
  0
STYLE
  2
KANJI5
 70
     0
 40
1.8
 41
0.6
 50
0.0
 71
     0
 42
1.8
  3
txt.shx
  4
extfont.shx
  0
STYLE
  2
KANJI6
 70
     0
 40
3.0
 41
0.6
 50
0.0
 71
     0
 42
3.0
  3
txt.shx
  4
extfont.shx
  0
STYLE
  2
KANJI7
 70
     0
 40
3.0
 41
0.6
 50
0.0
 71
     0
 42
3.0
  3
txt.shx
  4
extfont.shx
  0
STYLE
  2
KANJI8
 70
     0
 40
3.0
 41
0.9
 50
0.0
 71
     0
 42
3.0
  3
txt.shx
  4
extfont.shx
  0
STYLE
  2
KANJI9
 70
     0
 40
3.0
 41
0.6
 50
0.0
 71
     0
 42
3.0
  3
txt.shx
  4
extfont.shx
  0
STYLE
  2
KANJI10
 70
     0
 40
4.0
 41
0.9
 50
0.0
 71
     0
 42
4.0
  3
txt.shx
  4
extfont.shx
  0
STYLE
  2
KANJI11
 70
     0
 40
3.0
 41
0.9
 50
0.0
 71
     0
 42
3.0
  3
txt.shx
  4
extfont.shx
  0
STYLE
  2
KANJI12
 70
     0
 40
2.4
 41
0.9
 50
0.0
 71
     0
 42
2.4
  3
txt.shx
  4
extfont.shx
  0
STYLE
  2
KANJI13
 70
     0
 40
1.56
 41
0.9
 50
0.0
 71
     0
 42
1.56
  3
txt.shx
  4
extfont.shx
  0
STYLE
  2
KANJI14
 70
     0
 40
1.6
 41
0.9
 50
0.0
 71
     0
 42
1.6
  3
txt.shx
  4
extfont.shx
  0
STYLE
  2
KANJI15
 70
     0
 40
2.4
 41
0.9
 50
0.0
 71
     0
 42
2.4
  3
txt.shx
  4
extfont.shx
  0
STYLE
  2
KANJI16
 70
     0
 40
2.4
 41
0.9
 50
0.0
 71
     0
 42
2.4
  3
txt.shx
  4
extfont.shx
  0
STYLE
  2
KANJI17
 70
     0
 40
4.8
 41
0.9
 50
0.0
 71
     0
 42
4.8
  3
txt.shx
  4
extfont.shx
  0
STYLE
  2
KANJI18
 70
     0
 40
2.4
 41
0.45
 50
0.0
 71
     0
 42
2.4
  3
txt.shx
  4
extfont.shx
  0
STYLE
  2
KANJI19
 70
     0
 40
2.4
 41
0.666666667
 50
0.0
 71
     0
 42
2.4
  3
txt.shx
  4
extfont.shx
  0
STYLE
  2
KANJI20
 70
     0
 40
3.2
 41
0.9
 50
0.0
 71
     0
 42
3.2
  3
txt.shx
  4
extfont.shx
  0
STYLE
  2
KANJI21
 70
     0
 40
6.0
 41
0.9
 50
0.0
 71
     0
 42
6.0
  3
txt.shx
  4
extfont.shx
  0
ENDTAB
  0
TABLE
  2
VIEW
 70
     0
  0
ENDTAB
  0
ENDSEC
  0
SECTION
  2
BLOCKS
  0
ENDSEC
  0
SECTION
  2
ENTITIES
  0
ARC
  8
0
  6
CONTINUOUS
 62
     1
 10
246.7
 20
223.3
 30
0.0
 40
1.7
 50
90.0
 51
180.0
  0
LINE
  8
0
  6
CONTINUOUS
 62
     1
 10
246.7
 20
225.0
 30
0.0
 11
293.3
 21
225.0
 31
0.0
  0
ARC
  8
0
  6
CONTINUOUS
 62
     1
 10
293.3
 20
223.3
 30
0.0
 40
1.7
 50
0.0
 51
90.0
  0
ARC
  8
0
  6
CONTINUOUS
 62
     1
 10
246.7
 20
223.3
 30
0.0
 40
0.9
 50
90.0
 51
180.0
  0
LINE
  8
0
  6
CONTINUOUS
 62
     1
 10
246.7
 20
224.2
 30
0.0
 11
293.3
 21
224.2
 31
0.0
  0
ARC
  8
0
  6
CONTINUOUS
 62
     1
 10
293.3
 20
223.3
 30
0.0
 40
0.9
 50
0.0
 51
90.0
  0
TEXT
  8
0
  6
CONTINUOUS
 62
     1
 10
247.5
 20
220.5
 30
0.3
 40
2.5
  1
ＣＯＮＮＥＣＴＩＯＮＳ　ＯＦ　ＴＡＣＨＯ－ＭＥＴＥＲ
 50
0.0
 41
0.6
 51
0.0
  7
KANJI0
  0
CIRCLE
  8
0
  6
CONTINUOUS
 62
     1
 10
273.3
 20
214.0
 30
0.0
 40
1.5
  0
CIRCLE
  8
0
  6
CONTINUOUS
 62
     1
 10
269.9
 20
214.0
 30
0.0
 40
1.5
  0
CIRCLE
  8
0
  6
CONTINUOUS
 62
     1
 10
276.7
 20
214.0
 30
0.0
 40
1.5
  0
CIRCLE
  8
0
  6
CONTINUOUS
 62
     1
 10
280.1
 20
214.0
 30
0.0
 40
1.5
  0
LINE
  8
0
  6
CONTINUOUS
 62
     1
 10
255.0
 20
214.0
 30
0.0
 11
255.0
 21
217.6
 31
0.0
  0
LINE
  8
0
  6
CONTINUOUS
 62
     1
 10
255.0
 20
217.6
 30
0.0
 11
256.5
 21
217.6
 31
0.0
  0
LINE
  8
0
  6
CONTINUOUS
 62
     1
 10
256.5
 20
217.6
 30
0.0
 11
256.5
 21
214.0
 31
0.0
  0
LINE
  8
0
  6
CONTINUOUS
 62
     1
 10
256.5
 20
214.0
 30
0.0
 11
255.0
 21
214.0
 31
0.0
  0
LINE
  8
0
  6
CONTINUOUS
 62
     1
 10
255.0
 20
217.0
 30
0.0
 11
252.0
 21
217.0
 31
0.0
  0
LINE
  8
0
  6
CONTINUOUS
 62
     1
 10
252.0
 20
217.0
 30
0.0
 11
252.0
 21
214.6
 31
0.0
  0
LINE
  8
0
  6
CONTINUOUS
 62
     1
 10
252.0
 20
214.6
 30
0.0
 11
255.0
 21
214.6
 31
0.0
  0
LINE
  8
0
  6
CONTINUOUS
 62
     1
 10
256.5
 20
214.6
 30
0.0
 11
259.5
 21
214.6
 31
0.0
  0
LINE
  8
0
  6
CONTINUOUS
 62
     1
 10
259.5
 20
214.6
 30
0.0
 11
259.5
 21
217.0
 31
0.0
  0
LINE
  8
0
  6
CONTINUOUS
 62
     1
 10
259.5
 20
217.0
 30
0.0
 11
256.5
 21
217.0
 31
0.0
  0
LINE
  8
0
  6
CONTINUOUS
 62
     1
 10
259.5
 20
217.0
 30
0.0
 11
259.8
 21
216.7
 31
0.0
  0
LINE
  8
0
  6
CONTINUOUS
 62
     1
 10
259.8
 20
216.7
 30
0.0
 11
259.8
 21
214.9
 31
0.0
  0
LINE
  8
0
  6
CONTINUOUS
 62
     1
 10
259.8
 20
214.9
 30
0.0
 11
259.5
 21
214.6
 31
0.0
  0
LINE
  8
0
  6
CONTINUOUS
 62
     1
 10
252.0
 20
214.6
 30
0.0
 11
251.7
 21
214.9
 31
0.0
  0
LINE
  8
0
  6
CONTINUOUS
 62
     1
 10
251.7
 20
214.9
 30
0.0
 11
251.7
 21
216.7
 31
0.0
  0
LINE
  8
0
  6
CONTINUOUS
 62
     1
 10
251.7
 20
216.7
 30
0.0
 11
252.0
 21
217.0
 31
0.0
  0
LINE
  8
0
  6
CONTINUOUS
 62
     1
 10
259.8
 20
216.2
 30
0.0
 11
273.3
 21
216.2
 31
0.0
  0
LINE
  8
0
  6
CONTINUOUS
 62
     1
 10
273.3
 20
216.2
 30
0.0
 11
273.3
 21
215.5
 31
0.0
  0
LINE
  8
0
  6
CONTINUOUS
 62
     1
 10
269.9
 20
215.5
 30
0.0
 11
269.9
 21
215.6
 31
0.0
  0
LINE
  8
0
  6
CONTINUOUS
 62
     1
 10
269.9
 20
215.6
 30
0.0
 11
259.8
 21
215.6
 31
0.0
  0
TEXT
  8
0
  6
CONTINUOUS
 62
     1
 10
247.5
 20
212.0
 30
0.2
 40
2.0
  1
ＴＹＰＥ　ＴＮ－１／ＴＮ－２　　　　　　　　　　　　
 50
0.0
 41
0.5
 51
0.0
  7
KANJI1
  0
TEXT
  8
0
  6
CONTINUOUS
 62
     1
 10
269.5
 20
213.2
 30
0.2
 40
2.0
  1
１　　　　　　　　　　　　　　　　　　　　　　　　　
 50
0.0
 41
0.5
 51
0.0
  7
KANJI1
  0
TEXT
  8
0
  6
CONTINUOUS
 62
     1
 10
272.9
 20
213.2
 30
0.2
 40
2.0
  1
２　　　　　　　　　　　　　　　　　　　　　　　　　
 50
0.0
 41
0.5
 51
0.0
  7
KANJI1
  0
TEXT
  8
0
  6
CONTINUOUS
 62
     1
 10
276.2
 20
213.2
 30
0.2
 40
2.0
  1
３　　　　　　　　　　　　　　　　　　　　　　　　　
 50
0.0
 41
0.5
 51
0.0
  7
KANJI1
  0
TEXT
  8
0
  6
CONTINUOUS
 62
     1
 10
279.6
 20
213.2
 30
0.2
 40
2.0
  1
４　　　　　　　　　　　　　　　　　　　　　　　　　
 50
0.0
 41
0.5
 51
0.0
  7
KANJI1
  0
TEXT
  8
0
  6
CONTINUOUS
 62
     1
 10
271.1
 20
210.2
 30
0.2
 40
2.0
  1
５　　　　　　　　　　　　　　　　　　　　　　　　　
 50
0.0
 41
0.5
 51
0.0
  7
KANJI1
  0
TEXT
  8
0
  6
CONTINUOUS
 62
     1
 10
274.5
 20
210.2
 30
0.2
 40
2.0
  1
６　　　　　　　　　　　　　　　　　　　　　　　　　
 50
0.0
 41
0.5
 51
0.0
  7
KANJI1
  0
TEXT
  8
0
  6
CONTINUOUS
 62
     1
 10
277.9
 20
210.2
 30
0.2
 40
2.0
  1
７　　　　　　　　　　　　　　　　　　　　　　　　　
 50
0.0
 41
0.5
 51
0.0
  7
KANJI1
  0
TEXT
  8
0
  6
CONTINUOUS
 62
     1
 10
284.5
 20
210.8
 30
0.15
 40
1.5
  1
ＳＯＵＲＣＥ　　　
 50
0.0
 41
0.666666667
 51
0.0
  7
KANJI2
  0
ARC
  8
0
  6
CONTINUOUS
 62
     1
 10
246.7
 20
223.3
 30
0.0
 40
1.7
 50
90.0
 51
180.0
  0
LINE
  8
0
  6
CONTINUOUS
 62
     1
 10
246.7
 20
225.0
 30
0.0
 11
293.3
 21
225.0
 31
0.0
  0
ARC
  8
0
  6
CONTINUOUS
 62
     1
 10
293.3
 20
223.3
 30
0.0
 40
1.7
 50
0.0
 51
90.0
  0
ARC
  8
0
  6
CONTINUOUS
 62
     1
 10
246.7
 20
223.3
 30
0.0
 40
0.9
 50
90.0
 51
180.0
  0
LINE
  8
0
  6
CONTINUOUS
 62
     1
 10
246.7
 20
224.2
 30
0.0
 11
293.3
 21
224.2
 31
0.0
  0
ARC
  8
0
  6
CONTINUOUS
 62
     1
 10
293.3
 20
223.3
 30
0.0
 40
0.9
 50
0.0
 51
90.0
  0
TEXT
  8
0
  6
CONTINUOUS
 62
     1
 10
247.5
 20
220.5
 30
0.3
 40
2.5
  1
ＣＯＮＮＥＣＴＩＯＮＳ　ＯＦ　ＴＡＣＨＯ－ＭＥＴＥＲ
 50
0.0
 41
0.6
 51
0.0
  7
KANJI0
  0
CIRCLE
  8
0
  6
CONTINUOUS
 62
     1
 10
273.3
 20
214.0
 30
0.0
 40
1.5
  0
CIRCLE
  8
0
  6
CONTINUOUS
 62
     1
 10
269.9
 20
214.0
 30
0.0
 40
1.5
  0
CIRCLE
  8
0
  6
CONTINUOUS
 62
     1
 10
276.7
 20
214.0
 30
0.0
 40
1.5
  0
CIRCLE
  8
0
  6
CONTINUOUS
 62
     1
 10
280.1
 20
214.0
 30
0.0
 40
1.5
  0
LINE
  8
0
  6
CONTINUOUS
 62
     1
 10
255.0
 20
214.0
 30
0.0
 11
255.0
 21
217.6
 31
0.0
  0
LINE
  8
0
  6
CONTINUOUS
 62
     1
 10
255.0
 20
217.6
 30
0.0
 11
256.5
 21
217.6
 31
0.0
  0
LINE
  8
0
  6
CONTINUOUS
 62
     1
 10
256.5
 20
217.6
 30
0.0
 11
256.5
 21
214.0
 31
0.0
  0
LINE
  8
0
  6
CONTINUOUS
 62
     1
 10
256.5
 20
214.0
 30
0.0
 11
255.0
 21
214.0
 31
0.0
  0
LINE
  8
0
  6
CONTINUOUS
 62
     1
 10
255.0
 20
217.0
 30
0.0
 11
252.0
 21
217.0
 31
0.0
  0
LINE
  8
0
  6
CONTINUOUS
 62
     1
 10
252.0
 20
217.0
 30
0.0
 11
252.0
 21
214.6
 31
0.0
  0
LINE
  8
0
  6
CONTINUOUS
 62
     1
 10
252.0
 20
214.6
 30
0.0
 11
255.0
 21
214.6
 31
0.0
  0
LINE
  8
0
  6
CONTINUOUS
 62
     1
 10
256.5
 20
214.6
 30
0.0
 11
259.5
 21
214.6
 31
0.0
  0
LINE
  8
0
  6
CONTINUOUS
 62
     1
 10
259.5
 20
214.6
 30
0.0
 11
259.5
 21
217.0
 31
0.0
  0
LINE
  8
0
  6
CONTINUOUS
 62
     1
 10
259.5
 20
217.0
 30
0.0
 11
256.5
 21
217.0
 31
0.0
  0
LINE
  8
0
  6
CONTINUOUS
 62
     1
 10
259.5
 20
217.0
 30
0.0
 11
259.8
 21
216.7
 31
0.0
  0
LINE
  8
0
  6
CONTINUOUS
 62
     1
 10
259.8
 20
216.7
 30
0.0
 11
259.8
 21
214.9
 31
0.0
  0
LINE
  8
0
  6
CONTINUOUS
 62
     1
 10
259.8
 20
214.9
 30
0.0
 11
259.5
 21
214.6
 31
0.0
  0
LINE
  8
0
  6
CONTINUOUS
 62
     1
 10
252.0
 20
214.6
 30
0.0
 11
251.7
 21
214.9
 31
0.0
  0
LINE
  8
0
  6
CONTINUOUS
 62
     1
 10
251.7
 20
214.9
 30
0.0
 11
251.7
 21
216.7
 31
0.0
  0
LINE
  8
0
  6
CONTINUOUS
 62
     1
 10
251.7
 20
216.7
 30
0.0
 11
252.0
 21
217.0
 31
0.0
  0
LINE
  8
0
  6
CONTINUOUS
 62
     1
 10
259.8
 20
216.2
 30
0.0
 11
273.3
 21
216.2
 31
0.0
  0
LINE
  8
0
  6
CONTINUOUS
 62
     1
 10
273.3
 20
216.2
 30
0.0
 11
273.3
 21
215.5
 31
0.0
  0
LINE
  8
0
  6
CONTINUOUS
 62
     1
 10
269.9
 20
215.5
 30
0.0
 11
269.9
 21
215.6
 31
0.0
  0
LINE
  8
0
  6
CONTINUOUS
 62
     1
 10
269.9
 20
215.6
 30
0.0
 11
259.8
 21
215.6
 31
0.0
  0
TEXT
  8
0
  6
CONTINUOUS
 62
     1
 10
247.5
 20
212.0
 30
0.2
 40
2.0
  1
ＴＹＰＥ　ＴＮ－１／ＴＮ－２　　　　　　　　　　　　
 50
0.0
 41
0.5
 51
0.0
  7
KANJI1
  0
TEXT
  8
0
  6
CONTINUOUS
 62
     1
 10
269.5
 20
213.2
 30
0.2
 40
2.0
  1
１　　　　　　　　　　　　　　　　　　　　　　　　　
 50
0.0
 41
0.5
 51
0.0
  7
KANJI1
  0
TEXT
  8
0
  6
CONTINUOUS
 62
     1
 10
272.9
 20
213.2
 30
0.2
 40
2.0
  1
２　　　　　　　　　　　　　　　　　　　　　　　　　
 50
0.0
 41
0.5
 51
0.0
  7
KANJI1
  0
TEXT
  8
0
  6
CONTINUOUS
 62
     1
 10
276.2
 20
213.2
 30
0.2
 40
2.0
  1
３　　　　　　　　　　　　　　　　　　　　　　　　　
 50
0.0
 41
0.5
 51
0.0
  7
KANJI1
  0
TEXT
  8
0
  6
CONTINUOUS
 62
     1
 10
279.6
 20
213.2
 30
0.2
 40
2.0
  1
４　　　　　　　　　　　　　　　　　　　　　　　　　
 50
0.0
 41
0.5
 51
0.0
  7
KANJI1
  0
TEXT
  8
0
  6
CONTINUOUS
 62
     1
 10
271.1
 20
210.2
 30
0.2
 40
2.0
  1
５　　　　　　　　　　　　　　　　　　　　　　　　　
 50
0.0
 41
0.5
 51
0.0
  7
KANJI1
  0
TEXT
  8
0
  6
CONTINUOUS
 62
     1
 10
274.5
 20
210.2
 30
0.2
 40
2.0
  1
６　　　　　　　　　　　　　　　　　　　　　　　　　
 50
0.0
 41
0.5
 51
0.0
  7
KANJI1
  0
TEXT
  8
0
  6
CONTINUOUS
 62
     1
 10
277.9
 20
210.2
 30
0.2
 40
2.0
  1
７　　　　　　　　　　　　　　　　　　　　　　　　　
 50
0.0
 41
0.5
 51
0.0
  7
KANJI1
  0
TEXT
  8
0
  6
CONTINUOUS
 62
     1
 10
284.5
 20
210.8
 30
0.15
 40
1.5
  1
ＳＯＵＲＣＥ　　　
 50
0.0
 41
0.666666667
 51
0.0
  7
KANJI2
  0
ARC
  8
0
  6
CONTINUOUS
 62
     1
 10
246.7
 20
223.3
 30
0.0
 40
1.7
 50
90.0
 51
180.0
  0
LINE
  8
0
  6
CONTINUOUS
 62
     1
 10
246.7
 20
225.0
 30
0.0
 11
293.3
 21
225.0
 31
0.0
  0
ARC
  8
0
  6
CONTINUOUS
 62
     1
 10
293.3
 20
223.3
 30
0.0
 40
1.7
 50
0.0
 51
90.0
  0
ARC
  8
0
  6
CONTINUOUS
 62
     1
 10
246.7
 20
223.3
 30
0.0
 40
0.9
 50
90.0
 51
180.0
  0
LINE
  8
0
  6
CONTINUOUS
 62
     1
 10
246.7
 20
224.2
 30
0.0
 11
293.3
 21
224.2
 31
0.0
  0
ARC
  8
0
  6
CONTINUOUS
 62
     1
 10
293.3
 20
223.3
 30
0.0
 40
0.9
 50
0.0
 51
90.0
  0
TEXT
  8
0
  6
CONTINUOUS
 62
     1
 10
247.5
 20
220.5
 30
0.3
 40
2.5
  1
ＣＯＮＮＥＣＴＩＯＮＳ　ＯＦ　ＴＡＣＨＯ－ＭＥＴＥＲ
 50
0.0
 41
0.6
 51
0.0
  7
KANJI0
  0
CIRCLE
  8
0
  6
CONTINUOUS
 62
     1
 10
273.3
 20
214.0
 30
0.0
 40
1.5
  0
CIRCLE
  8
0
  6
CONTINUOUS
 62
     1
 10
269.9
 20
214.0
 30
0.0
 40
1.5
  0
CIRCLE
  8
0
  6
CONTINUOUS
 62
     1
 10
276.7
 20
214.0
 30
0.0
 40
1.5
  0
CIRCLE
  8
0
  6
CONTINUOUS
 62
     1
 10
280.1
 20
214.0
 30
0.0
 40
1.5
  0
LINE
  8
0
  6
CONTINUOUS
 62
     1
 10
255.0
 20
214.0
 30
0.0
 11
255.0
 21
217.6
 31
0.0
  0
LINE
  8
0
  6
CONTINUOUS
 62
     1
 10
255.0
 20
217.6
 30
0.0
 11
256.5
 21
217.6
 31
0.0
  0
LINE
  8
0
  6
CONTINUOUS
 62
     1
 10
256.5
 20
217.6
 30
0.0
 11
256.5
 21
214.0
 31
0.0
  0
LINE
  8
0
  6
CONTINUOUS
 62
     1
 10
256.5
 20
214.0
 30
0.0
 11
255.0
 21
214.0
 31
0.0
  0
LINE
  8
0
  6
CONTINUOUS
 62
     1
 10
255.0
 20
217.0
 30
0.0
 11
252.0
 21
217.0
 31
0.0
  0
LINE
  8
0
  6
CONTINUOUS
 62
     1
 10
252.0
 20
217.0
 30
0.0
 11
252.0
 21
214.6
 31
0.0
  0
LINE
  8
0
  6
CONTINUOUS
 62
     1
 10
252.0
 20
214.6
 30
0.0
 11
255.0
 21
214.6
 31
0.0
  0
LINE
  8
0
  6
CONTINUOUS
 62
     1
 10
256.5
 20
214.6
 30
0.0
 11
259.5
 21
214.6
 31
0.0
  0
LINE
  8
0
  6
CONTINUOUS
 62
     1
 10
259.5
 20
214.6
 30
0.0
 11
259.5
 21
217.0
 31
0.0
  0
LINE
  8
0
  6
CONTINUOUS
 62
     1
 10
259.5
 20
217.0
 30
0.0
 11
256.5
 21
217.0
 31
0.0
  0
LINE
  8
0
  6
CONTINUOUS
 62
     1
 10
259.5
 20
217.0
 30
0.0
 11
259.8
 21
216.7
 31
0.0
  0
LINE
  8
0
  6
CONTINUOUS
 62
     1
 10
259.8
 20
216.7
 30
0.0
 11
259.8
 21
214.9
 31
0.0
  0
LINE
  8
0
  6
CONTINUOUS
 62
     1
 10
259.8
 20
214.9
 30
0.0
 11
259.5
 21
214.6
 31
0.0
  0
LINE
  8
0
  6
CONTINUOUS
 62
     1
 10
252.0
 20
214.6
 30
0.0
 11
251.7
 21
214.9
 31
0.0
  0
LINE
  8
0
  6
CONTINUOUS
 62
     1
 10
251.7
 20
214.9
 30
0.0
 11
251.7
 21
216.7
 31
0.0
  0
LINE
  8
0
  6
CONTINUOUS
 62
     1
 10
251.7
 20
216.7
 30
0.0
 11
252.0
 21
217.0
 31
0.0
  0
LINE
  8
0
  6
CONTINUOUS
 62
     1
 10
259.8
 20
216.2
 30
0.0
 11
273.3
 21
216.2
 31
0.0
  0
LINE
  8
0
  6
CONTINUOUS
 62
     1
 10
273.3
 20
216.2
 30
0.0
 11
273.3
 21
215.5
 31
0.0
  0
LINE
  8
0
  6
CONTINUOUS
 62
     1
 10
269.9
 20
215.5
 30
0.0
 11
269.9
 21
215.6
 31
0.0
  0
LINE
  8
0
  6
CONTINUOUS
 62
     1
 10
269.9
 20
215.6
 30
0.0
 11
259.8
 21
215.6
 31
0.0
  0
TEXT
  8
0
  6
CONTINUOUS
 62
     1
 10
247.5
 20
212.0
 30
0.2
 40
2.0
  1
ＴＹＰＥ　ＴＮ－１／ＴＮ－２　　　　　　　　　　　　
 50
0.0
 41
0.5
 51
0.0
  7
KANJI1
  0
TEXT
  8
0
  6
CONTINUOUS
 62
     1
 10
269.5
 20
213.2
 30
0.2
 40
2.0
  1
１　　　　　　　　　　　　　　　　　　　　　　　　　
 50
0.0
 41
0.5
 51
0.0
  7
KANJI1
  0
TEXT
  8
0
  6
CONTINUOUS
 62
     1
 10
272.9
 20
213.2
 30
0.2
 40
2.0
  1
２　　　　　　　　　　　　　　　　　　　　　　　　　
 50
0.0
 41
0.5
 51
0.0
  7
KANJI1
  0
TEXT
  8
0
  6
CONTINUOUS
 62
     1
 10
276.2
 20
213.2
 30
0.2
 40
2.0
  1
３　　　　　　　　　　　　　　　　　　　　　　　　　
 50
0.0
 41
0.5
 51
0.0
  7
KANJI1
  0
TEXT
  8
0
  6
CONTINUOUS
 62
     1
 10
279.6
 20
213.2
 30
0.2
 40
2.0
  1
４　　　　　　　　　　　　　　　　　　　　　　　　　
 50
0.0
 41
0.5
 51
0.0
  7
KANJI1
  0
TEXT
  8
0
  6
CONTINUOUS
 62
     1
 10
271.1
 20
210.2
 30
0.2
 40
2.0
  1
５　　　　　　　　　　　　　　　　　　　　　　　　　
 50
0.0
 41
0.5
 51
0.0
  7
KANJI1
  0
TEXT
  8
0
  6
CONTINUOUS
 62
     1
 10
274.5
 20
210.2
 30
0.2
 40
2.0
  1
６　　　　　　　　　　　　　　　　　　　　　　　　　
 50
0.0
 41
0.5
 51
0.0
  7
KANJI1
  0
TEXT
  8
0
  6
CONTINUOUS
 62
     1
 10
277.9
 20
210.2
 30
0.2
 40
2.0
  1
７　　　　　　　　　　　　　　　　　　　　　　　　　
 50
0.0
 41
0.5
 51
0.0
  7
KANJI1
  0
TEXT
  8
0
  6
CONTINUOUS
 62
     1
 10
284.5
 20
210.8
 30
0.15
 40
1.5
  1
ＳＯＵＲＣＥ　　　
 50
0.0
 41
0.666666667
 51
0.0
  7
KANJI2
  0
ARC
  8
0
  6
CONTINUOUS
 62
     1
 10
78.9
 20
105.5
 30
0.0
 40
3.0
 50
270.0
 51
0.0
  0
LINE
  8
0
  6
CONTINUOUS
 62
     1
 10
81.9
 20
105.5
 30
0.0
 11
81.9
 21
154.5
 31
0.0
  0
ARC
  8
0
  6
CONTINUOUS
 62
     1
 10
78.9
 20
154.5
 30
0.0
 40
3.0
 50
0.0
 51
90.0
  0
LINE
  8
0
  6
CONTINUOUS
 62
     1
 10
78.9
 20
157.5
 30
0.0
 11
29.9
 21
157.5
 31
0.0
  0
ARC
  8
0
  6
CONTINUOUS
 62
     1
 10
29.9
 20
154.5
 30
0.0
 40
3.0
 50
90.0
 51
180.0
  0
LINE
  8
0
  6
CONTINUOUS
 62
     1
 10
29.9
 20
102.5
 30
0.0
 11
78.9
 21
102.5
 31
0.0
  0
LINE
  8
0
  6
CONTINUOUS
 62
     1
 10
26.9
 20
154.5
 30
0.0
 11
26.9
 21
105.5
 31
0.0
  0
ARC
  8
0
  6
CONTINUOUS
 62
     1
 10
29.9
 20
105.5
 30
0.0
 40
3.0
 50
180.0
 51
270.0
  0
CIRCLE
  8
0
  6
CONTINUOUS
 62
     1
 10
54.4
 20
130.0
 30
0.0
 40
25.5
  0
CIRCLE
  8
0
  6
CONTINUOUS
 62
     1
 10
54.4
 20
130.0
 30
0.0
 40
3.05
  0
LINE
  8
0
  6
CONTINUOUS
 62
     1
 10
104.0
 20
157.475
 30
0.0
 11
98.75
 21
157.475
 31
0.0
  0
ARC
  8
0
  6
CONTINUOUS
 62
     1
 10
98.75
 20
156.975
 30
0.0
 40
0.5
 50
90.0
 51
180.0
  0
LINE
  8
0
  6
CONTINUOUS
 62
     1
 10
98.25
 20
155.475
 30
0.0
 11
94.75
 21
155.475
 31
0.0
  0
ARC
  8
0
  6
CONTINUOUS
 62
     1
 10
94.75
 20
155.225
 30
0.0
 40
0.25
 50
90.0
 51
180.0
  0
LINE
  8
0
  6
CONTINUOUS
 62
     1
 10
93.5
 20
127.725
 30
0.0
 11
93.7
 21
127.725
 31
0.0
  0
LINE
  8
0
  6
CONTINUOUS
 62
     1
 10
104.0
 20
102.475
 30
0.0
 11
98.75
 21
102.475
 31
0.0
  0
ARC
  8
0
  6
CONTINUOUS
 62
     1
 10
98.75
 20
102.975
 30
0.0
 40
0.5
 50
180.0
 51
270.0
  0
LINE
  8
0
  6
CONTINUOUS
 62
     1
 10
98.25
 20
104.475
 30
0.0
 11
94.75
 21
104.475
 31
0.0
  0
ARC
  8
0
  6
CONTINUOUS
 62
     1
 10
94.75
 20
104.725
 30
0.0
 40
0.25
 50
180.0
 51
270.0
  0
LINE
  8
0
  6
CONTINUOUS
 62
     1
 10
93.7
 20
127.725
 30
0.0
 11
94.5
 21
104.725
 31
0.0
  0
LINE
  8
0
  6
CONTINUOUS
 62
     1
 10
98.25
 20
102.975
 30
0.0
 11
98.25
 21
129.975
 31
0.0
  0
LINE
  8
0
  6
CONTINUOUS
 62
     1
 10
93.677077922
 20
131.565990258
 30
0.0
 11
94.5
 21
155.225
 31
0.0
  0
LINE
  8
0
  6
CONTINUOUS
 62
     1
 10
98.25
 20
156.975
 30
0.0
 11
98.25
 21
155.625
 31
0.0
  0
LINE
  8
0
  6
CONTINUOUS
 62
     1
 10
104.0
 20
157.475
 30
0.0
 11
104.0
 21
156.825
 31
0.0
  0
LINE
  8
0
  6
CONTINUOUS
 62
     1
 10
98.25
 20
155.625
 30
0.0
 11
98.25
 21
155.475
 31
0.0
  0
LINE
  8
0
  6
CONTINUOUS
 62
     1
 10
104.0
 20
156.825
 30
0.0
 11
104.0
 21
130.225
 31
0.0
  0
LINE
  8
0
  6
CONTINUOUS
 62
     1
 10
104.0
 20
130.225
 30
0.0
 11
104.0
 21
102.475
 31
0.0
  0
LINE
  8
0
  6
CONTINUOUS
 62
     1
 10
93.5
 20
131.565990258
 30
0.0
 11
93.5
 21
127.725
 31
0.0
  0
LINE
  8
0
  6
CONTINUOUS
 62
     1
 10
98.25
 20
130.0
 30
0.0
 11
98.25
 21
155.475
 31
0.0
  0
LINE
  8
0
  6
CONTINUOUS
 62
     1
 10
144.0
 20
154.75
 30
0.0
 11
144.0
 21
105.25
 31
0.0
  0
ARC
  8
0
  6
CONTINUOUS
 62
     1
 10
146.0
 20
105.75
 30
0.0
 40
0.5
 50
270.0
 51
0.0
  0
LINE
  8
0
  6
CONTINUOUS
 62
     1
 10
146.5
 20
154.25
 30
0.0
 11
146.5
 21
105.75
 31
0.0
  0
ARC
  8
0
  6
CONTINUOUS
 62
     1
 10
146.0
 20
154.25
 30
0.0
 40
0.5
 50
0.0
 51
90.0
  0
LINE
  8
0
  6
CONTINUOUS
 62
     1
 10
98.25
 20
147.975
 30
0.0
 11
98.25
 21
156.975001907
 31
0.0
  0
ARC
  8
0
  6
CONTINUOUS
 62
     1
 10
212.3
 20
105.5
 30
0.0
 40
3.0
 50
270.0
 51
0.0
  0
LINE
  8
0
  6
CONTINUOUS
 62
     1
 10
163.3
 20
102.5
 30
0.0
 11
212.3
 21
102.5
 31
0.0
  0
ARC
  8
0
  6
CONTINUOUS
 62
     1
 10
163.3
 20
105.5
 30
0.0
 40
3.0
 50
180.0
 51
270.0
  0
LINE
  8
0
  6
CONTINUOUS
 62
     1
 10
160.3
 20
154.5
 30
0.0
 11
160.3
 21
105.5
 31
0.0
  0
ARC
  8
0
  6
CONTINUOUS
 62
     1
 10
163.3
 20
154.5
 30
0.0
 40
3.0
 50
90.0
 51
180.0
  0
LINE
  8
0
  6
CONTINUOUS
 62
     1
 10
215.3
 20
105.5
 30
0.0
 11
215.3
 21
154.5
 31
0.0
  0
LINE
  8
0
  6
CONTINUOUS
 62
     1
 10
212.3
 20
157.5
 30
0.0
 11
163.3
 21
157.5
 31
0.0
  0
ARC
  8
0
  6
CONTINUOUS
 62
     1
 10
212.3
 20
154.5
 30
0.0
 40
3.0
 50
0.0
 51
90.0
  0
CIRCLE
  8
0
  6
CONTINUOUS
 62
     1
 10
187.8
 20
130.0
 30
0.0
 40
24.75
  0
CIRCLE
  8
0
  6
CONTINUOUS
 62
     1
 10
187.8
 20
59.15
 30
0.0
 40
25.5
  0
CIRCLE
  8
0
  6
CONTINUOUS
 62
     1
 10
165.3
 20
81.65
 30
0.0
 40
1.75
  0
CIRCLE
  8
0
  6
CONTINUOUS
 62
     1
 10
165.3
 20
36.65
 30
0.0
 40
1.75
  0
CIRCLE
  8
0
  6
CONTINUOUS
 62
     1
 10
210.3
 20
36.65
 30
0.0
 40
1.75
  0
CIRCLE
  8
0
  6
CONTINUOUS
 62
     1
 10
210.3
 20
81.65
 30
0.0
 40
1.75
  0
TEXT
  8
0
  6
CONTINUOUS
 62
     1
 10
178.65
 20
24.9
 30
0.5
 40
3.0
  1
パネルカット
 50
0.0
 41
0.9
 51
0.0
  7
KANJI3
  0
LINE
  8
0
  6
CONTINUOUS
 62
     1
 10
177.4
 20
24.05
 30
0.0
 11
198.3
 21
24.05
 31
0.0
  0
TEXT
  8
0
  6
CONTINUOUS
 62
     1
 10
171.6
 20
129.0
 30
0.3
 40
3.0
  1
Ｌ
 50
0.0
 41
0.9
 51
0.0
  7
KANJI4
  0
TEXT
  8
0
  6
CONTINUOUS
 62
     1
 10
201.2
 20
129.3
 30
0.3
 40
3.0
  1
Ｌ
 50
0.0
 41
0.9
 51
0.0
  7
KANJI4
  0
TEXT
  8
0
  6
CONTINUOUS
 62
     1
 10
178.9
 20
139.3
 30
0.3
 40
3.0
  1
＋
 50
0.0
 41
0.9
 51
0.0
  7
KANJI4
  0
LINE
  8
0
  6
LTYPE1
 62
     2
 10
54.4
 20
161.5
 30
0.0
 11
54.4
 21
95.0
 31
0.0
  0
CIRCLE
  8
0
  6
CONTINUOUS
 62
     2
 10
76.9
 20
152.5
 30
0.0
 40
1.5
  0
LINE
  8
0
  6
CONTINUOUS
 62
     2
 10
76.025
 20
152.7
 30
0.0
 11
76.5
 21
152.7
 31
0.0
  0
ARC
  8
0
  6
CONTINUOUS
 62
     2
 10
76.5
 20
152.9
 30
0.0
 40
0.2
 50
270.0
 51
0.0
  0
LINE
  8
0
  6
CONTINUOUS
 62
     2
 10
76.7
 20
152.9
 30
0.0
 11
76.7
 21
153.375
 31
0.0
  0
LINE
  8
0
  6
CONTINUOUS
 62
     2
 10
76.7
 20
153.375
 30
0.0
 11
77.1
 21
153.375
 31
0.0
  0
LINE
  8
0
  6
CONTINUOUS
 62
     2
 10
77.1
 20
153.375
 30
0.0
 11
77.1
 21
152.9
 31
0.0
  0
ARC
  8
0
  6
CONTINUOUS
 62
     2
 10
77.3
 20
152.9
 30
0.0
 40
0.2
 50
180.0
 51
270.0
  0
LINE
  8
0
  6
CONTINUOUS
 62
     2
 10
77.3
 20
152.7
 30
0.0
 11
77.775
 21
152.7
 31
0.0
  0
LINE
  8
0
  6
CONTINUOUS
 62
     2
 10
77.775
 20
152.7
 30
0.0
 11
77.775
 21
152.3
 31
0.0
  0
LINE
  8
0
  6
CONTINUOUS
 62
     2
 10
77.775
 20
152.3
 30
0.0
 11
77.3
 21
152.3
 31
0.0
  0
ARC
  8
0
  6
CONTINUOUS
 62
     2
 10
77.3
 20
152.1
 30
0.0
 40
0.2
 50
90.0
 51
180.0
  0
LINE
  8
0
  6
CONTINUOUS
 62
     2
 10
77.1
 20
152.1
 30
0.0
 11
77.1
 21
151.625
 31
0.0
  0
LINE
  8
0
  6
CONTINUOUS
 62
     2
 10
77.1
 20
151.625
 30
0.0
 11
76.7
 21
151.625
 31
0.0
  0
LINE
  8
0
  6
CONTINUOUS
 62
     2
 10
76.7
 20
151.625
 30
0.0
 11
76.7
 21
152.1
 31
0.0
  0
ARC
  8
0
  6
CONTINUOUS
 62
     2
 10
76.5
 20
152.1
 30
0.0
 40
0.2
 50
0.0
 51
90.0
  0
LINE
  8
0
  6
CONTINUOUS
 62
     2
 10
76.5
 20
152.3
 30
0.0
 11
76.025
 21
152.3
 31
0.0
  0
LINE
  8
0
  6
CONTINUOUS
 62
     2
 10
76.025
 20
152.3
 30
0.0
 11
76.025
 21
152.7
 31
0.0
  0
LINE
  8
0
  6
LTYPE1
 62
     2
 10
74.9
 20
152.5
 30
0.0
 11
78.9
 21
152.5
 31
0.0
  0
LINE
  8
0
  6
LTYPE1
 62
     2
 10
76.9
 20
154.5
 30
0.0
 11
76.9
 21
150.5
 31
0.0
  0
CIRCLE
  8
0
  6
CONTINUOUS
 62
     2
 10
31.9
 20
152.5
 30
0.0
 40
1.5
  0
LINE
  8
0
  6
CONTINUOUS
 62
     2
 10
31.025
 20
152.7
 30
0.0
 11
31.5
 21
152.7
 31
0.0
  0
ARC
  8
0
  6
CONTINUOUS
 62
     2
 10
31.5
 20
152.9
 30
0.0
 40
0.2
 50
270.0
 51
0.0
  0
LINE
  8
0
  6
CONTINUOUS
 62
     2
 10
31.7
 20
152.9
 30
0.0
 11
31.7
 21
153.375
 31
0.0
  0
LINE
  8
0
  6
CONTINUOUS
 62
     2
 10
31.7
 20
153.375
 30
0.0
 11
32.1
 21
153.375
 31
0.0
  0
LINE
  8
0
  6
CONTINUOUS
 62
     2
 10
32.1
 20
153.375
 30
0.0
 11
32.1
 21
152.9
 31
0.0
  0
ARC
  8
0
  6
CONTINUOUS
 62
     2
 10
32.3
 20
152.9
 30
0.0
 40
0.2
 50
180.0
 51
270.0
  0
LINE
  8
0
  6
CONTINUOUS
 62
     2
 10
32.3
 20
152.7
 30
0.0
 11
32.775
 21
152.7
 31
0.0
  0
LINE
  8
0
  6
CONTINUOUS
 62
     2
 10
32.775
 20
152.7
 30
0.0
 11
32.775
 21
152.3
 31
0.0
  0
LINE
  8
0
  6
CONTINUOUS
 62
     2
 10
32.775
 20
152.3
 30
0.0
 11
32.3
 21
152.3
 31
0.0
  0
ARC
  8
0
  6
CONTINUOUS
 62
     2
 10
32.3
 20
152.1
 30
0.0
 40
0.2
 50
90.0
 51
180.0
  0
LINE
  8
0
  6
CONTINUOUS
 62
     2
 10
32.1
 20
152.1
 30
0.0
 11
32.1
 21
151.625
 31
0.0
  0
LINE
  8
0
  6
CONTINUOUS
 62
     2
 10
32.1
 20
151.625
 30
0.0
 11
31.7
 21
151.625
 31
0.0
  0
LINE
  8
0
  6
CONTINUOUS
 62
     2
 10
31.7
 20
151.625
 30
0.0
 11
31.7
 21
152.1
 31
0.0
  0
ARC
  8
0
  6
CONTINUOUS
 62
     2
 10
31.5
 20
152.1
 30
0.0
 40
0.2
 50
0.0
 51
90.0
  0
LINE
  8
0
  6
CONTINUOUS
 62
     2
 10
31.5
 20
152.3
 30
0.0
 11
31.025
 21
152.3
 31
0.0
  0
LINE
  8
0
  6
CONTINUOUS
 62
     2
 10
31.025
 20
152.3
 30
0.0
 11
31.025
 21
152.7
 31
0.0
  0
LINE
  8
0
  6
LTYPE1
 62
     2
 10
29.9
 20
152.5
 30
0.0
 11
33.9
 21
152.5
 31
0.0
  0
LINE
  8
0
  6
LTYPE1
 62
     2
 10
31.9
 20
154.5
 30
0.0
 11
31.9
 21
150.5
 31
0.0
  0
CIRCLE
  8
0
  6
CONTINUOUS
 62
     2
 10
31.9
 20
107.5
 30
0.0
 40
1.5
  0
LINE
  8
0
  6
CONTINUOUS
 62
     2
 10
31.025
 20
107.7
 30
0.0
 11
31.5
 21
107.7
 31
0.0
  0
ARC
  8
0
  6
CONTINUOUS
 62
     2
 10
31.5
 20
107.9
 30
0.0
 40
0.2
 50
270.0
 51
0.0
  0
LINE
  8
0
  6
CONTINUOUS
 62
     2
 10
31.7
 20
107.9
 30
0.0
 11
31.7
 21
108.375
 31
0.0
  0
LINE
  8
0
  6
CONTINUOUS
 62
     2
 10
31.7
 20
108.375
 30
0.0
 11
32.1
 21
108.375
 31
0.0
  0
LINE
  8
0
  6
CONTINUOUS
 62
     2
 10
32.1
 20
108.375
 30
0.0
 11
32.1
 21
107.9
 31
0.0
  0
ARC
  8
0
  6
CONTINUOUS
 62
     2
 10
32.3
 20
107.9
 30
0.0
 40
0.2
 50
180.0
 51
270.0
  0
LINE
  8
0
  6
CONTINUOUS
 62
     2
 10
32.3
 20
107.7
 30
0.0
 11
32.775
 21
107.7
 31
0.0
  0
LINE
  8
0
  6
CONTINUOUS
 62
     2
 10
32.775
 20
107.7
 30
0.0
 11
32.775
 21
107.3
 31
0.0
  0
LINE
  8
0
  6
CONTINUOUS
 62
     2
 10
32.775
 20
107.3
 30
0.0
 11
32.3
 21
107.3
 31
0.0
  0
ARC
  8
0
  6
CONTINUOUS
 62
     2
 10
32.3
 20
107.1
 30
0.0
 40
0.2
 50
90.0
 51
180.0
  0
LINE
  8
0
  6
CONTINUOUS
 62
     2
 10
32.1
 20
107.1
 30
0.0
 11
32.1
 21
106.625
 31
0.0
  0
LINE
  8
0
  6
CONTINUOUS
 62
     2
 10
32.1
 20
106.625
 30
0.0
 11
31.7
 21
106.625
 31
0.0
  0
LINE
  8
0
  6
CONTINUOUS
 62
     2
 10
31.7
 20
106.625
 30
0.0
 11
31.7
 21
107.1
 31
0.0
  0
ARC
  8
0
  6
CONTINUOUS
 62
     2
 10
31.5
 20
107.1
 30
0.0
 40
0.2
 50
0.0
 51
90.0
  0
LINE
  8
0
  6
CONTINUOUS
 62
     2
 10
31.5
 20
107.3
 30
0.0
 11
31.025
 21
107.3
 31
0.0
  0
LINE
  8
0
  6
CONTINUOUS
 62
     2
 10
31.025
 20
107.3
 30
0.0
 11
31.025
 21
107.7
 31
0.0
  0
LINE
  8
0
  6
LTYPE1
 62
     2
 10
29.9
 20
107.5
 30
0.0
 11
33.9
 21
107.5
 31
0.0
  0
LINE
  8
0
  6
LTYPE1
 62
     2
 10
31.9
 20
109.5
 30
0.0
 11
31.9
 21
105.5
 31
0.0
  0
CIRCLE
  8
0
  6
CONTINUOUS
 62
     2
 10
76.9
 20
107.5
 30
0.0
 40
1.5
  0
LINE
  8
0
  6
CONTINUOUS
 62
     2
 10
76.025
 20
107.7
 30
0.0
 11
76.5
 21
107.7
 31
0.0
  0
ARC
  8
0
  6
CONTINUOUS
 62
     2
 10
76.5
 20
107.9
 30
0.0
 40
0.2
 50
270.0
 51
0.0
  0
LINE
  8
0
  6
CONTINUOUS
 62
     2
 10
76.7
 20
107.9
 30
0.0
 11
76.7
 21
108.375
 31
0.0
  0
LINE
  8
0
  6
CONTINUOUS
 62
     2
 10
76.7
 20
108.375
 30
0.0
 11
77.1
 21
108.375
 31
0.0
  0
LINE
  8
0
  6
CONTINUOUS
 62
     2
 10
77.1
 20
108.375
 30
0.0
 11
77.1
 21
107.9
 31
0.0
  0
ARC
  8
0
  6
CONTINUOUS
 62
     2
 10
77.3
 20
107.9
 30
0.0
 40
0.2
 50
180.0
 51
270.0
  0
LINE
  8
0
  6
CONTINUOUS
 62
     2
 10
77.3
 20
107.7
 30
0.0
 11
77.775
 21
107.7
 31
0.0
  0
LINE
  8
0
  6
CONTINUOUS
 62
     2
 10
77.775
 20
107.7
 30
0.0
 11
77.775
 21
107.3
 31
0.0
  0
LINE
  8
0
  6
CONTINUOUS
 62
     2
 10
77.775
 20
107.3
 30
0.0
 11
77.3
 21
107.3
 31
0.0
  0
ARC
  8
0
  6
CONTINUOUS
 62
     2
 10
77.3
 20
107.1
 30
0.0
 40
0.2
 50
90.0
 51
180.0
  0
LINE
  8
0
  6
CONTINUOUS
 62
     2
 10
77.1
 20
107.1
 30
0.0
 11
77.1
 21
106.625
 31
0.0
  0
LINE
  8
0
  6
CONTINUOUS
 62
     2
 10
77.1
 20
106.625
 30
0.0
 11
76.7
 21
106.625
 31
0.0
  0
LINE
  8
0
  6
CONTINUOUS
 62
     2
 10
76.7
 20
106.625
 30
0.0
 11
76.7
 21
107.1
 31
0.0
  0
ARC
  8
0
  6
CONTINUOUS
 62
     2
 10
76.5
 20
107.1
 30
0.0
 40
0.2
 50
0.0
 51
90.0
  0
LINE
  8
0
  6
CONTINUOUS
 62
     2
 10
76.5
 20
107.3
 30
0.0
 11
76.025
 21
107.3
 31
0.0
  0
LINE
  8
0
  6
CONTINUOUS
 62
     2
 10
76.025
 20
107.3
 30
0.0
 11
76.025
 21
107.7
 31
0.0
  0
LINE
  8
0
  6
LTYPE1
 62
     2
 10
74.9
 20
107.5
 30
0.0
 11
78.9
 21
107.5
 31
0.0
  0
LINE
  8
0
  6
LTYPE1
 62
     2
 10
76.9
 20
109.5
 30
0.0
 11
76.9
 21
105.5
 31
0.0
  0
LINE
  8
0
  6
CONTINUOUS
 62
     2
 10
54.85
 20
126.983379374
 30
0.0
 11
54.85
 21
133.016620626
 31
0.0
  0
LINE
  8
0
  6
CONTINUOUS
 62
     2
 10
53.95
 20
133.016620626
 30
0.0
 11
53.95
 21
126.983379374
 31
0.0
  0
CIRCLE
  8
0
  6
CONTINUOUS
 62
     2
 10
54.4
 20
130.0
 30
0.0
 40
8.5
  0
CIRCLE
  8
0
  6
CONTINUOUS
 62
     2
 10
54.4
 20
130.0
 30
0.0
 40
7.8
  0
CIRCLE
  8
0
  6
CONTINUOUS
 62
     2
 10
54.4
 20
130.0
 30
0.0
 40
7.1
  0
CIRCLE
  8
0
  6
CONTINUOUS
 62
     2
 10
54.4
 20
130.0
 30
0.0
 40
6.4
  0
CIRCLE
  8
0
  6
CONTINUOUS
 62
     2
 10
54.4
 20
130.0
 30
0.0
 40
5.7
  0
CIRCLE
  8
0
  6
CONTINUOUS
 62
     2
 10
54.4
 20
130.0
 30
0.0
 40
5.0
  0
CIRCLE
  8
0
  6
CONTINUOUS
 62
     2
 10
54.4
 20
130.0
 30
0.0
 40
4.3
  0
CIRCLE
  8
0
  6
CONTINUOUS
 62
     2
 10
54.4
 20
130.0
 30
0.0
 40
3.6
  0
CIRCLE
  8
0
  6
CONTINUOUS
 62
     2
 10
54.4
 20
130.0
 30
0.0
 40
24.25
  0
CIRCLE
  8
0
  6
CONTINUOUS
 62
     2
 10
54.4
 20
130.0
 30
0.0
 40
21.0
  0
CIRCLE
  8
0
  6
CONTINUOUS
 62
     2
 10
45.9
 20
114.5
 30
0.0
 40
1.5
  0
LINE
  8
0
  6
CONTINUOUS
 62
     2
 10
45.13986021
 20
114.022702923
 30
0.0
 11
45.475735931
 21
114.358578644
 31
0.0
  0
ARC
  8
0
  6
CONTINUOUS
 62
     2
 10
45.334314575
 20
114.5
 30
0.0
 40
0.2
 50
315.0
 51
45.0
  0
LINE
  8
0
  6
CONTINUOUS
 62
     2
 10
45.475735931
 20
114.641421356
 30
0.0
 11
45.13986021
 21
114.977297077
 31
0.0
  0
LINE
  8
0
  6
CONTINUOUS
 62
     2
 10
45.13986021
 20
114.977297077
 30
0.0
 11
45.422702923
 21
115.26013979
 31
0.0
  0
LINE
  8
0
  6
CONTINUOUS
 62
     2
 10
45.422702923
 20
115.26013979
 30
0.0
 11
45.758578644
 21
114.924264069
 31
0.0
  0
ARC
  8
0
  6
CONTINUOUS
 62
     2
 10
45.9
 20
115.065685425
 30
0.0
 40
0.2
 50
225.0
 51
315.0
  0
LINE
  8
0
  6
CONTINUOUS
 62
     2
 10
46.041421356
 20
114.924264069
 30
0.0
 11
46.377297077
 21
115.26013979
 31
0.0
  0
LINE
  8
0
  6
CONTINUOUS
 62
     2
 10
46.377297077
 20
115.26013979
 30
0.0
 11
46.66013979
 21
114.977297077
 31
0.0
  0
LINE
  8
0
  6
CONTINUOUS
 62
     2
 10
46.66013979
 20
114.977297077
 30
0.0
 11
46.324264069
 21
114.641421356
 31
0.0
  0
ARC
  8
0
  6
CONTINUOUS
 62
     2
 10
46.465685425
 20
114.5
 30
0.0
 40
0.2
 50
135.0
 51
225.0
  0
LINE
  8
0
  6
CONTINUOUS
 62
     2
 10
46.324264069
 20
114.358578644
 30
0.0
 11
46.66013979
 21
114.022702923
 31
0.0
  0
LINE
  8
0
  6
CONTINUOUS
 62
     2
 10
46.66013979
 20
114.022702923
 30
0.0
 11
46.377297077
 21
113.73986021
 31
0.0
  0
LINE
  8
0
  6
CONTINUOUS
 62
     2
 10
46.377297077
 20
113.73986021
 30
0.0
 11
46.041421356
 21
114.075735931
 31
0.0
  0
ARC
  8
0
  6
CONTINUOUS
 62
     2
 10
45.9
 20
113.934314575
 30
0.0
 40
0.2
 50
45.0
 51
135.0
  0
LINE
  8
0
  6
CONTINUOUS
 62
     2
 10
45.758578644
 20
114.075735931
 30
0.0
 11
45.422702923
 21
113.73986021
 31
0.0
  0
LINE
  8
0
  6
CONTINUOUS
 62
     2
 10
45.422702923
 20
113.73986021
 30
0.0
 11
45.13986021
 21
114.022702923
 31
0.0
  0
CIRCLE
  8
0
  6
CONTINUOUS
 62
     2
 10
62.9
 20
114.5
 30
0.0
 40
1.5
  0
LINE
  8
0
  6
CONTINUOUS
 62
     2
 10
62.13986021
 20
114.022702923
 30
0.0
 11
62.475735931
 21
114.358578644
 31
0.0
  0
ARC
  8
0
  6
CONTINUOUS
 62
     2
 10
62.334314575
 20
114.5
 30
0.0
 40
0.2
 50
315.0
 51
45.0
  0
LINE
  8
0
  6
CONTINUOUS
 62
     2
 10
62.475735931
 20
114.641421356
 30
0.0
 11
62.13986021
 21
114.977297077
 31
0.0
  0
LINE
  8
0
  6
CONTINUOUS
 62
     2
 10
62.13986021
 20
114.977297077
 30
0.0
 11
62.422702923
 21
115.26013979
 31
0.0
  0
LINE
  8
0
  6
CONTINUOUS
 62
     2
 10
62.422702923
 20
115.26013979
 30
0.0
 11
62.758578644
 21
114.924264069
 31
0.0
  0
ARC
  8
0
  6
CONTINUOUS
 62
     2
 10
62.9
 20
115.065685425
 30
0.0
 40
0.2
 50
225.0
 51
315.0
  0
LINE
  8
0
  6
CONTINUOUS
 62
     2
 10
63.041421356
 20
114.924264069
 30
0.0
 11
63.377297077
 21
115.26013979
 31
0.0
  0
LINE
  8
0
  6
CONTINUOUS
 62
     2
 10
63.377297077
 20
115.26013979
 30
0.0
 11
63.66013979
 21
114.977297077
 31
0.0
  0
LINE
  8
0
  6
CONTINUOUS
 62
     2
 10
63.66013979
 20
114.977297077
 30
0.0
 11
63.324264069
 21
114.641421356
 31
0.0
  0
ARC
  8
0
  6
CONTINUOUS
 62
     2
 10
63.465685425
 20
114.5
 30
0.0
 40
0.2
 50
135.0
 51
225.0
  0
LINE
  8
0
  6
CONTINUOUS
 62
     2
 10
63.324264069
 20
114.358578644
 30
0.0
 11
63.66013979
 21
114.022702923
 31
0.0
  0
LINE
  8
0
  6
CONTINUOUS
 62
     2
 10
63.66013979
 20
114.022702923
 30
0.0
 11
63.377297077
 21
113.73986021
 31
0.0
  0
LINE
  8
0
  6
CONTINUOUS
 62
     2
 10
63.377297077
 20
113.73986021
 30
0.0
 11
63.041421356
 21
114.075735931
 31
0.0
  0
ARC
  8
0
  6
CONTINUOUS
 62
     2
 10
62.9
 20
113.934314575
 30
0.0
 40
0.2
 50
45.0
 51
135.0
  0
LINE
  8
0
  6
CONTINUOUS
 62
     2
 10
62.758578644
 20
114.075735931
 30
0.0
 11
62.422702923
 21
113.73986021
 31
0.0
  0
LINE
  8
0
  6
CONTINUOUS
 62
     2
 10
62.422702923
 20
113.73986021
 30
0.0
 11
62.13986021
 21
114.022702923
 31
0.0
  0
LINE
  8
0
  6
CONTINUOUS
 62
     2
 10
39.102240015
 20
122.54741391
 30
0.0
 11
36.38424919
 21
120.218245415
 31
0.0
  0
LINE
  8
0
  6
CONTINUOUS
 62
     2
 10
36.38424919
 20
120.218245415
 30
0.0
 11
39.817978155
 21
121.229188241
 31
0.0
  0
LINE
  8
0
  6
CONTINUOUS
 62
     2
 10
39.817978155
 20
121.229188241
 30
0.0
 11
47.317058939
 21
125.300856895
 31
0.0
  0
LINE
  8
0
  6
CONTINUOUS
 62
     2
 10
38.581291972
 20
121.411142315
 30
0.0
 11
47.101656687
 21
125.642915552
 31
0.0
  0
LINE
  8
0
  6
CONTINUOUS
 62
     2
 10
46.770878852
 20
126.252132538
 30
0.0
 11
38.581291972
 21
121.411142315
 31
0.0
  0
LINE
  8
0
  6
CONTINUOUS
 62
     2
 10
46.601320798
 20
126.619082564
 30
0.0
 11
39.102240015
 21
122.54741391
 31
0.0
  0
LINE
  8
0
  6
CONTINUOUS
 62
     2
 10
26.913820798
 20
155.568245415
 30
0.0
 11
26.913820798
 21
177.218245415
 31
0.0
  0
LINE
  8
0
  6
CONTINUOUS
 62
     2
 10
26.913820798
 20
175.218245415
 30
0.0
 11
29.328635364
 21
174.571197802
 31
0.0
  0
LINE
  8
0
  6
CONTINUOUS
 62
     2
 10
26.913820798
 20
175.218245415
 30
0.0
 11
29.328635364
 21
175.865293027
 31
0.0
  0
LINE
  8
0
  6
CONTINUOUS
 62
     2
 10
26.913820798
 20
175.218245415
 30
0.0
 11
81.913820798
 21
175.218245415
 31
0.0
  0
LINE
  8
0
  6
CONTINUOUS
 62
     2
 10
81.913820798
 20
175.218245415
 30
0.0
 11
79.499006233
 21
175.865293027
 31
0.0
  0
LINE
  8
0
  6
CONTINUOUS
 62
     2
 10
81.913820798
 20
175.218245415
 30
0.0
 11
79.499006233
 21
174.571197802
 31
0.0
  0
LINE
  8
0
  6
CONTINUOUS
 62
     2
 10
81.913820798
 20
155.968245415
 30
0.0
 11
81.913820798
 21
177.218245415
 31
0.0
  0
TEXT
  8
0
  6
CONTINUOUS
 62
     2
 10
54.983820798
 20
176.218245415
 30
0.18
 40
1.8
  1
±１．５
 50
0.0
 41
0.6
 51
0.0
  7
KANJI5
  0
LINE
  8
0
  6
CONTINUOUS
 62
     2
 10
29.263820798
 20
157.518245415
 30
0.0
 11
14.363820798
 21
157.518245415
 31
0.0
  0
LINE
  8
0
  6
CONTINUOUS
 62
     2
 10
16.363820798
 20
157.518245415
 30
0.0
 11
15.716773186
 21
155.103430849
 31
0.0
  0
LINE
  8
0
  6
CONTINUOUS
 62
     2
 10
16.363820798
 20
157.518245415
 30
0.0
 11
17.010868411
 21
155.103430849
 31
0.0
  0
LINE
  8
0
  6
CONTINUOUS
 62
     2
 10
16.363820798
 20
157.518245415
 30
0.0
 11
16.363820798
 21
102.518245415
 31
0.0
  0
LINE
  8
0
  6
CONTINUOUS
 62
     2
 10
16.363820798
 20
102.518245415
 30
0.0
 11
17.010868411
 21
104.93305998
 31
0.0
  0
LINE
  8
0
  6
CONTINUOUS
 62
     2
 10
16.363820798
 20
102.518245415
 30
0.0
 11
15.716773186
 21
104.93305998
 31
0.0
  0
LINE
  8
0
  6
CONTINUOUS
 62
     2
 10
29.263820798
 20
102.518245415
 30
0.0
 11
14.363820798
 21
102.518245415
 31
0.0
  0
TEXT
  8
0
  6
CONTINUOUS
 62
     2
 10
15.363820798
 20
130.588245415
 30
0.18
 40
1.8
  1
±１．５
 50
90.0
 41
0.6
 51
0.0
  7
KANJI5
  0
LINE
  8
0
  6
CONTINUOUS
 62
     2
 10
98.25
 20
108.725
 30
0.0
 11
98.15
 21
108.725
 31
0.0
  0
LINE
  8
0
  6
CONTINUOUS
 62
     2
 10
98.15
 20
108.725
 30
0.0
 11
98.15
 21
106.225
 31
0.0
  0
LINE
  8
0
  6
CONTINUOUS
 62
     2
 10
98.15
 20
106.225
 30
0.0
 11
98.25
 21
106.225
 31
0.0
  0
LINE
  8
0
  6
LTYPE1
 62
     2
 10
104.25
 20
129.975
 30
0.0
 11
106.5
 21
129.975
 31
0.0
  0
LINE
  8
0
  6
LTYPE1
 62
     2
 10
98.0
 20
129.975
 30
0.0
 11
104.25
 21
129.975
 31
0.0
  0
LINE
  8
0
  6
LTYPE1
 62
     2
 10
102.2
 20
152.5
 30
0.0
 11
114.05
 21
152.5
 31
0.0
  0
LINE
  8
0
  6
LTYPE1
 62
     2
 10
102.2
 20
107.5
 30
0.0
 11
114.05
 21
107.5
 31
0.0
  0
LINE
  8
0
  6
LTYPE1
 62
     2
 10
143.725
 20
135.0
 30
0.0
 11
156.45
 21
135.0
 31
0.0
  0
LINE
  8
0
  6
CONTINUOUS
 62
     2
 10
98.15
 20
109.0
 30
0.0
 11
98.15
 21
106.0
 31
0.0
  0
LINE
  8
0
  6
CONTINUOUS
 62
     2
 10
97.8
 20
106.0
 30
0.0
 11
98.15
 21
106.0
 31
0.0
  0
ARC
  8
0
  6
CONTINUOUS
 62
     2
 10
97.8
 20
106.4
 30
0.0
 40
0.4
 50
180.0
 51
270.0
  0
LINE
  8
0
  6
CONTINUOUS
 62
     2
 10
97.8
 20
109.0
 30
0.0
 11
98.25
 21
109.0
 31
0.0
  0
LINE
  8
0
  6
CONTINUOUS
 62
     2
 10
97.4
 20
106.4
 30
0.0
 11
97.4
 21
108.6
 31
0.0
  0
ARC
  8
0
  6
CONTINUOUS
 62
     2
 10
97.8
 20
108.6
 30
0.0
 40
0.4
 50
90.0
 51
180.0
  0
LINE
  8
0
  6
CONTINUOUS
 62
     2
 10
97.4
 20
107.6
 30
0.0
 11
97.5
 21
107.6
 31
0.0
  0
LINE
  8
0
  6
CONTINUOUS
 62
     2
 10
97.5
 20
107.6
 30
0.0
 11
97.5
 21
107.4
 31
0.0
  0
LINE
  8
0
  6
CONTINUOUS
 62
     2
 10
97.5
 20
107.4
 30
0.0
 11
97.4
 21
107.4
 31
0.0
  0
LINE
  8
0
  6
CONTINUOUS
 62
     2
 10
98.25
 20
153.725
 30
0.0
 11
98.15
 21
153.725
 31
0.0
  0
LINE
  8
0
  6
CONTINUOUS
 62
     2
 10
98.15
 20
153.725
 30
0.0
 11
98.15
 21
151.225
 31
0.0
  0
LINE
  8
0
  6
CONTINUOUS
 62
     2
 10
98.15
 20
151.225
 30
0.0
 11
98.25
 21
151.225
 31
0.0
  0
LINE
  8
0
  6
CONTINUOUS
 62
     2
 10
98.15
 20
154.0
 30
0.0
 11
98.15
 21
151.0
 31
0.0
  0
LINE
  8
0
  6
CONTINUOUS
 62
     2
 10
97.8
 20
151.0
 30
0.0
 11
98.15
 21
151.0
 31
0.0
  0
ARC
  8
0
  6
CONTINUOUS
 62
     2
 10
97.8
 20
151.4
 30
0.0
 40
0.4
 50
180.0
 51
270.0
  0
LINE
  8
0
  6
CONTINUOUS
 62
     2
 10
97.8
 20
154.0
 30
0.0
 11
98.25
 21
154.0
 31
0.0
  0
LINE
  8
0
  6
CONTINUOUS
 62
     2
 10
97.4
 20
151.4
 30
0.0
 11
97.4
 21
153.6
 31
0.0
  0
ARC
  8
0
  6
CONTINUOUS
 62
     2
 10
97.8
 20
153.6
 30
0.0
 40
0.4
 50
90.0
 51
180.0
  0
LINE
  8
0
  6
CONTINUOUS
 62
     2
 10
97.4
 20
152.6
 30
0.0
 11
97.5
 21
152.6
 31
0.0
  0
LINE
  8
0
  6
CONTINUOUS
 62
     2
 10
97.5
 20
152.6
 30
0.0
 11
97.5
 21
152.4
 31
0.0
  0
LINE
  8
0
  6
CONTINUOUS
 62
     2
 10
97.5
 20
152.4
 30
0.0
 11
97.4
 21
152.4
 31
0.0
  0
LINE
  8
0
  6
CONTINUOUS
 62
     2
 10
93.5
 20
133.15
 30
0.0
 11
93.5
 21
127.25
 31
0.0
  0
POINT
  8
0
  6
CONTINUOUS
 62
     2
 10
93.5
 20
133.15
 30
0.0
  0
ARC
  8
0
  6
CONTINUOUS
 62
     2
 10
93.5
 20
131.65
 30
0.0
 40
1.5
 50
90.0
 51
180.0
  0
LINE
  8
0
  6
CONTINUOUS
 62
     2
 10
93.5
 20
127.25
 30
0.0
 11
93.4
 21
127.25
 31
0.0
  0
LINE
  8
0
  6
CONTINUOUS
 62
     2
 10
92.0
 20
128.65
 30
0.0
 11
92.0
 21
131.65
 31
0.0
  0
ARC
  8
0
  6
CONTINUOUS
 62
     2
 10
93.4
 20
128.65
 30
0.0
 40
1.4
 50
180.0
 51
270.0
  0
LINE
  8
0
  6
CONTINUOUS
 62
     2
 10
94.55
 20
104.475
 30
0.0
 11
87.125
 21
104.475
 31
0.0
  0
LINE
  8
0
  6
CONTINUOUS
 62
     2
 10
89.125
 20
104.475
 30
0.0
 11
89.772047613
 21
106.889814566
 31
0.0
  0
LINE
  8
0
  6
CONTINUOUS
 62
     2
 10
89.125
 20
104.475
 30
0.0
 11
88.477952387
 21
106.889814566
 31
0.0
  0
LINE
  8
0
  6
CONTINUOUS
 62
     2
 10
89.125
 20
104.475
 30
0.0
 11
89.125
 21
155.475
 31
0.0
  0
LINE
  8
0
  6
CONTINUOUS
 62
     2
 10
89.125
 20
155.475
 30
0.0
 11
88.477952387
 21
153.060185434
 31
0.0
  0
LINE
  8
0
  6
CONTINUOUS
 62
     2
 10
89.125
 20
155.475
 30
0.0
 11
89.772047613
 21
153.060185434
 31
0.0
  0
LINE
  8
0
  6
CONTINUOUS
 62
     2
 10
94.55
 20
155.475
 30
0.0
 11
87.125
 21
155.475
 31
0.0
  0
LINE
  8
0
  6
CONTINUOUS
 62
     2
 10
92.0
 20
132.1
 30
0.0
 11
92.0
 21
177.425001907
 31
0.0
  0
LINE
  8
0
  6
CONTINUOUS
 62
     2
 10
92.0
 20
175.425001907
 30
0.0
 11
94.414814566
 21
174.777954295
 31
0.0
  0
LINE
  8
0
  6
CONTINUOUS
 62
     2
 10
92.0
 20
175.425001907
 30
0.0
 11
94.414814566
 21
176.07204952
 31
0.0
  0
LINE
  8
0
  6
CONTINUOUS
 62
     2
 10
92.0
 20
175.425001907
 30
0.0
 11
104.0
 21
175.425001907
 31
0.0
  0
LINE
  8
0
  6
CONTINUOUS
 62
     2
 10
104.0
 20
175.425001907
 30
0.0
 11
101.585185434
 21
176.07204952
 31
0.0
  0
LINE
  8
0
  6
CONTINUOUS
 62
     2
 10
104.0
 20
175.425001907
 30
0.0
 11
101.585185434
 21
174.777954295
 31
0.0
  0
LINE
  8
0
  6
CONTINUOUS
 62
     2
 10
104.0
 20
157.7
 30
0.0
 11
104.0
 21
177.425001907
 31
0.0
  0
TEXT
  8
0
  6
CONTINUOUS
 62
     2
 10
96.05
 20
176.425001907
 30
0.3
 40
3.0
  1
２４
 50
0.0
 41
0.6
 51
0.0
  7
KANJI6
  0
LINE
  8
0
  6
CONTINUOUS
 62
     2
 10
104.0
 20
175.425001907
 30
0.0
 11
106.414814566
 21
174.777954295
 31
0.0
  0
LINE
  8
0
  6
CONTINUOUS
 62
     2
 10
104.0
 20
175.425001907
 30
0.0
 11
106.414814566
 21
176.07204952
 31
0.0
  0
LINE
  8
0
  6
CONTINUOUS
 62
     2
 10
104.0
 20
175.425001907
 30
0.0
 11
154.15
 21
175.425001907
 31
0.0
  0
LINE
  8
0
  6
CONTINUOUS
 62
     2
 10
154.15
 20
175.425001907
 30
0.0
 11
151.735185434
 21
176.07204952
 31
0.0
  0
LINE
  8
0
  6
CONTINUOUS
 62
     2
 10
154.15
 20
175.425001907
 30
0.0
 11
151.735185434
 21
174.777954295
 31
0.0
  0
LINE
  8
0
  6
CONTINUOUS
 62
     2
 10
154.15
 20
136.9
 30
0.0
 11
154.15
 21
177.425001907
 31
0.0
  0
LINE
  8
0
  6
CONTINUOUS
 62
     2
 10
146.5
 20
154.600001907
 30
0.0
 11
146.5
 21
167.875001907
 31
0.0
  0
LINE
  8
0
  6
CONTINUOUS
 62
     2
 10
146.5
 20
165.875001907
 30
0.0
 11
148.914814566
 21
165.227954295
 31
0.0
  0
LINE
  8
0
  6
CONTINUOUS
 62
     2
 10
146.5
 20
165.875001907
 30
0.0
 11
148.914814566
 21
166.52204952
 31
0.0
  0
LINE
  8
0
  6
CONTINUOUS
 62
     2
 10
154.15
 20
166.150001907
 30
0.0
 11
154.15
 21
163.875001907
 31
0.0
  0
LINE
  8
0
  6
CONTINUOUS
 62
     2
 10
104.25
 20
155.75
 30
0.0
 11
104.25
 21
167.875001907
 31
0.0
  0
LINE
  8
0
  6
CONTINUOUS
 62
     2
 10
104.25
 20
165.875001907
 30
0.0
 11
106.664814566
 21
165.227954295
 31
0.0
  0
LINE
  8
0
  6
CONTINUOUS
 62
     2
 10
104.25
 20
165.875001907
 30
0.0
 11
106.664814566
 21
166.52204952
 31
0.0
  0
LINE
  8
0
  6
CONTINUOUS
 62
     2
 10
104.25
 20
165.875001907
 30
0.0
 11
111.75
 21
165.875001907
 31
0.0
  0
LINE
  8
0
  6
CONTINUOUS
 62
     2
 10
111.75
 20
165.875001907
 30
0.0
 11
109.335185434
 21
166.52204952
 31
0.0
  0
LINE
  8
0
  6
CONTINUOUS
 62
     2
 10
111.75
 20
165.875001907
 30
0.0
 11
109.335185434
 21
165.227954295
 31
0.0
  0
LINE
  8
0
  6
CONTINUOUS
 62
     2
 10
111.75
 20
154.25
 30
0.0
 11
111.75
 21
167.875001907
 31
0.0
  0
TEXT
  8
0
  6
CONTINUOUS
 62
     2
 10
106.05
 20
166.875001907
 30
0.3
 40
3.0
  1
１５
 50
0.0
 41
0.6
 51
0.0
  7
KANJI6
  0
LINE
  8
0
  6
CONTINUOUS
 62
     2
 10
104.0
 20
165.875001907
 30
0.0
 11
101.585185434
 21
166.52204952
 31
0.0
  0
LINE
  8
0
  6
CONTINUOUS
 62
     2
 10
104.0
 20
165.875001907
 30
0.0
 11
101.585185434
 21
165.227954295
 31
0.0
  0
LINE
  8
0
  6
CONTINUOUS
 62
     2
 10
93.0
 20
165.875001907
 30
0.0
 11
109.25
 21
165.875001907
 31
0.0
  0
LINE
  8
0
  6
CONTINUOUS
 62
     2
 10
104.25
 20
165.875001907
 30
0.0
 11
106.664814566
 21
165.227954295
 31
0.0
  0
LINE
  8
0
  6
CONTINUOUS
 62
     2
 10
104.25
 20
165.875001907
 30
0.0
 11
106.664814566
 21
166.52204952
 31
0.0
  0
TEXT
  8
0
  6
CONTINUOUS
 62
     2
 10
94.15
 20
166.875001907
 30
0.3
 40
3.0
  1
０．５
 50
0.0
 41
0.6
 51
0.0
  7
KANJI6
  0
POINT
  8
0
  6
LTYPE1
 62
     2
 10
187.8
 20
29.5
 30
0.0
  0
LINE
  8
0
  6
LTYPE1
 62
     2
 10
187.8
 20
29.5
 30
0.0
 11
187.8
 21
161.0
 31
0.0
  0
POINT
  8
0
  6
LTYPE1
 62
     2
 10
187.8
 20
161.0
 30
0.0
  0
LINE
  8
0
  6
LTYPE1
 62
     2
 10
187.8
 20
161.0
 30
0.0
 11
187.8
 21
29.5
 31
0.0
  0
ARC
  8
0
  6
CONTINUOUS
 62
     2
 10
163.05
 20
105.25
 30
0.0
 40
1.5
 50
180.0
 51
270.0
  0
LINE
  8
0
  6
CONTINUOUS
 62
     2
 10
161.55
 20
154.75
 30
0.0
 11
161.55
 21
105.25
 31
0.0
  0
ARC
  8
0
  6
CONTINUOUS
 62
     2
 10
163.05
 20
154.75
 30
0.0
 40
1.5
 50
90.0
 51
180.0
  0
LINE
  8
0
  6
CONTINUOUS
 62
     2
 10
212.55
 20
156.25
 30
0.0
 11
163.05
 21
156.25
 31
0.0
  0
ARC
  8
0
  6
CONTINUOUS
 62
     2
 10
212.55
 20
154.75
 30
0.0
 40
1.5
 50
0.0
 51
90.0
  0
LINE
  8
0
  6
CONTINUOUS
 62
     2
 10
163.05
 20
103.75
 30
0.0
 11
212.55
 21
103.75
 31
0.0
  0
LINE
  8
0
  6
CONTINUOUS
 62
     2
 10
214.05
 20
105.25
 30
0.0
 11
214.05
 21
154.75
 31
0.0
  0
ARC
  8
0
  6
CONTINUOUS
 62
     2
 10
212.55
 20
105.25
 30
0.0
 40
1.5
 50
270.0
 51
0.0
  0
LINE
  8
0
  6
CONTINUOUS
 62
     2
 10
212.724871131
 20
153.9
 30
0.0
 11
210.3
 21
155.3
 31
0.0
  0
LINE
  8
0
  6
CONTINUOUS
 62
     2
 10
210.3
 20
155.3
 30
0.0
 11
207.875128869
 21
153.9
 31
0.0
  0
LINE
  8
0
  6
CONTINUOUS
 62
     2
 10
207.875128869
 20
153.9
 30
0.0
 11
207.875128869
 21
151.1
 31
0.0
  0
LINE
  8
0
  6
CONTINUOUS
 62
     2
 10
207.875128869
 20
151.1
 30
0.0
 11
210.3
 21
149.7
 31
0.0
  0
LINE
  8
0
  6
CONTINUOUS
 62
     2
 10
210.3
 20
149.7
 30
0.0
 11
212.724871131
 21
151.1
 31
0.0
  0
LINE
  8
0
  6
CONTINUOUS
 62
     2
 10
212.724871131
 20
151.1
 30
0.0
 11
212.724871131
 21
153.9
 31
0.0
  0
CIRCLE
  8
0
  6
CONTINUOUS
 62
     2
 10
210.3
 20
152.5
 30
0.0
 40
1.5
  0
CIRCLE
  8
0
  6
CONTINUOUS
 62
     2
 10
210.3
 20
152.5
 30
0.0
 40
1.4
  0
CIRCLE
  8
0
  6
CONTINUOUS
 62
     2
 10
210.3
 20
152.5
 30
0.0
 40
3.0
  0
CIRCLE
  8
0
  6
CONTINUOUS
 62
     2
 10
210.3
 20
152.5
 30
0.0
 40
2.5
  0
LINE
  8
0
  6
LTYPE1
 62
     2
 10
206.425
 20
152.5
 30
0.0
 11
214.4
 21
152.5
 31
0.0
  0
LINE
  8
0
  6
LTYPE1
 62
     2
 10
210.3
 20
156.4
 30
0.0
 11
210.3
 21
148.675
 31
0.0
  0
LINE
  8
0
  6
CONTINUOUS
 62
     2
 10
167.724871131
 20
153.9
 30
0.0
 11
165.3
 21
155.3
 31
0.0
  0
LINE
  8
0
  6
CONTINUOUS
 62
     2
 10
165.3
 20
155.3
 30
0.0
 11
162.875128869
 21
153.9
 31
0.0
  0
LINE
  8
0
  6
CONTINUOUS
 62
     2
 10
162.875128869
 20
153.9
 30
0.0
 11
162.875128869
 21
151.1
 31
0.0
  0
LINE
  8
0
  6
CONTINUOUS
 62
     2
 10
162.875128869
 20
151.1
 30
0.0
 11
165.3
 21
149.7
 31
0.0
  0
LINE
  8
0
  6
CONTINUOUS
 62
     2
 10
165.3
 20
149.7
 30
0.0
 11
167.724871131
 21
151.1
 31
0.0
  0
LINE
  8
0
  6
CONTINUOUS
 62
     2
 10
167.724871131
 20
151.1
 30
0.0
 11
167.724871131
 21
153.9
 31
0.0
  0
CIRCLE
  8
0
  6
CONTINUOUS
 62
     2
 10
165.3
 20
152.5
 30
0.0
 40
1.5
  0
CIRCLE
  8
0
  6
CONTINUOUS
 62
     2
 10
165.3
 20
152.5
 30
0.0
 40
1.4
  0
CIRCLE
  8
0
  6
CONTINUOUS
 62
     2
 10
165.3
 20
152.5
 30
0.0
 40
3.0
  0
CIRCLE
  8
0
  6
CONTINUOUS
 62
     2
 10
165.3
 20
152.5
 30
0.0
 40
2.5
  0
LINE
  8
0
  6
LTYPE1
 62
     2
 10
161.425
 20
152.5
 30
0.0
 11
169.4
 21
152.5
 31
0.0
  0
LINE
  8
0
  6
LTYPE1
 62
     2
 10
165.3
 20
156.4
 30
0.0
 11
165.3
 21
148.675
 31
0.0
  0
LINE
  8
0
  6
CONTINUOUS
 62
     2
 10
167.724871131
 20
108.9
 30
0.0
 11
165.3
 21
110.3
 31
0.0
  0
LINE
  8
0
  6
CONTINUOUS
 62
     2
 10
165.3
 20
110.3
 30
0.0
 11
162.875128869
 21
108.9
 31
0.0
  0
LINE
  8
0
  6
CONTINUOUS
 62
     2
 10
162.875128869
 20
108.9
 30
0.0
 11
162.875128869
 21
106.1
 31
0.0
  0
LINE
  8
0
  6
CONTINUOUS
 62
     2
 10
162.875128869
 20
106.1
 30
0.0
 11
165.3
 21
104.7
 31
0.0
  0
LINE
  8
0
  6
CONTINUOUS
 62
     2
 10
165.3
 20
104.7
 30
0.0
 11
167.724871131
 21
106.1
 31
0.0
  0
LINE
  8
0
  6
CONTINUOUS
 62
     2
 10
167.724871131
 20
106.1
 30
0.0
 11
167.724871131
 21
108.9
 31
0.0
  0
CIRCLE
  8
0
  6
CONTINUOUS
 62
     2
 10
165.3
 20
107.5
 30
0.0
 40
1.5
  0
CIRCLE
  8
0
  6
CONTINUOUS
 62
     2
 10
165.3
 20
107.5
 30
0.0
 40
1.4
  0
CIRCLE
  8
0
  6
CONTINUOUS
 62
     2
 10
165.3
 20
107.5
 30
0.0
 40
3.0
  0
CIRCLE
  8
0
  6
CONTINUOUS
 62
     2
 10
165.3
 20
107.5
 30
0.0
 40
2.5
  0
LINE
  8
0
  6
LTYPE1
 62
     2
 10
161.425
 20
107.5
 30
0.0
 11
169.4
 21
107.5
 31
0.0
  0
LINE
  8
0
  6
LTYPE1
 62
     2
 10
165.3
 20
111.4
 30
0.0
 11
165.3
 21
103.675
 31
0.0
  0
LINE
  8
0
  6
CONTINUOUS
 62
     2
 10
212.724871131
 20
108.9
 30
0.0
 11
210.3
 21
110.3
 31
0.0
  0
LINE
  8
0
  6
CONTINUOUS
 62
     2
 10
210.3
 20
110.3
 30
0.0
 11
207.875128869
 21
108.9
 31
0.0
  0
LINE
  8
0
  6
CONTINUOUS
 62
     2
 10
207.875128869
 20
108.9
 30
0.0
 11
207.875128869
 21
106.1
 31
0.0
  0
LINE
  8
0
  6
CONTINUOUS
 62
     2
 10
207.875128869
 20
106.1
 30
0.0
 11
210.3
 21
104.7
 31
0.0
  0
LINE
  8
0
  6
CONTINUOUS
 62
     2
 10
210.3
 20
104.7
 30
0.0
 11
212.724871131
 21
106.1
 31
0.0
  0
LINE
  8
0
  6
CONTINUOUS
 62
     2
 10
212.724871131
 20
106.1
 30
0.0
 11
212.724871131
 21
108.9
 31
0.0
  0
CIRCLE
  8
0
  6
CONTINUOUS
 62
     2
 10
210.3
 20
107.5
 30
0.0
 40
1.5
  0
CIRCLE
  8
0
  6
CONTINUOUS
 62
     2
 10
210.3
 20
107.5
 30
0.0
 40
1.4
  0
CIRCLE
  8
0
  6
CONTINUOUS
 62
     2
 10
210.3
 20
107.5
 30
0.0
 40
3.0
  0
CIRCLE
  8
0
  6
CONTINUOUS
 62
     2
 10
210.3
 20
107.5
 30
0.0
 40
2.5
  0
LINE
  8
0
  6
LTYPE1
 62
     2
 10
206.425
 20
107.5
 30
0.0
 11
214.4
 21
107.5
 31
0.0
  0
LINE
  8
0
  6
LTYPE1
 62
     2
 10
210.3
 20
111.4
 30
0.0
 11
210.3
 21
103.675
 31
0.0
  0
CIRCLE
  8
0
  6
CONTINUOUS
 62
     2
 10
206.852558883
 20
119.0
 30
0.0
 40
1.75
  0
CIRCLE
  8
0
  6
CONTINUOUS
 62
     2
 10
187.8
 20
152.0
 30
0.0
 40
1.75
  0
CIRCLE
  8
0
  6
CONTINUOUS
 62
     2
 10
168.747441117
 20
119.0
 30
0.0
 40
1.75
  0
CIRCLE
  8
0
  6
CONTINUOUS
 62
     2
 10
168.747441117
 20
119.0
 30
0.0
 40
1.5
  0
LINE
  8
0
  6
CONTINUOUS
 62
     2
 10
167.872441117
 20
119.2
 30
0.0
 11
168.347441117
 21
119.2
 31
0.0
  0
ARC
  8
0
  6
CONTINUOUS
 62
     2
 10
168.347441117
 20
119.4
 30
0.0
 40
0.2
 50
270.0
 51
0.0
  0
LINE
  8
0
  6
CONTINUOUS
 62
     2
 10
168.547441117
 20
119.4
 30
0.0
 11
168.547441117
 21
119.875
 31
0.0
  0
LINE
  8
0
  6
CONTINUOUS
 62
     2
 10
168.547441117
 20
119.875
 30
0.0
 11
168.947441117
 21
119.875
 31
0.0
  0
LINE
  8
0
  6
CONTINUOUS
 62
     2
 10
168.947441117
 20
119.875
 30
0.0
 11
168.947441117
 21
119.4
 31
0.0
  0
ARC
  8
0
  6
CONTINUOUS
 62
     2
 10
169.147441117
 20
119.4
 30
0.0
 40
0.2
 50
180.0
 51
270.0
  0
LINE
  8
0
  6
CONTINUOUS
 62
     2
 10
169.147441117
 20
119.2
 30
0.0
 11
169.622441117
 21
119.2
 31
0.0
  0
LINE
  8
0
  6
CONTINUOUS
 62
     2
 10
169.622441117
 20
119.2
 30
0.0
 11
169.622441117
 21
118.8
 31
0.0
  0
LINE
  8
0
  6
CONTINUOUS
 62
     2
 10
169.622441117
 20
118.8
 30
0.0
 11
169.147441117
 21
118.8
 31
0.0
  0
ARC
  8
0
  6
CONTINUOUS
 62
     2
 10
169.147441117
 20
118.6
 30
0.0
 40
0.2
 50
90.0
 51
180.0
  0
LINE
  8
0
  6
CONTINUOUS
 62
     2
 10
168.947441117
 20
118.6
 30
0.0
 11
168.947441117
 21
118.125
 31
0.0
  0
LINE
  8
0
  6
CONTINUOUS
 62
     2
 10
168.947441117
 20
118.125
 30
0.0
 11
168.547441117
 21
118.125
 31
0.0
  0
LINE
  8
0
  6
CONTINUOUS
 62
     2
 10
168.547441117
 20
118.125
 30
0.0
 11
168.547441117
 21
118.6
 31
0.0
  0
ARC
  8
0
  6
CONTINUOUS
 62
     2
 10
168.347441117
 20
118.6
 30
0.0
 40
0.2
 50
0.0
 51
90.0
  0
LINE
  8
0
  6
CONTINUOUS
 62
     2
 10
168.347441117
 20
118.8
 30
0.0
 11
167.872441117
 21
118.8
 31
0.0
  0
LINE
  8
0
  6
CONTINUOUS
 62
     2
 10
167.872441117
 20
118.8
 30
0.0
 11
167.872441117
 21
119.2
 31
0.0
  0
LINE
  8
0
  6
LTYPE1
 62
     2
 10
166.747441117
 20
119.0
 30
0.0
 11
170.747441117
 21
119.0
 31
0.0
  0
LINE
  8
0
  6
LTYPE1
 62
     2
 10
168.747441117
 20
121.0
 30
0.0
 11
168.747441117
 21
117.0
 31
0.0
  0
CIRCLE
  8
0
  6
CONTINUOUS
 62
     2
 10
187.8
 20
152.0
 30
0.0
 40
1.5
  0
LINE
  8
0
  6
CONTINUOUS
 62
     2
 10
186.925
 20
152.2
 30
0.0
 11
187.4
 21
152.2
 31
0.0
  0
ARC
  8
0
  6
CONTINUOUS
 62
     2
 10
187.4
 20
152.4
 30
0.0
 40
0.2
 50
270.0
 51
0.0
  0
LINE
  8
0
  6
CONTINUOUS
 62
     2
 10
187.6
 20
152.4
 30
0.0
 11
187.6
 21
152.875
 31
0.0
  0
LINE
  8
0
  6
CONTINUOUS
 62
     2
 10
187.6
 20
152.875
 30
0.0
 11
188.0
 21
152.875
 31
0.0
  0
LINE
  8
0
  6
CONTINUOUS
 62
     2
 10
188.0
 20
152.875
 30
0.0
 11
188.0
 21
152.4
 31
0.0
  0
ARC
  8
0
  6
CONTINUOUS
 62
     2
 10
188.2
 20
152.4
 30
0.0
 40
0.2
 50
180.0
 51
270.0
  0
LINE
  8
0
  6
CONTINUOUS
 62
     2
 10
188.2
 20
152.2
 30
0.0
 11
188.675
 21
152.2
 31
0.0
  0
LINE
  8
0
  6
CONTINUOUS
 62
     2
 10
188.675
 20
152.2
 30
0.0
 11
188.675
 21
151.8
 31
0.0
  0
LINE
  8
0
  6
CONTINUOUS
 62
     2
 10
188.675
 20
151.8
 30
0.0
 11
188.2
 21
151.8
 31
0.0
  0
ARC
  8
0
  6
CONTINUOUS
 62
     2
 10
188.2
 20
151.6
 30
0.0
 40
0.2
 50
90.0
 51
180.0
  0
LINE
  8
0
  6
CONTINUOUS
 62
     2
 10
188.0
 20
151.6
 30
0.0
 11
188.0
 21
151.125
 31
0.0
  0
LINE
  8
0
  6
CONTINUOUS
 62
     2
 10
188.0
 20
151.125
 30
0.0
 11
187.6
 21
151.125
 31
0.0
  0
LINE
  8
0
  6
CONTINUOUS
 62
     2
 10
187.6
 20
151.125
 30
0.0
 11
187.6
 21
151.6
 31
0.0
  0
ARC
  8
0
  6
CONTINUOUS
 62
     2
 10
187.4
 20
151.6
 30
0.0
 40
0.2
 50
0.0
 51
90.0
  0
LINE
  8
0
  6
CONTINUOUS
 62
     2
 10
187.4
 20
151.8
 30
0.0
 11
186.925
 21
151.8
 31
0.0
  0
LINE
  8
0
  6
CONTINUOUS
 62
     2
 10
186.925
 20
151.8
 30
0.0
 11
186.925
 21
152.2
 31
0.0
  0
LINE
  8
0
  6
LTYPE1
 62
     2
 10
185.8
 20
152.0
 30
0.0
 11
189.8
 21
152.0
 31
0.0
  0
LINE
  8
0
  6
LTYPE1
 62
     2
 10
187.8
 20
154.0
 30
0.0
 11
187.8
 21
150.0
 31
0.0
  0
CIRCLE
  8
0
  6
CONTINUOUS
 62
     2
 10
206.852558883
 20
119.0
 30
0.0
 40
1.5
  0
LINE
  8
0
  6
CONTINUOUS
 62
     2
 10
205.977558883
 20
119.2
 30
0.0
 11
206.452558883
 21
119.2
 31
0.0
  0
ARC
  8
0
  6
CONTINUOUS
 62
     2
 10
206.452558883
 20
119.4
 30
0.0
 40
0.2
 50
270.0
 51
0.0
  0
LINE
  8
0
  6
CONTINUOUS
 62
     2
 10
206.652558883
 20
119.4
 30
0.0
 11
206.652558883
 21
119.875
 31
0.0
  0
LINE
  8
0
  6
CONTINUOUS
 62
     2
 10
206.652558883
 20
119.875
 30
0.0
 11
207.052558883
 21
119.875
 31
0.0
  0
LINE
  8
0
  6
CONTINUOUS
 62
     2
 10
207.052558883
 20
119.875
 30
0.0
 11
207.052558883
 21
119.4
 31
0.0
  0
ARC
  8
0
  6
CONTINUOUS
 62
     2
 10
207.252558883
 20
119.4
 30
0.0
 40
0.2
 50
180.0
 51
270.0
  0
LINE
  8
0
  6
CONTINUOUS
 62
     2
 10
207.252558883
 20
119.2
 30
0.0
 11
207.727558883
 21
119.2
 31
0.0
  0
LINE
  8
0
  6
CONTINUOUS
 62
     2
 10
207.727558883
 20
119.2
 30
0.0
 11
207.727558883
 21
118.8
 31
0.0
  0
LINE
  8
0
  6
CONTINUOUS
 62
     2
 10
207.727558883
 20
118.8
 30
0.0
 11
207.252558883
 21
118.8
 31
0.0
  0
ARC
  8
0
  6
CONTINUOUS
 62
     2
 10
207.252558883
 20
118.6
 30
0.0
 40
0.2
 50
90.0
 51
180.0
  0
LINE
  8
0
  6
CONTINUOUS
 62
     2
 10
207.052558883
 20
118.6
 30
0.0
 11
207.052558883
 21
118.125
 31
0.0
  0
LINE
  8
0
  6
CONTINUOUS
 62
     2
 10
207.052558883
 20
118.125
 30
0.0
 11
206.652558883
 21
118.125
 31
0.0
  0
LINE
  8
0
  6
CONTINUOUS
 62
     2
 10
206.652558883
 20
118.125
 30
0.0
 11
206.652558883
 21
118.6
 31
0.0
  0
ARC
  8
0
  6
CONTINUOUS
 62
     2
 10
206.452558883
 20
118.6
 30
0.0
 40
0.2
 50
0.0
 51
90.0
  0
LINE
  8
0
  6
CONTINUOUS
 62
     2
 10
206.452558883
 20
118.8
 30
0.0
 11
205.977558883
 21
118.8
 31
0.0
  0
LINE
  8
0
  6
CONTINUOUS
 62
     2
 10
205.977558883
 20
118.8
 30
0.0
 11
205.977558883
 21
119.2
 31
0.0
  0
LINE
  8
0
  6
LTYPE1
 62
     2
 10
204.852558883
 20
119.0
 30
0.0
 11
208.852558883
 21
119.0
 31
0.0
  0
LINE
  8
0
  6
LTYPE1
 62
     2
 10
206.852558883
 20
121.0
 30
0.0
 11
206.852558883
 21
117.0
 31
0.0
  0
CIRCLE
  8
0
  6
LTYPE2
 62
     2
 10
187.8
 20
145.0
 30
0.0
 40
1.75
  0
LINE
  8
0
  6
CONTINUOUS
 62
     2
 10
165.3
 20
156.6
 30
0.0
 11
165.3
 21
177.35
 31
0.0
  0
LINE
  8
0
  6
CONTINUOUS
 62
     2
 10
165.3
 20
175.35
 30
0.0
 11
167.714814566
 21
174.702952387
 31
0.0
  0
LINE
  8
0
  6
CONTINUOUS
 62
     2
 10
165.3
 20
175.35
 30
0.0
 11
167.714814566
 21
175.997047613
 31
0.0
  0
LINE
  8
0
  6
CONTINUOUS
 62
     2
 10
165.3
 20
175.35
 30
0.0
 11
187.8
 21
175.35
 31
0.0
  0
LINE
  8
0
  6
CONTINUOUS
 62
     2
 10
187.8
 20
175.35
 30
0.0
 11
185.385185434
 21
175.997047613
 31
0.0
  0
LINE
  8
0
  6
CONTINUOUS
 62
     2
 10
187.8
 20
175.35
 30
0.0
 11
185.385185434
 21
174.702952387
 31
0.0
  0
LINE
  8
0
  6
CONTINUOUS
 62
     2
 10
187.8
 20
161.2
 30
0.0
 11
187.8
 21
177.35
 31
0.0
  0
TEXT
  8
0
  6
CONTINUOUS
 62
     2
 10
176.07
 20
176.35
 30
0.18
 40
1.8
  1
±０．５
 50
0.0
 41
0.6
 51
0.0
  7
KANJI5
  0
LINE
  8
0
  6
CONTINUOUS
 62
     2
 10
187.8
 20
175.35
 30
0.0
 11
190.214814566
 21
174.702952387
 31
0.0
  0
LINE
  8
0
  6
CONTINUOUS
 62
     2
 10
187.8
 20
175.35
 30
0.0
 11
190.214814566
 21
175.997047613
 31
0.0
  0
LINE
  8
0
  6
CONTINUOUS
 62
     2
 10
187.8
 20
175.35
 30
0.0
 11
210.3
 21
175.35
 31
0.0
  0
LINE
  8
0
  6
CONTINUOUS
 62
     2
 10
210.3
 20
175.35
 30
0.0
 11
207.885185434
 21
175.997047613
 31
0.0
  0
LINE
  8
0
  6
CONTINUOUS
 62
     2
 10
210.3
 20
175.35
 30
0.0
 11
207.885185434
 21
174.702952387
 31
0.0
  0
LINE
  8
0
  6
CONTINUOUS
 62
     2
 10
210.3
 20
156.5
 30
0.0
 11
210.3
 21
177.35
 31
0.0
  0
TEXT
  8
0
  6
CONTINUOUS
 62
     2
 10
198.57
 20
176.35
 30
0.18
 40
1.8
  1
±０．５
 50
0.0
 41
0.6
 51
0.0
  7
KANJI5
  0
LINE
  8
0
  6
CONTINUOUS
 62
     2
 10
214.55
 20
107.5
 30
0.0
 11
224.4
 21
107.5
 31
0.0
  0
LINE
  8
0
  6
CONTINUOUS
 62
     2
 10
222.4
 20
107.5
 30
0.0
 11
223.047047613
 21
109.914814566
 31
0.0
  0
LINE
  8
0
  6
CONTINUOUS
 62
     2
 10
222.4
 20
107.5
 30
0.0
 11
221.752952387
 21
109.914814566
 31
0.0
  0
LINE
  8
0
  6
CONTINUOUS
 62
     2
 10
222.4
 20
107.5
 30
0.0
 11
222.4
 21
130.0
 31
0.0
  0
LINE
  8
0
  6
CONTINUOUS
 62
     2
 10
222.4
 20
130.0
 30
0.0
 11
221.752952387
 21
127.585185434
 31
0.0
  0
LINE
  8
0
  6
CONTINUOUS
 62
     2
 10
222.4
 20
130.0
 30
0.0
 11
223.047047613
 21
127.585185434
 31
0.0
  0
LINE
  8
0
  6
CONTINUOUS
 62
     2
 10
210.0
 20
130.0
 30
0.0
 11
224.4
 21
130.0
 31
0.0
  0
TEXT
  8
0
  6
CONTINUOUS
 62
     2
 10
221.4
 20
118.27
 30
0.18
 40
1.8
  1
±０．５
 50
90.0
 41
0.6
 51
0.0
  7
KANJI5
  0
LINE
  8
0
  6
CONTINUOUS
 62
     2
 10
222.4
 20
130.0
 30
0.0
 11
223.047047613
 21
132.414814566
 31
0.0
  0
LINE
  8
0
  6
CONTINUOUS
 62
     2
 10
222.4
 20
130.0
 30
0.0
 11
221.752952387
 21
132.414814566
 31
0.0
  0
LINE
  8
0
  6
CONTINUOUS
 62
     2
 10
222.4
 20
130.0
 30
0.0
 11
222.4
 21
152.5
 31
0.0
  0
LINE
  8
0
  6
CONTINUOUS
 62
     2
 10
222.4
 20
152.5
 30
0.0
 11
221.752952387
 21
150.085185434
 31
0.0
  0
LINE
  8
0
  6
CONTINUOUS
 62
     2
 10
222.4
 20
152.5
 30
0.0
 11
223.047047613
 21
150.085185434
 31
0.0
  0
LINE
  8
0
  6
CONTINUOUS
 62
     2
 10
214.5
 20
152.5
 30
0.0
 11
224.4
 21
152.5
 31
0.0
  0
TEXT
  8
0
  6
CONTINUOUS
 62
     2
 10
221.4
 20
140.77
 30
0.18
 40
1.8
  1
±０．５
 50
90.0
 41
0.6
 51
0.0
  7
KANJI5
  0
CIRCLE
  8
0
  6
CONTINUOUS
 62
     2
 10
180.3
 20
134.95
 30
0.0
 40
3.175
  0
CIRCLE
  8
0
  6
CONTINUOUS
 62
     2
 10
180.3
 20
134.95
 30
0.0
 40
2.5
  0
LINE
  8
0
  6
CONTINUOUS
 62
     2
 10
181.675
 20
134.6
 30
0.0
 11
181.675
 21
135.3
 31
0.0
  0
LINE
  8
0
  6
CONTINUOUS
 62
     2
 10
178.925
 20
135.3
 30
0.0
 11
178.925
 21
134.6
 31
0.0
  0
LINE
  8
0
  6
CONTINUOUS
 62
     2
 10
181.675
 20
135.3
 30
0.0
 11
181.4
 21
135.3
 31
0.0
  0
LINE
  8
0
  6
CONTINUOUS
 62
     2
 10
180.65
 20
136.05
 30
0.0
 11
180.65
 21
137.425378759
 31
0.0
  0
ARC
  8
0
  6
CONTINUOUS
 62
     2
 10
181.4
 20
136.05
 30
0.0
 40
0.75
 50
180.0
 51
270.0
  0
LINE
  8
0
  6
CONTINUOUS
 62
     2
 10
181.4
 20
134.6
 30
0.0
 11
181.675
 21
134.6
 31
0.0
  0
LINE
  8
0
  6
CONTINUOUS
 62
     2
 10
180.65
 20
132.5
 30
0.0
 11
180.65
 21
133.85
 31
0.0
  0
ARC
  8
0
  6
CONTINUOUS
 62
     2
 10
181.4
 20
133.85
 30
0.0
 40
0.75
 50
90.0
 51
180.0
  0
LINE
  8
0
  6
CONTINUOUS
 62
     2
 10
178.925
 20
134.6
 30
0.0
 11
179.2
 21
134.6
 31
0.0
  0
LINE
  8
0
  6
CONTINUOUS
 62
     2
 10
179.95
 20
133.85
 30
0.0
 11
179.95
 21
132.474621241
 31
0.0
  0
ARC
  8
0
  6
CONTINUOUS
 62
     2
 10
179.2
 20
133.85
 30
0.0
 40
0.75
 50
0.0
 51
90.0
  0
LINE
  8
0
  6
CONTINUOUS
 62
     2
 10
179.2
 20
135.3
 30
0.0
 11
178.925
 21
135.3
 31
0.0
  0
LINE
  8
0
  6
CONTINUOUS
 62
     2
 10
179.95
 20
137.425378759
 30
0.0
 11
179.95
 21
136.05
 31
0.0
  0
ARC
  8
0
  6
CONTINUOUS
 62
     2
 10
179.2
 20
136.05
 30
0.0
 40
0.75
 50
270.0
 51
0.0
  0
CIRCLE
  8
0
  6
CONTINUOUS
 62
     2
 10
195.3
 20
134.95
 30
0.0
 40
3.175
  0
CIRCLE
  8
0
  6
CONTINUOUS
 62
     2
 10
195.3
 20
134.95
 30
0.0
 40
2.5
  0
LINE
  8
0
  6
CONTINUOUS
 62
     2
 10
196.675
 20
134.6
 30
0.0
 11
196.675
 21
135.3
 31
0.0
  0
LINE
  8
0
  6
CONTINUOUS
 62
     2
 10
193.925
 20
135.3
 30
0.0
 11
193.925
 21
134.6
 31
0.0
  0
LINE
  8
0
  6
CONTINUOUS
 62
     2
 10
196.675
 20
135.3
 30
0.0
 11
196.4
 21
135.3
 31
0.0
  0
LINE
  8
0
  6
CONTINUOUS
 62
     2
 10
195.65
 20
136.05
 30
0.0
 11
195.65
 21
137.425378759
 31
0.0
  0
ARC
  8
0
  6
CONTINUOUS
 62
     2
 10
196.4
 20
136.05
 30
0.0
 40
0.75
 50
180.0
 51
270.0
  0
LINE
  8
0
  6
CONTINUOUS
 62
     2
 10
196.4
 20
134.6
 30
0.0
 11
196.675
 21
134.6
 31
0.0
  0
LINE
  8
0
  6
CONTINUOUS
 62
     2
 10
195.65
 20
132.5
 30
0.0
 11
195.65
 21
133.85
 31
0.0
  0
ARC
  8
0
  6
CONTINUOUS
 62
     2
 10
196.4
 20
133.85
 30
0.0
 40
0.75
 50
90.0
 51
180.0
  0
LINE
  8
0
  6
CONTINUOUS
 62
     2
 10
193.925
 20
134.6
 30
0.0
 11
194.2
 21
134.6
 31
0.0
  0
LINE
  8
0
  6
CONTINUOUS
 62
     2
 10
194.95
 20
133.85
 30
0.0
 11
194.95
 21
132.474621241
 31
0.0
  0
ARC
  8
0
  6
CONTINUOUS
 62
     2
 10
194.2
 20
133.85
 30
0.0
 40
0.75
 50
0.0
 51
90.0
  0
LINE
  8
0
  6
CONTINUOUS
 62
     2
 10
194.2
 20
135.3
 30
0.0
 11
193.925
 21
135.3
 31
0.0
  0
LINE
  8
0
  6
CONTINUOUS
 62
     2
 10
194.95
 20
137.425378759
 30
0.0
 11
194.95
 21
136.05
 31
0.0
  0
ARC
  8
0
  6
CONTINUOUS
 62
     2
 10
194.2
 20
136.05
 30
0.0
 40
0.75
 50
270.0
 51
0.0
  0
LINE
  8
0
  6
CONTINUOUS
 62
     2
 10
110.15
 20
106.15
 30
0.0
 11
110.796786092
 21
103.735115375
 31
0.0
  0
LINE
  8
0
  6
CONTINUOUS
 62
     2
 10
110.15
 20
106.15
 30
0.0
 11
111.917575499
 21
104.382041614
 31
0.0
  0
LINE
  8
0
  6
CONTINUOUS
 62
     2
 10
110.15
 20
106.15
 30
0.0
 11
118.0
 21
92.55
 31
0.0
  0
LINE
  8
0
  6
CONTINUOUS
 62
     2
 10
118.0
 20
92.55
 30
0.0
 11
138.2
 21
92.55
 31
0.0
  0
TEXT
  8
0
  6
CONTINUOUS
 62
     2
 10
118.0
 20
93.55
 30
0.5
 40
3.0
  1
４－Ｍ６取付ボルト
 50
0.0
 41
0.6
 51
0.0
  7
KANJI7
  0
LINE
  8
0
  6
LTYPE1
 62
     2
 10
158.5
 20
59.15
 30
0.0
 11
217.2
 21
59.15
 31
0.0
  0
LINE
  8
0
  6
LTYPE1
 62
     2
 10
161.2
 20
36.65
 30
0.0
 11
168.35
 21
36.65
 31
0.0
  0
LINE
  8
0
  6
LTYPE1
 62
     2
 10
205.9
 20
36.65
 30
0.0
 11
215.2
 21
36.65
 31
0.0
  0
LINE
  8
0
  6
LTYPE1
 62
     2
 10
210.3
 20
32.3
 30
0.0
 11
210.3
 21
41.65
 31
0.0
  0
LINE
  8
0
  6
LTYPE1
 62
     2
 10
210.3
 20
76.25
 30
0.0
 11
210.3
 21
88.0
 31
0.0
  0
LINE
  8
0
  6
LTYPE1
 62
     2
 10
165.3
 20
88.0
 30
0.0
 11
165.3
 21
77.25
 31
0.0
  0
LINE
  8
0
  6
LTYPE1
 62
     2
 10
165.3
 20
41.85
 30
0.0
 11
165.3
 21
31.55
 31
0.0
  0
LINE
  8
0
  6
LTYPE1
 62
     2
 10
161.25
 20
81.65
 30
0.0
 11
171.9
 21
81.65
 31
0.0
  0
LINE
  8
0
  6
LTYPE1
 62
     2
 10
204.5
 20
81.65
 30
0.0
 11
217.55
 21
81.65
 31
0.0
  0
LINE
  8
0
  6
CONTINUOUS
 62
     2
 10
215.35
 20
36.65
 30
0.0
 11
223.8
 21
36.65
 31
0.0
  0
LINE
  8
0
  6
CONTINUOUS
 62
     2
 10
221.8
 20
36.65
 30
0.0
 11
222.447047613
 21
39.064814566
 31
0.0
  0
LINE
  8
0
  6
CONTINUOUS
 62
     2
 10
221.8
 20
36.65
 30
0.0
 11
221.152952387
 21
39.064814566
 31
0.0
  0
LINE
  8
0
  6
CONTINUOUS
 62
     2
 10
221.8
 20
59.15
 30
0.0
 11
221.152952387
 21
56.735185434
 31
0.0
  0
LINE
  8
0
  6
CONTINUOUS
 62
     2
 10
221.8
 20
59.15
 30
0.0
 11
222.447047613
 21
56.735185434
 31
0.0
  0
LINE
  8
0
  6
CONTINUOUS
 62
     2
 10
217.2
 20
59.15
 30
0.0
 11
223.8
 21
59.15
 31
0.0
  0
LINE
  8
0
  6
CONTINUOUS
 62
     2
 10
221.8
 20
59.15
 30
0.0
 11
222.447047613
 21
61.564814566
 31
0.0
  0
LINE
  8
0
  6
CONTINUOUS
 62
     2
 10
221.8
 20
59.15
 30
0.0
 11
221.152952387
 21
61.564814566
 31
0.0
  0
LINE
  8
0
  6
CONTINUOUS
 62
     2
 10
221.8
 20
59.15
 30
0.0
 11
221.8
 21
81.65
 31
0.0
  0
LINE
  8
0
  6
CONTINUOUS
 62
     2
 10
221.8
 20
81.65
 30
0.0
 11
221.152952387
 21
79.235185434
 31
0.0
  0
LINE
  8
0
  6
CONTINUOUS
 62
     2
 10
221.8
 20
81.65
 30
0.0
 11
222.447047613
 21
79.235185434
 31
0.0
  0
LINE
  8
0
  6
CONTINUOUS
 62
     2
 10
217.55
 20
81.65
 30
0.0
 11
223.8
 21
81.65
 31
0.0
  0
TEXT
  8
0
  6
CONTINUOUS
 62
     2
 10
220.8
 20
69.92
 30
0.18
 40
1.8
  1
±０．５
 50
90.0
 41
0.6
 51
0.0
  7
KANJI5
  0
LINE
  8
0
  6
CONTINUOUS
 62
     2
 10
221.8
 20
36.65
 30
0.0
 11
221.8
 21
59.15
 31
0.0
  0
TEXT
  8
0
  6
CONTINUOUS
 62
     2
 10
220.8
 20
47.42
 30
0.18
 40
1.8
  1
±０．５
 50
90.0
 41
0.6
 51
0.0
  7
KANJI5
  0
LINE
  8
0
  6
CONTINUOUS
 62
     2
 10
173.969080919
 20
96.9
 30
0.0
 11
149.169080919
 21
96.9
 31
0.0
  0
LINE
  8
0
  6
CONTINUOUS
 62
     2
 10
149.192057942
 20
97.15
 30
0.0
 11
149.169080919
 21
96.9
 31
0.0
  0
LINE
  8
0
  6
CONTINUOUS
 62
     2
 10
165.3
 20
88.0
 30
0.0
 11
165.3
 21
90.65
 31
0.0
  0
LINE
  8
0
  6
CONTINUOUS
 62
     2
 10
165.3
 20
88.65
 30
0.0
 11
167.714814566
 21
88.002952387
 31
0.0
  0
LINE
  8
0
  6
CONTINUOUS
 62
     2
 10
165.3
 20
88.65
 30
0.0
 11
167.714814566
 21
89.297047613
 31
0.0
  0
LINE
  8
0
  6
CONTINUOUS
 62
     2
 10
165.3
 20
88.65
 30
0.0
 11
187.8
 21
88.65
 31
0.0
  0
LINE
  8
0
  6
CONTINUOUS
 62
     2
 10
187.8
 20
88.65
 30
0.0
 11
185.385185434
 21
89.297047613
 31
0.0
  0
LINE
  8
0
  6
CONTINUOUS
 62
     2
 10
187.8
 20
88.65
 30
0.0
 11
185.385185434
 21
88.002952387
 31
0.0
  0
LINE
  8
0
  6
CONTINUOUS
 62
     2
 10
187.8
 20
88.0
 30
0.0
 11
187.8
 21
90.65
 31
0.0
  0
TEXT
  8
0
  6
CONTINUOUS
 62
     2
 10
176.07
 20
89.65
 30
0.18
 40
1.8
  1
±０．５
 50
0.0
 41
0.6
 51
0.0
  7
KANJI5
  0
LINE
  8
0
  6
CONTINUOUS
 62
     2
 10
187.8
 20
88.65
 30
0.0
 11
190.214814566
 21
88.002952387
 31
0.0
  0
LINE
  8
0
  6
CONTINUOUS
 62
     2
 10
187.8
 20
88.65
 30
0.0
 11
190.214814566
 21
89.297047613
 31
0.0
  0
LINE
  8
0
  6
CONTINUOUS
 62
     2
 10
187.8
 20
88.65
 30
0.0
 11
210.3
 21
88.65
 31
0.0
  0
LINE
  8
0
  6
CONTINUOUS
 62
     2
 10
210.3
 20
88.65
 30
0.0
 11
207.885185434
 21
89.297047613
 31
0.0
  0
LINE
  8
0
  6
CONTINUOUS
 62
     2
 10
210.3
 20
88.65
 30
0.0
 11
207.885185434
 21
88.002952387
 31
0.0
  0
TEXT
  8
0
  6
CONTINUOUS
 62
     2
 10
198.57
 20
89.65
 30
0.18
 40
1.8
  1
±０．５
 50
0.0
 41
0.6
 51
0.0
  7
KANJI5
  0
LINE
  8
0
  6
CONTINUOUS
 62
     2
 10
170.197520726
 20
40.699993946
 30
0.0
 11
172.332609185
 21
42.000531246
 31
0.0
  0
LINE
  8
0
  6
CONTINUOUS
 62
     2
 10
170.197520726
 20
40.699993946
 30
0.0
 11
171.396292921
 21
42.893836516
 31
0.0
  0
LINE
  8
0
  6
CONTINUOUS
 62
     2
 10
170.197520726
 20
40.699993946
 30
0.0
 11
205.402479274
 21
77.600006054
 31
0.0
  0
LINE
  8
0
  6
CONTINUOUS
 62
     2
 10
205.402479274
 20
77.600006054
 30
0.0
 11
203.267390815
 21
76.299468754
 31
0.0
  0
LINE
  8
0
  6
CONTINUOUS
 62
     2
 10
205.402479274
 20
77.600006054
 30
0.0
 11
204.203707079
 21
75.406163484
 31
0.0
  0
LINE
  8
0
  6
CONTINUOUS
 62
     2
 10
164.4
 20
35.1
 30
0.0
 11
162.952635312
 21
33.061585062
 31
0.0
  0
LINE
  8
0
  6
CONTINUOUS
 62
     2
 10
164.4
 20
35.1
 30
0.0
 11
164.165752881
 21
32.610998536
 31
0.0
  0
LINE
  8
0
  6
CONTINUOUS
 62
     2
 10
164.4
 20
35.1
 30
0.0
 11
161.15
 21
26.35
 31
0.0
  0
LINE
  8
0
  6
CONTINUOUS
 62
     2
 10
161.15
 20
26.35
 30
0.0
 11
152.45
 21
26.35
 31
0.0
  0
TEXT
  8
0
  6
CONTINUOUS
 62
     2
 10
152.45
 20
27.35
 30
0.5
 40
3.0
  1
４－φ７
 50
0.0
 41
0.6
 51
0.0
  7
KANJI7
  0
ARC
  8
0
  6
LTYPE2
 62
     2
 10
130.0
 20
109.85
 30
0.0
 40
1.0
 50
0.0
 51
180.0
  0
ARC
  8
0
  6
LTYPE2
 62
     2
 10
133.5
 20
109.85
 30
0.0
 40
1.0
 50
0.0
 51
180.0
  0
ARC
  8
0
  6
LTYPE2
 62
     2
 10
137.0
 20
109.85
 30
0.0
 40
1.0
 50
0.0
 51
180.0
  0
ARC
  8
0
  6
LTYPE2
 62
     2
 10
140.5
 20
109.85
 30
0.0
 40
1.0
 50
0.0
 51
180.0
  0
ARC
  8
0
  6
LTYPE2
 62
     2
 10
140.5
 20
107.25
 30
0.0
 40
1.0
 50
180.0
 51
0.0
  0
ARC
  8
0
  6
LTYPE2
 62
     2
 10
137.0
 20
107.25
 30
0.0
 40
1.0
 50
180.0
 51
0.0
  0
ARC
  8
0
  6
LTYPE2
 62
     2
 10
133.5
 20
107.25
 30
0.0
 40
1.0
 50
180.0
 51
0.0
  0
ARC
  8
0
  6
LTYPE2
 62
     2
 10
130.0
 20
107.25
 30
0.0
 40
1.0
 50
180.0
 51
0.0
  0
ARC
  8
0
  6
LTYPE2
 62
     2
 10
130.0
 20
152.75
 30
0.0
 40
1.0
 50
0.0
 51
180.0
  0
ARC
  8
0
  6
LTYPE2
 62
     2
 10
133.5
 20
152.75
 30
0.0
 40
1.0
 50
0.0
 51
180.0
  0
ARC
  8
0
  6
LTYPE2
 62
     2
 10
137.0
 20
152.75
 30
0.0
 40
1.0
 50
0.0
 51
180.0
  0
ARC
  8
0
  6
LTYPE2
 62
     2
 10
140.5
 20
152.75
 30
0.0
 40
1.0
 50
0.0
 51
180.0
  0
ARC
  8
0
  6
LTYPE2
 62
     2
 10
140.5
 20
150.25
 30
0.0
 40
1.0
 50
180.0
 51
0.0
  0
ARC
  8
0
  6
LTYPE2
 62
     2
 10
137.0
 20
150.25
 30
0.0
 40
1.0
 50
180.0
 51
0.0
  0
ARC
  8
0
  6
LTYPE2
 62
     2
 10
133.5
 20
150.25
 30
0.0
 40
1.0
 50
180.0
 51
0.0
  0
ARC
  8
0
  6
LTYPE2
 62
     2
 10
130.0
 20
150.25
 30
0.0
 40
1.0
 50
180.0
 51
0.0
  0
LINE
  8
0
  6
LTYPE2
 62
     2
 10
129.0
 20
152.75
 30
0.0
 11
129.0
 21
150.25
 31
0.0
  0
LINE
  8
0
  6
LTYPE2
 62
     2
 10
131.0
 20
150.25
 30
0.0
 11
131.0
 21
152.75
 31
0.0
  0
LINE
  8
0
  6
LTYPE2
 62
     2
 10
132.5
 20
152.75
 30
0.0
 11
132.5
 21
150.25
 31
0.0
  0
POINT
  8
0
  6
LTYPE2
 62
     2
 10
134.5
 20
150.25
 30
0.0
  0
POINT
  8
0
  6
LTYPE2
 62
     2
 10
134.5
 20
150.25
 30
0.0
  0
POINT
  8
0
  6
LTYPE2
 62
     2
 10
134.5
 20
150.25
 30
0.0
  0
POINT
  8
0
  6
LTYPE2
 62
     2
 10
134.5
 20
150.25
 30
0.0
  0
POINT
  8
0
  6
LTYPE2
 62
     2
 10
134.5
 20
150.25
 30
0.0
  0
LINE
  8
0
  6
LTYPE2
 62
     2
 10
134.5
 20
150.25
 30
0.0
 11
134.5
 21
152.75
 31
0.0
  0
LINE
  8
0
  6
LTYPE2
 62
     2
 10
136.0
 20
152.75
 30
0.0
 11
136.0
 21
150.25
 31
0.0
  0
LINE
  8
0
  6
LTYPE2
 62
     2
 10
138.0
 20
150.25
 30
0.0
 11
138.0
 21
152.75
 31
0.0
  0
LINE
  8
0
  6
LTYPE2
 62
     2
 10
139.5
 20
152.75
 30
0.0
 11
139.5
 21
150.25
 31
0.0
  0
LINE
  8
0
  6
LTYPE2
 62
     2
 10
141.5
 20
150.25
 30
0.0
 11
141.5
 21
152.75
 31
0.0
  0
LINE
  8
0
  6
LTYPE2
 62
     2
 10
141.5
 20
107.25
 30
0.0
 11
141.5
 21
109.85
 31
0.0
  0
LINE
  8
0
  6
LTYPE2
 62
     2
 10
139.5
 20
109.85
 30
0.0
 11
139.5
 21
107.25
 31
0.0
  0
POINT
  8
0
  6
LTYPE2
 62
     2
 10
138.0
 20
107.25
 30
0.0
  0
POINT
  8
0
  6
LTYPE2
 62
     2
 10
138.0
 20
107.25
 30
0.0
  0
POINT
  8
0
  6
LTYPE2
 62
     2
 10
138.0
 20
107.25
 30
0.0
  0
POINT
  8
0
  6
LTYPE2
 62
     2
 10
138.0
 20
107.25
 30
0.0
  0
POINT
  8
0
  6
LTYPE2
 62
     2
 10
138.0
 20
107.25
 30
0.0
  0
LINE
  8
0
  6
LTYPE2
 62
     2
 10
138.0
 20
107.25
 30
0.0
 11
138.0
 21
109.85
 31
0.0
  0
LINE
  8
0
  6
LTYPE2
 62
     2
 10
136.0
 20
109.85
 30
0.0
 11
136.0
 21
107.25
 31
0.0
  0
POINT
  8
0
  6
LTYPE2
 62
     2
 10
134.5
 20
107.25
 30
0.0
  0
POINT
  8
0
  6
LTYPE2
 62
     2
 10
134.5
 20
107.25
 30
0.0
  0
LINE
  8
0
  6
LTYPE2
 62
     2
 10
134.5
 20
107.25
 30
0.0
 11
134.5
 21
109.85
 31
0.0
  0
LINE
  8
0
  6
LTYPE2
 62
     2
 10
132.5
 20
109.85
 30
0.0
 11
132.5
 21
107.25
 31
0.0
  0
LINE
  8
0
  6
LTYPE2
 62
     2
 10
131.0
 20
107.25
 30
0.0
 11
131.0
 21
109.85
 31
0.0
  0
LINE
  8
0
  6
LTYPE2
 62
     2
 10
129.0
 20
109.85
 30
0.0
 11
129.0
 21
107.25
 31
0.0
  0
LINE
  8
0
  6
CONTINUOUS
 62
     2
 10
140.6
 20
153.75
 30
0.0
 11
140.986107626
 21
156.220004231
 31
0.0
  0
LINE
  8
0
  6
CONTINUOUS
 62
     2
 10
140.6
 20
153.75
 30
0.0
 11
139.699376897
 21
156.082140224
 31
0.0
  0
LINE
  8
0
  6
CONTINUOUS
 62
     2
 10
140.6
 20
153.75
 30
0.0
 11
139.7
 21
162.15
 31
0.0
  0
LINE
  8
0
  6
CONTINUOUS
 62
     2
 10
139.7
 20
162.15
 30
0.0
 11
112.7
 21
162.15
 31
0.0
  0
LINE
  8
0
  6
CONTINUOUS
 62
     2
 10
40.4
 20
121.6
 30
0.0
 11
39.36730914
 21
119.323258999
 31
0.0
  0
LINE
  8
0
  6
CONTINUOUS
 62
     2
 10
40.4
 20
121.6
 30
0.0
 11
40.644033981
 21
119.111939025
 31
0.0
  0
LINE
  8
0
  6
CONTINUOUS
 62
     2
 10
40.4
 20
121.6
 30
0.0
 11
35.6
 21
92.6
 31
0.0
  0
LINE
  8
0
  6
CONTINUOUS
 62
     2
 10
56.0
 20
127.6
 30
0.0
 11
56.045041865
 21
125.100405787
 31
0.0
  0
LINE
  8
0
  6
CONTINUOUS
 62
     2
 10
56.0
 20
127.6
 30
0.0
 11
57.288804506
 21
125.457808845
 31
0.0
  0
LINE
  8
0
  6
CONTINUOUS
 62
     2
 10
56.0
 20
127.6
 30
0.0
 11
66.0
 21
92.8
 31
0.0
  0
LINE
  8
0
  6
LTYPE1
 62
     2
 10
185.414213562
 20
144.985786438
 30
0.0
 11
190.064213562
 21
144.985786438
 31
0.0
  0
TEXT
  8
0
  6
CONTINUOUS
 62
     2
 10
172.17
 20
89.65
 30
0.3
 40
3.0
  1
Ｅ
 50
0.0
 41
0.6
 51
0.0
  7
KANJI6
  0
TEXT
  8
0
  6
CONTINUOUS
 62
     2
 10
194.67
 20
89.65
 30
0.3
 40
3.0
  1
Ｅ
 50
0.0
 41
0.6
 51
0.0
  7
KANJI6
  0
TEXT
  8
0
  6
CONTINUOUS
 62
     2
 10
220.8
 20
66.02
 30
0.3
 40
3.0
  1
Ｅ
 50
90.0
 41
0.6
 51
0.0
  7
KANJI6
  0
TEXT
  8
0
  6
CONTINUOUS
 62
     2
 10
220.8
 20
43.52
 30
0.3
 40
3.0
  1
Ｅ
 50
90.0
 41
0.6
 51
0.0
  7
KANJI6
  0
LINE
  8
0
  6
LTYPE1
 62
     2
 10
175.8
 20
135.0
 30
0.0
 11
184.8
 21
135.0
 31
0.0
  0
LINE
  8
0
  6
LTYPE1
 62
     2
 10
190.8
 20
135.0
 30
0.0
 11
200.5
 21
135.0
 31
0.0
  0
LINE
  8
0
  6
LTYPE1
 62
     2
 10
195.3
 20
139.95
 30
0.0
 11
195.3
 21
130.95
 31
0.0
  0
CIRCLE
  8
0
  6
CONTINUOUS
 62
     2
 10
172.8
 20
124.95
 30
0.0
 40
3.175
  0
CIRCLE
  8
0
  6
CONTINUOUS
 62
     2
 10
172.8
 20
124.95
 30
0.0
 40
2.5
  0
LINE
  8
0
  6
CONTINUOUS
 62
     2
 10
174.175
 20
124.6
 30
0.0
 11
174.175
 21
125.3
 31
0.0
  0
LINE
  8
0
  6
CONTINUOUS
 62
     2
 10
171.425
 20
125.3
 30
0.0
 11
171.425
 21
124.6
 31
0.0
  0
LINE
  8
0
  6
CONTINUOUS
 62
     2
 10
174.175
 20
125.3
 30
0.0
 11
173.9
 21
125.3
 31
0.0
  0
LINE
  8
0
  6
CONTINUOUS
 62
     2
 10
173.15
 20
126.05
 30
0.0
 11
173.15
 21
127.425378759
 31
0.0
  0
ARC
  8
0
  6
CONTINUOUS
 62
     2
 10
173.9
 20
126.05
 30
0.0
 40
0.75
 50
180.0
 51
270.0
  0
LINE
  8
0
  6
CONTINUOUS
 62
     2
 10
173.9
 20
124.6
 30
0.0
 11
174.175
 21
124.6
 31
0.0
  0
LINE
  8
0
  6
CONTINUOUS
 62
     2
 10
173.15
 20
122.5
 30
0.0
 11
173.15
 21
123.85
 31
0.0
  0
ARC
  8
0
  6
CONTINUOUS
 62
     2
 10
173.9
 20
123.85
 30
0.0
 40
0.75
 50
90.0
 51
180.0
  0
LINE
  8
0
  6
CONTINUOUS
 62
     2
 10
171.425
 20
124.6
 30
0.0
 11
171.7
 21
124.6
 31
0.0
  0
LINE
  8
0
  6
CONTINUOUS
 62
     2
 10
172.45
 20
123.85
 30
0.0
 11
172.45
 21
122.474621241
 31
0.0
  0
ARC
  8
0
  6
CONTINUOUS
 62
     2
 10
171.7
 20
123.85
 30
0.0
 40
0.75
 50
0.0
 51
90.0
  0
LINE
  8
0
  6
CONTINUOUS
 62
     2
 10
171.7
 20
125.3
 30
0.0
 11
171.425
 21
125.3
 31
0.0
  0
LINE
  8
0
  6
CONTINUOUS
 62
     2
 10
172.45
 20
127.425378759
 30
0.0
 11
172.45
 21
126.05
 31
0.0
  0
ARC
  8
0
  6
CONTINUOUS
 62
     2
 10
171.7
 20
126.05
 30
0.0
 40
0.75
 50
270.0
 51
0.0
  0
LINE
  8
0
  6
LTYPE1
 62
     2
 10
168.3
 20
125.0
 30
0.0
 11
177.3
 21
125.0
 31
0.0
  0
LINE
  8
0
  6
LTYPE1
 62
     2
 10
172.8
 20
129.95
 30
0.0
 11
172.8
 21
120.95
 31
0.0
  0
CIRCLE
  8
0
  6
CONTINUOUS
 62
     2
 10
202.8
 20
124.95
 30
0.0
 40
3.175
  0
CIRCLE
  8
0
  6
CONTINUOUS
 62
     2
 10
202.8
 20
124.95
 30
0.0
 40
2.5
  0
LINE
  8
0
  6
CONTINUOUS
 62
     2
 10
204.175
 20
124.6
 30
0.0
 11
204.175
 21
125.3
 31
0.0
  0
LINE
  8
0
  6
CONTINUOUS
 62
     2
 10
201.425
 20
125.3
 30
0.0
 11
201.425
 21
124.6
 31
0.0
  0
LINE
  8
0
  6
CONTINUOUS
 62
     2
 10
204.175
 20
125.3
 30
0.0
 11
203.9
 21
125.3
 31
0.0
  0
LINE
  8
0
  6
CONTINUOUS
 62
     2
 10
203.15
 20
126.05
 30
0.0
 11
203.15
 21
127.425378759
 31
0.0
  0
ARC
  8
0
  6
CONTINUOUS
 62
     2
 10
203.9
 20
126.05
 30
0.0
 40
0.75
 50
180.0
 51
270.0
  0
LINE
  8
0
  6
CONTINUOUS
 62
     2
 10
203.9
 20
124.6
 30
0.0
 11
204.175
 21
124.6
 31
0.0
  0
LINE
  8
0
  6
CONTINUOUS
 62
     2
 10
203.15
 20
122.5
 30
0.0
 11
203.15
 21
123.85
 31
0.0
  0
ARC
  8
0
  6
CONTINUOUS
 62
     2
 10
203.9
 20
123.85
 30
0.0
 40
0.75
 50
90.0
 51
180.0
  0
LINE
  8
0
  6
CONTINUOUS
 62
     2
 10
201.425
 20
124.6
 30
0.0
 11
201.7
 21
124.6
 31
0.0
  0
LINE
  8
0
  6
CONTINUOUS
 62
     2
 10
202.45
 20
123.85
 30
0.0
 11
202.45
 21
122.474621241
 31
0.0
  0
ARC
  8
0
  6
CONTINUOUS
 62
     2
 10
201.7
 20
123.85
 30
0.0
 40
0.75
 50
0.0
 51
90.0
  0
LINE
  8
0
  6
CONTINUOUS
 62
     2
 10
201.7
 20
125.3
 30
0.0
 11
201.425
 21
125.3
 31
0.0
  0
LINE
  8
0
  6
CONTINUOUS
 62
     2
 10
202.45
 20
127.425378759
 30
0.0
 11
202.45
 21
126.05
 31
0.0
  0
ARC
  8
0
  6
CONTINUOUS
 62
     2
 10
201.7
 20
126.05
 30
0.0
 40
0.75
 50
270.0
 51
0.0
  0
LINE
  8
0
  6
LTYPE1
 62
     2
 10
198.3
 20
125.0
 30
0.0
 11
208.0
 21
125.0
 31
0.0
  0
LINE
  8
0
  6
LTYPE1
 62
     2
 10
202.8
 20
129.95
 30
0.0
 11
202.8
 21
120.95
 31
0.0
  0
TEXT
  8
0
  6
CONTINUOUS
 62
     2
 10
172.17
 20
176.35
 30
0.3
 40
3.0
  1
Ｂ
 50
0.0
 41
0.6
 51
0.0
  7
KANJI6
  0
TEXT
  8
0
  6
CONTINUOUS
 62
     2
 10
194.67
 20
176.35
 30
0.3
 40
3.0
  1
Ｂ
 50
0.0
 41
0.6
 51
0.0
  7
KANJI6
  0
TEXT
  8
0
  6
CONTINUOUS
 62
     2
 10
221.4
 20
136.87
 30
0.3
 40
3.0
  1
Ｂ
 50
90.0
 41
0.6
 51
0.0
  7
KANJI6
  0
TEXT
  8
0
  6
CONTINUOUS
 62
     2
 10
221.4
 20
114.37
 30
0.3
 40
3.0
  1
Ｂ
 50
90.0
 41
0.6
 51
0.0
  7
KANJI6
  0
LINE
  8
0
  6
CONTINUOUS
 62
     2
 10
119.5
 20
154.7
 30
0.0
 11
118.852952387
 21
152.285185434
 31
0.0
  0
LINE
  8
0
  6
CONTINUOUS
 62
     2
 10
119.5
 20
154.7
 30
0.0
 11
120.147047613
 21
152.285185434
 31
0.0
  0
LINE
  8
0
  6
CONTINUOUS
 62
     2
 10
119.5
 20
154.7
 30
0.0
 11
119.5
 21
105.3
 31
0.0
  0
LINE
  8
0
  6
CONTINUOUS
 62
     2
 10
119.5
 20
105.3
 30
0.0
 11
120.147047613
 21
107.714814566
 31
0.0
  0
LINE
  8
0
  6
CONTINUOUS
 62
     2
 10
119.5
 20
105.3
 30
0.0
 11
118.852952387
 21
107.714814566
 31
0.0
  0
TEXT
  8
0
  6
CONTINUOUS
 62
     2
 10
118.5
 20
126.88
 30
0.3
 40
3.0
  1
φＤ
 50
90.0
 41
0.6
 51
0.0
  7
KANJI6
  0
TEXT
  8
0
  6
CONTINUOUS
 62
     2
 10
118.5
 20
130.78
 30
0.18
 40
1.8
  1
±１
 50
90.0
 41
0.6
 51
0.0
  7
KANJI5
  0
LINE
  8
0
  6
LTYPE1
 62
     2
 10
106.5
 20
129.975
 30
0.0
 11
114.5
 21
129.975
 31
0.0
  0
TEXT
  8
0
  6
CONTINUOUS
 62
     2
 10
88.125
 20
125.925
 30
0.3
 40
3.0
  1
φ　Ｃ
 50
90.0
 41
0.6
 51
0.0
  7
KANJI6
  0
TEXT
  8
0
  6
CONTINUOUS
 62
     2
 10
48.983820798
 20
176.218245415
 30
0.3
 40
3.0
  1
　Ａ
 50
0.0
 41
0.6
 51
0.0
  7
KANJI6
  0
TEXT
  8
0
  6
CONTINUOUS
 62
     2
 10
15.363820798
 20
124.588245415
 30
0.3
 40
3.0
  1
　Ａ
 50
90.0
 41
0.6
 51
0.0
  7
KANJI6
  0
LINE
  8
0
  6
LTYPE1
 62
     2
 10
19.4
 20
130.0
 30
0.0
 11
83.5
 21
130.0
 31
0.0
  0
LINE
  8
0
  6
LTYPE1
 62
     2
 10
90.5
 20
130.0
 30
0.0
 11
97.5
 21
130.0
 31
0.0
  0
CIRCLE
  8
0
  6
CONTINUOUS
 62
     2
 10
54.4
 20
143.0
 30
0.0
 40
1.5
  0
LINE
  8
0
  6
CONTINUOUS
 62
     2
 10
53.63986021
 20
142.522702923
 30
0.0
 11
53.975735931
 21
142.858578644
 31
0.0
  0
ARC
  8
0
  6
CONTINUOUS
 62
     2
 10
53.834314575
 20
143.0
 30
0.0
 40
0.2
 50
315.0
 51
45.0
  0
LINE
  8
0
  6
CONTINUOUS
 62
     2
 10
53.975735931
 20
143.141421356
 30
0.0
 11
53.63986021
 21
143.477297077
 31
0.0
  0
LINE
  8
0
  6
CONTINUOUS
 62
     2
 10
53.63986021
 20
143.477297077
 30
0.0
 11
53.922702923
 21
143.76013979
 31
0.0
  0
LINE
  8
0
  6
CONTINUOUS
 62
     2
 10
53.922702923
 20
143.76013979
 30
0.0
 11
54.258578644
 21
143.424264069
 31
0.0
  0
ARC
  8
0
  6
CONTINUOUS
 62
     2
 10
54.4
 20
143.565685425
 30
0.0
 40
0.2
 50
225.0
 51
315.0
  0
LINE
  8
0
  6
CONTINUOUS
 62
     2
 10
54.541421356
 20
143.424264069
 30
0.0
 11
54.877297077
 21
143.76013979
 31
0.0
  0
LINE
  8
0
  6
CONTINUOUS
 62
     2
 10
54.877297077
 20
143.76013979
 30
0.0
 11
55.16013979
 21
143.477297077
 31
0.0
  0
LINE
  8
0
  6
CONTINUOUS
 62
     2
 10
55.16013979
 20
143.477297077
 30
0.0
 11
54.824264069
 21
143.141421356
 31
0.0
  0
ARC
  8
0
  6
CONTINUOUS
 62
     2
 10
54.965685425
 20
143.0
 30
0.0
 40
0.2
 50
135.0
 51
225.0
  0
LINE
  8
0
  6
CONTINUOUS
 62
     2
 10
54.824264069
 20
142.858578644
 30
0.0
 11
55.16013979
 21
142.522702923
 31
0.0
  0
LINE
  8
0
  6
CONTINUOUS
 62
     2
 10
55.16013979
 20
142.522702923
 30
0.0
 11
54.877297077
 21
142.23986021
 31
0.0
  0
LINE
  8
0
  6
CONTINUOUS
 62
     2
 10
54.877297077
 20
142.23986021
 30
0.0
 11
54.541421356
 21
142.575735931
 31
0.0
  0
ARC
  8
0
  6
CONTINUOUS
 62
     2
 10
54.4
 20
142.434314575
 30
0.0
 40
0.2
 50
45.0
 51
135.0
  0
LINE
  8
0
  6
CONTINUOUS
 62
     2
 10
54.258578644
 20
142.575735931
 30
0.0
 11
53.922702923
 21
142.23986021
 31
0.0
  0
LINE
  8
0
  6
CONTINUOUS
 62
     2
 10
53.922702923
 20
142.23986021
 30
0.0
 11
53.63986021
 21
142.522702923
 31
0.0
  0
LINE
  8
0
  6
LTYPE1
 62
     2
 10
52.1
 20
143.0
 30
0.0
 11
56.9
 21
143.0
 31
0.0
  0
LINE
  8
0
  6
LTYPE1
 62
     2
 10
43.5
 20
114.5
 30
0.0
 11
48.5
 21
114.5
 31
0.0
  0
LINE
  8
0
  6
LTYPE1
 62
     2
 10
60.5
 20
114.5
 30
0.0
 11
65.5
 21
114.5
 31
0.0
  0
LINE
  8
0
  6
LTYPE1
 62
     2
 10
62.9
 20
117.5
 30
0.0
 11
62.9
 21
112.5
 31
0.0
  0
LINE
  8
0
  6
LTYPE1
 62
     2
 10
45.9
 20
117.5
 30
0.0
 11
45.9
 21
112.2
 31
0.0
  0
TEXT
  8
0
  6
CONTINUOUS
 62
     2
 10
112.7
 20
163.15
 30
0.3
 40
3.0
  1
ＡＶＦ－１１Ｅ形電圧計放熱穴
 50
0.0
 41
0.6
 51
0.0
  7
KANJI6
  0
LINE
  8
0
  6
LTYPE1
 62
     2
 10
143.725
 20
125.0
 30
0.0
 11
156.45
 21
125.0
 31
0.0
  0
LINE
  8
0
  6
CONTINUOUS
 62
     2
 10
152.8
 20
123.0
 30
0.0
 11
151.826389907
 21
120.697374675
 31
0.0
  0
LINE
  8
0
  6
CONTINUOUS
 62
     2
 10
152.8
 20
123.0
 30
0.0
 11
153.108141588
 21
120.519062927
 31
0.0
  0
LINE
  8
0
  6
CONTINUOUS
 62
     2
 10
152.8
 20
123.0
 30
0.0
 11
149.169080919
 21
96.9
 31
0.0
  0
TEXT
  8
0
  6
CONTINUOUS
 62
     2
 10
150.169080919
 20
97.9
 30
0.5
 40
3.0
  1
４－Ｍ６ターミナルネジ
 50
0.0
 41
0.6
 51
0.0
  7
KANJI7
  0
LINE
  8
0
  6
LTYPE1
 62
     2
 10
121.2
 20
130.0
 30
0.0
 11
171.069080919
 21
130.0
 31
0.0
  0
LINE
  8
0
  6
LTYPE1
 62
     2
 10
175.269080919
 20
130.0
 30
0.0
 11
200.269080919
 21
130.0
 31
0.0
  0
LINE
  8
0
  6
LTYPE1
 62
     2
 10
205.269080919
 20
130.0
 30
0.0
 11
209.7
 21
130.0
 31
0.0
  0
LINE
  8
0
  6
LTYPE1
 62
     2
 10
180.3
 20
138.9
 30
0.0
 11
180.3
 21
130.95
 31
0.0
  0
TEXT
  8
0
  6
CONTINUOUS
 62
     2
 10
191.176470351
 20
64.290293305
 30
0.3
 40
3.0
  1
φ　Ｆ
 50
46.346669025
 41
0.6
 51
0.0
  7
KANJI6
  0
LINE
  8
0
  6
CONTINUOUS
 62
     2
 10
35.6
 20
92.6
 30
0.0
 11
27.5
 21
92.6
 31
0.0
  0
TEXT
  8
0
  6
CONTINUOUS
 62
     2
 10
27.5
 20
93.6
 30
2.0
 40
3.0
  1
指針
 50
0.0
 41
0.9
 51
0.0
  7
KANJI8
  0
LINE
  8
0
  6
CONTINUOUS
 62
     2
 10
104.0
 20
155.44
 30
0.0
 11
104.245
 21
155.44
 31
0.0
  0
LINE
  8
0
  6
CONTINUOUS
 62
     2
 10
104.245
 20
155.44
 30
0.0
 11
104.245
 21
149.56
 31
0.0
  0
LINE
  8
0
  6
CONTINUOUS
 62
     2
 10
104.245
 20
149.56
 30
0.0
 11
104.0
 21
149.56
 31
0.0
  0
LINE
  8
0
  6
CONTINUOUS
 62
     2
 10
109.635
 20
151.03
 30
0.0
 11
111.595
 21
151.03
 31
0.0
  0
LINE
  8
0
  6
CONTINUOUS
 62
     2
 10
111.595
 20
151.03
 30
0.0
 11
111.595
 21
153.97
 31
0.0
  0
LINE
  8
0
  6
CONTINUOUS
 62
     2
 10
111.595
 20
153.97
 30
0.0
 11
109.635
 21
153.97
 31
0.0
  0
ARC
  8
0
  6
CONTINUOUS
 62
     2
 10
104.735
 20
152.5
 30
0.0
 40
4.9
 50
343.5
 51
16.5
  0
ARC
  8
0
  6
CONTINUOUS
 62
     2
 10
112.085
 20
152.5
 30
0.0
 40
4.9
 50
163.7
 51
196.5
  0
ARC
  8
0
  6
CONTINUOUS
 62
     2
 10
108.41
 20
150.4175
 30
0.0
 40
1.225
 50
325.0
 51
35.0
  0
ARC
  8
0
  6
CONTINUOUS
 62
     2
 10
108.41
 20
150.4175
 30
0.0
 40
1.225
 50
145.0
 51
215.0
  0
ARC
  8
0
  6
CONTINUOUS
 62
     2
 10
108.41
 20
154.5825
 30
0.0
 40
1.225
 50
145.0
 51
215.0
  0
ARC
  8
0
  6
CONTINUOUS
 62
     2
 10
108.41
 20
154.5825
 30
0.0
 40
1.225
 50
325.0
 51
35.0
  0
LINE
  8
0
  6
CONTINUOUS
 62
     2
 10
107.381954069
 20
153.875266874
 30
0.0
 11
109.415454069
 21
153.875266874
 31
0.0
  0
LINE
  8
0
  6
CONTINUOUS
 62
     2
 10
109.433216701
 20
151.108324811
 30
0.0
 11
107.386783299
 21
151.108324811
 31
0.0
  0
LINE
  8
0
  6
CONTINUOUS
 62
     2
 10
109.420283299
 20
149.707
 30
0.0
 11
107.185
 21
149.707
 31
0.0
  0
LINE
  8
0
  6
CONTINUOUS
 62
     2
 10
109.635
 20
154.5825
 30
0.0
 11
109.635
 21
150.4175
 31
0.0
  0
LINE
  8
0
  6
CONTINUOUS
 62
     2
 10
109.6399
 20
153.8475
 30
0.0
 11
111.5754
 21
153.8475
 31
0.0
  0
LINE
  8
0
  6
CONTINUOUS
 62
     2
 10
111.595
 20
151.1427
 30
0.0
 11
109.6448
 21
151.1427
 31
0.0
  0
LINE
  8
0
  6
CONTINUOUS
 62
     2
 10
106.205
 20
149.217
 30
0.0
 11
107.185
 21
149.707
 31
0.0
  0
LINE
  8
0
  6
CONTINUOUS
 62
     2
 10
106.205
 20
149.217
 30
0.0
 11
106.205
 21
155.783
 31
0.0
  0
LINE
  8
0
  6
CONTINUOUS
 62
     2
 10
106.205
 20
155.783
 30
0.0
 11
107.185
 21
155.293
 31
0.0
  0
LINE
  8
0
  6
CONTINUOUS
 62
     2
 10
107.185
 20
155.293
 30
0.0
 11
109.4145
 21
155.293
 31
0.0
  0
LINE
  8
0
  6
CONTINUOUS
 62
     2
 10
107.185
 20
149.707
 30
0.0
 11
107.185
 21
155.293
 31
0.0
  0
LINE
  8
0
  6
CONTINUOUS
 62
     2
 10
106.205
 20
151.128
 30
0.0
 11
104.245
 21
151.128
 31
0.0
  0
LINE
  8
0
  6
CONTINUOUS
 62
     2
 10
106.205
 20
151.2407
 30
0.0
 11
104.245
 21
151.2407
 31
0.0
  0
LINE
  8
0
  6
CONTINUOUS
 62
     2
 10
104.245
 20
153.9651
 30
0.0
 11
106.205
 21
153.9651
 31
0.0
  0
LINE
  8
0
  6
CONTINUOUS
 62
     2
 10
106.205
 20
153.8475
 30
0.0
 11
104.245
 21
153.8475
 31
0.0
  0
LINE
  8
0
  6
CONTINUOUS
 62
     1
 10
106.205
 20
154.75
 30
0.0
 11
104.245
 21
154.75
 31
0.0
  0
LINE
  8
0
  6
CONTINUOUS
 62
     2
 10
104.0
 20
104.56
 30
0.0
 11
104.245
 21
104.56
 31
0.0
  0
LINE
  8
0
  6
CONTINUOUS
 62
     2
 10
104.245
 20
104.56
 30
0.0
 11
104.245
 21
110.44
 31
0.0
  0
LINE
  8
0
  6
CONTINUOUS
 62
     2
 10
104.245
 20
110.44
 30
0.0
 11
104.0
 21
110.44
 31
0.0
  0
LINE
  8
0
  6
CONTINUOUS
 62
     2
 10
109.635
 20
108.97
 30
0.0
 11
111.595
 21
108.97
 31
0.0
  0
LINE
  8
0
  6
CONTINUOUS
 62
     2
 10
111.595
 20
108.97
 30
0.0
 11
111.595
 21
106.03
 31
0.0
  0
LINE
  8
0
  6
CONTINUOUS
 62
     2
 10
111.595
 20
106.03
 30
0.0
 11
109.635
 21
106.03
 31
0.0
  0
ARC
  8
0
  6
CONTINUOUS
 62
     2
 10
104.735
 20
107.5
 30
0.0
 40
4.9
 50
343.5
 51
16.5
  0
ARC
  8
0
  6
CONTINUOUS
 62
     2
 10
112.085
 20
107.5
 30
0.0
 40
4.9
 50
163.5
 51
196.3
  0
ARC
  8
0
  6
CONTINUOUS
 62
     2
 10
108.41
 20
109.5825
 30
0.0
 40
1.225
 50
325.0
 51
35.0
  0
ARC
  8
0
  6
CONTINUOUS
 62
     2
 10
108.41
 20
109.5825
 30
0.0
 40
1.225
 50
145.0
 51
215.0
  0
ARC
  8
0
  6
CONTINUOUS
 62
     2
 10
108.41
 20
105.4175
 30
0.0
 40
1.225
 50
145.0
 51
215.0
  0
ARC
  8
0
  6
CONTINUOUS
 62
     2
 10
108.41
 20
105.4175
 30
0.0
 40
1.225
 50
325.0
 51
35.0
  0
LINE
  8
0
  6
CONTINUOUS
 62
     2
 10
107.381954069
 20
106.124733126
 30
0.0
 11
109.415454069
 21
106.124733126
 31
0.0
  0
LINE
  8
0
  6
CONTINUOUS
 62
     2
 10
109.433216701
 20
108.891675189
 30
0.0
 11
107.386783299
 21
108.891675189
 31
0.0
  0
LINE
  8
0
  6
CONTINUOUS
 62
     2
 10
109.420283299
 20
110.293
 30
0.0
 11
107.185
 21
110.293
 31
0.0
  0
LINE
  8
0
  6
CONTINUOUS
 62
     2
 10
109.635
 20
105.4175
 30
0.0
 11
109.635
 21
109.5825
 31
0.0
  0
LINE
  8
0
  6
CONTINUOUS
 62
     2
 10
109.6399
 20
106.1525
 30
0.0
 11
111.5754
 21
106.1525
 31
0.0
  0
LINE
  8
0
  6
CONTINUOUS
 62
     2
 10
111.595
 20
108.8573
 30
0.0
 11
109.6448
 21
108.8573
 31
0.0
  0
LINE
  8
0
  6
CONTINUOUS
 62
     2
 10
106.205
 20
110.783
 30
0.0
 11
107.185
 21
110.293
 31
0.0
  0
LINE
  8
0
  6
CONTINUOUS
 62
     2
 10
106.205
 20
110.783
 30
0.0
 11
106.205
 21
104.217
 31
0.0
  0
LINE
  8
0
  6
CONTINUOUS
 62
     2
 10
106.205
 20
104.217
 30
0.0
 11
107.185
 21
104.707
 31
0.0
  0
LINE
  8
0
  6
CONTINUOUS
 62
     2
 10
107.185
 20
104.707
 30
0.0
 11
109.4145
 21
104.707
 31
0.0
  0
LINE
  8
0
  6
CONTINUOUS
 62
     2
 10
107.185
 20
110.293
 30
0.0
 11
107.185
 21
104.707
 31
0.0
  0
LINE
  8
0
  6
CONTINUOUS
 62
     2
 10
106.205
 20
108.872
 30
0.0
 11
104.245
 21
108.872
 31
0.0
  0
LINE
  8
0
  6
CONTINUOUS
 62
     2
 10
106.205
 20
108.7593
 30
0.0
 11
104.245
 21
108.7593
 31
0.0
  0
LINE
  8
0
  6
CONTINUOUS
 62
     2
 10
104.245
 20
106.0349
 30
0.0
 11
106.205
 21
106.0349
 31
0.0
  0
LINE
  8
0
  6
CONTINUOUS
 62
     2
 10
106.205
 20
106.1525
 30
0.0
 11
104.245
 21
106.1525
 31
0.0
  0
LINE
  8
0
  6
CONTINUOUS
 62
     1
 10
106.205
 20
105.25
 30
0.0
 11
104.245
 21
105.25
 31
0.0
  0
LINE
  8
0
  6
CONTINUOUS
 62
     1
 10
146.0
 20
105.25
 30
0.0
 11
109.623494438
 21
105.25
 31
0.0
  0
LINE
  8
0
  6
CONTINUOUS
 62
     1
 10
109.623494438
 20
154.75
 30
0.0
 11
146.0
 21
154.75
 31
0.0
  0
TEXT
  8
0
  6
CONTINUOUS
 62
     2
 10
119.0
 20
87.55
 30
0.1
 40
3.0
  1
フランジ付六角ナット
 50
0.0
 41
0.6
 51
0.0
  7
KANJI9
  0
ARC
  8
0
  6
CONTINUOUS
 62
     2
 10
152.675
 20
133.925
 30
0.0
 40
1.475
 50
270.0
 51
0.0
  0
ARC
  8
0
  6
CONTINUOUS
 62
     2
 10
152.675
 20
136.075
 30
0.0
 40
1.475
 50
0.0
 51
90.0
  0
LINE
  8
0
  6
CONTINUOUS
 62
     2
 10
154.15
 20
136.075
 30
0.0
 11
154.15
 21
133.925
 31
0.0
  0
LINE
  8
0
  6
CONTINUOUS
 62
     2
 10
152.675
 20
132.45
 30
0.0
 11
152.175
 21
132.45
 31
0.0
  0
LINE
  8
0
  6
CONTINUOUS
 62
     2
 10
152.175
 20
132.45
 30
0.0
 11
152.175
 21
137.55
 31
0.0
  0
LINE
  8
0
  6
CONTINUOUS
 62
     2
 10
152.175
 20
137.55
 30
0.0
 11
152.675000132
 21
137.55
 31
0.0
  0
LINE
  8
0
  6
CONTINUOUS
 62
     2
 10
151.475
 20
137.75
 30
0.0
 11
152.15
 21
137.75
 31
0.0
  0
LINE
  8
0
  6
CONTINUOUS
 62
     2
 10
152.15
 20
137.75
 30
0.0
 11
152.15
 21
132.2475
 31
0.0
  0
LINE
  8
0
  6
CONTINUOUS
 62
     2
 10
152.15
 20
132.2475
 30
0.0
 11
151.475
 21
132.2475
 31
0.0
  0
LINE
  8
0
  6
CONTINUOUS
 62
     2
 10
151.475
 20
132.2475
 30
0.0
 11
151.475
 21
137.75
 31
0.0
  0
LINE
  8
0
  6
CONTINUOUS
 62
     2
 10
151.475
 20
135.06
 30
0.0
 11
152.15
 21
135.06
 31
0.0
  0
LINE
  8
0
  6
CONTINUOUS
 62
     2
 10
152.15
 20
134.96
 30
0.0
 11
151.475
 21
134.96
 31
0.0
  0
LINE
  8
0
  6
CONTINUOUS
 62
     2
 10
151.0
 20
131.825
 30
0.0
 11
151.475
 21
131.825
 31
0.0
  0
LINE
  8
0
  6
CONTINUOUS
 62
     2
 10
151.475
 20
131.825
 30
0.0
 11
151.475
 21
138.175
 31
0.0
  0
LINE
  8
0
  6
CONTINUOUS
 62
     2
 10
151.475
 20
138.175
 30
0.0
 11
151.0
 21
138.175
 31
0.0
  0
LINE
  8
0
  6
CONTINUOUS
 62
     2
 10
151.0
 20
138.175
 30
0.0
 11
151.0
 21
131.825
 31
0.0
  0
LINE
  8
0
  6
CONTINUOUS
 62
     2
 10
151.0
 20
133.0
 30
0.0
 11
146.5
 21
133.0
 31
0.0
  0
LINE
  8
0
  6
CONTINUOUS
 62
     2
 10
146.5
 20
137.0
 30
0.0
 11
151.0
 21
137.0
 31
0.0
  0
LINE
  8
0
  6
CONTINUOUS
 62
     2
 10
146.5
 20
137.0
 30
0.0
 11
146.5
 21
133.0
 31
0.0
  0
LINE
  8
0
  6
CONTINUOUS
 62
     2
 10
151.0
 20
123.0
 30
0.0
 11
146.5
 21
123.0
 31
0.0
  0
LINE
  8
0
  6
CONTINUOUS
 62
     2
 10
146.5
 20
127.0
 30
0.0
 11
151.0
 21
127.0
 31
0.0
  0
LINE
  8
0
  6
CONTINUOUS
 62
     2
 10
146.5
 20
127.0
 30
0.0
 11
146.5
 21
123.0
 31
0.0
  0
LINE
  8
0
  6
CONTINUOUS
 62
     2
 10
154.0
 20
135.75
 30
0.0
 11
153.8
 21
135.75
 31
0.0
  0
POINT
  8
0
  6
CONTINUOUS
 62
     2
 10
153.8
 20
135.75
 30
0.0
  0
LINE
  8
0
  6
CONTINUOUS
 62
     2
 10
153.8
 20
135.75
 30
0.0
 11
153.8
 21
134.55
 31
0.0
  0
POINT
  8
0
  6
CONTINUOUS
 62
     2
 10
153.8
 20
134.55
 30
0.0
  0
LINE
  8
0
  6
CONTINUOUS
 62
     2
 10
153.8
 20
134.65
 30
0.0
 11
153.8
 21
134.45
 31
0.0
  0
LINE
  8
0
  6
CONTINUOUS
 62
     2
 10
153.8
 20
134.45
 30
0.0
 11
153.9
 21
134.45
 31
0.0
  0
LINE
  8
0
  6
CONTINUOUS
 62
     2
 10
153.9
 20
134.45
 30
0.0
 11
154.1
 21
134.45
 31
0.0
  0
ARC
  8
0
  6
CONTINUOUS
 62
     2
 10
152.2
 20
123.925
 30
0.0
 40
1.475
 50
270.0
 51
0.0
  0
ARC
  8
0
  6
CONTINUOUS
 62
     2
 10
152.2
 20
126.075
 30
0.0
 40
1.475
 50
0.0
 51
90.0
  0
LINE
  8
0
  6
CONTINUOUS
 62
     2
 10
153.675
 20
126.075
 30
0.0
 11
153.675
 21
123.925
 31
0.0
  0
LINE
  8
0
  6
CONTINUOUS
 62
     2
 10
152.2
 20
122.45
 30
0.0
 11
151.7
 21
122.45
 31
0.0
  0
LINE
  8
0
  6
CONTINUOUS
 62
     2
 10
151.7
 20
122.45
 30
0.0
 11
151.7
 21
127.55
 31
0.0
  0
LINE
  8
0
  6
CONTINUOUS
 62
     2
 10
151.7
 20
127.55
 30
0.0
 11
152.200000132
 21
127.55
 31
0.0
  0
LINE
  8
0
  6
CONTINUOUS
 62
     2
 10
151.0
 20
127.75
 30
0.0
 11
151.675
 21
127.75
 31
0.0
  0
LINE
  8
0
  6
CONTINUOUS
 62
     2
 10
151.675
 20
127.75
 30
0.0
 11
151.675
 21
122.2475
 31
0.0
  0
LINE
  8
0
  6
CONTINUOUS
 62
     2
 10
151.675
 20
122.2475
 30
0.0
 11
151.0
 21
122.2475
 31
0.0
  0
LINE
  8
0
  6
CONTINUOUS
 62
     2
 10
151.0
 20
122.2475
 30
0.0
 11
151.0
 21
127.75
 31
0.0
  0
LINE
  8
0
  6
CONTINUOUS
 62
     2
 10
151.0
 20
125.06
 30
0.0
 11
151.675
 21
125.06
 31
0.0
  0
LINE
  8
0
  6
CONTINUOUS
 62
     2
 10
151.675
 20
124.96
 30
0.0
 11
151.0
 21
124.96
 31
0.0
  0
LINE
  8
0
  6
CONTINUOUS
 62
     2
 10
153.725
 20
125.7
 30
0.0
 11
153.425
 21
125.7
 31
0.0
  0
POINT
  8
0
  6
CONTINUOUS
 62
     2
 10
153.425
 20
125.7
 30
0.0
  0
LINE
  8
0
  6
CONTINUOUS
 62
     2
 10
153.425
 20
125.7
 30
0.0
 11
153.425
 21
124.4
 31
0.0
  0
POINT
  8
0
  6
CONTINUOUS
 62
     2
 10
153.425
 20
124.4
 30
0.0
  0
LINE
  8
0
  6
CONTINUOUS
 62
     2
 10
153.425
 20
124.4
 30
0.0
 11
153.625
 21
124.4
 31
0.0
  0
TEXT
  8
0
  6
CONTINUOUS
 62
     2
 10
147.185643564
 20
88.549999341
 30
0.1
 40
3.0
  1
（オプション）
 50
0.0
 41
0.6
 51
0.0
  7
KANJI9
  0
LINE
  8
0
  6
CONTINUOUS
 62
     2
 10
204.675
 20
128.247595264
 30
0.0
 11
206.442766953
 21
130.015362217
 31
0.0
  0
LINE
  8
0
  6
CONTINUOUS
 62
     2
 10
204.675
 20
128.247595264
 30
0.0
 11
205.322047613
 21
130.66240983
 31
0.0
  0
LINE
  8
0
  6
CONTINUOUS
 62
     2
 10
204.675
 20
128.247595264
 30
0.0
 11
227.712664116
 21
168.15
 31
0.0
  0
TEXT
  8
0
  6
CONTINUOUS
 62
     2
 10
227.712664116
 20
169.15
 30
0.1
 40
3.0
  1
２－Ｍ６　ターミナルネジ
 50
0.0
 41
0.6
 51
0.0
  7
KANJI9
  0
LINE
  8
0
  6
CONTINUOUS
 62
     2
 10
227.712664116
 20
168.15
 30
0.0
 11
251.0
 21
168.15
 31
0.0
  0
LINE
  8
0
  6
CONTINUOUS
 62
     2
 10
189.252
 20
146.016595264
 30
0.0
 11
191.019766953
 21
147.784362217
 31
0.0
  0
LINE
  8
0
  6
CONTINUOUS
 62
     2
 10
189.252
 20
146.016595264
 30
0.0
 11
189.899047613
 21
148.43140983
 31
0.0
  0
LINE
  8
0
  6
CONTINUOUS
 62
     2
 10
210.211491782
 20
182.319499932
 30
0.0
 11
228.111491782
 21
182.319499932
 31
0.0
  0
TEXT
  8
0
  6
CONTINUOUS
 62
     2
 10
210.211491782
 20
183.319499932
 30
0.5
 40
3.0
  1
感度調整用抵抗器
 50
0.0
 41
0.6
 51
0.0
  7
KANJI7
  0
TEXT
  8
0
  6
CONTINUOUS
 62
     2
 10
208.061491782
 20
186.819499932
 30
0.5
 40
3.0
  1
※
 50
0.0
 41
0.9
 51
0.0
  7
KANJI3
  0
LINE
  8
0
  6
CONTINUOUS
 62
     2
 10
197.175
 20
138.197595264
 30
0.0
 11
198.942766953
 21
139.965362217
 31
0.0
  0
LINE
  8
0
  6
CONTINUOUS
 62
     2
 10
197.175
 20
138.197595264
 30
0.0
 11
197.822047613
 21
140.61240983
 31
0.0
  0
LINE
  8
0
  6
CONTINUOUS
 62
     2
 10
197.175
 20
138.197595264
 30
0.0
 11
220.212664116
 21
178.1
 31
0.0
  0
TEXT
  8
0
  6
CONTINUOUS
 62
     2
 10
220.212664116
 20
179.1
 30
0.1
 40
3.0
  1
２－Ｍ６　ターミナルネジ
 50
0.0
 41
0.6
 51
0.0
  7
KANJI9
  0
LINE
  8
0
  6
CONTINUOUS
 62
     2
 10
220.212664116
 20
178.1
 30
0.0
 11
243.5
 21
178.1
 31
0.0
  0
LINE
  8
0
  6
LTYPE1
 62
     2
 10
175.8
 20
135.0
 30
0.0
 11
185.5
 21
135.0
 31
0.0
  0
TEXT
  8
0
  6
CONTINUOUS
 62
     2
 10
66.0
 20
93.8
 30
0.5
 40
3.0
  1
機械的零位調整器
 50
0.0
 41
0.6
 51
0.0
  7
KANJI7
  0
LINE
  8
0
  6
CONTINUOUS
 62
     2
 10
66.0
 20
92.8
 30
0.0
 11
85.0
 21
92.8
 31
0.0
  0
LINE
  8
0
  6
CONTINUOUS
 62
     2
 10
189.252
 20
146.016595264
 30
0.0
 11
210.211491782
 21
182.319499932
 31
0.0
  0
TEXT
  8
0
  6
CONTINUOUS
 62
     2
 10
126.4125
 20
175.500001907
 30
0.4
 40
4.0
  1
ι
 50
0.0
 41
0.9
 51
0.0
  7
KANJI10
  0
CIRCLE
  8
0
  6
CONTINUOUS
 62
     2
 10
127.9
 20
178.7
 30
0.0
 40
0.2
  0
TEXT
  8
0
  6
CONTINUOUS
 62
     2
 10
22.614213562
 20
35.1
 30
0.2
 40
3.0
  1
注）１，ＥＬ板の電源は、Ｌ－Ｌ端子間に印加して下さい。
 50
0.0
 41
0.9
 51
0.0
  7
KANJI11
  0
TEXT
  8
0
  6
CONTINUOUS
 62
     2
 10
28.614213562
 20
30.1
 30
0.2
 40
3.0
  1
２，ＥＬ板の発光色は、グリーンかオレンジ色のいずれかをご指示下さい。
 50
0.0
 41
0.9
 51
0.0
  7
KANJI11
  0
TEXT
  8
0
  6
CONTINUOUS
 62
     2
 10
28.614213562
 20
25.1
 30
0.2
 40
3.0
  1
３，※印の感度調整用抵抗器は、□ＶＦ－１１ＥＶ，□ＶＦ－１２ＥＶ形に内蔵します
 50
0.0
 41
0.9
 51
0.0
  7
KANJI11
  0
LINE
  8
0
  6
CONTINUOUS
 62
     2
 10
107.4
 20
105.05
 30
0.0
 11
108.039101332
 21
102.633070235
 31
0.0
  0
LINE
  8
0
  6
CONTINUOUS
 62
     2
 10
107.4
 20
105.05
 30
0.0
 11
109.161942871
 21
103.27642809
 31
0.0
  0
LINE
  8
0
  6
CONTINUOUS
 62
     2
 10
107.4
 20
105.05
 30
0.0
 11
118.0
 21
86.55
 31
0.0
  0
LINE
  8
0
  6
CONTINUOUS
 62
     2
 10
118.0
 20
86.55
 30
0.0
 11
137.9
 21
86.55
 31
0.0
  0
LINE
  8
0
  6
CONTINUOUS
 62
     2
 10
26.8
 20
80.4
 30
0.0
 11
126.8
 21
80.4
 31
0.0
  0
LINE
  8
0
  6
CONTINUOUS
 62
     2
 10
26.8
 20
76.4
 30
0.0
 11
126.8
 21
76.4
 31
0.0
  0
TEXT
  8
0
  6
CONTINUOUS
 62
     2
 10
27.6
 20
77.2
 30
0.24
 40
2.4
  1
項
 50
0.0
 41
0.9
 51
0.0
  7
KANJI12
  0
TEXT
  8
0
  6
CONTINUOUS
 62
     2
 10
27.6
 20
73.2
 30
0.24
 40
2.4
  1
１
 50
0.0
 41
0.9
 51
0.0
  7
KANJI12
  0
TEXT
  8
0
  6
CONTINUOUS
 62
     2
 10
27.6
 20
69.2
 30
0.24
 40
2.4
  1
２
 50
0.0
 41
0.9
 51
0.0
  7
KANJI12
  0
LINE
  8
0
  6
CONTINUOUS
 62
     2
 10
26.8
 20
68.4
 30
0.0
 11
26.8
 21
80.4
 31
0.0
  0
LINE
  8
0
  6
CONTINUOUS
 62
     2
 10
30.8
 20
68.4
 30
0.0
 11
30.8
 21
80.4
 31
0.0
  0
LINE
  8
0
  6
CONTINUOUS
 62
     2
 10
54.8
 20
80.4
 30
0.0
 11
54.8
 21
68.4
 31
0.0
  0
LINE
  8
0
  6
CONTINUOUS
 62
     2
 10
78.8
 20
68.4
 30
0.0
 11
78.8
 21
80.4
 31
0.0
  0
LINE
  8
0
  6
CONTINUOUS
 62
     2
 10
126.8
 20
80.4
 30
0.0
 11
126.8
 21
68.4
 31
0.0
  0
LINE
  8
0
  6
CONTINUOUS
 62
     2
 10
26.8
 20
68.4
 30
0.0
 11
126.8
 21
68.4
 31
0.0
  0
LINE
  8
0
  6
CONTINUOUS
 62
     2
 10
126.8
 20
72.4
 30
0.0
 11
35.93137085
 21
72.4
 31
0.0
  0
LINE
  8
0
  6
CONTINUOUS
 62
     2
 10
66.8
 20
80.4
 30
0.0
 11
66.8
 21
68.4
 31
0.0
  0
LINE
  8
0
  6
CONTINUOUS
 62
     2
 10
90.8
 20
68.4
 30
0.0
 11
90.8
 21
80.4
 31
0.0
  0
LINE
  8
0
  6
CONTINUOUS
 62
     2
 10
114.8
 20
80.4
 30
0.0
 11
114.8
 21
68.4
 31
0.0
  0
LINE
  8
0
  6
CONTINUOUS
 62
     2
 10
30.8
 20
80.4
 30
0.0
 11
54.8
 21
76.4
 31
0.0
  0
TEXT
  8
0
  6
CONTINUOUS
 62
     2
 10
31.624
 20
77.3
 30
0.52
 40
1.56
  1
計器形名
 50
0.0
 41
0.9
 51
0.0
  7
KANJI13
  0
TEXT
  8
0
  6
CONTINUOUS
 62
     2
 10
47.46
 20
78.32
 30
0.24
 40
1.6
  1
寸法
 50
0.0
 41
0.9
 51
0.0
  7
KANJI14
  0
TEXT
  8
0
  6
CONTINUOUS
 62
     2
 10
34.8
 20
73.2
 30
0.4
 40
2.4
  1
□ＶＦ－１１Ｅ
 50
0.0
 41
0.9
 51
0.0
  7
KANJI15
  0
TEXT
  8
0
  6
CONTINUOUS
 62
     2
 10
34.8
 20
69.2
 30
0.4
 40
2.4
  1
□ＶＦ－１２Ｅ
 50
0.0
 41
0.9
 51
0.0
  7
KANJI15
  0
TEXT
  8
0
  6
CONTINUOUS
 62
     2
 10
59.86
 20
76.96
 30
0.16
 40
2.4
  1
Ａ
 50
0.0
 41
0.9
 51
0.0
  7
KANJI16
  0
TEXT
  8
0
  6
CONTINUOUS
 62
     2
 10
84.1
 20
76.88
 30
0.16
 40
2.4
  1
Ｃ
 50
0.0
 41
0.9
 51
0.0
  7
KANJI16
  0
TEXT
  8
0
  6
CONTINUOUS
 62
     2
 10
107.86
 20
76.88
 30
0.16
 40
2.4
  1
Ｅ
 50
0.0
 41
0.9
 51
0.0
  7
KANJI16
  0
TEXT
  8
0
  6
CONTINUOUS
 62
     2
 10
120.26
 20
76.88
 30
0.16
 40
2.4
  1
Ｆ
 50
0.0
 41
0.9
 51
0.0
  7
KANJI16
  0
TEXT
  8
0
  6
CONTINUOUS
 62
     2
 10
95.86
 20
76.8
 30
0.16
 40
2.4
  1
Ｄ
 50
0.0
 41
0.9
 51
0.0
  7
KANJI16
  0
TEXT
  8
0
  6
CONTINUOUS
 62
     2
 10
71.62
 20
76.88
 30
0.16
 40
2.4
  1
Ｂ
 50
0.0
 41
0.9
 51
0.0
  7
KANJI16
  0
TEXT
  8
0
  6
CONTINUOUS
 62
     2
 10
57.3
 20
72.96
 30
0.16
 40
2.4
  1
１１０
 50
0.0
 41
0.9
 51
0.0
  7
KANJI16
  0
TEXT
  8
0
  6
CONTINUOUS
 62
     2
 10
57.3
 20
68.96
 30
0.16
 40
2.4
  1
１２０
 50
0.0
 41
0.9
 51
0.0
  7
KANJI16
  0
TEXT
  8
0
  6
CONTINUOUS
 62
     2
 10
70.34
 20
72.96
 30
0.16
 40
2.4
  1
４５
 50
0.0
 41
0.9
 51
0.0
  7
KANJI16
  0
TEXT
  8
0
  6
CONTINUOUS
 62
     2
 10
70.34
 20
68.96
 30
0.16
 40
2.4
  1
５０
 50
0.0
 41
0.9
 51
0.0
  7
KANJI16
  0
TEXT
  8
0
  6
CONTINUOUS
 62
     2
 10
81.78
 20
68.88
 30
0.16
 40
2.4
  1
１１０
 50
0.0
 41
0.9
 51
0.0
  7
KANJI16
  0
TEXT
  8
0
  6
CONTINUOUS
 62
     2
 10
81.78
 20
72.88
 30
0.16
 40
2.4
  1
１０２
 50
0.0
 41
0.9
 51
0.0
  7
KANJI16
  0
TEXT
  8
0
  6
CONTINUOUS
 62
     2
 10
95.06
 20
72.96
 30
0.16
 40
2.4
  1
９９
 50
0.0
 41
0.9
 51
0.0
  7
KANJI16
  0
TEXT
  8
0
  6
CONTINUOUS
 62
     2
 10
93.3
 20
68.88
 30
0.16
 40
2.4
  1
１０９
 50
0.0
 41
0.9
 51
0.0
  7
KANJI16
  0
TEXT
  8
0
  6
CONTINUOUS
 62
     2
 10
106.82
 20
72.88
 30
0.16
 40
2.4
  1
４５
 50
0.0
 41
0.9
 51
0.0
  7
KANJI16
  0
TEXT
  8
0
  6
CONTINUOUS
 62
     2
 10
106.74
 20
68.96
 30
0.16
 40
2.4
  1
５０
 50
0.0
 41
0.9
 51
0.0
  7
KANJI16
  0
TEXT
  8
0
  6
CONTINUOUS
 62
     2
 10
117.62
 20
68.96
 30
0.16
 40
2.4
  1
１１２
 50
0.0
 41
0.9
 51
0.0
  7
KANJI16
  0
TEXT
  8
0
  6
CONTINUOUS
 62
     2
 10
117.62
 20
73.12
 30
0.16
 40
2.4
  1
１０２
 50
0.0
 41
0.9
 51
0.0
  7
KANJI16
  0
LINE
  8
0
  6
CONTINUOUS
 62
     2
 10
35.93137085
 20
72.4
 30
0.0
 11
26.8
 21
72.4
 31
0.0
  0
TEXT
  8
0
  6
CONTINUOUS
 62
     2
 10
89.017056275
 20
56.617943725
 30
0.8
 40
4.8
  1
ι
 50
0.0
 41
0.9
 51
0.0
  7
KANJI17
  0
CIRCLE
  8
0
  6
CONTINUOUS
 62
     2
 10
90.8
 20
60.475
 30
0.0
 40
0.24
  0
CIRCLE
  8
0
  6
CONTINUOUS
 62
     2
 10
90.8
 20
60.475
 30
0.0
 40
0.08
  0
LINE
  8
0
  6
CONTINUOUS
 62
     2
 10
26.8
 20
63.115
 30
0.0
 11
102.8
 21
63.115
 31
0.0
  0
TEXT
  8
0
  6
CONTINUOUS
 62
     2
 10
27.6
 20
58.315
 30
0.24
 40
2.4
  1
項
 50
0.0
 41
0.9
 51
0.0
  7
KANJI12
  0
TEXT
  8
0
  6
CONTINUOUS
 62
     2
 10
37.2
 20
58.315
 30
0.24
 40
2.4
  1
計器形名
 50
0.0
 41
0.9
 51
0.0
  7
KANJI12
  0
TEXT
  8
0
  6
CONTINUOUS
 62
     2
 10
61.2
 20
58.315
 30
0.24
 40
2.4
  1
動作原理
 50
0.0
 41
0.9
 51
0.0
  7
KANJI12
  0
TEXT
  8
0
  6
CONTINUOUS
 62
     2
 10
27.6
 20
44.715
 30
0.24
 40
2.4
  1
２
 50
0.0
 41
0.9
 51
0.0
  7
KANJI12
  0
TEXT
  8
0
  6
CONTINUOUS
 62
     2
 10
27.6
 20
40.715
 30
0.24
 40
2.4
  1
３
 50
0.0
 41
0.9
 51
0.0
  7
KANJI12
  0
TEXT
  8
0
  6
CONTINUOUS
 62
     2
 10
86.0
 20
44.715
 30
0.4
 40
2.4
  1
１０２
 50
0.0
 41
0.9
 51
0.0
  7
KANJI15
  0
TEXT
  8
0
  6
CONTINUOUS
 62
     2
 10
32.4
 20
45.915
 30
0.4
 40
2.4
  1
Ｓ
 50
0.0
 41
0.45
 51
0.0
  7
KANJI18
  0
TEXT
  8
0
  6
CONTINUOUS
 62
     2
 10
32.4
 20
43.915
 30
0.4
 40
2.4
  1
Ｃ
 50
0.0
 41
0.45
 51
0.0
  7
KANJI18
  0
LINE
  8
0
  6
CONTINUOUS
 62
     2
 10
32.0
 20
47.915
 30
0.0
 11
26.8
 21
47.915
 31
0.0
  0
LINE
  8
0
  6
CONTINUOUS
 62
     2
 10
26.8
 20
55.915
 30
0.0
 11
102.8
 21
55.915
 31
0.0
  0
LINE
  8
0
  6
CONTINUOUS
 62
     2
 10
26.8
 20
43.915
 30
0.0
 11
102.8
 21
43.915
 31
0.0
  0
LINE
  8
0
  6
CONTINUOUS
 62
     2
 10
102.8
 20
39.915
 30
0.0
 11
26.8
 21
39.915
 31
0.0
  0
LINE
  8
0
  6
CONTINUOUS
 62
     2
 10
102.8
 20
47.915
 30
0.0
 11
33.84
 21
47.915
 31
0.0
  0
TEXT
  8
0
  6
CONTINUOUS
 62
     2
 10
86.0
 20
40.715
 30
0.4
 40
2.4
  1
１２９
 50
0.0
 41
0.9
 51
0.0
  7
KANJI15
  0
LINE
  8
0
  6
CONTINUOUS
 62
     2
 10
102.8
 20
63.115
 30
0.0
 11
102.8
 21
55.915
 31
0.0
  0
LINE
  8
0
  6
CONTINUOUS
 62
     2
 10
26.8
 20
55.915
 30
0.0
 11
26.8
 21
63.115
 31
0.0
  0
LINE
  8
0
  6
CONTINUOUS
 62
     2
 10
30.8
 20
55.915
 30
0.0
 11
30.8
 21
63.115
 31
0.0
  0
LINE
  8
0
  6
CONTINUOUS
 62
     2
 10
78.8
 20
55.915
 30
0.0
 11
78.8
 21
63.115
 31
0.0
  0
LINE
  8
0
  6
CONTINUOUS
 62
     2
 10
54.8
 20
63.115
 30
0.0
 11
54.8
 21
55.915
 31
0.0
  0
TEXT
  8
0
  6
CONTINUOUS
 62
     2
 10
57.2
 20
48.715
 30
0.24
 40
2.4
  1
可動コイル形
 50
0.0
 41
0.9
 51
0.0
  7
KANJI12
  0
TEXT
  8
0
  6
CONTINUOUS
 62
     2
 10
57.2
 20
44.715
 30
0.24
 40
2.4
  1
整流形
 50
0.0
 41
0.9
 51
0.0
  7
KANJI12
  0
TEXT
  8
0
  6
CONTINUOUS
 62
     2
 10
57.2
 20
40.715
 30
0.24
 40
2.4
  1
可動鉄片形
 50
0.0
 41
0.9
 51
0.0
  7
KANJI12
  0
LINE
  8
0
  6
CONTINUOUS
 62
     2
 10
102.8
 20
55.915
 30
0.0
 11
102.8
 21
39.915
 31
0.0
  0
LINE
  8
0
  6
CONTINUOUS
 62
     2
 10
78.8
 20
39.915
 30
0.0
 11
78.8
 21
55.915
 31
0.0
  0
LINE
  8
0
  6
CONTINUOUS
 62
     2
 10
54.8
 20
55.915
 30
0.0
 11
54.8
 21
39.915
 31
0.0
  0
LINE
  8
0
  6
CONTINUOUS
 62
     2
 10
30.8
 20
39.915
 30
0.0
 11
30.8
 21
55.915
 31
0.0
  0
TEXT
  8
0
  6
CONTINUOUS
 62
     2
 10
27.6
 20
52.715
 30
0.24
 40
2.4
  1
１
 50
0.0
 41
0.9
 51
0.0
  7
KANJI12
  0
TEXT
  8
0
  6
CONTINUOUS
 62
     2
 10
86.0
 20
52.715
 30
0.4
 40
2.4
  1
１０２
 50
0.0
 41
0.9
 51
0.0
  7
KANJI15
  0
TEXT
  8
0
  6
CONTINUOUS
 62
     2
 10
57.2
 20
52.715
 30
0.24
 40
2.4
  1
永久磁石
 50
0.0
 41
0.9
 51
0.0
  7
KANJI12
  0
LINE
  8
0
  6
CONTINUOUS
 62
     2
 10
26.8
 20
39.915
 30
0.0
 11
26.8
 21
55.915
 31
0.0
  0
TEXT
  8
0
  6
CONTINUOUS
 62
     2
 10
34.514213562
 20
21.1
 30
0.2
 40
3.0
  1
但し、可動鉄片形（ＡＶＦ－１１Ｅ，１２Ｅ）は、除く。
 50
0.0
 41
0.9
 51
0.0
  7
KANJI11
  0
TEXT
  8
0
  6
CONTINUOUS
 62
     2
 10
32.4
 20
52.715
 30
0.08
 40
2.4
  1
ＤＶＦ－１１Ｅ，１２Ｅ
 50
0.0
 41
0.666666667
 51
0.0
  7
KANJI19
  0
TEXT
  8
0
  6
CONTINUOUS
 62
     2
 10
35.04
 20
44.715
 30
0.08
 40
2.4
  1
ＶＦ－１１Ｅ，１２Ｅ
 50
0.0
 41
0.666666667
 51
0.0
  7
KANJI19
  0
TEXT
  8
0
  6
CONTINUOUS
 62
     2
 10
32.56
 20
40.715
 30
0.08
 40
2.4
  1
ＡＶＦ－１１Ｅ，１２Ｅ
 50
0.0
 41
0.666666667
 51
0.0
  7
KANJI19
  0
TEXT
  8
0
  6
CONTINUOUS
 62
     1
 10
239.324
 20
38.348
 30
0.32
 40
3.2
  1
□ＶＦ－１１Ｅ
 50
0.0
 41
0.9
 51
0.0
  7
KANJI20
  0
TEXT
  8
0
  6
CONTINUOUS
 62
     1
 10
266.104
 20
38.168
 30
0.32
 40
3.2
  1
□ＶＦ－１１ＥＶ
 50
0.0
 41
0.9
 51
0.0
  7
KANJI20
  0
TEXT
  8
0
  6
CONTINUOUS
 62
     1
 10
239.324
 20
34.668
 30
0.32
 40
3.2
  1
□ＶＦ－１２Ｅ
 50
0.0
 41
0.9
 51
0.0
  7
KANJI20
  0
TEXT
  8
0
  6
CONTINUOUS
 62
     1
 10
266.104
 20
34.488
 30
0.32
 40
3.2
  1
□ＶＦ－１２ＥＶ
 50
0.0
 41
0.9
 51
0.0
  7
KANJI20
  0
TEXT
  8
0
  6
CONTINUOUS
 62
     1
 10
242.896
 20
24.628
 30
0.32
 40
3.2
  1
広角度計器　外形図
 50
0.0
 41
0.9
 51
0.0
  7
KANJI20
  0
TEXT
  8
0
  6
CONTINUOUS
 62
     1
 10
243.2
 20
28.7
 30
0.5
 40
3.0
  1
ＥＬ板　照明付
 50
0.0
 41
0.9
 51
0.0
  7
KANJI3
  0
POINT
  8
0
  6
LTYPE1
 62
     2
 10
270.2
 20
122.85
 30
0.0
  0
LINE
  8
0
  6
CONTINUOUS
 62
     2
 10
207.052558883
 20
118.125
 30
0.0
 11
206.652558883
 21
118.125
 31
0.0
  0
LINE
  8
0
  6
CONTINUOUS
 62
     1
 10
180.3
 20
141.95
 30
0.0
 11
195.3
 21
141.95
 31
0.0
  0
ARC
  8
0
  6
CONTINUOUS
 62
     1
 10
195.3
 20
134.95
 30
0.0
 40
7.0
 50
24.160871774
 51
90.0
  0
LINE
  8
0
  6
CONTINUOUS
 62
     1
 10
201.686799282
 20
137.815099462
 30
0.0
 11
206.677699564
 21
126.689524673
 31
0.0
  0
ARC
  8
0
  6
CONTINUOUS
 62
     1
 10
202.8
 20
124.95
 30
0.0
 40
4.25
 50
0.0
 51
24.160864651
  0
LINE
  8
0
  6
CONTINUOUS
 62
     1
 10
207.05
 20
117.9499984
 30
0.0
 11
207.05
 21
124.95
 31
0.0
  0
LINE
  8
0
  6
CONTINUOUS
 62
     1
 10
168.55
 20
117.9499984
 30
0.0
 11
168.55
 21
124.95
 31
0.0
  0
ARC
  8
0
  6
CONTINUOUS
 62
     1
 10
172.8
 20
124.95
 30
0.0
 40
4.25
 50
155.839135349
 51
180.0
  0
LINE
  8
0
  6
CONTINUOUS
 62
     1
 10
173.913200718
 20
137.815099462
 30
0.0
 11
168.922300436
 21
126.689524673
 31
0.0
  0
ARC
  8
0
  6
CONTINUOUS
 62
     1
 10
180.3
 20
134.95
 30
0.0
 40
7.0
 50
90.0
 51
155.839128226
  0
LINE
  8
0
  6
CONTINUOUS
 62
     1
 10
168.55
 20
117.95
 30
0.0
 11
207.05
 21
117.95
 31
0.0
  0
LINE
  8
0
  6
LTYPE3
 62
     2
 10
193.1
 20
132.95
 30
0.0
 11
192.6
 21
132.95
 31
0.0
  0
ARC
  8
0
  6
LTYPE3
 62
     2
 10
191.85
 20
140.45
 30
0.0
 40
0.75
 50
0.0
 51
90.0
  0
LINE
  8
0
  6
LTYPE3
 62
     2
 10
192.6
 20
132.95
 30
0.0
 11
192.6
 21
140.45
 31
0.0
  0
LINE
  8
0
  6
LTYPE3
 62
     2
 10
180.275
 20
141.2
 30
0.0
 11
195.3
 21
141.2
 31
0.0
  0
ARC
  8
0
  6
LTYPE3
 62
     2
 10
195.3
 20
134.95
 30
0.0
 40
6.25
 50
24.160864651
 51
90.000006668
  0
ARC
  8
0
  6
LTYPE3
 62
     2
 10
183.75
 20
140.45
 30
0.0
 40
0.75
 50
90.0
 51
180.0
  0
LINE
  8
0
  6
LTYPE3
 62
     2
 10
183.0
 20
132.95
 30
0.0
 11
183.0
 21
140.45
 31
0.0
  0
ARC
  8
0
  6
LTYPE3
 62
     2
 10
180.3
 20
134.95
 30
0.0
 40
6.25
 50
89.999993332
 51
155.839135349
  0
ARC
  8
0
  6
LTYPE3
 62
     2
 10
198.5
 20
139.727290027
 30
0.0
 40
0.5
 50
56.184407518
 51
180.0
  0
LINE
  8
0
  6
LTYPE3
 62
     2
 10
198.0
 20
132.95
 30
0.0
 11
198.0
 21
139.727290027
 31
0.0
  0
LINE
  8
0
  6
LTYPE3
 62
     2
 10
177.6
 20
132.95
 30
0.0
 11
177.6
 21
139.727290027
 31
0.0
  0
ARC
  8
0
  6
LTYPE3
 62
     2
 10
177.1
 20
139.727290027
 30
0.0
 40
0.5
 50
0.0
 51
123.815592482
  0
ARC
  8
0
  6
LTYPE3
 62
     2
 10
179.549999046
 20
140.95
 30
0.0
 40
0.25
 50
0.0
 51
90.0
  0
ARC
  8
0
  6
LTYPE3
 62
     2
 10
181.050000954
 20
140.95
 30
0.0
 40
0.25
 50
90.0
 51
180.0
  0
ARC
  8
0
  6
LTYPE3
 62
     2
 10
196.050000954
 20
140.95
 30
0.0
 40
0.25
 50
90.0
 51
180.0
  0
ARC
  8
0
  6
LTYPE3
 62
     2
 10
194.549999046
 20
140.95
 30
0.0
 40
0.25
 50
0.0
 51
90.0
  0
LINE
  8
0
  6
LTYPE3
 62
     2
 10
180.800000954
 20
140.95
 30
0.0
 11
180.800000954
 21
138.95
 31
0.0
  0
LINE
  8
0
  6
LTYPE3
 62
     2
 10
180.800000954
 20
138.95
 30
0.0
 11
179.800000954
 21
138.95
 31
0.0
  0
LINE
  8
0
  6
LTYPE3
 62
     2
 10
179.800000954
 20
140.95
 30
0.0
 11
179.800000954
 21
138.95
 31
0.0
  0
LINE
  8
0
  6
LTYPE3
 62
     2
 10
179.05
 20
137.65
 30
0.0
 11
179.05
 21
136.574807681
 31
0.0
  0
LINE
  8
0
  6
LTYPE3
 62
     2
 10
178.65
 20
137.65
 30
0.0
 11
178.65
 21
141.752756794
 31
0.0
  0
LINE
  8
0
  6
LTYPE3
 62
     2
 10
178.45
 20
132.95
 30
0.0
 11
177.6
 21
132.95
 31
0.0
  0
ARC
  8
0
  6
LTYPE3
 62
     2
 10
180.3
 20
134.95
 30
0.0
 40
2.05
 50
127.57186932
 51
228.748359415
  0
ARC
  8
0
  6
LTYPE3
 62
     2
 10
178.45
 20
133.45
 30
0.0
 40
0.5
 50
270.0
 51
355.269685628
  0
LINE
  8
0
  6
LTYPE3
 62
     2
 10
181.55
 20
137.65
 30
0.0
 11
181.55
 21
136.574807681
 31
0.0
  0
LINE
  8
0
  6
LTYPE3
 62
     2
 10
181.95
 20
137.65
 30
0.0
 11
181.95
 21
141.752756794
 31
0.0
  0
ARC
  8
0
  6
LTYPE3
 62
     2
 10
180.3
 20
134.95
 30
0.0
 40
2.05
 50
311.251640585
 51
52.42813068
  0
LINE
  8
0
  6
LTYPE3
 62
     2
 10
182.15
 20
132.95
 30
0.0
 11
183.0
 21
132.95
 31
0.0
  0
ARC
  8
0
  6
LTYPE3
 62
     2
 10
182.15
 20
133.45
 30
0.0
 40
0.5
 50
184.730314372
 51
270.0
  0
LINE
  8
0
  6
LTYPE3
 62
     2
 10
195.799999046
 20
140.95
 30
0.0
 11
195.799999046
 21
138.95
 31
0.0
  0
LINE
  8
0
  6
LTYPE3
 62
     2
 10
194.799999046
 20
138.95
 30
0.0
 11
195.799999046
 21
138.95
 31
0.0
  0
LINE
  8
0
  6
LTYPE3
 62
     2
 10
194.799999046
 20
140.95
 30
0.0
 11
194.799999046
 21
138.95
 31
0.0
  0
LINE
  8
0
  6
LTYPE3
 62
     2
 10
194.05
 20
137.65
 30
0.0
 11
194.05
 21
136.574807681
 31
0.0
  0
LINE
  8
0
  6
LTYPE3
 62
     2
 10
193.65
 20
137.65
 30
0.0
 11
193.65
 21
141.752756794
 31
0.0
  0
ARC
  8
0
  6
LTYPE3
 62
     2
 10
195.3
 20
134.95
 30
0.0
 40
2.05
 50
127.57186932
 51
228.748359415
  0
LINE
  8
0
  6
LTYPE3
 62
     2
 10
193.45
 20
132.95
 30
0.0
 11
192.6
 21
132.95
 31
0.0
  0
ARC
  8
0
  6
LTYPE3
 62
     2
 10
193.45
 20
133.45
 30
0.0
 40
0.5
 50
270.0
 51
355.269685628
  0
LINE
  8
0
  6
LTYPE3
 62
     2
 10
196.55
 20
137.65
 30
0.0
 11
196.55
 21
136.574807681
 31
0.0
  0
LINE
  8
0
  6
LTYPE3
 62
     2
 10
196.95
 20
137.65
 30
0.0
 11
196.95
 21
141.752756794
 31
0.0
  0
ARC
  8
0
  6
LTYPE3
 62
     2
 10
195.3
 20
134.95
 30
0.0
 40
2.05
 50
311.251640585
 51
52.42813068
  0
LINE
  8
0
  6
LTYPE3
 62
     2
 10
197.5
 20
132.95
 30
0.0
 11
198.0
 21
132.95
 31
0.0
  0
LINE
  8
0
  6
LTYPE3
 62
     2
 10
197.15
 20
132.95
 30
0.0
 11
198.0
 21
132.95
 31
0.0
  0
ARC
  8
0
  6
LTYPE3
 62
     2
 10
197.15
 20
133.45
 30
0.0
 40
0.5
 50
184.730314372
 51
270.0
  0
ARC
  8
0
  6
LTYPE3
 62
     2
 10
172.8
 20
124.95
 30
0.0
 40
3.5
 50
154.667064238
 51
180.0
  0
ARC
  8
0
  6
LTYPE3
 62
     2
 10
172.8
 20
124.95
 30
0.0
 40
3.5
 50
155.83910686
 51
180.0
  0
LINE
  8
0
  6
LTYPE3
 62
     2
 10
169.606600359
 20
126.382549731
 30
0.0
 11
174.597500641
 21
137.508124519
 31
0.0
  0
LINE
  8
0
  6
LTYPE3
 62
     2
 10
169.3
 20
124.95
 30
0.0
 11
169.3
 21
117.95
 31
0.0
  0
LINE
  8
0
  6
LTYPE3
 62
     2
 10
206.3
 20
124.95
 30
0.0
 11
206.3
 21
117.95
 31
0.0
  0
ARC
  8
0
  6
LTYPE3
 62
     2
 10
202.8
 20
124.95
 30
0.0
 40
3.5
 50
0.0
 51
24.16089314
  0
LINE
  8
0
  6
LTYPE3
 62
     2
 10
205.993399641
 20
126.382549731
 30
0.0
 11
201.002499359
 21
137.508124519
 31
0.0
  0
LINE
  8
0
  6
CONTINUOUS
 62
     5
 10
168.578
 20
124.95
 30
0.0
 11
168.55
 21
124.95
 31
0.0
  0
LINE
  8
0
  6
CONTINUOUS
 62
     2
 10
181.95
 20
137.65
 30
0.0
 11
181.55
 21
137.65
 31
0.0
  0
LINE
  8
0
  6
CONTINUOUS
 62
     2
 10
193.65
 20
137.65
 30
0.0
 11
194.05
 21
137.65
 31
0.0
  0
LINE
  8
0
  6
CONTINUOUS
 62
     2
 10
196.95
 20
137.65
 30
0.0
 11
196.55
 21
137.65
 31
0.0
  0
LINE
  8
0
  6
CONTINUOUS
 62
     2
 10
178.65
 20
137.65
 30
0.0
 11
179.05
 21
137.65
 31
0.0
  0
LINE
  8
0
  6
CONTINUOUS
 62
     2
 10
212.148443581
 20
141.95
 30
0.0
 11
211.501395968
 21
139.535185434
 31
0.0
  0
LINE
  8
0
  6
CONTINUOUS
 62
     2
 10
212.148443581
 20
141.95
 30
0.0
 11
212.795491193
 21
139.535185434
 31
0.0
  0
LINE
  8
0
  6
CONTINUOUS
 62
     2
 10
212.148443581
 20
141.95
 30
0.0
 11
212.148443581
 21
130.1
 31
0.0
  0
LINE
  8
0
  6
CONTINUOUS
 62
     2
 10
212.148443581
 20
130.1
 30
0.0
 11
212.795491193
 21
132.514814566
 31
0.0
  0
LINE
  8
0
  6
CONTINUOUS
 62
     2
 10
212.148443581
 20
130.1
 30
0.0
 11
211.501395968
 21
132.514814566
 31
0.0
  0
TEXT
  8
0
  6
CONTINUOUS
 62
     2
 10
211.148443581
 20
134.075
 30
0.3
 40
3.0
  1
２４
 50
90.0
 41
0.6
 51
0.0
  7
KANJI6
  0
POLYLINE
  8
0
  6
CONTINUOUS
 62
     2
 66
     1
  0
VERTEX
  8
0
  6
CONTINUOUS
 62
     2
 10
212.148065621
 20
118.05
 30
0.0
  0
VERTEX
  8
0
  6
CONTINUOUS
 62
     2
 10
212.148065621
 20
129.9
 30
0.0
  0
VERTEX
  8
0
  6
CONTINUOUS
 62
     2
 10
212.795113233
 20
127.485185434
 30
0.0
  0
SEQEND
  0
LINE
  8
0
  6
CONTINUOUS
 62
     2
 10
212.148065621
 20
129.9
 30
0.0
 11
211.501018008
 21
127.485185434
 31
0.0
  0
TEXT
  8
0
  6
CONTINUOUS
 62
     2
 10
211.148065621
 20
122.025
 30
0.3
 40
3.0
  1
２４
 50
90.0
 41
0.6
 51
0.0
  7
KANJI6
  0
LINE
  8
0
  6
CONTINUOUS
 62
     2
 10
212.148065621
 20
118.05
 30
0.0
 11
211.501018008
 21
120.464814566
 31
0.0
  0
LINE
  8
0
  6
CONTINUOUS
 62
     2
 10
212.148065621
 20
118.05
 30
0.0
 11
212.795113233
 21
120.464814566
 31
0.0
  0
LINE
  8
0
  6
CONTINUOUS
 62
     2
 10
196.027839335
 20
118.05
 30
0.0
 11
213.530065621
 21
118.05
 31
0.0
  0
LINE
  8
0
  6
CONTINUOUS
 62
     2
 10
206.147770316
 20
130.1
 30
0.0
 11
213.530065621
 21
130.1
 31
0.0
  0
LINE
  8
0
  6
CONTINUOUS
 62
     2
 10
196.027839335
 20
141.95
 30
0.0
 11
213.530065621
 21
141.95
 31
0.0
  0
ARC
  8
0
  6
CONTINUOUS
 62
     2
 10
152.675
 20
133.9
 30
0.0
 40
1.475
 50
270.0
 51
0.0
  0
ARC
  8
0
  6
CONTINUOUS
 62
     2
 10
152.675
 20
136.05
 30
0.0
 40
1.475
 50
0.0
 51
90.0
  0
LINE
  8
0
  6
CONTINUOUS
 62
     2
 10
154.15
 20
136.05
 30
0.0
 11
154.15
 21
133.9
 31
0.0
  0
LINE
  8
0
  6
CONTINUOUS
 62
     2
 10
152.675
 20
132.425
 30
0.0
 11
152.175
 21
132.425
 31
0.0
  0
LINE
  8
0
  6
CONTINUOUS
 62
     2
 10
152.175
 20
132.425
 30
0.0
 11
152.175
 21
137.525
 31
0.0
  0
LINE
  8
0
  6
CONTINUOUS
 62
     2
 10
152.175
 20
137.525
 30
0.0
 11
152.675000132
 21
137.525
 31
0.0
  0
LINE
  8
0
  6
CONTINUOUS
 62
     2
 10
151.475
 20
137.725
 30
0.0
 11
152.15
 21
137.725
 31
0.0
  0
LINE
  8
0
  6
CONTINUOUS
 62
     2
 10
152.15
 20
137.725
 30
0.0
 11
152.15
 21
132.2225
 31
0.0
  0
LINE
  8
0
  6
CONTINUOUS
 62
     2
 10
152.15
 20
132.2225
 30
0.0
 11
151.475
 21
132.2225
 31
0.0
  0
LINE
  8
0
  6
CONTINUOUS
 62
     2
 10
151.475
 20
132.2225
 30
0.0
 11
151.475
 21
137.725
 31
0.0
  0
LINE
  8
0
  6
CONTINUOUS
 62
     2
 10
151.475
 20
135.035
 30
0.0
 11
152.15
 21
135.035
 31
0.0
  0
LINE
  8
0
  6
CONTINUOUS
 62
     2
 10
152.15
 20
134.935
 30
0.0
 11
151.475
 21
134.935
 31
0.0
  0
LINE
  8
0
  6
CONTINUOUS
 62
     2
 10
151.0
 20
131.8
 30
0.0
 11
151.475
 21
131.8
 31
0.0
  0
LINE
  8
0
  6
CONTINUOUS
 62
     2
 10
151.475
 20
131.8
 30
0.0
 11
151.475
 21
138.15
 31
0.0
  0
LINE
  8
0
  6
CONTINUOUS
 62
     2
 10
151.475
 20
138.15
 30
0.0
 11
151.0
 21
138.15
 31
0.0
  0
LINE
  8
0
  6
CONTINUOUS
 62
     2
 10
151.0
 20
138.15
 30
0.0
 11
151.0
 21
131.8
 31
0.0
  0
LINE
  8
0
  6
CONTINUOUS
 62
     2
 10
151.0
 20
132.975
 30
0.0
 11
146.5
 21
132.975
 31
0.0
  0
LINE
  8
0
  6
CONTINUOUS
 62
     2
 10
146.5
 20
136.975
 30
0.0
 11
151.0
 21
136.975
 31
0.0
  0
LINE
  8
0
  6
CONTINUOUS
 62
     2
 10
146.5
 20
136.975
 30
0.0
 11
146.5
 21
132.975
 31
0.0
  0
LINE
  8
0
  6
LTYPE1
 62
     2
 10
143.725
 20
134.975
 30
0.0
 11
156.45
 21
134.975
 31
0.0
  0
LINE
  8
0
  6
LTYPE3
 62
     2
 10
146.5
 20
131.725
 30
0.0
 11
146.5
 21
139.225
 31
0.0
  0
LINE
  8
0
  6
CONTINUOUS
 62
     2
 10
152.2
 20
132.375
 30
0.0
 11
151.900961894
 21
129.892949192
 31
0.0
  0
LINE
  8
0
  6
CONTINUOUS
 62
     2
 10
152.2
 20
132.375
 30
0.0
 11
153.182050808
 21
130.075961894
 31
0.0
  0
LINE
  8
0
  6
CONTINUOUS
 62
     1
 10
146.5
 20
117.975
 30
0.0
 11
146.5
 21
141.975
 31
0.0
  0
LINE
  8
0
  6
CONTINUOUS
 62
     1
 10
156.0
 20
138.975
 30
0.0
 11
156.0
 21
117.975
 31
0.0
  0
LINE
  8
0
  6
CONTINUOUS
 62
     1
 10
156.0
 20
117.975
 30
0.0
 11
146.5
 21
117.975
 31
0.0
  0
ARC
  8
0
  6
CONTINUOUS
 62
     1
 10
153.0
 20
138.975
 30
0.0
 40
3.0
 50
0.0
 51
90.0
  0
LINE
  8
0
  6
CONTINUOUS
 62
     1
 10
146.5
 20
141.975
 30
0.0
 11
153.0
 21
141.975
 31
0.0
  0
LINE
  8
0
  6
LTYPE3
 62
     2
 10
146.5
 20
141.225
 30
0.0
 11
153.0
 21
141.225
 31
0.0
  0
LINE
  8
0
  6
LTYPE3
 62
     2
 10
155.25
 20
138.975
 30
0.0
 11
155.25
 21
117.975
 31
0.0
  0
ARC
  8
0
  6
LTYPE3
 62
     2
 10
153.0
 20
138.975
 30
0.0
 40
2.25
 50
0.0
 51
90.0
  0
LINE
  8
0
  6
LTYPE3
 62
     2
 10
146.5
 20
136.599807681
 30
0.0
 11
150.9
 21
136.599807681
 31
0.0
  0
LINE
  8
0
  6
LTYPE3
 62
     2
 10
150.9
 20
132.975
 30
0.0
 11
146.5
 21
132.975
 31
0.0
  0
LINE
  8
0
  6
LTYPE3
 62
     2
 10
150.9
 20
133.433767098
 30
0.0
 11
146.5
 21
133.433767098
 31
0.0
  0
LINE
  8
0
  6
LTYPE1
 62
     5
 10
157.2115
 20
134.975
 30
0.0
 11
145.5305
 21
134.975
 31
0.0
  0
LINE
  8
0
  6
CONTINUOUS
 62
     2
 10
156.0
 20
165.850001907
 30
0.0
 11
153.585185434
 21
166.49704952
 31
0.0
  0
LINE
  8
0
  6
CONTINUOUS
 62
     2
 10
156.0
 20
165.850001907
 30
0.0
 11
153.585185434
 21
165.202954295
 31
0.0
  0
LINE
  8
0
  6
CONTINUOUS
 62
     2
 10
156.0
 20
166.125001907
 30
0.0
 11
156.0
 21
140.912001907
 31
0.0
  0
TEXT
  8
0
  6
CONTINUOUS
 62
     2
 10
149.375
 20
166.850001907
 30
0.3
 40
3.0
  1
１９
 50
0.0
 41
0.6
 51
0.0
  7
KANJI6
  0
LINE
  8
0
  6
CONTINUOUS
 62
     2
 10
149.1
 20
117.749999341
 30
0.0
 11
148.116356194
 21
115.451642349
 31
0.0
  0
LINE
  8
0
  6
CONTINUOUS
 62
     2
 10
149.1
 20
117.749999341
 30
0.0
 11
149.397317971
 21
115.267741896
 31
0.0
  0
TEXT
  8
0
  6
CONTINUOUS
 62
     2
 10
146.6
 20
92.349999341
 30
0.1
 40
3.0
  1
端子キャップ
 50
0.0
 41
0.6
 51
0.0
  7
KANJI9
  0
LINE
  8
0
  6
CONTINUOUS
 62
     2
 10
149.1
 20
117.749999341
 30
0.0
 11
145.424752475
 21
92.149999341
 31
0.0
  0
LINE
  8
0
  6
CONTINUOUS
 62
     2
 10
159.5
 20
92.149999341
 30
0.0
 11
145.424752475
 21
92.149999341
 31
0.0
  0
LINE
  8
0
  6
CONTINUOUS
 62
     2
 10
146.5
 20
165.875001907
 30
0.0
 11
156.0
 21
165.850001907
 31
0.0
  0
TEXT
  8
0
  6
CONTINUOUS
 62
     3
 10
235.0
 20
17.0
 30
0.6
 40
6.0
  1
ＭＳ－６３３８Ａ
 50
0.0
 41
0.9
 51
0.0
  7
KANJI21
  0
LINE
  8
0
  6
CONTINUOUS
 62
     2
 10
146.5
 20
160.550001907
 30
0.0
 11
146.5
 21
161.850001907
 31
0.0
  0
LINE
  8
0
  6
CONTINUOUS
 62
     2
 10
146.5
 20
159.850001907
 30
0.0
 11
148.914814566
 21
159.202954294
 31
0.0
  0
LINE
  8
0
  6
CONTINUOUS
 62
     2
 10
146.5
 20
159.850001907
 30
0.0
 11
148.914814566
 21
160.49704952
 31
0.0
  0
LINE
  8
0
  6
CONTINUOUS
 62
     2
 10
146.5
 20
159.850001907
 30
0.0
 11
154.15
 21
159.850001907
 31
0.0
  0
LINE
  8
0
  6
CONTINUOUS
 62
     2
 10
154.15
 20
159.850001907
 30
0.0
 11
151.735185434
 21
160.49704952
 31
0.0
  0
LINE
  8
0
  6
CONTINUOUS
 62
     2
 10
154.15
 20
159.850001907
 30
0.0
 11
151.735185434
 21
159.202954294
 31
0.0
  0
LINE
  8
0
  6
CONTINUOUS
 62
     2
 10
154.15
 20
160.450001907
 30
0.0
 11
154.15
 21
161.850001907
 31
0.0
  0
TEXT
  8
0
  6
CONTINUOUS
 62
     2
 10
148.375
 20
160.850001907
 30
0.3
 40
3.0
  1
１７
 50
0.0
 41
0.6
 51
0.0
  7
KANJI6
  0
LINE
  8
0
  6
CONTINUOUS
 62
     2
 10
102.8
 20
68.4
 30
0.0
 11
102.8
 21
80.4
 31
0.0
  0
ENDSEC
  0
EOF
