  0
SECTION
  2
HEADER
  9
$ACADVER
  1
AC1009
  9
$DWGCODEPAGE
  3
dos932
  9
$EXTMIN
 10
0.0
 20
0.0
 30
0.0
  9
$EXTMAX
 10
297.0
 20
210.0
 30
0.0
  9
$LIMMIN
 10
0.0
 20
0.0
  9
$LIMMAX
 10
297.0
 20
210.0
  9
$LTSCALE
 40
1.0
  9
$PDMODE
 70
     0
  0
ENDSEC
  0
SECTION
  2
TABLES
  0
TABLE
  2
VPORT
 70
     1
  0
VPORT
  2
*ACTIVE
 70
     0
 10
0.0
 20
0.0
 11
1.0
 21
1.0
 12
148.5
 22
105.0
 13
0.0
 23
0.0
 14
10.0
 24
10.0
 15
10.0
 25
10.0
 16
0.0
 26
0.0
 36
1.0
 17
0.0
 27
0.0
 37
0.0
 40
297.0
 41
1.414285714
 42
50.0
 43
0.0
 44
0.0
 50
0.0
 51
0.0
 71
     0
 72
  1000
 73
     1
 74
     3
 75
     0
 76
     0
 77
     0
 78
     0
  0
ENDTAB
  0
TABLE
  2
LTYPE
 70
     6
  0
LTYPE
  2
CONTINUOUS
 70
    64
  3
Solid line
 72
    65
 73
     0
 40
0.0
  0
LTYPE
  2
LTYPE1
 70
    64
  3
CENTER
 72
    65
 73
     4
 40
15.0
 49
10.5
 49
-1.5
 49
1.5
 49
-1.5
  0
LTYPE
  2
LTYPE2
 70
    64
  3
CENTER
 72
    65
 73
     4
 40
8.0
 49
5.6
 49
-0.8
 49
0.8
 49
-0.8
  0
LTYPE
  2
LTYPE3
 70
    64
  3
HIDDEN
 72
    65
 73
     2
 40
1.0
 49
0.6
 49
-0.4
  0
LTYPE
  2
LTYPE4
 70
    64
  3
CENTER
 72
    65
 73
     4
 40
5.0
 49
3.5
 49
-0.5
 49
0.5
 49
-0.5
  0
LTYPE
  2
LTYPE5
 70
    64
  3
HIDDEN
 72
    65
 73
     2
 40
2.0
 49
1.2
 49
-0.8
  0
ENDTAB
  0
TABLE
  2
LAYER
 70
   128
  0
LAYER
  2
0
 70
     0
 62
     7
  6
CONTINUOUS
  0
LAYER
  2
2
 70
     0
 62
     7
  6
CONTINUOUS
  0
LAYER
  2
3
 70
     0
 62
     7
  6
CONTINUOUS
  0
LAYER
  2
4
 70
     0
 62
     7
  6
CONTINUOUS
  0
LAYER
  2
5
 70
     0
 62
     7
  6
CONTINUOUS
  0
LAYER
  2
6
 70
     0
 62
     7
  6
CONTINUOUS
  0
LAYER
  2
7
 70
     0
 62
     7
  6
CONTINUOUS
  0
LAYER
  2
8
 70
     0
 62
     7
  6
CONTINUOUS
  0
LAYER
  2
9
 70
     0
 62
     7
  6
CONTINUOUS
  0
LAYER
  2
10
 70
     0
 62
     7
  6
CONTINUOUS
  0
LAYER
  2
11
 70
     0
 62
     7
  6
CONTINUOUS
  0
LAYER
  2
12
 70
     0
 62
     7
  6
CONTINUOUS
  0
LAYER
  2
13
 70
     0
 62
     7
  6
CONTINUOUS
  0
LAYER
  2
14
 70
     0
 62
     7
  6
CONTINUOUS
  0
LAYER
  2
15
 70
     0
 62
     7
  6
CONTINUOUS
  0
LAYER
  2
16
 70
     0
 62
     7
  6
CONTINUOUS
  0
LAYER
  2
17
 70
     0
 62
     7
  6
CONTINUOUS
  0
LAYER
  2
18
 70
     0
 62
     7
  6
CONTINUOUS
  0
LAYER
  2
19
 70
     0
 62
     7
  6
CONTINUOUS
  0
LAYER
  2
20
 70
     0
 62
     7
  6
CONTINUOUS
  0
LAYER
  2
21
 70
     0
 62
     7
  6
CONTINUOUS
  0
LAYER
  2
22
 70
     0
 62
     7
  6
CONTINUOUS
  0
LAYER
  2
23
 70
     0
 62
     7
  6
CONTINUOUS
  0
LAYER
  2
24
 70
     0
 62
     7
  6
CONTINUOUS
  0
LAYER
  2
25
 70
     0
 62
     7
  6
CONTINUOUS
  0
LAYER
  2
26
 70
     0
 62
     7
  6
CONTINUOUS
  0
LAYER
  2
27
 70
     0
 62
     7
  6
CONTINUOUS
  0
LAYER
  2
28
 70
     0
 62
     7
  6
CONTINUOUS
  0
LAYER
  2
29
 70
     0
 62
     7
  6
CONTINUOUS
  0
LAYER
  2
30
 70
     0
 62
     7
  6
CONTINUOUS
  0
LAYER
  2
31
 70
     0
 62
     7
  6
CONTINUOUS
  0
LAYER
  2
32
 70
     0
 62
     7
  6
CONTINUOUS
  0
LAYER
  2
33
 70
     0
 62
     7
  6
CONTINUOUS
  0
LAYER
  2
34
 70
     0
 62
     7
  6
CONTINUOUS
  0
LAYER
  2
35
 70
     0
 62
     7
  6
CONTINUOUS
  0
LAYER
  2
36
 70
     0
 62
     7
  6
CONTINUOUS
  0
LAYER
  2
37
 70
     0
 62
     7
  6
CONTINUOUS
  0
LAYER
  2
38
 70
     0
 62
     7
  6
CONTINUOUS
  0
LAYER
  2
39
 70
     0
 62
     7
  6
CONTINUOUS
  0
LAYER
  2
40
 70
     0
 62
     7
  6
CONTINUOUS
  0
LAYER
  2
41
 70
     0
 62
     7
  6
CONTINUOUS
  0
LAYER
  2
42
 70
     0
 62
     7
  6
CONTINUOUS
  0
LAYER
  2
43
 70
     0
 62
     7
  6
CONTINUOUS
  0
LAYER
  2
44
 70
     0
 62
     7
  6
CONTINUOUS
  0
LAYER
  2
45
 70
     0
 62
     7
  6
CONTINUOUS
  0
LAYER
  2
46
 70
     0
 62
     7
  6
CONTINUOUS
  0
LAYER
  2
47
 70
     0
 62
     7
  6
CONTINUOUS
  0
LAYER
  2
48
 70
     0
 62
     7
  6
CONTINUOUS
  0
LAYER
  2
49
 70
     0
 62
     7
  6
CONTINUOUS
  0
LAYER
  2
50
 70
     0
 62
     7
  6
CONTINUOUS
  0
LAYER
  2
51
 70
     0
 62
     7
  6
CONTINUOUS
  0
LAYER
  2
52
 70
     0
 62
     7
  6
CONTINUOUS
  0
LAYER
  2
53
 70
     0
 62
     7
  6
CONTINUOUS
  0
LAYER
  2
54
 70
     0
 62
     7
  6
CONTINUOUS
  0
LAYER
  2
55
 70
     0
 62
     7
  6
CONTINUOUS
  0
LAYER
  2
56
 70
     0
 62
     7
  6
CONTINUOUS
  0
LAYER
  2
57
 70
     0
 62
     7
  6
CONTINUOUS
  0
LAYER
  2
58
 70
     0
 62
     7
  6
CONTINUOUS
  0
LAYER
  2
59
 70
     0
 62
     7
  6
CONTINUOUS
  0
LAYER
  2
60
 70
     0
 62
     7
  6
CONTINUOUS
  0
LAYER
  2
61
 70
     0
 62
     7
  6
CONTINUOUS
  0
LAYER
  2
62
 70
     0
 62
     7
  6
CONTINUOUS
  0
LAYER
  2
63
 70
     0
 62
     7
  6
CONTINUOUS
  0
LAYER
  2
64
 70
     0
 62
     7
  6
CONTINUOUS
  0
LAYER
  2
65
 70
     0
 62
     7
  6
CONTINUOUS
  0
LAYER
  2
66
 70
     0
 62
     7
  6
CONTINUOUS
  0
LAYER
  2
67
 70
     0
 62
     7
  6
CONTINUOUS
  0
LAYER
  2
68
 70
     0
 62
     7
  6
CONTINUOUS
  0
LAYER
  2
69
 70
     0
 62
     7
  6
CONTINUOUS
  0
LAYER
  2
70
 70
     0
 62
     7
  6
CONTINUOUS
  0
LAYER
  2
71
 70
     0
 62
     7
  6
CONTINUOUS
  0
LAYER
  2
72
 70
     0
 62
     7
  6
CONTINUOUS
  0
LAYER
  2
73
 70
     0
 62
     7
  6
CONTINUOUS
  0
LAYER
  2
74
 70
     0
 62
     7
  6
CONTINUOUS
  0
LAYER
  2
75
 70
     0
 62
     7
  6
CONTINUOUS
  0
LAYER
  2
76
 70
     0
 62
     7
  6
CONTINUOUS
  0
LAYER
  2
77
 70
     0
 62
     7
  6
CONTINUOUS
  0
LAYER
  2
78
 70
     0
 62
     7
  6
CONTINUOUS
  0
LAYER
  2
79
 70
     0
 62
     7
  6
CONTINUOUS
  0
LAYER
  2
80
 70
     0
 62
     7
  6
CONTINUOUS
  0
LAYER
  2
81
 70
     0
 62
     7
  6
CONTINUOUS
  0
LAYER
  2
82
 70
     0
 62
     7
  6
CONTINUOUS
  0
LAYER
  2
83
 70
     0
 62
     7
  6
CONTINUOUS
  0
LAYER
  2
84
 70
     0
 62
     7
  6
CONTINUOUS
  0
LAYER
  2
85
 70
     0
 62
     7
  6
CONTINUOUS
  0
LAYER
  2
86
 70
     0
 62
     7
  6
CONTINUOUS
  0
LAYER
  2
87
 70
     0
 62
     7
  6
CONTINUOUS
  0
LAYER
  2
88
 70
     0
 62
     7
  6
CONTINUOUS
  0
LAYER
  2
89
 70
     0
 62
     7
  6
CONTINUOUS
  0
LAYER
  2
90
 70
     0
 62
     7
  6
CONTINUOUS
  0
LAYER
  2
91
 70
     0
 62
     7
  6
CONTINUOUS
  0
LAYER
  2
92
 70
     0
 62
     7
  6
CONTINUOUS
  0
LAYER
  2
93
 70
     0
 62
     7
  6
CONTINUOUS
  0
LAYER
  2
94
 70
     0
 62
     7
  6
CONTINUOUS
  0
LAYER
  2
95
 70
     0
 62
     7
  6
CONTINUOUS
  0
LAYER
  2
96
 70
     0
 62
     7
  6
CONTINUOUS
  0
LAYER
  2
97
 70
     0
 62
     7
  6
CONTINUOUS
  0
LAYER
  2
98
 70
     0
 62
     7
  6
CONTINUOUS
  0
LAYER
  2
99
 70
     0
 62
     7
  6
CONTINUOUS
  0
LAYER
  2
100
 70
     0
 62
     7
  6
CONTINUOUS
  0
LAYER
  2
101
 70
     0
 62
     7
  6
CONTINUOUS
  0
LAYER
  2
102
 70
     0
 62
     7
  6
CONTINUOUS
  0
LAYER
  2
103
 70
     0
 62
     7
  6
CONTINUOUS
  0
LAYER
  2
104
 70
     0
 62
     7
  6
CONTINUOUS
  0
LAYER
  2
105
 70
     0
 62
     7
  6
CONTINUOUS
  0
LAYER
  2
106
 70
     0
 62
     7
  6
CONTINUOUS
  0
LAYER
  2
107
 70
     0
 62
     7
  6
CONTINUOUS
  0
LAYER
  2
108
 70
     0
 62
     7
  6
CONTINUOUS
  0
LAYER
  2
109
 70
     0
 62
     7
  6
CONTINUOUS
  0
LAYER
  2
110
 70
     0
 62
     7
  6
CONTINUOUS
  0
LAYER
  2
111
 70
     0
 62
     7
  6
CONTINUOUS
  0
LAYER
  2
112
 70
     0
 62
     7
  6
CONTINUOUS
  0
LAYER
  2
113
 70
     0
 62
     7
  6
CONTINUOUS
  0
LAYER
  2
114
 70
     0
 62
     7
  6
CONTINUOUS
  0
LAYER
  2
115
 70
     0
 62
     7
  6
CONTINUOUS
  0
LAYER
  2
116
 70
     0
 62
     7
  6
CONTINUOUS
  0
LAYER
  2
117
 70
     0
 62
     7
  6
CONTINUOUS
  0
LAYER
  2
118
 70
     0
 62
     7
  6
CONTINUOUS
  0
LAYER
  2
119
 70
     0
 62
     7
  6
CONTINUOUS
  0
LAYER
  2
120
 70
     0
 62
     7
  6
CONTINUOUS
  0
LAYER
  2
121
 70
     0
 62
     7
  6
CONTINUOUS
  0
LAYER
  2
122
 70
     0
 62
     7
  6
CONTINUOUS
  0
LAYER
  2
123
 70
     0
 62
     7
  6
CONTINUOUS
  0
LAYER
  2
124
 70
     0
 62
     7
  6
CONTINUOUS
  0
LAYER
  2
125
 70
     0
 62
     7
  6
CONTINUOUS
  0
LAYER
  2
126
 70
     0
 62
     7
  6
CONTINUOUS
  0
LAYER
  2
127
 70
     0
 62
     7
  6
CONTINUOUS
  0
LAYER
  2
128
 70
     0
 62
     7
  6
CONTINUOUS
  0
ENDTAB
  0
TABLE
  2
STYLE
 70
    14
  0
STYLE
  2
STANDARD
 70
     0
 40
0.0
 41
1.0
 50
0.0
 71
     0
 42
0.2
  3
txt.shx
  4
extfont.shx
  0
STYLE
  2
KANJI0
 70
     0
 40
3.0
 41
0.9
 50
0.0
 71
     0
 42
3.0
  3
txt.shx
  4
extfont.shx
  0
STYLE
  2
KANJI1
 70
     0
 40
1.8
 41
0.6
 50
0.0
 71
     0
 42
1.8
  3
txt.shx
  4
extfont.shx
  0
STYLE
  2
KANJI2
 70
     0
 40
3.0
 41
0.6
 50
0.0
 71
     0
 42
3.0
  3
txt.shx
  4
extfont.shx
  0
STYLE
  2
KANJI3
 70
     0
 40
3.0
 41
0.9
 50
0.0
 71
     0
 42
3.0
  3
txt.shx
  4
extfont.shx
  0
STYLE
  2
KANJI4
 70
     0
 40
3.0
 41
0.9
 50
0.0
 71
     0
 42
3.0
  3
txt.shx
  4
extfont.shx
  0
STYLE
  2
KANJI5
 70
     0
 40
3.0
 41
0.45
 50
0.0
 71
     0
 42
3.0
  3
txt.shx
  4
extfont.shx
  0
STYLE
  2
KANJI6
 70
     0
 40
4.0
 41
0.9
 50
0.0
 71
     0
 42
4.0
  3
txt.shx
  4
extfont.shx
  0
STYLE
  2
KANJI7
 70
     0
 40
4.0
 41
0.9
 50
0.0
 71
     0
 42
4.0
  3
txt.shx
  4
extfont.shx
  0
STYLE
  2
KANJI8
 70
     0
 40
3.0
 41
0.666666667
 50
0.0
 71
     0
 42
3.0
  3
txt.shx
  4
extfont.shx
  0
STYLE
  2
KANJI9
 70
     0
 40
3.0
 41
0.9
 50
0.0
 71
     0
 42
3.0
  3
txt.shx
  4
extfont.shx
  0
STYLE
  2
KANJI10
 70
     0
 40
6.0
 41
0.9
 50
0.0
 71
     0
 42
6.0
  3
txt.shx
  4
extfont.shx
  0
STYLE
  2
KANJI11
 70
     0
 40
3.0
 41
0.45
 50
0.0
 71
     0
 42
3.0
  3
txt.shx
  4
extfont.shx
  0
STYLE
  2
KANJI12
 70
     0
 40
5.0
 41
0.9
 50
0.0
 71
     0
 42
5.0
  3
txt.shx
  4
extfont.shx
  0
ENDTAB
  0
TABLE
  2
VIEW
 70
     0
  0
ENDTAB
  0
ENDSEC
  0
SECTION
  2
BLOCKS
  0
ENDSEC
  0
SECTION
  2
ENTITIES
  0
TEXT
  8
0
  6
CONTINUOUS
 62
     1
 10
168.45
 20
19.1
 30
0.5
 40
3.0
  1
パネルカット
 50
0.0
 41
0.9
 51
0.0
  7
KANJI0
  0
LINE
  8
0
  6
CONTINUOUS
 62
     1
 10
167.2
 20
18.25
 30
0.0
 11
188.1
 21
18.25
 31
0.0
  0
POINT
  8
0
  6
LTYPE1
 62
     2
 10
177.6
 20
23.7
 30
0.0
  0
LINE
  8
0
  6
CONTINUOUS
 62
     2
 10
211.6
 20
53.35
 30
0.0
 11
210.952952387
 21
50.935185434
 31
0.0
  0
LINE
  8
0
  6
CONTINUOUS
 62
     2
 10
211.6
 20
53.35
 30
0.0
 11
212.247047613
 21
50.935185434
 31
0.0
  0
LINE
  8
0
  6
CONTINUOUS
 62
     2
 10
207.0
 20
53.35
 30
0.0
 11
213.6
 21
53.35
 31
0.0
  0
LINE
  8
0
  6
CONTINUOUS
 62
     2
 10
211.6
 20
53.35
 30
0.0
 11
212.247047613
 21
55.764814566
 31
0.0
  0
LINE
  8
0
  6
CONTINUOUS
 62
     2
 10
211.6
 20
53.35
 30
0.0
 11
210.952952387
 21
55.764814566
 31
0.0
  0
TEXT
  8
0
  6
CONTINUOUS
 62
     2
 10
210.6
 20
64.12
 30
0.18
 40
1.8
  1
±０．５
 50
90.0
 41
0.6
 51
0.0
  7
KANJI1
  0
TEXT
  8
0
  6
CONTINUOUS
 62
     2
 10
210.6
 20
41.62
 30
0.18
 40
1.8
  1
±０．５
 50
90.0
 41
0.6
 51
0.0
  7
KANJI1
  0
LINE
  8
0
  6
CONTINUOUS
 62
     2
 10
177.6
 20
82.85
 30
0.0
 11
175.185185434
 21
83.497047613
 31
0.0
  0
LINE
  8
0
  6
CONTINUOUS
 62
     2
 10
177.6
 20
82.85
 30
0.0
 11
175.185185434
 21
82.202952387
 31
0.0
  0
LINE
  8
0
  6
CONTINUOUS
 62
     2
 10
177.6
 20
82.2
 30
0.0
 11
177.6
 21
84.85
 31
0.0
  0
TEXT
  8
0
  6
CONTINUOUS
 62
     2
 10
165.87
 20
83.85
 30
0.18
 40
1.8
  1
±０．５
 50
0.0
 41
0.6
 51
0.0
  7
KANJI1
  0
LINE
  8
0
  6
CONTINUOUS
 62
     2
 10
177.6
 20
82.85
 30
0.0
 11
180.014814566
 21
82.202952387
 31
0.0
  0
LINE
  8
0
  6
CONTINUOUS
 62
     2
 10
177.6
 20
82.85
 30
0.0
 11
180.014814566
 21
83.497047613
 31
0.0
  0
TEXT
  8
0
  6
CONTINUOUS
 62
     2
 10
188.37
 20
83.85
 30
0.18
 40
1.8
  1
±０．５
 50
0.0
 41
0.6
 51
0.0
  7
KANJI1
  0
CIRCLE
  8
0
  6
CONTINUOUS
 62
     1
 10
177.6
 20
53.35
 30
0.0
 40
28.0
  0
LINE
  8
0
  6
CONTINUOUS
 62
     2
 10
205.15
 20
28.35
 30
0.0
 11
213.6
 21
28.35
 31
0.0
  0
LINE
  8
0
  6
CONTINUOUS
 62
     2
 10
211.6
 20
28.35
 30
0.0
 11
212.247047613
 21
30.764814566
 31
0.0
  0
LINE
  8
0
  6
CONTINUOUS
 62
     2
 10
211.6
 20
28.35
 30
0.0
 11
210.952952387
 21
30.764814566
 31
0.0
  0
LINE
  8
0
  6
CONTINUOUS
 62
     2
 10
211.6
 20
78.35
 30
0.0
 11
210.952952387
 21
75.935185434
 31
0.0
  0
LINE
  8
0
  6
CONTINUOUS
 62
     2
 10
211.6
 20
78.35
 30
0.0
 11
212.247047613
 21
75.935185434
 31
0.0
  0
LINE
  8
0
  6
CONTINUOUS
 62
     2
 10
207.35
 20
78.35
 30
0.0
 11
213.6
 21
78.35
 31
0.0
  0
LINE
  8
0
  6
CONTINUOUS
 62
     2
 10
211.6
 20
53.35
 30
0.0
 11
211.6
 21
78.35
 31
0.0
  0
LINE
  8
0
  6
CONTINUOUS
 62
     2
 10
211.6
 20
28.35
 30
0.0
 11
211.6
 21
53.35
 31
0.0
  0
CIRCLE
  8
0
  6
CONTINUOUS
 62
     1
 10
152.6
 20
78.35
 30
0.0
 40
1.75
  0
CIRCLE
  8
0
  6
CONTINUOUS
 62
     1
 10
202.6
 20
78.35
 30
0.0
 40
1.75
  0
LINE
  8
0
  6
CONTINUOUS
 62
     2
 10
202.6
 20
82.85
 30
0.0
 11
200.185185434
 21
83.497047613
 31
0.0
  0
LINE
  8
0
  6
CONTINUOUS
 62
     2
 10
202.6
 20
82.85
 30
0.0
 11
200.185185434
 21
82.202952387
 31
0.0
  0
LINE
  8
0
  6
CONTINUOUS
 62
     2
 10
152.6
 20
82.2
 30
0.0
 11
152.6
 21
84.85
 31
0.0
  0
LINE
  8
0
  6
CONTINUOUS
 62
     2
 10
152.6
 20
82.85
 30
0.0
 11
155.014814566
 21
82.202952387
 31
0.0
  0
LINE
  8
0
  6
CONTINUOUS
 62
     2
 10
152.6
 20
82.85
 30
0.0
 11
155.014814566
 21
83.497047613
 31
0.0
  0
LINE
  8
0
  6
CONTINUOUS
 62
     2
 10
152.6
 20
82.85
 30
0.0
 11
177.6
 21
82.85
 31
0.0
  0
LINE
  8
0
  6
CONTINUOUS
 62
     2
 10
177.6
 20
82.85
 30
0.0
 11
202.6
 21
82.85
 31
0.0
  0
TEXT
  8
0
  6
CONTINUOUS
 62
     2
 10
161.97
 20
83.85
 30
0.3
 40
3.0
  1
５０
 50
0.0
 41
0.6
 51
0.0
  7
KANJI2
  0
TEXT
  8
0
  6
CONTINUOUS
 62
     2
 10
184.47
 20
83.85
 30
0.3
 40
3.0
  1
５０
 50
0.0
 41
0.6
 51
0.0
  7
KANJI2
  0
TEXT
  8
0
  6
CONTINUOUS
 62
     2
 10
210.6
 20
60.22
 30
0.3
 40
3.0
  1
５０
 50
90.0
 41
0.6
 51
0.0
  7
KANJI2
  0
TEXT
  8
0
  6
CONTINUOUS
 62
     2
 10
210.6
 20
37.72
 30
0.3
 40
3.0
  1
５０
 50
90.0
 41
0.6
 51
0.0
  7
KANJI2
  0
LINE
  8
0
  6
CONTINUOUS
 62
     2
 10
159.651618122
 20
31.85917433
 30
0.0
 11
161.696175316
 21
33.297849374
 31
0.0
  0
LINE
  8
0
  6
CONTINUOUS
 62
     2
 10
159.651618122
 20
31.85917433
 30
0.0
 11
160.70291907
 21
34.127382063
 31
0.0
  0
LINE
  8
0
  6
CONTINUOUS
 62
     2
 10
159.651618122
 20
31.85917433
 30
0.0
 11
195.548381878
 21
74.84082567
 31
0.0
  0
LINE
  8
0
  6
CONTINUOUS
 62
     2
 10
195.548381878
 20
74.84082567
 30
0.0
 11
193.503824684
 21
73.402150626
 31
0.0
  0
LINE
  8
0
  6
CONTINUOUS
 62
     2
 10
195.548381878
 20
74.84082567
 30
0.0
 11
194.49708093
 21
72.572617937
 31
0.0
  0
LINE
  8
0
  6
CONTINUOUS
 62
     2
 10
14.6
 20
70.9
 30
0.0
 11
139.6
 21
70.9
 31
0.0
  0
LINE
  8
0
  6
CONTINUOUS
 62
     2
 10
139.6
 20
70.9
 30
0.0
 11
139.6
 21
30.9
 31
0.0
  0
LINE
  8
0
  6
CONTINUOUS
 62
     2
 10
139.6
 20
30.9
 30
0.0
 11
14.6
 21
30.9
 31
0.0
  0
LINE
  8
0
  6
CONTINUOUS
 62
     2
 10
14.6
 20
30.9
 30
0.0
 11
14.6
 21
70.9
 31
0.0
  0
LINE
  8
0
  6
CONTINUOUS
 62
     2
 10
14.6
 20
65.9
 30
0.0
 11
139.6
 21
65.9
 31
0.0
  0
LINE
  8
0
  6
CONTINUOUS
 62
     2
 10
109.6
 20
70.95
 30
0.0
 11
109.6
 21
30.9
 31
0.0
  0
LINE
  8
0
  6
CONTINUOUS
 62
     2
 10
79.6
 20
30.9
 30
0.0
 11
79.6
 21
70.9
 31
0.0
  0
LINE
  8
0
  6
CONTINUOUS
 62
     2
 10
49.6
 20
70.9
 30
0.0
 11
49.6
 21
30.9
 31
0.0
  0
LINE
  8
0
  6
CONTINUOUS
 62
     2
 10
19.6
 20
30.9
 30
0.0
 11
19.6
 21
70.9
 31
0.0
  0
LINE
  8
0
  6
CONTINUOUS
 62
     2
 10
109.6
 20
40.9
 30
0.0
 11
139.6
 21
40.9
 31
0.0
  0
LINE
  8
0
  6
CONTINUOUS
 62
     2
 10
109.6
 20
40.9
 30
0.0
 11
139.6
 21
65.9
 31
0.0
  0
TEXT
  8
0
  6
CONTINUOUS
 62
     2
 10
15.6
 20
66.9
 30
0.3
 40
3.0
  1
項
 50
0.0
 41
0.9
 51
0.0
  7
KANJI3
  0
TEXT
  8
0
  6
CONTINUOUS
 62
     2
 10
15.6
 20
61.9
 30
0.3
 40
3.0
  1
１
 50
0.0
 41
0.9
 51
0.0
  7
KANJI3
  0
TEXT
  8
0
  6
CONTINUOUS
 62
     2
 10
15.6
 20
56.9
 30
0.3
 40
3.0
  1
２
 50
0.0
 41
0.9
 51
0.0
  7
KANJI3
  0
TEXT
  8
0
  6
CONTINUOUS
 62
     2
 10
15.6
 20
51.9
 30
0.3
 40
3.0
  1
３
 50
0.0
 41
0.9
 51
0.0
  7
KANJI3
  0
TEXT
  8
0
  6
CONTINUOUS
 62
     2
 10
15.6
 20
46.9
 30
0.3
 40
3.0
  1
４
 50
0.0
 41
0.9
 51
0.0
  7
KANJI3
  0
TEXT
  8
0
  6
CONTINUOUS
 62
     2
 10
15.6
 20
41.9
 30
0.3
 40
3.0
  1
５
 50
0.0
 41
0.9
 51
0.0
  7
KANJI3
  0
TEXT
  8
0
  6
CONTINUOUS
 62
     2
 10
15.6
 20
36.9
 30
0.3
 40
3.0
  1
６
 50
0.0
 41
0.9
 51
0.0
  7
KANJI3
  0
TEXT
  8
0
  6
CONTINUOUS
 62
     2
 10
15.6
 20
31.9
 30
0.3
 40
3.0
  1
７
 50
0.0
 41
0.9
 51
0.0
  7
KANJI3
  0
TEXT
  8
0
  6
CONTINUOUS
 62
     2
 10
24.6
 20
66.9
 30
1.0
 40
3.0
  1
計器形名
 50
0.0
 41
0.9
 51
0.0
  7
KANJI4
  0
TEXT
  8
0
  6
CONTINUOUS
 62
     2
 10
54.6
 20
66.9
 30
1.0
 40
3.0
  1
動作原理
 50
0.0
 41
0.9
 51
0.0
  7
KANJI4
  0
TEXT
  8
0
  6
CONTINUOUS
 62
     2
 10
110.6
 20
66.9
 30
1.0
 40
3.0
  1
感度調整用抵抗器
 50
0.0
 41
0.9
 51
0.0
  7
KANJI4
  0
TEXT
  8
0
  6
CONTINUOUS
 62
     2
 10
110.6
 20
36.9
 30
1.0
 40
3.0
  1
上図※印の位置に
 50
0.0
 41
0.9
 51
0.0
  7
KANJI4
  0
TEXT
  8
0
  6
CONTINUOUS
 62
     2
 10
24.6
 20
58.4
 30
0.5
 40
3.0
  1
Ｓ
 50
0.0
 41
0.45
 51
0.0
  7
KANJI5
  0
TEXT
  8
0
  6
CONTINUOUS
 62
     2
 10
24.6
 20
55.9
 30
0.5
 40
3.0
  1
Ｃ
 50
0.0
 41
0.45
 51
0.0
  7
KANJI5
  0
TEXT
  8
0
  6
CONTINUOUS
 62
     2
 10
24.8
 20
33.4
 30
0.5
 40
3.0
  1
Ｓ
 50
0.0
 41
0.45
 51
0.0
  7
KANJI5
  0
TEXT
  8
0
  6
CONTINUOUS
 62
     2
 10
24.8
 20
30.9
 30
0.5
 40
3.0
  1
Ｃ　
 50
0.0
 41
0.45
 51
0.0
  7
KANJI5
  0
TEXT
  8
0
  6
CONTINUOUS
 62
     2
 10
54.1
 20
31.9
 30
0.5
 40
3.0
  1
整流形
 50
0.0
 41
0.9
 51
0.0
  7
KANJI0
  0
TEXT
  8
0
  6
CONTINUOUS
 62
     2
 10
88.6
 20
61.9
 30
0.5
 40
3.0
  1
１０２
 50
0.0
 41
0.9
 51
0.0
  7
KANJI0
  0
TEXT
  8
0
  6
CONTINUOUS
 62
     2
 10
88.6
 20
56.9
 30
0.5
 40
3.0
  1
１０２
 50
0.0
 41
0.9
 51
0.0
  7
KANJI0
  0
TEXT
  8
0
  6
CONTINUOUS
 62
     2
 10
88.6
 20
51.9
 30
0.5
 40
3.0
  1
１０２
 50
0.0
 41
0.9
 51
0.0
  7
KANJI0
  0
TEXT
  8
0
  6
CONTINUOUS
 62
     2
 10
88.6
 20
46.9
 30
0.5
 40
3.0
  1
１０２
 50
0.0
 41
0.9
 51
0.0
  7
KANJI0
  0
TEXT
  8
0
  6
CONTINUOUS
 62
     2
 10
88.6
 20
41.9
 30
0.5
 40
3.0
  1
１２９
 50
0.0
 41
0.9
 51
0.0
  7
KANJI0
  0
TEXT
  8
0
  6
CONTINUOUS
 62
     2
 10
88.6
 20
36.9
 30
0.5
 40
3.0
  1
１０２
 50
0.0
 41
0.9
 51
0.0
  7
KANJI0
  0
TEXT
  8
0
  6
CONTINUOUS
 62
     2
 10
88.6
 20
31.9
 30
0.5
 40
3.0
  1
１０２
 50
0.0
 41
0.9
 51
0.0
  7
KANJI0
  0
TEXT
  8
0
  6
CONTINUOUS
 62
     2
 10
110.6
 20
31.9
 30
1.0
 40
3.0
  1
内蔵しています
 50
0.0
 41
0.9
 51
0.0
  7
KANJI4
  0
LINE
  8
0
  6
CONTINUOUS
 62
     2
 10
24.014213562
 20
60.9
 30
0.0
 11
14.6
 21
60.9
 31
0.0
  0
LINE
  8
0
  6
CONTINUOUS
 62
     2
 10
109.6
 20
60.9
 30
0.0
 11
26.014213562
 21
60.9
 31
0.0
  0
LINE
  8
0
  6
CONTINUOUS
 62
     2
 10
14.6
 20
35.9
 30
0.0
 11
24.264213562
 21
35.9
 31
0.0
  0
TEXT
  8
0
  6
CONTINUOUS
 62
     2
 10
85.214213562
 20
67.085786438
 30
0.5
 40
3.0
  1
計器胴寸法
 50
0.0
 41
0.9
 51
0.0
  7
KANJI0
  0
CIRCLE
  8
0
  6
CONTINUOUS
 62
     1
 10
152.6
 20
28.35
 30
0.0
 40
1.75
  0
LINE
  8
0
  6
CONTINUOUS
 62
     2
 10
153.475
 20
29.865544457
 30
0.0
 11
155.242766953
 21
31.63331141
 31
0.0
  0
LINE
  8
0
  6
CONTINUOUS
 62
     2
 10
153.475
 20
29.865544457
 30
0.0
 11
154.122047613
 21
32.280359022
 31
0.0
  0
LINE
  8
0
  6
CONTINUOUS
 62
     2
 10
153.475
 20
29.865544457
 30
0.0
 11
155.371281292
 21
33.15
 31
0.0
  0
CIRCLE
  8
0
  6
CONTINUOUS
 62
     1
 10
202.6
 20
28.35
 30
0.0
 40
1.75
  0
LINE
  8
0
  6
LTYPE2
 62
     2
 10
148.3
 20
53.35
 30
0.0
 11
207.0
 21
53.35
 31
0.0
  0
LINE
  8
0
  6
LTYPE2
 62
     2
 10
152.6
 20
84.7
 30
0.0
 11
152.6
 21
73.95
 31
0.0
  0
LINE
  8
0
  6
LTYPE2
 62
     2
 10
148.55
 20
78.35
 30
0.0
 11
159.2
 21
78.35
 31
0.0
  0
LINE
  8
0
  6
LTYPE2
 62
     2
 10
202.6
 20
72.95
 30
0.0
 11
202.6
 21
84.7
 31
0.0
  0
LINE
  8
0
  6
LTYPE2
 62
     2
 10
196.8
 20
78.35
 30
0.0
 11
209.85
 21
78.35
 31
0.0
  0
LINE
  8
0
  6
LTYPE2
 62
     2
 10
198.2
 20
28.35
 30
0.0
 11
207.5
 21
28.35
 31
0.0
  0
LINE
  8
0
  6
LTYPE2
 62
     2
 10
202.6
 20
24.0
 30
0.0
 11
202.6
 21
33.35
 31
0.0
  0
LINE
  8
0
  6
LTYPE2
 62
     2
 10
148.5
 20
28.35
 30
0.0
 11
155.65
 21
28.35
 31
0.0
  0
LINE
  8
0
  6
LTYPE2
 62
     2
 10
152.6
 20
33.55
 30
0.0
 11
152.6
 21
23.25
 31
0.0
  0
TEXT
  8
0
  6
CONTINUOUS
 62
     2
 10
24.6
 20
61.9
 30
0.5
 40
3.0
  1
ＤＶＦ－１２
 50
0.0
 41
0.9
 51
0.0
  7
KANJI0
  0
TEXT
  8
0
  6
CONTINUOUS
 62
     2
 10
27.9
 20
56.9
 30
0.5
 40
3.0
  1
ＶＦ－１２
 50
0.0
 41
0.9
 51
0.0
  7
KANJI0
  0
TEXT
  8
0
  6
CONTINUOUS
 62
     2
 10
24.8
 20
51.9
 30
0.5
 40
3.0
  1
ＳｅＶＦ－１２
 50
0.0
 41
0.9
 51
0.0
  7
KANJI0
  0
TEXT
  8
0
  6
CONTINUOUS
 62
     2
 10
24.8
 20
46.9
 30
0.5
 40
3.0
  1
ＦＶＦ－１２　
 50
0.0
 41
0.9
 51
0.0
  7
KANJI0
  0
TEXT
  8
0
  6
CONTINUOUS
 62
     2
 10
24.8
 20
41.9
 30
0.5
 40
3.0
  1
ＡＶＦ－１２　
 50
0.0
 41
0.9
 51
0.0
  7
KANJI0
  0
TEXT
  8
0
  6
CONTINUOUS
 62
     2
 10
24.8
 20
36.9
 30
0.5
 40
3.0
  1
ＤＶＦ－１２Ｖ
 50
0.0
 41
0.9
 51
0.0
  7
KANJI0
  0
TEXT
  8
0
  6
CONTINUOUS
 62
     2
 10
27.8
 20
31.9
 30
0.5
 40
3.0
  1
ＶＦ－１２Ｖ
 50
0.0
 41
0.9
 51
0.0
  7
KANJI0
  0
POINT
  8
0
  6
LTYPE1
 62
     2
 10
185.6
 20
167.2
 30
0.0
  0
CIRCLE
  8
0
  6
LTYPE3
 62
     2
 10
185.6
 20
151.2
 30
0.0
 40
1.75
  0
CIRCLE
  8
0
  6
CONTINUOUS
 62
     2
 10
178.1
 20
141.15
 30
0.0
 40
3.175
  0
CIRCLE
  8
0
  6
CONTINUOUS
 62
     2
 10
178.1
 20
141.15
 30
0.0
 40
2.5
  0
LINE
  8
0
  6
CONTINUOUS
 62
     2
 10
179.475
 20
140.8
 30
0.0
 11
179.475
 21
141.5
 31
0.0
  0
LINE
  8
0
  6
CONTINUOUS
 62
     2
 10
176.725
 20
141.5
 30
0.0
 11
176.725
 21
140.8
 31
0.0
  0
LINE
  8
0
  6
CONTINUOUS
 62
     2
 10
179.475
 20
141.5
 30
0.0
 11
179.2
 21
141.5
 31
0.0
  0
LINE
  8
0
  6
CONTINUOUS
 62
     2
 10
178.45
 20
142.25
 30
0.0
 11
178.45
 21
143.625378759
 31
0.0
  0
ARC
  8
0
  6
CONTINUOUS
 62
     2
 10
179.2
 20
142.25
 30
0.0
 40
0.75
 50
180.0
 51
270.0
  0
LINE
  8
0
  6
CONTINUOUS
 62
     2
 10
179.2
 20
140.8
 30
0.0
 11
179.475
 21
140.8
 31
0.0
  0
LINE
  8
0
  6
CONTINUOUS
 62
     2
 10
178.45
 20
138.7
 30
0.0
 11
178.45
 21
140.05
 31
0.0
  0
ARC
  8
0
  6
CONTINUOUS
 62
     2
 10
179.2
 20
140.05
 30
0.0
 40
0.75
 50
90.0
 51
180.0
  0
LINE
  8
0
  6
CONTINUOUS
 62
     2
 10
176.725
 20
140.8
 30
0.0
 11
177.0
 21
140.8
 31
0.0
  0
LINE
  8
0
  6
CONTINUOUS
 62
     2
 10
177.75
 20
140.05
 30
0.0
 11
177.75
 21
138.674621241
 31
0.0
  0
ARC
  8
0
  6
CONTINUOUS
 62
     2
 10
177.0
 20
140.05
 30
0.0
 40
0.75
 50
0.0
 51
90.0
  0
LINE
  8
0
  6
CONTINUOUS
 62
     2
 10
177.0
 20
141.5
 30
0.0
 11
176.725
 21
141.5
 31
0.0
  0
LINE
  8
0
  6
CONTINUOUS
 62
     2
 10
177.75
 20
143.625378759
 30
0.0
 11
177.75
 21
142.25
 31
0.0
  0
ARC
  8
0
  6
CONTINUOUS
 62
     2
 10
177.0
 20
142.25
 30
0.0
 40
0.75
 50
270.0
 51
0.0
  0
CIRCLE
  8
0
  6
CONTINUOUS
 62
     2
 10
193.1
 20
141.15
 30
0.0
 40
3.175
  0
CIRCLE
  8
0
  6
CONTINUOUS
 62
     2
 10
193.1
 20
141.15
 30
0.0
 40
2.5
  0
LINE
  8
0
  6
CONTINUOUS
 62
     2
 10
194.475
 20
140.8
 30
0.0
 11
194.475
 21
141.5
 31
0.0
  0
LINE
  8
0
  6
CONTINUOUS
 62
     2
 10
191.725
 20
141.5
 30
0.0
 11
191.725
 21
140.8
 31
0.0
  0
LINE
  8
0
  6
CONTINUOUS
 62
     2
 10
194.475
 20
141.5
 30
0.0
 11
194.2
 21
141.5
 31
0.0
  0
LINE
  8
0
  6
CONTINUOUS
 62
     2
 10
193.45
 20
142.25
 30
0.0
 11
193.45
 21
143.625378759
 31
0.0
  0
ARC
  8
0
  6
CONTINUOUS
 62
     2
 10
194.2
 20
142.25
 30
0.0
 40
0.75
 50
180.0
 51
270.0
  0
LINE
  8
0
  6
CONTINUOUS
 62
     2
 10
194.2
 20
140.8
 30
0.0
 11
194.475
 21
140.8
 31
0.0
  0
LINE
  8
0
  6
CONTINUOUS
 62
     2
 10
193.45
 20
138.7
 30
0.0
 11
193.45
 21
140.05
 31
0.0
  0
ARC
  8
0
  6
CONTINUOUS
 62
     2
 10
194.2
 20
140.05
 30
0.0
 40
0.75
 50
90.0
 51
180.0
  0
LINE
  8
0
  6
CONTINUOUS
 62
     2
 10
191.725
 20
140.8
 30
0.0
 11
192.0
 21
140.8
 31
0.0
  0
LINE
  8
0
  6
CONTINUOUS
 62
     2
 10
192.75
 20
140.05
 30
0.0
 11
192.75
 21
138.674621241
 31
0.0
  0
ARC
  8
0
  6
CONTINUOUS
 62
     2
 10
192.0
 20
140.05
 30
0.0
 40
0.75
 50
0.0
 51
90.0
  0
LINE
  8
0
  6
CONTINUOUS
 62
     2
 10
192.0
 20
141.5
 30
0.0
 11
191.725
 21
141.5
 31
0.0
  0
LINE
  8
0
  6
CONTINUOUS
 62
     2
 10
192.75
 20
143.625378759
 30
0.0
 11
192.75
 21
142.25
 31
0.0
  0
ARC
  8
0
  6
CONTINUOUS
 62
     2
 10
192.0
 20
142.25
 30
0.0
 40
0.75
 50
270.0
 51
0.0
  0
LINE
  8
0
  6
LTYPE1
 62
     2
 10
183.214213562
 20
151.185786438
 30
0.0
 11
187.864213562
 21
151.185786438
 31
0.0
  0
CIRCLE
  8
0
  6
CONTINUOUS
 62
     1
 10
185.6
 20
136.2
 30
0.0
 40
27.25
  0
LINE
  8
0
  6
CONTINUOUS
 62
     2
 10
170.36612578
 20
113.605939359
 30
0.0
 11
172.252599701
 21
115.246432012
 31
0.0
  0
LINE
  8
0
  6
CONTINUOUS
 62
     2
 10
170.36612578
 20
113.605939359
 30
0.0
 11
171.179613793
 21
115.969884632
 31
0.0
  0
LINE
  8
0
  6
CONTINUOUS
 62
     2
 10
170.36612578
 20
113.605939359
 30
0.0
 11
200.83387422
 21
158.794060641
 31
0.0
  0
LINE
  8
0
  6
CONTINUOUS
 62
     2
 10
200.83387422
 20
158.794060641
 30
0.0
 11
198.947400299
 21
157.153567988
 31
0.0
  0
LINE
  8
0
  6
CONTINUOUS
 62
     2
 10
200.83387422
 20
158.794060641
 30
0.0
 11
200.020386207
 21
156.430115368
 31
0.0
  0
LINE
  8
0
  6
CONTINUOUS
 62
     2
 10
163.024871131
 20
162.6
 30
0.0
 11
160.6
 21
164.0
 31
0.0
  0
LINE
  8
0
  6
CONTINUOUS
 62
     2
 10
160.6
 20
164.0
 30
0.0
 11
158.175128869
 21
162.6
 31
0.0
  0
LINE
  8
0
  6
CONTINUOUS
 62
     2
 10
158.175128869
 20
162.6
 30
0.0
 11
158.175128869
 21
159.8
 31
0.0
  0
LINE
  8
0
  6
CONTINUOUS
 62
     2
 10
158.175128869
 20
159.8
 30
0.0
 11
160.6
 21
158.4
 31
0.0
  0
LINE
  8
0
  6
CONTINUOUS
 62
     2
 10
160.6
 20
158.4
 30
0.0
 11
163.024871131
 21
159.8
 31
0.0
  0
LINE
  8
0
  6
CONTINUOUS
 62
     2
 10
163.024871131
 20
159.8
 30
0.0
 11
163.024871131
 21
162.6
 31
0.0
  0
CIRCLE
  8
0
  6
CONTINUOUS
 62
     2
 10
160.6
 20
161.2
 30
0.0
 40
1.5
  0
CIRCLE
  8
0
  6
CONTINUOUS
 62
     2
 10
160.6
 20
161.2
 30
0.0
 40
1.4
  0
CIRCLE
  8
0
  6
CONTINUOUS
 62
     2
 10
160.6
 20
161.2
 30
0.0
 40
3.0
  0
CIRCLE
  8
0
  6
CONTINUOUS
 62
     2
 10
160.6
 20
161.2
 30
0.0
 40
2.5
  0
LINE
  8
0
  6
CONTINUOUS
 62
     2
 10
213.024871131
 20
162.6
 30
0.0
 11
210.6
 21
164.0
 31
0.0
  0
LINE
  8
0
  6
CONTINUOUS
 62
     2
 10
210.6
 20
164.0
 30
0.0
 11
208.175128869
 21
162.6
 31
0.0
  0
LINE
  8
0
  6
CONTINUOUS
 62
     2
 10
208.175128869
 20
162.6
 30
0.0
 11
208.175128869
 21
159.8
 31
0.0
  0
LINE
  8
0
  6
CONTINUOUS
 62
     2
 10
208.175128869
 20
159.8
 30
0.0
 11
210.6
 21
158.4
 31
0.0
  0
LINE
  8
0
  6
CONTINUOUS
 62
     2
 10
210.6
 20
158.4
 30
0.0
 11
213.024871131
 21
159.8
 31
0.0
  0
LINE
  8
0
  6
CONTINUOUS
 62
     2
 10
213.024871131
 20
159.8
 30
0.0
 11
213.024871131
 21
162.6
 31
0.0
  0
CIRCLE
  8
0
  6
CONTINUOUS
 62
     2
 10
210.6
 20
161.2
 30
0.0
 40
1.5
  0
CIRCLE
  8
0
  6
CONTINUOUS
 62
     2
 10
210.6
 20
161.2
 30
0.0
 40
1.4
  0
CIRCLE
  8
0
  6
CONTINUOUS
 62
     2
 10
210.6
 20
161.2
 30
0.0
 40
3.0
  0
CIRCLE
  8
0
  6
CONTINUOUS
 62
     2
 10
210.6
 20
161.2
 30
0.0
 40
2.5
  0
LINE
  8
0
  6
CONTINUOUS
 62
     2
 10
163.024871131
 20
112.6
 30
0.0
 11
160.6
 21
114.0
 31
0.0
  0
LINE
  8
0
  6
CONTINUOUS
 62
     2
 10
160.6
 20
114.0
 30
0.0
 11
158.175128869
 21
112.6
 31
0.0
  0
LINE
  8
0
  6
CONTINUOUS
 62
     2
 10
158.175128869
 20
112.6
 30
0.0
 11
158.175128869
 21
109.8
 31
0.0
  0
LINE
  8
0
  6
CONTINUOUS
 62
     2
 10
158.175128869
 20
109.8
 30
0.0
 11
160.6
 21
108.4
 31
0.0
  0
LINE
  8
0
  6
CONTINUOUS
 62
     2
 10
160.6
 20
108.4
 30
0.0
 11
163.024871131
 21
109.8
 31
0.0
  0
LINE
  8
0
  6
CONTINUOUS
 62
     2
 10
163.024871131
 20
109.8
 30
0.0
 11
163.024871131
 21
112.6
 31
0.0
  0
CIRCLE
  8
0
  6
CONTINUOUS
 62
     2
 10
160.6
 20
111.2
 30
0.0
 40
1.5
  0
CIRCLE
  8
0
  6
CONTINUOUS
 62
     2
 10
160.6
 20
111.2
 30
0.0
 40
1.4
  0
CIRCLE
  8
0
  6
CONTINUOUS
 62
     2
 10
160.6
 20
111.2
 30
0.0
 40
3.0
  0
CIRCLE
  8
0
  6
CONTINUOUS
 62
     2
 10
160.6
 20
111.2
 30
0.0
 40
2.5
  0
LINE
  8
0
  6
CONTINUOUS
 62
     2
 10
213.024871131
 20
112.6
 30
0.0
 11
210.6
 21
114.0
 31
0.0
  0
LINE
  8
0
  6
CONTINUOUS
 62
     2
 10
210.6
 20
114.0
 30
0.0
 11
208.175128869
 21
112.6
 31
0.0
  0
LINE
  8
0
  6
CONTINUOUS
 62
     2
 10
208.175128869
 20
112.6
 30
0.0
 11
208.175128869
 21
109.8
 31
0.0
  0
LINE
  8
0
  6
CONTINUOUS
 62
     2
 10
208.175128869
 20
109.8
 30
0.0
 11
210.6
 21
108.4
 31
0.0
  0
LINE
  8
0
  6
CONTINUOUS
 62
     2
 10
210.6
 20
108.4
 30
0.0
 11
213.024871131
 21
109.8
 31
0.0
  0
LINE
  8
0
  6
CONTINUOUS
 62
     2
 10
213.024871131
 20
109.8
 30
0.0
 11
213.024871131
 21
112.6
 31
0.0
  0
CIRCLE
  8
0
  6
CONTINUOUS
 62
     2
 10
210.6
 20
111.2
 30
0.0
 40
1.5
  0
CIRCLE
  8
0
  6
CONTINUOUS
 62
     2
 10
210.6
 20
111.2
 30
0.0
 40
1.4
  0
CIRCLE
  8
0
  6
CONTINUOUS
 62
     2
 10
210.6
 20
111.2
 30
0.0
 40
3.0
  0
CIRCLE
  8
0
  6
CONTINUOUS
 62
     2
 10
210.6
 20
111.2
 30
0.0
 40
2.5
  0
LINE
  8
0
  6
CONTINUOUS
 62
     2
 10
210.6
 20
177.7
 30
0.0
 11
208.185185434
 21
178.347047613
 31
0.0
  0
LINE
  8
0
  6
CONTINUOUS
 62
     2
 10
210.6
 20
177.7
 30
0.0
 11
208.185185434
 21
177.052952387
 31
0.0
  0
LINE
  8
0
  6
CONTINUOUS
 62
     2
 10
210.6
 20
177.7
 30
0.0
 11
185.6
 21
177.7
 31
0.0
  0
LINE
  8
0
  6
CONTINUOUS
 62
     2
 10
185.6
 20
177.7
 30
0.0
 11
188.014814566
 21
177.052952387
 31
0.0
  0
LINE
  8
0
  6
CONTINUOUS
 62
     2
 10
185.6
 20
177.7
 30
0.0
 11
188.014814566
 21
178.347047613
 31
0.0
  0
LINE
  8
0
  6
CONTINUOUS
 62
     2
 10
185.6
 20
177.7
 30
0.0
 11
183.185185434
 21
178.347047613
 31
0.0
  0
LINE
  8
0
  6
CONTINUOUS
 62
     2
 10
185.6
 20
177.7
 30
0.0
 11
183.185185434
 21
177.052952387
 31
0.0
  0
LINE
  8
0
  6
CONTINUOUS
 62
     2
 10
185.6
 20
177.7
 30
0.0
 11
160.6
 21
177.7
 31
0.0
  0
LINE
  8
0
  6
CONTINUOUS
 62
     2
 10
160.6
 20
177.7
 30
0.0
 11
163.014814566
 21
177.052952387
 31
0.0
  0
LINE
  8
0
  6
CONTINUOUS
 62
     2
 10
160.6
 20
177.7
 30
0.0
 11
163.014814566
 21
178.347047613
 31
0.0
  0
LINE
  8
0
  6
CONTINUOUS
 62
     2
 10
160.6
 20
166.1
 30
0.0
 11
160.6
 21
179.7
 31
0.0
  0
TEXT
  8
0
  6
CONTINUOUS
 62
     2
 10
168.72
 20
178.7
 30
0.3
 40
3.0
  1
５０
 50
0.0
 41
0.6
 51
0.0
  7
KANJI2
  0
TEXT
  8
0
  6
CONTINUOUS
 62
     2
 10
193.72
 20
178.7
 30
0.3
 40
3.0
  1
５０
 50
0.0
 41
0.6
 51
0.0
  7
KANJI2
  0
CIRCLE
  8
0
  6
CONTINUOUS
 62
     2
 10
164.382377607
 20
123.95
 30
0.0
 40
1.75
  0
CIRCLE
  8
0
  6
CONTINUOUS
 62
     2
 10
164.382377607
 20
123.95
 30
0.0
 40
1.5
  0
LINE
  8
0
  6
CONTINUOUS
 62
     2
 10
163.507377607
 20
124.15
 30
0.0
 11
163.982377607
 21
124.15
 31
0.0
  0
ARC
  8
0
  6
CONTINUOUS
 62
     2
 10
163.982377607
 20
124.35
 30
0.0
 40
0.2
 50
270.0
 51
0.0
  0
LINE
  8
0
  6
CONTINUOUS
 62
     2
 10
164.182377607
 20
124.35
 30
0.0
 11
164.182377607
 21
124.825
 31
0.0
  0
LINE
  8
0
  6
CONTINUOUS
 62
     2
 10
164.182377607
 20
124.825
 30
0.0
 11
164.582377607
 21
124.825
 31
0.0
  0
LINE
  8
0
  6
CONTINUOUS
 62
     2
 10
164.582377607
 20
124.825
 30
0.0
 11
164.582377607
 21
124.35
 31
0.0
  0
ARC
  8
0
  6
CONTINUOUS
 62
     2
 10
164.782377607
 20
124.35
 30
0.0
 40
0.2
 50
180.0
 51
270.0
  0
LINE
  8
0
  6
CONTINUOUS
 62
     2
 10
164.782377607
 20
124.15
 30
0.0
 11
165.257377607
 21
124.15
 31
0.0
  0
LINE
  8
0
  6
CONTINUOUS
 62
     2
 10
165.257377607
 20
124.15
 30
0.0
 11
165.257377607
 21
123.75
 31
0.0
  0
LINE
  8
0
  6
CONTINUOUS
 62
     2
 10
165.257377607
 20
123.75
 30
0.0
 11
164.782377607
 21
123.75
 31
0.0
  0
ARC
  8
0
  6
CONTINUOUS
 62
     2
 10
164.782377607
 20
123.55
 30
0.0
 40
0.2
 50
90.0
 51
180.0
  0
LINE
  8
0
  6
CONTINUOUS
 62
     2
 10
164.582377607
 20
123.55
 30
0.0
 11
164.582377607
 21
123.075
 31
0.0
  0
LINE
  8
0
  6
CONTINUOUS
 62
     2
 10
164.582377607
 20
123.075
 30
0.0
 11
164.182377607
 21
123.075
 31
0.0
  0
LINE
  8
0
  6
CONTINUOUS
 62
     2
 10
164.182377607
 20
123.075
 30
0.0
 11
164.182377607
 21
123.55
 31
0.0
  0
ARC
  8
0
  6
CONTINUOUS
 62
     2
 10
163.982377607
 20
123.55
 30
0.0
 40
0.2
 50
0.0
 51
90.0
  0
LINE
  8
0
  6
CONTINUOUS
 62
     2
 10
163.982377607
 20
123.75
 30
0.0
 11
163.507377607
 21
123.75
 31
0.0
  0
LINE
  8
0
  6
CONTINUOUS
 62
     2
 10
163.507377607
 20
123.75
 30
0.0
 11
163.507377607
 21
124.15
 31
0.0
  0
LINE
  8
0
  6
LTYPE4
 62
     2
 10
162.382377607
 20
123.95
 30
0.0
 11
166.382377607
 21
123.95
 31
0.0
  0
LINE
  8
0
  6
LTYPE4
 62
     2
 10
164.382377607
 20
125.95
 30
0.0
 11
164.382377607
 21
121.95
 31
0.0
  0
CIRCLE
  8
0
  6
CONTINUOUS
 62
     2
 10
206.817622393
 20
123.95
 30
0.0
 40
1.75
  0
CIRCLE
  8
0
  6
CONTINUOUS
 62
     2
 10
206.817622393
 20
123.95
 30
0.0
 40
1.5
  0
LINE
  8
0
  6
CONTINUOUS
 62
     2
 10
205.942622393
 20
124.15
 30
0.0
 11
206.417622393
 21
124.15
 31
0.0
  0
ARC
  8
0
  6
CONTINUOUS
 62
     2
 10
206.417622393
 20
124.35
 30
0.0
 40
0.2
 50
270.0
 51
0.0
  0
LINE
  8
0
  6
CONTINUOUS
 62
     2
 10
206.617622393
 20
124.35
 30
0.0
 11
206.617622393
 21
124.825
 31
0.0
  0
LINE
  8
0
  6
CONTINUOUS
 62
     2
 10
206.617622393
 20
124.825
 30
0.0
 11
207.017622393
 21
124.825
 31
0.0
  0
LINE
  8
0
  6
CONTINUOUS
 62
     2
 10
207.017622393
 20
124.825
 30
0.0
 11
207.017622393
 21
124.35
 31
0.0
  0
ARC
  8
0
  6
CONTINUOUS
 62
     2
 10
207.217622393
 20
124.35
 30
0.0
 40
0.2
 50
180.0
 51
270.0
  0
LINE
  8
0
  6
CONTINUOUS
 62
     2
 10
207.217622393
 20
124.15
 30
0.0
 11
207.692622393
 21
124.15
 31
0.0
  0
LINE
  8
0
  6
CONTINUOUS
 62
     2
 10
207.692622393
 20
124.15
 30
0.0
 11
207.692622393
 21
123.75
 31
0.0
  0
LINE
  8
0
  6
CONTINUOUS
 62
     2
 10
207.692622393
 20
123.75
 30
0.0
 11
207.217622393
 21
123.75
 31
0.0
  0
ARC
  8
0
  6
CONTINUOUS
 62
     2
 10
207.217622393
 20
123.55
 30
0.0
 40
0.2
 50
90.0
 51
180.0
  0
LINE
  8
0
  6
CONTINUOUS
 62
     2
 10
207.017622393
 20
123.55
 30
0.0
 11
207.017622393
 21
123.075
 31
0.0
  0
LINE
  8
0
  6
CONTINUOUS
 62
     2
 10
207.017622393
 20
123.075
 30
0.0
 11
206.617622393
 21
123.075
 31
0.0
  0
LINE
  8
0
  6
CONTINUOUS
 62
     2
 10
206.617622393
 20
123.075
 30
0.0
 11
206.617622393
 21
123.55
 31
0.0
  0
ARC
  8
0
  6
CONTINUOUS
 62
     2
 10
206.417622393
 20
123.55
 30
0.0
 40
0.2
 50
0.0
 51
90.0
  0
LINE
  8
0
  6
CONTINUOUS
 62
     2
 10
206.417622393
 20
123.75
 30
0.0
 11
205.942622393
 21
123.75
 31
0.0
  0
LINE
  8
0
  6
CONTINUOUS
 62
     2
 10
205.942622393
 20
123.75
 30
0.0
 11
205.942622393
 21
124.15
 31
0.0
  0
LINE
  8
0
  6
LTYPE4
 62
     2
 10
204.817622393
 20
123.95
 30
0.0
 11
208.817622393
 21
123.95
 31
0.0
  0
LINE
  8
0
  6
LTYPE4
 62
     2
 10
206.817622393
 20
125.95
 30
0.0
 11
206.817622393
 21
121.95
 31
0.0
  0
CIRCLE
  8
0
  6
CONTINUOUS
 62
     2
 10
185.6
 20
160.7
 30
0.0
 40
1.75
  0
CIRCLE
  8
0
  6
CONTINUOUS
 62
     2
 10
185.6
 20
160.7
 30
0.0
 40
1.5
  0
LINE
  8
0
  6
CONTINUOUS
 62
     2
 10
184.725
 20
160.9
 30
0.0
 11
185.2
 21
160.9
 31
0.0
  0
ARC
  8
0
  6
CONTINUOUS
 62
     2
 10
185.2
 20
161.1
 30
0.0
 40
0.2
 50
270.0
 51
0.0
  0
LINE
  8
0
  6
CONTINUOUS
 62
     2
 10
185.4
 20
161.1
 30
0.0
 11
185.4
 21
161.575
 31
0.0
  0
LINE
  8
0
  6
CONTINUOUS
 62
     2
 10
185.4
 20
161.575
 30
0.0
 11
185.8
 21
161.575
 31
0.0
  0
LINE
  8
0
  6
CONTINUOUS
 62
     2
 10
185.8
 20
161.575
 30
0.0
 11
185.8
 21
161.1
 31
0.0
  0
ARC
  8
0
  6
CONTINUOUS
 62
     2
 10
186.0
 20
161.1
 30
0.0
 40
0.2
 50
180.0
 51
270.0
  0
LINE
  8
0
  6
CONTINUOUS
 62
     2
 10
186.0
 20
160.9
 30
0.0
 11
186.475
 21
160.9
 31
0.0
  0
LINE
  8
0
  6
CONTINUOUS
 62
     2
 10
186.475
 20
160.9
 30
0.0
 11
186.475
 21
160.5
 31
0.0
  0
LINE
  8
0
  6
CONTINUOUS
 62
     2
 10
186.475
 20
160.5
 30
0.0
 11
186.0
 21
160.5
 31
0.0
  0
ARC
  8
0
  6
CONTINUOUS
 62
     2
 10
186.0
 20
160.3
 30
0.0
 40
0.2
 50
90.0
 51
180.0
  0
LINE
  8
0
  6
CONTINUOUS
 62
     2
 10
185.8
 20
160.3
 30
0.0
 11
185.8
 21
159.825
 31
0.0
  0
LINE
  8
0
  6
CONTINUOUS
 62
     2
 10
185.8
 20
159.825
 30
0.0
 11
185.4
 21
159.825
 31
0.0
  0
LINE
  8
0
  6
CONTINUOUS
 62
     2
 10
185.4
 20
159.825
 30
0.0
 11
185.4
 21
160.3
 31
0.0
  0
ARC
  8
0
  6
CONTINUOUS
 62
     2
 10
185.2
 20
160.3
 30
0.0
 40
0.2
 50
0.0
 51
90.0
  0
LINE
  8
0
  6
CONTINUOUS
 62
     2
 10
185.2
 20
160.5
 30
0.0
 11
184.725
 21
160.5
 31
0.0
  0
LINE
  8
0
  6
CONTINUOUS
 62
     2
 10
184.725
 20
160.5
 30
0.0
 11
184.725
 21
160.9
 31
0.0
  0
LINE
  8
0
  6
LTYPE4
 62
     2
 10
183.6
 20
160.7
 30
0.0
 11
187.6
 21
160.7
 31
0.0
  0
LINE
  8
0
  6
LTYPE4
 62
     2
 10
185.6
 20
162.7
 30
0.0
 11
185.6
 21
158.7
 31
0.0
  0
LINE
  8
0
  6
LTYPE2
 62
     2
 10
156.725
 20
161.2
 30
0.0
 11
164.7
 21
161.2
 31
0.0
  0
LINE
  8
0
  6
LTYPE2
 62
     2
 10
160.6
 20
165.1
 30
0.0
 11
160.6
 21
157.375
 31
0.0
  0
LINE
  8
0
  6
LTYPE2
 62
     2
 10
206.725
 20
161.2
 30
0.0
 11
214.7
 21
161.2
 31
0.0
  0
LINE
  8
0
  6
LTYPE2
 62
     2
 10
210.6
 20
165.1
 30
0.0
 11
210.6
 21
157.375
 31
0.0
  0
LINE
  8
0
  6
LTYPE2
 62
     2
 10
206.725
 20
111.2
 30
0.0
 11
214.7
 21
111.2
 31
0.0
  0
LINE
  8
0
  6
LTYPE2
 62
     2
 10
210.6
 20
115.1
 30
0.0
 11
210.6
 21
107.375
 31
0.0
  0
LINE
  8
0
  6
LTYPE2
 62
     2
 10
156.725
 20
111.2
 30
0.0
 11
164.7
 21
111.2
 31
0.0
  0
LINE
  8
0
  6
LTYPE2
 62
     2
 10
160.6
 20
115.1
 30
0.0
 11
160.6
 21
107.375
 31
0.0
  0
LINE
  8
0
  6
CONTINUOUS
 62
     2
 10
221.1
 20
111.2
 30
0.0
 11
221.747047613
 21
113.614814566
 31
0.0
  0
LINE
  8
0
  6
CONTINUOUS
 62
     2
 10
221.1
 20
111.2
 30
0.0
 11
220.452952387
 21
113.614814566
 31
0.0
  0
LINE
  8
0
  6
CONTINUOUS
 62
     2
 10
221.1
 20
111.2
 30
0.0
 11
221.1
 21
136.2
 31
0.0
  0
LINE
  8
0
  6
CONTINUOUS
 62
     2
 10
221.1
 20
136.2
 30
0.0
 11
220.452952387
 21
133.785185434
 31
0.0
  0
LINE
  8
0
  6
CONTINUOUS
 62
     2
 10
221.1
 20
136.2
 30
0.0
 11
221.747047613
 21
133.785185434
 31
0.0
  0
TEXT
  8
0
  6
CONTINUOUS
 62
     2
 10
220.1
 20
119.32
 30
0.3
 40
3.0
  1
５０
 50
90.0
 41
0.6
 51
0.0
  7
KANJI2
  0
TEXT
  8
0
  6
CONTINUOUS
 62
     2
 10
220.1
 20
123.67
 30
0.18
 40
1.8
  1
±０．５
 50
90.0
 41
0.6
 51
0.0
  7
KANJI1
  0
LINE
  8
0
  6
CONTINUOUS
 62
     2
 10
221.1
 20
136.2
 30
0.0
 11
221.747047613
 21
138.614814566
 31
0.0
  0
LINE
  8
0
  6
CONTINUOUS
 62
     2
 10
221.1
 20
136.2
 30
0.0
 11
220.452952387
 21
138.614814566
 31
0.0
  0
LINE
  8
0
  6
CONTINUOUS
 62
     2
 10
221.1
 20
136.2
 30
0.0
 11
221.1
 21
161.2
 31
0.0
  0
LINE
  8
0
  6
CONTINUOUS
 62
     2
 10
221.1
 20
161.2
 30
0.0
 11
220.452952387
 21
158.785185434
 31
0.0
  0
LINE
  8
0
  6
CONTINUOUS
 62
     2
 10
221.1
 20
161.2
 30
0.0
 11
221.747047613
 21
158.785185434
 31
0.0
  0
TEXT
  8
0
  6
CONTINUOUS
 62
     2
 10
220.1
 20
148.67
 30
0.18
 40
1.8
  1
±０．５
 50
90.0
 41
0.6
 51
0.0
  7
KANJI1
  0
TEXT
  8
0
  6
CONTINUOUS
 62
     2
 10
220.1
 20
144.32
 30
0.3
 40
3.0
  1
５０
 50
90.0
 41
0.6
 51
0.0
  7
KANJI2
  0
LINE
  8
0
  6
CONTINUOUS
 62
     2
 10
215.7
 20
161.2
 30
0.0
 11
223.1
 21
161.2
 31
0.0
  0
LINE
  8
0
  6
CONTINUOUS
 62
     2
 10
215.7
 20
111.2
 30
0.0
 11
223.1
 21
111.2
 31
0.0
  0
LINE
  8
0
  6
CONTINUOUS
 62
     1
 10
155.6
 20
162.7
 30
0.0
 11
155.6
 21
109.7
 31
0.0
  0
ARC
  8
0
  6
CONTINUOUS
 62
     1
 10
159.1
 20
109.7
 30
0.0
 40
3.5
 50
180.0
 51
270.0
  0
LINE
  8
0
  6
CONTINUOUS
 62
     1
 10
159.1
 20
106.2
 30
0.0
 11
185.6
 21
106.2
 31
0.0
  0
LINE
  8
0
  6
CONTINUOUS
 62
     1
 10
185.6
 20
106.2
 30
0.0
 11
212.1
 21
106.2
 31
0.0
  0
ARC
  8
0
  6
CONTINUOUS
 62
     1
 10
212.1
 20
109.7
 30
0.0
 40
3.5
 50
270.0
 51
0.0
  0
LINE
  8
0
  6
CONTINUOUS
 62
     1
 10
215.6
 20
109.7
 30
0.0
 11
215.6
 21
162.7
 31
0.0
  0
ARC
  8
0
  6
CONTINUOUS
 62
     1
 10
212.1
 20
162.7
 30
0.0
 40
3.5
 50
0.0
 51
90.0
  0
LINE
  8
0
  6
CONTINUOUS
 62
     1
 10
212.1
 20
166.2
 30
0.0
 11
185.6
 21
166.2
 31
0.0
  0
LINE
  8
0
  6
CONTINUOUS
 62
     1
 10
185.6
 20
166.2
 30
0.0
 11
159.1
 21
166.2
 31
0.0
  0
ARC
  8
0
  6
CONTINUOUS
 62
     1
 10
159.1
 20
162.7
 30
0.0
 40
3.5
 50
90.0
 51
180.0
  0
LINE
  8
0
  6
CONTINUOUS
 62
     1
 10
156.85
 20
162.700000714
 30
0.0
 11
156.85
 21
109.700001992
 31
0.0
  0
ARC
  8
0
  6
CONTINUOUS
 62
     1
 10
159.1
 20
109.7
 30
0.0
 40
2.25
 50
179.999949283
 51
270.0
  0
LINE
  8
0
  6
CONTINUOUS
 62
     1
 10
159.100001992
 20
107.45
 30
0.0
 11
185.6
 21
107.45
 31
0.0
  0
LINE
  8
0
  6
CONTINUOUS
 62
     1
 10
185.6
 20
107.45
 30
0.0
 11
212.100000575
 21
107.45
 31
0.0
  0
ARC
  8
0
  6
CONTINUOUS
 62
     1
 10
212.1
 20
109.7
 30
0.0
 40
2.25
 50
270.0
 51
0.000014637
  0
LINE
  8
0
  6
CONTINUOUS
 62
     1
 10
214.35
 20
109.700000575
 30
0.0
 11
214.35
 21
162.700002036
 31
0.0
  0
ARC
  8
0
  6
CONTINUOUS
 62
     1
 10
212.1
 20
162.7
 30
0.0
 40
2.25
 50
0.000051851
 51
90.0
  0
LINE
  8
0
  6
CONTINUOUS
 62
     1
 10
212.100002036
 20
164.95
 30
0.0
 11
185.6
 21
164.95
 31
0.0
  0
LINE
  8
0
  6
CONTINUOUS
 62
     1
 10
185.6
 20
164.95
 30
0.0
 11
159.100000714
 21
164.95
 31
0.0
  0
ARC
  8
0
  6
CONTINUOUS
 62
     1
 10
159.1
 20
162.7
 30
0.0
 40
2.25
 50
90.0
 51
179.999981818
  0
ARC
  8
0
  6
CONTINUOUS
 62
     2
 10
145.475
 20
140.125
 30
0.0
 40
1.475
 50
270.0
 51
0.0
  0
ARC
  8
0
  6
CONTINUOUS
 62
     2
 10
145.475
 20
142.275
 30
0.0
 40
1.475
 50
0.0
 51
90.0
  0
LINE
  8
0
  6
CONTINUOUS
 62
     2
 10
146.95
 20
142.275
 30
0.0
 11
146.95
 21
140.125
 31
0.0
  0
LINE
  8
0
  6
CONTINUOUS
 62
     2
 10
145.475
 20
138.65
 30
0.0
 11
144.975
 21
138.65
 31
0.0
  0
LINE
  8
0
  6
CONTINUOUS
 62
     2
 10
144.975
 20
138.65
 30
0.0
 11
144.975
 21
143.75
 31
0.0
  0
LINE
  8
0
  6
CONTINUOUS
 62
     2
 10
144.975
 20
143.75
 30
0.0
 11
145.475000132
 21
143.75
 31
0.0
  0
LINE
  8
0
  6
CONTINUOUS
 62
     2
 10
144.275
 20
143.95
 30
0.0
 11
144.95
 21
143.95
 31
0.0
  0
LINE
  8
0
  6
CONTINUOUS
 62
     2
 10
144.95
 20
143.95
 30
0.0
 11
144.95
 21
138.4475
 31
0.0
  0
LINE
  8
0
  6
CONTINUOUS
 62
     2
 10
144.95
 20
138.4475
 30
0.0
 11
144.275
 21
138.4475
 31
0.0
  0
LINE
  8
0
  6
CONTINUOUS
 62
     2
 10
144.275
 20
138.4475
 30
0.0
 11
144.275
 21
143.95
 31
0.0
  0
LINE
  8
0
  6
CONTINUOUS
 62
     2
 10
144.275
 20
141.26
 30
0.0
 11
144.95
 21
141.26
 31
0.0
  0
LINE
  8
0
  6
CONTINUOUS
 62
     2
 10
144.95
 20
141.16
 30
0.0
 11
144.275
 21
141.16
 31
0.0
  0
LINE
  8
0
  6
CONTINUOUS
 62
     2
 10
143.8
 20
138.025
 30
0.0
 11
144.275
 21
138.025
 31
0.0
  0
LINE
  8
0
  6
CONTINUOUS
 62
     2
 10
144.275
 20
138.025
 30
0.0
 11
144.275
 21
144.375
 31
0.0
  0
LINE
  8
0
  6
CONTINUOUS
 62
     2
 10
144.275
 20
144.375
 30
0.0
 11
143.8
 21
144.375
 31
0.0
  0
LINE
  8
0
  6
CONTINUOUS
 62
     2
 10
143.8
 20
144.375
 30
0.0
 11
143.8
 21
138.025
 31
0.0
  0
LINE
  8
0
  6
CONTINUOUS
 62
     2
 10
143.8
 20
139.2
 30
0.0
 11
139.3
 21
139.2
 31
0.0
  0
LINE
  8
0
  6
CONTINUOUS
 62
     2
 10
139.3
 20
143.2
 30
0.0
 11
143.8
 21
143.2
 31
0.0
  0
LINE
  8
0
  6
CONTINUOUS
 62
     2
 10
139.3
 20
143.2
 30
0.0
 11
139.3
 21
139.2
 31
0.0
  0
LINE
  8
0
  6
LTYPE5
 62
     2
 10
139.3
 20
137.95
 30
0.0
 11
139.3
 21
145.45
 31
0.0
  0
ARC
  8
0
  6
CONTINUOUS
 62
     1
 10
138.8
 20
109.45
 30
0.0
 40
0.5
 50
270.0
 51
0.0
  0
ARC
  8
0
  6
CONTINUOUS
 62
     1
 10
138.8
 20
162.95
 30
0.0
 40
0.5
 50
0.0
 51
90.0
  0
LINE
  8
0
  6
CONTINUOUS
 62
     1
 10
136.8
 20
163.45
 30
0.0
 11
136.8
 21
108.95
 31
0.0
  0
LINE
  8
0
  6
CONTINUOUS
 62
     1
 10
139.3
 20
162.95
 30
0.0
 11
139.3
 21
109.45
 31
0.0
  0
LINE
  8
0
  6
CONTINUOUS
 62
     2
 10
139.3
 20
168.075001907
 30
0.0
 11
141.714814566
 21
167.427954295
 31
0.0
  0
LINE
  8
0
  6
CONTINUOUS
 62
     2
 10
139.3
 20
168.075001907
 30
0.0
 11
141.714814566
 21
168.72204952
 31
0.0
  0
LINE
  8
0
  6
CONTINUOUS
 62
     2
 10
139.3
 20
168.075001907
 30
0.0
 11
146.95
 21
168.075001907
 31
0.0
  0
LINE
  8
0
  6
CONTINUOUS
 62
     2
 10
146.95
 20
168.075001907
 30
0.0
 11
144.535185434
 21
168.72204952
 31
0.0
  0
LINE
  8
0
  6
CONTINUOUS
 62
     2
 10
146.95
 20
168.075001907
 30
0.0
 11
144.535185434
 21
167.427954295
 31
0.0
  0
LINE
  8
0
  6
CONTINUOUS
 62
     2
 10
146.95
 20
168.350001907
 30
0.0
 11
146.95
 21
166.075001907
 31
0.0
  0
TEXT
  8
0
  6
CONTINUOUS
 62
     2
 10
141.175
 20
169.075001907
 30
0.3
 40
3.0
  1
１７
 50
0.0
 41
0.6
 51
0.0
  7
KANJI2
  0
LINE
  8
0
  6
CONTINUOUS
 62
     2
 10
139.3
 20
170.075001907
 30
0.0
 11
139.3
 21
175.075001907
 31
0.0
  0
LINE
  8
0
  6
CONTINUOUS
 62
     2
 10
139.3
 20
173.075001907
 30
0.0
 11
141.714814566
 21
172.427954295
 31
0.0
  0
LINE
  8
0
  6
CONTINUOUS
 62
     2
 10
139.3
 20
173.075001907
 30
0.0
 11
141.714814566
 21
173.72204952
 31
0.0
  0
LINE
  8
0
  6
CONTINUOUS
 62
     2
 10
139.3
 20
163.95
 30
0.0
 11
139.3
 21
170.075001907
 31
0.0
  0
LINE
  8
0
  6
CONTINUOUS
 62
     2
 10
139.3
 20
125.525
 30
0.0
 11
139.3
 21
122.375
 31
0.0
  0
LINE
  8
0
  6
CONTINUOUS
 62
     2
 10
139.3
 20
125.525
 30
0.0
 11
139.95
 21
125.468132369
 31
0.0
  0
LINE
  8
0
  6
CONTINUOUS
 62
     2
 10
139.3
 20
122.375
 30
0.0
 11
139.95
 21
122.431867631
 31
0.0
  0
LINE
  8
0
  6
CONTINUOUS
 62
     2
 10
140.244985838
 20
123.75
 30
0.0
 11
139.75
 21
123.75
 31
0.0
  0
LINE
  8
0
  6
CONTINUOUS
 62
     2
 10
139.75
 20
124.15
 30
0.0
 11
139.75
 21
123.75
 31
0.0
  0
LINE
  8
0
  6
CONTINUOUS
 62
     2
 10
140.244985838
 20
124.15
 30
0.0
 11
139.75
 21
124.15
 31
0.0
  0
LINE
  8
0
  6
CONTINUOUS
 62
     2
 10
139.95
 20
124.15
 30
0.0
 11
139.95
 21
125.468132369
 31
0.0
  0
LINE
  8
0
  6
CONTINUOUS
 62
     2
 10
139.95
 20
122.431867631
 30
0.0
 11
139.95
 21
123.75
 31
0.0
  0
ARC
  8
0
  6
CONTINUOUS
 62
     2
 10
136.258790185
 20
123.95
 30
0.0
 40
3.991209815
 50
2.872301273
 51
22.356539414
  0
ARC
  8
0
  6
CONTINUOUS
 62
     2
 10
136.258790185
 20
123.95
 30
0.0
 40
3.991209815
 50
337.643460586
 51
357.127698727
  0
LINE
  8
0
  6
CONTINUOUS
 62
     2
 10
139.3
 20
162.275
 30
0.0
 11
139.3
 21
159.125
 31
0.0
  0
LINE
  8
0
  6
CONTINUOUS
 62
     2
 10
139.3
 20
162.275
 30
0.0
 11
139.95
 21
162.218132369
 31
0.0
  0
LINE
  8
0
  6
CONTINUOUS
 62
     2
 10
139.3
 20
159.125
 30
0.0
 11
139.95
 21
159.181867631
 31
0.0
  0
LINE
  8
0
  6
CONTINUOUS
 62
     2
 10
140.244985838
 20
160.5
 30
0.0
 11
139.75
 21
160.5
 31
0.0
  0
LINE
  8
0
  6
CONTINUOUS
 62
     2
 10
139.75
 20
160.9
 30
0.0
 11
139.75
 21
160.5
 31
0.0
  0
LINE
  8
0
  6
CONTINUOUS
 62
     2
 10
140.244985838
 20
160.9
 30
0.0
 11
139.75
 21
160.9
 31
0.0
  0
LINE
  8
0
  6
CONTINUOUS
 62
     2
 10
139.95
 20
160.9
 30
0.0
 11
139.95
 21
162.218132369
 31
0.0
  0
LINE
  8
0
  6
CONTINUOUS
 62
     2
 10
139.95
 20
159.181867631
 30
0.0
 11
139.95
 21
160.5
 31
0.0
  0
ARC
  8
0
  6
CONTINUOUS
 62
     2
 10
136.258790185
 20
160.7
 30
0.0
 40
3.991209815
 50
2.872301273
 51
22.356539414
  0
ARC
  8
0
  6
CONTINUOUS
 62
     2
 10
136.258790185
 20
160.7
 30
0.0
 40
3.991209815
 50
337.643460586
 51
357.127698727
  0
LINE
  8
0
  6
LTYPE1
 62
     2
 10
139.3
 20
160.7
 30
0.0
 11
141.3
 21
160.7
 31
0.0
  0
LINE
  8
0
  6
LTYPE1
 62
     2
 10
139.3
 20
123.95
 30
0.0
 11
141.3
 21
123.95
 31
0.0
  0
LINE
  8
0
  6
LTYPE2
 62
     2
 10
101.8
 20
136.175
 30
0.0
 11
104.05
 21
136.175
 31
0.0
  0
LINE
  8
0
  6
LTYPE2
 62
     2
 10
99.75
 20
161.2
 30
0.0
 11
111.6
 21
161.2
 31
0.0
  0
LINE
  8
0
  6
LTYPE2
 62
     2
 10
136.525
 20
141.2
 30
0.0
 11
149.25
 21
141.2
 31
0.0
  0
LINE
  8
0
  6
CONTINUOUS
 62
     1
 10
101.8
 20
106.175
 30
0.0
 11
101.8
 21
166.175
 31
0.0
  0
LINE
  8
0
  6
CONTINUOUS
 62
     1
 10
101.8
 20
166.175
 30
0.0
 11
96.55
 21
166.175
 31
0.0
  0
ARC
  8
0
  6
CONTINUOUS
 62
     1
 10
96.55
 20
165.675
 30
0.0
 40
0.5
 50
90.0
 51
180.0
  0
LINE
  8
0
  6
CONTINUOUS
 62
     1
 10
96.55
 20
106.175
 30
0.0
 11
101.8
 21
106.175
 31
0.0
  0
LINE
  8
0
  6
CONTINUOUS
 62
     1
 10
96.05
 20
165.675
 30
0.0
 11
96.05
 21
106.675
 31
0.0
  0
ARC
  8
0
  6
CONTINUOUS
 62
     1
 10
96.55
 20
106.675
 30
0.0
 40
0.5
 50
180.0
 51
270.0
  0
LINE
  8
0
  6
CONTINUOUS
 62
     2
 10
101.8
 20
158.2
 30
0.0
 11
102.05
 21
158.2
 31
0.0
  0
LINE
  8
0
  6
CONTINUOUS
 62
     2
 10
102.05
 20
158.2
 30
0.0
 11
102.05
 21
164.2
 31
0.0
  0
LINE
  8
0
  6
CONTINUOUS
 62
     2
 10
102.05
 20
164.2
 30
0.0
 11
101.8
 21
164.2
 31
0.0
  0
LINE
  8
0
  6
CONTINUOUS
 62
     2
 10
107.55
 20
162.7
 30
0.0
 11
109.55
 21
162.7
 31
0.0
  0
LINE
  8
0
  6
CONTINUOUS
 62
     2
 10
109.55
 20
162.7
 30
0.0
 11
109.55
 21
159.7
 31
0.0
  0
LINE
  8
0
  6
CONTINUOUS
 62
     2
 10
109.55
 20
159.7
 30
0.0
 11
107.55
 21
159.7
 31
0.0
  0
LINE
  8
0
  6
LTYPE1
 62
     2
 10
100.0
 20
161.2
 30
0.0
 11
111.85
 21
161.2
 31
0.0
  0
ARC
  8
0
  6
CONTINUOUS
 62
     2
 10
102.55
 20
161.2
 30
0.0
 40
5.0
 50
343.5
 51
16.5
  0
ARC
  8
0
  6
CONTINUOUS
 62
     2
 10
110.05
 20
161.2
 30
0.0
 40
5.0
 50
163.5
 51
196.3
  0
ARC
  8
0
  6
CONTINUOUS
 62
     2
 10
106.3
 20
163.325
 30
0.0
 40
1.25
 50
325.0
 51
35.0
  0
ARC
  8
0
  6
CONTINUOUS
 62
     2
 10
106.3
 20
163.325
 30
0.0
 40
1.25
 50
145.0
 51
215.0
  0
ARC
  8
0
  6
CONTINUOUS
 62
     2
 10
106.3
 20
159.075
 30
0.0
 40
1.25
 50
145.0
 51
215.0
  0
ARC
  8
0
  6
CONTINUOUS
 62
     2
 10
106.3
 20
159.075
 30
0.0
 40
1.25
 50
325.0
 51
35.0
  0
LINE
  8
0
  6
CONTINUOUS
 62
     2
 10
105.25097354
 20
159.796666455
 30
0.0
 11
107.32597354
 21
159.796666455
 31
0.0
  0
LINE
  8
0
  6
CONTINUOUS
 62
     2
 10
107.344098674
 20
162.620076724
 30
0.0
 11
105.255901326
 21
162.620076724
 31
0.0
  0
LINE
  8
0
  6
CONTINUOUS
 62
     2
 10
107.55
 20
159.075
 30
0.0
 11
107.55
 21
163.325
 31
0.0
  0
LINE
  8
0
  6
CONTINUOUS
 62
     2
 10
107.555
 20
159.825
 30
0.0
 11
109.53
 21
159.825
 31
0.0
  0
LINE
  8
0
  6
CONTINUOUS
 62
     2
 10
109.55
 20
162.585
 30
0.0
 11
107.56
 21
162.585
 31
0.0
  0
LINE
  8
0
  6
CONTINUOUS
 62
     2
 10
107.330901326
 20
164.05
 30
0.0
 11
105.05
 21
164.05
 31
0.0
  0
LINE
  8
0
  6
CONTINUOUS
 62
     2
 10
105.05
 20
158.35
 30
0.0
 11
107.325
 21
158.35
 31
0.0
  0
LINE
  8
0
  6
CONTINUOUS
 62
     2
 10
105.05
 20
164.05
 30
0.0
 11
105.05
 21
158.35
 31
0.0
  0
LINE
  8
0
  6
CONTINUOUS
 62
     2
 10
104.05
 20
164.55
 30
0.0
 11
105.05
 21
164.05
 31
0.0
  0
LINE
  8
0
  6
CONTINUOUS
 62
     2
 10
104.05
 20
157.85
 30
0.0
 11
105.05
 21
158.35
 31
0.0
  0
LINE
  8
0
  6
CONTINUOUS
 62
     2
 10
104.05
 20
164.55
 30
0.0
 11
104.05
 21
157.85
 31
0.0
  0
LINE
  8
0
  6
CONTINUOUS
 62
     2
 10
104.05
 20
162.7
 30
0.0
 11
102.05
 21
162.7
 31
0.0
  0
LINE
  8
0
  6
CONTINUOUS
 62
     2
 10
104.05
 20
162.585
 30
0.0
 11
102.05
 21
162.585
 31
0.0
  0
LINE
  8
0
  6
CONTINUOUS
 62
     1
 10
104.05
 20
163.45
 30
0.0
 11
102.05
 21
163.45
 31
0.0
  0
LINE
  8
0
  6
CONTINUOUS
 62
     2
 10
102.05
 20
159.705
 30
0.0
 11
104.05
 21
159.705
 31
0.0
  0
LINE
  8
0
  6
CONTINUOUS
 62
     2
 10
104.05
 20
159.825
 30
0.0
 11
102.05
 21
159.825
 31
0.0
  0
LINE
  8
0
  6
LTYPE2
 62
     2
 10
99.75
 20
111.15
 30
0.0
 11
111.6
 21
111.15
 31
0.0
  0
LINE
  8
0
  6
CONTINUOUS
 62
     2
 10
101.8
 20
114.15
 30
0.0
 11
102.05
 21
114.15
 31
0.0
  0
LINE
  8
0
  6
CONTINUOUS
 62
     2
 10
102.05
 20
114.15
 30
0.0
 11
102.05
 21
108.15
 31
0.0
  0
LINE
  8
0
  6
CONTINUOUS
 62
     2
 10
102.05
 20
108.15
 30
0.0
 11
101.8
 21
108.15
 31
0.0
  0
LINE
  8
0
  6
CONTINUOUS
 62
     2
 10
107.55
 20
109.65
 30
0.0
 11
109.55
 21
109.65
 31
0.0
  0
LINE
  8
0
  6
CONTINUOUS
 62
     2
 10
109.55
 20
109.65
 30
0.0
 11
109.55
 21
112.65
 31
0.0
  0
LINE
  8
0
  6
CONTINUOUS
 62
     2
 10
109.55
 20
112.65
 30
0.0
 11
107.55
 21
112.65
 31
0.0
  0
LINE
  8
0
  6
LTYPE1
 62
     2
 10
100.0
 20
111.15
 30
0.0
 11
111.85
 21
111.15
 31
0.0
  0
ARC
  8
0
  6
CONTINUOUS
 62
     2
 10
102.55
 20
111.15
 30
0.0
 40
5.0
 50
343.5
 51
16.5
  0
ARC
  8
0
  6
CONTINUOUS
 62
     2
 10
110.05
 20
111.15
 30
0.0
 40
5.0
 50
163.7
 51
196.5
  0
ARC
  8
0
  6
CONTINUOUS
 62
     2
 10
106.3
 20
109.025
 30
0.0
 40
1.25
 50
325.0
 51
35.0
  0
ARC
  8
0
  6
CONTINUOUS
 62
     2
 10
106.3
 20
109.025
 30
0.0
 40
1.25
 50
145.0
 51
215.0
  0
ARC
  8
0
  6
CONTINUOUS
 62
     2
 10
106.3
 20
113.275
 30
0.0
 40
1.25
 50
145.0
 51
215.0
  0
ARC
  8
0
  6
CONTINUOUS
 62
     2
 10
106.3
 20
113.275
 30
0.0
 40
1.25
 50
325.0
 51
35.0
  0
LINE
  8
0
  6
CONTINUOUS
 62
     2
 10
105.25097354
 20
112.553333545
 30
0.0
 11
107.32597354
 21
112.553333545
 31
0.0
  0
LINE
  8
0
  6
CONTINUOUS
 62
     2
 10
107.344098674
 20
109.729923276
 30
0.0
 11
105.255901326
 21
109.729923276
 31
0.0
  0
LINE
  8
0
  6
CONTINUOUS
 62
     2
 10
107.55
 20
113.275
 30
0.0
 11
107.55
 21
109.025
 31
0.0
  0
LINE
  8
0
  6
CONTINUOUS
 62
     2
 10
107.555
 20
112.525
 30
0.0
 11
109.53
 21
112.525
 31
0.0
  0
LINE
  8
0
  6
CONTINUOUS
 62
     2
 10
109.55
 20
109.765
 30
0.0
 11
107.56
 21
109.765
 31
0.0
  0
LINE
  8
0
  6
CONTINUOUS
 62
     2
 10
107.330901326
 20
108.3
 30
0.0
 11
105.05
 21
108.3
 31
0.0
  0
LINE
  8
0
  6
CONTINUOUS
 62
     2
 10
105.05
 20
114.0
 30
0.0
 11
107.325
 21
114.0
 31
0.0
  0
LINE
  8
0
  6
CONTINUOUS
 62
     2
 10
105.05
 20
108.3
 30
0.0
 11
105.05
 21
114.0
 31
0.0
  0
LINE
  8
0
  6
CONTINUOUS
 62
     2
 10
104.05
 20
114.5
 30
0.0
 11
105.05
 21
114.0
 31
0.0
  0
LINE
  8
0
  6
CONTINUOUS
 62
     2
 10
104.05
 20
107.8
 30
0.0
 11
104.05
 21
114.5
 31
0.0
  0
LINE
  8
0
  6
CONTINUOUS
 62
     2
 10
104.05
 20
109.65
 30
0.0
 11
102.05
 21
109.65
 31
0.0
  0
LINE
  8
0
  6
CONTINUOUS
 62
     2
 10
104.05
 20
109.765
 30
0.0
 11
102.05
 21
109.765
 31
0.0
  0
LINE
  8
0
  6
CONTINUOUS
 62
     2
 10
102.05
 20
112.645
 30
0.0
 11
104.05
 21
112.645
 31
0.0
  0
LINE
  8
0
  6
CONTINUOUS
 62
     2
 10
104.05
 20
112.525
 30
0.0
 11
102.05
 21
112.525
 31
0.0
  0
LINE
  8
0
  6
CONTINUOUS
 62
     1
 10
104.05
 20
108.95
 30
0.0
 11
102.05
 21
108.95
 31
0.0
  0
LINE
  8
0
  6
CONTINUOUS
 62
     2
 10
109.55
 20
163.7
 30
0.0
 11
109.55
 21
170.675
 31
0.0
  0
LINE
  8
0
  6
CONTINUOUS
 62
     2
 10
109.55
 20
168.675
 30
0.0
 11
111.964814566
 21
168.027952387
 31
0.0
  0
LINE
  8
0
  6
CONTINUOUS
 62
     2
 10
109.55
 20
168.675
 30
0.0
 11
111.964814566
 21
169.322047613
 31
0.0
  0
LINE
  8
0
  6
CONTINUOUS
 62
     2
 10
113.3
 20
168.675
 30
0.0
 11
109.55
 21
168.675
 31
0.0
  0
LINE
  8
0
  6
CONTINUOUS
 62
     2
 10
109.55
 20
168.675
 30
0.0
 11
102.05
 21
168.675
 31
0.0
  0
LINE
  8
0
  6
CONTINUOUS
 62
     2
 10
102.05
 20
165.2
 30
0.0
 11
102.05
 21
170.675
 31
0.0
  0
TEXT
  8
0
  6
CONTINUOUS
 62
     2
 10
103.85
 20
169.675
 30
0.3
 40
3.0
  1
１５
 50
0.0
 41
0.6
 51
0.0
  7
KANJI2
  0
LINE
  8
0
  6
CONTINUOUS
 62
     2
 10
102.05
 20
168.675
 30
0.0
 11
104.464814566
 21
168.027952387
 31
0.0
  0
LINE
  8
0
  6
CONTINUOUS
 62
     2
 10
102.05
 20
168.675
 30
0.0
 11
104.464814566
 21
169.322047613
 31
0.0
  0
LINE
  8
0
  6
CONTINUOUS
 62
     2
 10
105.8
 20
168.675
 30
0.0
 11
102.05
 21
168.675
 31
0.0
  0
LINE
  8
0
  6
CONTINUOUS
 62
     2
 10
102.05
 20
168.675
 30
0.0
 11
101.8
 21
168.675
 31
0.0
  0
LINE
  8
0
  6
CONTINUOUS
 62
     2
 10
101.8
 20
168.675
 30
0.0
 11
92.05
 21
168.675
 31
0.0
  0
LINE
  8
0
  6
CONTINUOUS
 62
     2
 10
101.8
 20
168.675
 30
0.0
 11
99.385185434
 21
169.322047613
 31
0.0
  0
LINE
  8
0
  6
CONTINUOUS
 62
     2
 10
101.8
 20
168.675
 30
0.0
 11
99.385185434
 21
168.027952387
 31
0.0
  0
TEXT
  8
0
  6
CONTINUOUS
 62
     2
 10
92.05
 20
169.675
 30
0.3
 40
3.0
  1
０．５
 50
0.0
 41
0.6
 51
0.0
  7
KANJI2
  0
LINE
  8
0
  6
CONTINUOUS
 62
     2
 10
146.95
 20
178.625001907
 30
0.0
 11
144.535185434
 21
179.27204952
 31
0.0
  0
LINE
  8
0
  6
CONTINUOUS
 62
     2
 10
146.95
 20
178.625001907
 30
0.0
 11
144.535185434
 21
177.977954295
 31
0.0
  0
LINE
  8
0
  6
CONTINUOUS
 62
     2
 10
101.8
 20
178.625001907
 30
0.0
 11
104.214814566
 21
177.977954295
 31
0.0
  0
LINE
  8
0
  6
CONTINUOUS
 62
     2
 10
101.8
 20
178.625001907
 30
0.0
 11
104.214814566
 21
179.27204952
 31
0.0
  0
LINE
  8
0
  6
CONTINUOUS
 62
     2
 10
101.8
 20
178.625001907
 30
0.0
 11
146.95
 21
178.625001907
 31
0.0
  0
TEXT
  8
0
  6
CONTINUOUS
 62
     2
 10
121.8125
 20
179.300001907
 30
0.4
 40
4.0
  1
ι
 50
0.0
 41
0.9
 51
0.0
  7
KANJI6
  0
LINE
  8
0
  6
CONTINUOUS
 62
     2
 10
101.8
 20
178.625001907
 30
0.0
 11
99.385185434
 21
179.27204952
 31
0.0
  0
LINE
  8
0
  6
CONTINUOUS
 62
     2
 10
101.8
 20
178.625001907
 30
0.0
 11
99.385185434
 21
177.977954295
 31
0.0
  0
LINE
  8
0
  6
CONTINUOUS
 62
     2
 10
146.95
 20
143.1
 30
0.0
 11
146.95
 21
180.625001907
 31
0.0
  0
LINE
  8
0
  6
CONTINUOUS
 62
     2
 10
101.8
 20
180.625001907
 30
0.0
 11
101.8
 21
167.175
 31
0.0
  0
TEXT
  8
0
  6
CONTINUOUS
 62
     2
 10
198.07
 20
178.7
 30
0.18
 40
1.8
  1
±０．５
 50
0.0
 41
0.6
 51
0.0
  7
KANJI1
  0
TEXT
  8
0
  6
CONTINUOUS
 62
     2
 10
173.07
 20
178.7
 30
0.18
 40
1.8
  1
±０．５
 50
0.0
 41
0.6
 51
0.0
  7
KANJI1
  0
ARC
  8
0
  6
LTYPE3
 62
     2
 10
126.3
 20
161.45
 30
0.0
 40
1.0
 50
0.0
 51
180.0
  0
ARC
  8
0
  6
LTYPE3
 62
     2
 10
129.8
 20
161.45
 30
0.0
 40
1.0
 50
0.0
 51
180.0
  0
ARC
  8
0
  6
LTYPE3
 62
     2
 10
133.3
 20
161.45
 30
0.0
 40
1.0
 50
0.0
 51
180.0
  0
ARC
  8
0
  6
LTYPE3
 62
     2
 10
133.3
 20
158.95
 30
0.0
 40
1.0
 50
180.0
 51
0.0
  0
ARC
  8
0
  6
LTYPE3
 62
     2
 10
129.8
 20
158.95
 30
0.0
 40
1.0
 50
180.0
 51
0.0
  0
ARC
  8
0
  6
LTYPE3
 62
     2
 10
126.3
 20
158.95
 30
0.0
 40
1.0
 50
180.0
 51
0.0
  0
POINT
  8
0
  6
LTYPE3
 62
     2
 10
127.3
 20
158.95
 30
0.0
  0
POINT
  8
0
  6
LTYPE3
 62
     2
 10
127.3
 20
158.95
 30
0.0
  0
POINT
  8
0
  6
LTYPE3
 62
     2
 10
127.3
 20
158.95
 30
0.0
  0
POINT
  8
0
  6
LTYPE3
 62
     2
 10
127.3
 20
158.95
 30
0.0
  0
POINT
  8
0
  6
LTYPE3
 62
     2
 10
127.3
 20
158.95
 30
0.0
  0
LINE
  8
0
  6
LTYPE3
 62
     2
 10
127.3
 20
158.95
 30
0.0
 11
127.3
 21
161.45
 31
0.0
  0
LINE
  8
0
  6
LTYPE3
 62
     2
 10
128.8
 20
161.45
 30
0.0
 11
128.8
 21
158.95
 31
0.0
  0
LINE
  8
0
  6
LTYPE3
 62
     2
 10
130.8
 20
158.95
 30
0.0
 11
130.8
 21
161.45
 31
0.0
  0
LINE
  8
0
  6
LTYPE3
 62
     2
 10
132.3
 20
161.45
 30
0.0
 11
132.3
 21
158.95
 31
0.0
  0
LINE
  8
0
  6
LTYPE3
 62
     2
 10
134.3
 20
158.95
 30
0.0
 11
134.3
 21
161.45
 31
0.0
  0
ARC
  8
0
  6
LTYPE3
 62
     2
 10
126.3
 20
113.55
 30
0.0
 40
1.0
 50
0.0
 51
180.0
  0
ARC
  8
0
  6
LTYPE3
 62
     2
 10
129.8
 20
113.55
 30
0.0
 40
1.0
 50
0.0
 51
180.0
  0
ARC
  8
0
  6
LTYPE3
 62
     2
 10
133.3
 20
113.55
 30
0.0
 40
1.0
 50
0.0
 51
180.0
  0
ARC
  8
0
  6
LTYPE3
 62
     2
 10
133.3
 20
110.95
 30
0.0
 40
1.0
 50
180.0
 51
0.0
  0
ARC
  8
0
  6
LTYPE3
 62
     2
 10
129.8
 20
110.95
 30
0.0
 40
1.0
 50
180.0
 51
0.0
  0
ARC
  8
0
  6
LTYPE3
 62
     2
 10
126.3
 20
110.95
 30
0.0
 40
1.0
 50
180.0
 51
0.0
  0
LINE
  8
0
  6
LTYPE3
 62
     2
 10
134.3
 20
110.95
 30
0.0
 11
134.3
 21
113.55
 31
0.0
  0
LINE
  8
0
  6
LTYPE3
 62
     2
 10
132.3
 20
113.55
 30
0.0
 11
132.3
 21
110.95
 31
0.0
  0
POINT
  8
0
  6
LTYPE3
 62
     2
 10
130.8
 20
110.95
 30
0.0
  0
POINT
  8
0
  6
LTYPE3
 62
     2
 10
130.8
 20
110.95
 30
0.0
  0
POINT
  8
0
  6
LTYPE3
 62
     2
 10
130.8
 20
110.95
 30
0.0
  0
POINT
  8
0
  6
LTYPE3
 62
     2
 10
130.8
 20
110.95
 30
0.0
  0
POINT
  8
0
  6
LTYPE3
 62
     2
 10
130.8
 20
110.95
 30
0.0
  0
LINE
  8
0
  6
LTYPE3
 62
     2
 10
130.8
 20
110.95
 30
0.0
 11
130.8
 21
113.55
 31
0.0
  0
LINE
  8
0
  6
LTYPE3
 62
     2
 10
128.8
 20
113.55
 30
0.0
 11
128.8
 21
110.95
 31
0.0
  0
POINT
  8
0
  6
LTYPE3
 62
     2
 10
127.3
 20
110.95
 30
0.0
  0
POINT
  8
0
  6
LTYPE3
 62
     2
 10
127.3
 20
110.95
 30
0.0
  0
LINE
  8
0
  6
LTYPE3
 62
     2
 10
127.3
 20
110.95
 30
0.0
 11
127.3
 21
113.55
 31
0.0
  0
ARC
  8
0
  6
LTYPE3
 62
     2
 10
122.8
 20
161.45
 30
0.0
 40
1.0
 50
0.0
 51
180.0
  0
ARC
  8
0
  6
LTYPE3
 62
     2
 10
122.8
 20
158.95
 30
0.0
 40
1.0
 50
180.0
 51
0.0
  0
LINE
  8
0
  6
LTYPE3
 62
     2
 10
121.8
 20
161.45
 30
0.0
 11
121.8
 21
158.95
 31
0.0
  0
LINE
  8
0
  6
LTYPE3
 62
     2
 10
123.8
 20
158.95
 30
0.0
 11
123.8
 21
161.45
 31
0.0
  0
LINE
  8
0
  6
LTYPE3
 62
     2
 10
125.3
 20
161.45
 30
0.0
 11
125.3
 21
158.95
 31
0.0
  0
ARC
  8
0
  6
LTYPE3
 62
     2
 10
122.8
 20
113.55
 30
0.0
 40
1.0
 50
0.0
 51
180.0
  0
ARC
  8
0
  6
LTYPE3
 62
     2
 10
122.8
 20
110.95
 30
0.0
 40
1.0
 50
180.0
 51
0.0
  0
LINE
  8
0
  6
LTYPE3
 62
     2
 10
125.3
 20
113.55
 30
0.0
 11
125.3
 21
110.95
 31
0.0
  0
LINE
  8
0
  6
LTYPE3
 62
     2
 10
123.8
 20
110.95
 30
0.0
 11
123.8
 21
113.55
 31
0.0
  0
LINE
  8
0
  6
LTYPE3
 62
     2
 10
121.8
 20
113.55
 30
0.0
 11
121.8
 21
110.95
 31
0.0
  0
LINE
  8
0
  6
CONTINUOUS
 62
     1
 10
107.543734296
 20
163.45
 30
0.0
 11
117.2
 21
163.45
 31
0.0
  0
ARC
  8
0
  6
CONTINUOUS
 62
     2
 10
146.3875
 20
149.8125
 30
0.0
 40
32.216324472
 50
154.956246189
 51
205.043753811
  0
ARC
  8
0
  6
CONTINUOUS
 62
     2
 10
146.3875
 20
149.8125
 30
0.0
 40
31.216324472
 50
154.095605658
 51
205.043753811
  0
LINE
  8
0
  6
CONTINUOUS
 62
     1
 10
117.22330975
 20
108.95
 30
0.0
 11
107.5
 21
108.95
 31
0.0
  0
ARC
  8
0
  6
CONTINUOUS
 62
     2
 10
88.0125
 20
122.5375
 30
0.0
 40
32.216324472
 50
335.054358217
 51
25.043753811
  0
ARC
  8
0
  6
CONTINUOUS
 62
     2
 10
88.0125
 20
122.5375
 30
0.0
 40
33.216324472
 50
335.854143562
 51
25.043753811
  0
LINE
  8
0
  6
CONTINUOUS
 62
     1
 10
138.800000253
 20
108.95
 30
0.0
 11
118.32263123
 21
108.95
 31
0.0
  0
LINE
  8
0
  6
CONTINUOUS
 62
     1
 10
118.307658346
 20
163.45
 30
0.0
 11
138.800001835
 21
163.45
 31
0.0
  0
LINE
  8
0
  6
CONTINUOUS
 62
     2
 10
91.541074326
 20
163.675
 30
0.0
 11
84.1
 21
163.675
 31
0.0
  0
LINE
  8
0
  6
CONTINUOUS
 62
     2
 10
86.1
 20
163.675
 30
0.0
 11
85.452952387
 21
161.260185434
 31
0.0
  0
LINE
  8
0
  6
CONTINUOUS
 62
     2
 10
86.1
 20
163.675
 30
0.0
 11
86.747047613
 21
161.260185434
 31
0.0
  0
LINE
  8
0
  6
CONTINUOUS
 62
     2
 10
86.1
 20
163.675
 30
0.0
 11
86.1
 21
108.675
 31
0.0
  0
LINE
  8
0
  6
CONTINUOUS
 62
     2
 10
86.1
 20
108.675
 30
0.0
 11
86.747047613
 21
111.089814566
 31
0.0
  0
LINE
  8
0
  6
CONTINUOUS
 62
     2
 10
86.1
 20
108.675
 30
0.0
 11
85.452952387
 21
111.089814566
 31
0.0
  0
LINE
  8
0
  6
CONTINUOUS
 62
     2
 10
91.541074326
 20
108.675
 30
0.0
 11
84.1
 21
108.675
 31
0.0
  0
CIRCLE
  8
0
  6
CONTINUOUS
 62
     2
 10
123.3
 20
182.5
 30
0.0
 40
0.2
  0
TEXT
  8
0
  6
CONTINUOUS
 62
     2
 10
102.714213562
 20
66.085786438
 30
0.666666667
 40
4.0
  1
ι
 50
0.0
 41
0.9
 51
0.0
  7
KANJI7
  0
CIRCLE
  8
0
  6
CONTINUOUS
 62
     2
 10
104.1
 20
69.5
 30
0.0
 40
0.2
  0
TEXT
  8
0
  6
CONTINUOUS
 62
     2
 10
85.1
 20
133.175
 30
0.3
 40
3.0
  1
φ１１０
 50
90.0
 41
0.6
 51
0.0
  7
KANJI2
  0
LINE
  8
0
  6
LTYPE2
 62
     2
 10
177.6
 20
22.35
 30
0.0
 11
177.6
 21
86.45
 31
0.0
  0
CIRCLE
  8
0
  6
CONTINUOUS
 62
     2
 10
40.3
 20
120.675
 30
0.0
 40
1.75
  0
CIRCLE
  8
0
  6
CONTINUOUS
 62
     2
 10
40.3
 20
120.675
 30
0.0
 40
1.5
  0
LINE
  8
0
  6
CONTINUOUS
 62
     2
 10
39.425
 20
120.875
 30
0.0
 11
39.9
 21
120.875
 31
0.0
  0
ARC
  8
0
  6
CONTINUOUS
 62
     2
 10
39.9
 20
121.075
 30
0.0
 40
0.2
 50
270.0
 51
0.0
  0
LINE
  8
0
  6
CONTINUOUS
 62
     2
 10
40.1
 20
121.075
 30
0.0
 11
40.1
 21
121.55
 31
0.0
  0
LINE
  8
0
  6
CONTINUOUS
 62
     2
 10
40.1
 20
121.55
 30
0.0
 11
40.5
 21
121.55
 31
0.0
  0
LINE
  8
0
  6
CONTINUOUS
 62
     2
 10
40.5
 20
121.55
 30
0.0
 11
40.5
 21
121.075
 31
0.0
  0
ARC
  8
0
  6
CONTINUOUS
 62
     2
 10
40.7
 20
121.075
 30
0.0
 40
0.2
 50
180.0
 51
270.0
  0
LINE
  8
0
  6
CONTINUOUS
 62
     2
 10
40.7
 20
120.875
 30
0.0
 11
41.175
 21
120.875
 31
0.0
  0
LINE
  8
0
  6
CONTINUOUS
 62
     2
 10
41.175
 20
120.875
 30
0.0
 11
41.175
 21
120.475
 31
0.0
  0
LINE
  8
0
  6
CONTINUOUS
 62
     2
 10
41.175
 20
120.475
 30
0.0
 11
40.7
 21
120.475
 31
0.0
  0
ARC
  8
0
  6
CONTINUOUS
 62
     2
 10
40.7
 20
120.275
 30
0.0
 40
0.2
 50
90.0
 51
180.0
  0
LINE
  8
0
  6
CONTINUOUS
 62
     2
 10
40.5
 20
120.275
 30
0.0
 11
40.5
 21
119.8
 31
0.0
  0
LINE
  8
0
  6
CONTINUOUS
 62
     2
 10
40.5
 20
119.8
 30
0.0
 11
40.1
 21
119.8
 31
0.0
  0
LINE
  8
0
  6
CONTINUOUS
 62
     2
 10
40.1
 20
119.8
 30
0.0
 11
40.1
 21
120.275
 31
0.0
  0
ARC
  8
0
  6
CONTINUOUS
 62
     2
 10
39.9
 20
120.275
 30
0.0
 40
0.2
 50
0.0
 51
90.0
  0
LINE
  8
0
  6
CONTINUOUS
 62
     2
 10
39.9
 20
120.475
 30
0.0
 11
39.425
 21
120.475
 31
0.0
  0
LINE
  8
0
  6
CONTINUOUS
 62
     2
 10
39.425
 20
120.475
 30
0.0
 11
39.425
 21
120.875
 31
0.0
  0
LINE
  8
0
  6
LTYPE4
 62
     2
 10
37.5
 20
120.675
 30
0.0
 11
43.05
 21
120.675
 31
0.0
  0
LINE
  8
0
  6
LTYPE4
 62
     2
 10
40.3
 20
123.425
 30
0.0
 11
40.3
 21
117.925
 31
0.0
  0
ARC
  8
0
  6
CONTINUOUS
 62
     2
 10
48.8
 20
136.175
 30
0.0
 40
27.5
 50
90.0
 51
270.0
  0
ARC
  8
0
  6
CONTINUOUS
 62
     2
 10
48.8
 20
136.175
 30
0.0
 40
26.25
 50
90.0
 51
270.0
  0
CIRCLE
  8
0
  6
CONTINUOUS
 62
     2
 10
57.3
 20
120.675
 30
0.0
 40
1.75
  0
CIRCLE
  8
0
  6
CONTINUOUS
 62
     2
 10
57.3
 20
120.675
 30
0.0
 40
1.5
  0
LINE
  8
0
  6
CONTINUOUS
 62
     2
 10
58.175
 20
120.875
 30
0.0
 11
57.7
 21
120.875
 31
0.0
  0
ARC
  8
0
  6
CONTINUOUS
 62
     2
 10
57.7
 20
121.075
 30
0.0
 40
0.2
 50
180.0
 51
270.0
  0
LINE
  8
0
  6
CONTINUOUS
 62
     2
 10
57.5
 20
121.075
 30
0.0
 11
57.5
 21
121.55
 31
0.0
  0
LINE
  8
0
  6
CONTINUOUS
 62
     2
 10
57.1
 20
121.55
 30
0.0
 11
57.1
 21
121.075
 31
0.0
  0
ARC
  8
0
  6
CONTINUOUS
 62
     2
 10
56.9
 20
121.075
 30
0.0
 40
0.2
 50
270.0
 51
0.0
  0
LINE
  8
0
  6
CONTINUOUS
 62
     2
 10
56.9
 20
120.875
 30
0.0
 11
56.425
 21
120.875
 31
0.0
  0
LINE
  8
0
  6
CONTINUOUS
 62
     2
 10
56.425
 20
120.875
 30
0.0
 11
56.425
 21
120.475
 31
0.0
  0
LINE
  8
0
  6
CONTINUOUS
 62
     2
 10
56.425
 20
120.475
 30
0.0
 11
56.9
 21
120.475
 31
0.0
  0
ARC
  8
0
  6
CONTINUOUS
 62
     2
 10
56.9
 20
120.275
 30
0.0
 40
0.2
 50
0.0
 51
90.0
  0
LINE
  8
0
  6
CONTINUOUS
 62
     2
 10
57.1
 20
120.275
 30
0.0
 11
57.1
 21
119.8
 31
0.0
  0
LINE
  8
0
  6
CONTINUOUS
 62
     2
 10
57.1
 20
119.8
 30
0.0
 11
57.5
 21
119.8
 31
0.0
  0
LINE
  8
0
  6
CONTINUOUS
 62
     2
 10
57.5
 20
119.8
 30
0.0
 11
57.5
 21
120.275
 31
0.0
  0
ARC
  8
0
  6
CONTINUOUS
 62
     2
 10
57.7
 20
120.275
 30
0.0
 40
0.2
 50
90.0
 51
180.0
  0
LINE
  8
0
  6
CONTINUOUS
 62
     2
 10
57.7
 20
120.475
 30
0.0
 11
58.175
 21
120.475
 31
0.0
  0
LINE
  8
0
  6
CONTINUOUS
 62
     2
 10
58.175
 20
120.475
 30
0.0
 11
58.175
 21
120.875
 31
0.0
  0
LINE
  8
0
  6
LTYPE4
 62
     2
 10
60.1
 20
120.675
 30
0.0
 11
54.55
 21
120.675
 31
0.0
  0
LINE
  8
0
  6
LTYPE4
 62
     2
 10
57.3
 20
123.425
 30
0.0
 11
57.3
 21
117.925
 31
0.0
  0
ARC
  8
0
  6
CONTINUOUS
 62
     2
 10
48.8
 20
136.175
 30
0.0
 40
27.5
 50
270.0
 51
90.0
  0
ARC
  8
0
  6
CONTINUOUS
 62
     2
 10
48.8
 20
136.175
 30
0.0
 40
26.25
 50
270.0
 51
90.0
  0
LINE
  8
0
  6
CONTINUOUS
 62
     1
 10
48.8
 20
166.175
 30
0.0
 11
22.3
 21
166.175
 31
0.0
  0
ARC
  8
0
  6
CONTINUOUS
 62
     1
 10
22.3
 20
162.675
 30
0.0
 40
3.5
 50
90.0
 51
180.0
  0
LINE
  8
0
  6
CONTINUOUS
 62
     1
 10
18.8
 20
162.675
 30
0.0
 11
18.8
 21
109.675
 31
0.0
  0
LINE
  8
0
  6
CONTINUOUS
 62
     1
 10
48.8
 20
166.175
 30
0.0
 11
75.3
 21
166.175
 31
0.0
  0
ARC
  8
0
  6
CONTINUOUS
 62
     1
 10
75.3
 20
162.675
 30
0.0
 40
3.5
 50
0.0
 51
90.0
  0
LINE
  8
0
  6
CONTINUOUS
 62
     1
 10
75.3
 20
106.175
 30
0.0
 11
48.8
 21
106.175
 31
0.0
  0
ARC
  8
0
  6
CONTINUOUS
 62
     1
 10
75.3
 20
109.675
 30
0.0
 40
3.5
 50
270.0
 51
0.0
  0
LINE
  8
0
  6
CONTINUOUS
 62
     1
 10
78.8
 20
162.675
 30
0.0
 11
78.8
 21
109.675
 31
0.0
  0
LINE
  8
0
  6
CONTINUOUS
 62
     1
 10
22.3
 20
106.175
 30
0.0
 11
48.8
 21
106.175
 31
0.0
  0
ARC
  8
0
  6
CONTINUOUS
 62
     1
 10
22.3
 20
109.675
 30
0.0
 40
3.5
 50
180.0
 51
270.0
  0
LINE
  8
0
  6
CONTINUOUS
 62
     2
 10
18.8
 20
163.675
 30
0.0
 11
18.8
 21
173.175
 31
0.0
  0
LINE
  8
0
  6
CONTINUOUS
 62
     2
 10
18.8
 20
171.175
 30
0.0
 11
21.214814566
 21
170.527952387
 31
0.0
  0
LINE
  8
0
  6
CONTINUOUS
 62
     2
 10
18.8
 20
171.175
 30
0.0
 11
21.214814566
 21
171.822047613
 31
0.0
  0
LINE
  8
0
  6
CONTINUOUS
 62
     2
 10
18.8
 20
171.175
 30
0.0
 11
78.8
 21
171.175
 31
0.0
  0
LINE
  8
0
  6
CONTINUOUS
 62
     2
 10
78.8
 20
171.175
 30
0.0
 11
76.385185434
 21
171.822047613
 31
0.0
  0
LINE
  8
0
  6
CONTINUOUS
 62
     2
 10
78.8
 20
171.175
 30
0.0
 11
76.385185434
 21
170.527952387
 31
0.0
  0
LINE
  8
0
  6
CONTINUOUS
 62
     2
 10
78.8
 20
163.675
 30
0.0
 11
78.8
 21
173.175
 31
0.0
  0
LINE
  8
0
  6
CONTINUOUS
 62
     2
 10
21.3
 20
166.175
 30
0.0
 11
12.8
 21
166.175
 31
0.0
  0
LINE
  8
0
  6
CONTINUOUS
 62
     2
 10
14.8
 20
166.175
 30
0.0
 11
14.152952387
 21
163.760185434
 31
0.0
  0
LINE
  8
0
  6
CONTINUOUS
 62
     2
 10
14.8
 20
166.175
 30
0.0
 11
15.447047613
 21
163.760185434
 31
0.0
  0
LINE
  8
0
  6
CONTINUOUS
 62
     2
 10
14.8
 20
166.175
 30
0.0
 11
14.8
 21
106.175
 31
0.0
  0
LINE
  8
0
  6
CONTINUOUS
 62
     2
 10
14.8
 20
106.175
 30
0.0
 11
15.447047613
 21
108.589814566
 31
0.0
  0
LINE
  8
0
  6
CONTINUOUS
 62
     2
 10
14.8
 20
106.175
 30
0.0
 11
14.152952387
 21
108.589814566
 31
0.0
  0
LINE
  8
0
  6
CONTINUOUS
 62
     2
 10
21.3
 20
106.175
 30
0.0
 11
12.8
 21
106.175
 31
0.0
  0
TEXT
  8
0
  6
CONTINUOUS
 62
     2
 10
13.8
 20
130.745
 30
0.3
 40
3.0
  1
１２０
 50
90.0
 41
0.6
 51
0.0
  7
KANJI2
  0
TEXT
  8
0
  6
CONTINUOUS
 62
     2
 10
13.8
 20
137.195
 30
0.18
 40
1.8
  1
±１．５
 50
90.0
 41
0.6
 51
0.0
  7
KANJI1
  0
CIRCLE
  8
0
  6
CONTINUOUS
 62
     2
 10
23.8
 20
161.175
 30
0.0
 40
1.5
  0
LINE
  8
0
  6
CONTINUOUS
 62
     2
 10
22.925
 20
161.375
 30
0.0
 11
23.4
 21
161.375
 31
0.0
  0
ARC
  8
0
  6
CONTINUOUS
 62
     2
 10
23.4
 20
161.575
 30
0.0
 40
0.2
 50
270.0
 51
0.0
  0
LINE
  8
0
  6
CONTINUOUS
 62
     2
 10
23.6
 20
161.575
 30
0.0
 11
23.6
 21
162.05
 31
0.0
  0
LINE
  8
0
  6
CONTINUOUS
 62
     2
 10
23.6
 20
162.05
 30
0.0
 11
24.0
 21
162.05
 31
0.0
  0
LINE
  8
0
  6
CONTINUOUS
 62
     2
 10
24.0
 20
162.05
 30
0.0
 11
24.0
 21
161.575
 31
0.0
  0
ARC
  8
0
  6
CONTINUOUS
 62
     2
 10
24.2
 20
161.575
 30
0.0
 40
0.2
 50
180.0
 51
270.0
  0
LINE
  8
0
  6
CONTINUOUS
 62
     2
 10
24.2
 20
161.375
 30
0.0
 11
24.675
 21
161.375
 31
0.0
  0
LINE
  8
0
  6
CONTINUOUS
 62
     2
 10
24.675
 20
161.375
 30
0.0
 11
24.675
 21
160.975
 31
0.0
  0
LINE
  8
0
  6
CONTINUOUS
 62
     2
 10
24.675
 20
160.975
 30
0.0
 11
24.2
 21
160.975
 31
0.0
  0
ARC
  8
0
  6
CONTINUOUS
 62
     2
 10
24.2
 20
160.775
 30
0.0
 40
0.2
 50
90.0
 51
180.0
  0
LINE
  8
0
  6
CONTINUOUS
 62
     2
 10
24.0
 20
160.775
 30
0.0
 11
24.0
 21
160.3
 31
0.0
  0
LINE
  8
0
  6
CONTINUOUS
 62
     2
 10
24.0
 20
160.3
 30
0.0
 11
23.6
 21
160.3
 31
0.0
  0
LINE
  8
0
  6
CONTINUOUS
 62
     2
 10
23.6
 20
160.3
 30
0.0
 11
23.6
 21
160.775
 31
0.0
  0
ARC
  8
0
  6
CONTINUOUS
 62
     2
 10
23.4
 20
160.775
 30
0.0
 40
0.2
 50
0.0
 51
90.0
  0
LINE
  8
0
  6
CONTINUOUS
 62
     2
 10
23.4
 20
160.975
 30
0.0
 11
22.925
 21
160.975
 31
0.0
  0
LINE
  8
0
  6
CONTINUOUS
 62
     2
 10
22.925
 20
160.975
 30
0.0
 11
22.925
 21
161.375
 31
0.0
  0
LINE
  8
0
  6
LTYPE4
 62
     2
 10
21.8
 20
161.175
 30
0.0
 11
25.8
 21
161.175
 31
0.0
  0
LINE
  8
0
  6
LTYPE4
 62
     2
 10
23.8
 20
163.175
 30
0.0
 11
23.8
 21
159.175
 31
0.0
  0
CIRCLE
  8
0
  6
CONTINUOUS
 62
     2
 10
73.8
 20
161.175
 30
0.0
 40
1.5
  0
LINE
  8
0
  6
CONTINUOUS
 62
     2
 10
74.675
 20
161.375
 30
0.0
 11
74.2
 21
161.375
 31
0.0
  0
ARC
  8
0
  6
CONTINUOUS
 62
     2
 10
74.2
 20
161.575
 30
0.0
 40
0.2
 50
180.0
 51
270.0
  0
LINE
  8
0
  6
CONTINUOUS
 62
     2
 10
74.0
 20
161.575
 30
0.0
 11
74.0
 21
162.05
 31
0.0
  0
LINE
  8
0
  6
CONTINUOUS
 62
     2
 10
74.0
 20
162.05
 30
0.0
 11
73.6
 21
162.05
 31
0.0
  0
LINE
  8
0
  6
CONTINUOUS
 62
     2
 10
73.6
 20
162.05
 30
0.0
 11
73.6
 21
161.575
 31
0.0
  0
ARC
  8
0
  6
CONTINUOUS
 62
     2
 10
73.4
 20
161.575
 30
0.0
 40
0.2
 50
270.0
 51
0.0
  0
LINE
  8
0
  6
CONTINUOUS
 62
     2
 10
73.4
 20
161.375
 30
0.0
 11
72.925
 21
161.375
 31
0.0
  0
LINE
  8
0
  6
CONTINUOUS
 62
     2
 10
72.925
 20
161.375
 30
0.0
 11
72.925
 21
160.975
 31
0.0
  0
LINE
  8
0
  6
CONTINUOUS
 62
     2
 10
72.925
 20
160.975
 30
0.0
 11
73.4
 21
160.975
 31
0.0
  0
ARC
  8
0
  6
CONTINUOUS
 62
     2
 10
73.4
 20
160.775
 30
0.0
 40
0.2
 50
0.0
 51
90.0
  0
LINE
  8
0
  6
CONTINUOUS
 62
     2
 10
73.6
 20
160.775
 30
0.0
 11
73.6
 21
160.3
 31
0.0
  0
LINE
  8
0
  6
CONTINUOUS
 62
     2
 10
73.6
 20
160.3
 30
0.0
 11
74.0
 21
160.3
 31
0.0
  0
LINE
  8
0
  6
CONTINUOUS
 62
     2
 10
74.0
 20
160.3
 30
0.0
 11
74.0
 21
160.775
 31
0.0
  0
ARC
  8
0
  6
CONTINUOUS
 62
     2
 10
74.2
 20
160.775
 30
0.0
 40
0.2
 50
90.0
 51
180.0
  0
LINE
  8
0
  6
CONTINUOUS
 62
     2
 10
74.2
 20
160.975
 30
0.0
 11
74.675
 21
160.975
 31
0.0
  0
LINE
  8
0
  6
CONTINUOUS
 62
     2
 10
74.675
 20
160.975
 30
0.0
 11
74.675
 21
161.375
 31
0.0
  0
LINE
  8
0
  6
LTYPE4
 62
     2
 10
75.8
 20
161.175
 30
0.0
 11
71.8
 21
161.175
 31
0.0
  0
LINE
  8
0
  6
LTYPE4
 62
     2
 10
73.8
 20
163.175
 30
0.0
 11
73.8
 21
159.175
 31
0.0
  0
CIRCLE
  8
0
  6
CONTINUOUS
 62
     2
 10
23.8
 20
111.175
 30
0.0
 40
1.5
  0
LINE
  8
0
  6
CONTINUOUS
 62
     2
 10
22.925
 20
110.975
 30
0.0
 11
23.4
 21
110.975
 31
0.0
  0
ARC
  8
0
  6
CONTINUOUS
 62
     2
 10
23.4
 20
110.775
 30
0.0
 40
0.2
 50
0.0
 51
90.0
  0
LINE
  8
0
  6
CONTINUOUS
 62
     2
 10
23.6
 20
110.775
 30
0.0
 11
23.6
 21
110.3
 31
0.0
  0
LINE
  8
0
  6
CONTINUOUS
 62
     2
 10
23.6
 20
110.3
 30
0.0
 11
24.0
 21
110.3
 31
0.0
  0
LINE
  8
0
  6
CONTINUOUS
 62
     2
 10
24.0
 20
110.3
 30
0.0
 11
24.0
 21
110.775
 31
0.0
  0
ARC
  8
0
  6
CONTINUOUS
 62
     2
 10
24.2
 20
110.775
 30
0.0
 40
0.2
 50
90.0
 51
180.0
  0
LINE
  8
0
  6
CONTINUOUS
 62
     2
 10
24.2
 20
110.975
 30
0.0
 11
24.675
 21
110.975
 31
0.0
  0
LINE
  8
0
  6
CONTINUOUS
 62
     2
 10
24.675
 20
110.975
 30
0.0
 11
24.675
 21
111.375
 31
0.0
  0
LINE
  8
0
  6
CONTINUOUS
 62
     2
 10
24.675
 20
111.375
 30
0.0
 11
24.2
 21
111.375
 31
0.0
  0
ARC
  8
0
  6
CONTINUOUS
 62
     2
 10
24.2
 20
111.575
 30
0.0
 40
0.2
 50
180.0
 51
270.0
  0
LINE
  8
0
  6
CONTINUOUS
 62
     2
 10
24.0
 20
111.575
 30
0.0
 11
24.0
 21
112.05
 31
0.0
  0
LINE
  8
0
  6
CONTINUOUS
 62
     2
 10
24.0
 20
112.05
 30
0.0
 11
23.6
 21
112.05
 31
0.0
  0
LINE
  8
0
  6
CONTINUOUS
 62
     2
 10
23.6
 20
112.05
 30
0.0
 11
23.6
 21
111.575
 31
0.0
  0
ARC
  8
0
  6
CONTINUOUS
 62
     2
 10
23.4
 20
111.575
 30
0.0
 40
0.2
 50
270.0
 51
0.0
  0
LINE
  8
0
  6
CONTINUOUS
 62
     2
 10
23.4
 20
111.375
 30
0.0
 11
22.925
 21
111.375
 31
0.0
  0
LINE
  8
0
  6
CONTINUOUS
 62
     2
 10
22.925
 20
111.375
 30
0.0
 11
22.925
 21
110.975
 31
0.0
  0
LINE
  8
0
  6
LTYPE4
 62
     2
 10
21.8
 20
111.175
 30
0.0
 11
25.8
 21
111.175
 31
0.0
  0
LINE
  8
0
  6
LTYPE4
 62
     2
 10
23.8
 20
109.175
 30
0.0
 11
23.8
 21
113.175
 31
0.0
  0
CIRCLE
  8
0
  6
CONTINUOUS
 62
     2
 10
73.8
 20
111.175
 30
0.0
 40
1.5
  0
LINE
  8
0
  6
CONTINUOUS
 62
     2
 10
74.675
 20
110.975
 30
0.0
 11
74.2
 21
110.975
 31
0.0
  0
ARC
  8
0
  6
CONTINUOUS
 62
     2
 10
74.2
 20
110.775
 30
0.0
 40
0.2
 50
90.0
 51
180.0
  0
LINE
  8
0
  6
CONTINUOUS
 62
     2
 10
74.0
 20
110.775
 30
0.0
 11
74.0
 21
110.3
 31
0.0
  0
LINE
  8
0
  6
CONTINUOUS
 62
     2
 10
74.0
 20
110.3
 30
0.0
 11
73.6
 21
110.3
 31
0.0
  0
LINE
  8
0
  6
CONTINUOUS
 62
     2
 10
73.6
 20
110.3
 30
0.0
 11
73.6
 21
110.775
 31
0.0
  0
ARC
  8
0
  6
CONTINUOUS
 62
     2
 10
73.4
 20
110.775
 30
0.0
 40
0.2
 50
0.0
 51
90.0
  0
LINE
  8
0
  6
CONTINUOUS
 62
     2
 10
73.4
 20
110.975
 30
0.0
 11
72.925
 21
110.975
 31
0.0
  0
LINE
  8
0
  6
CONTINUOUS
 62
     2
 10
72.925
 20
110.975
 30
0.0
 11
72.925
 21
111.375
 31
0.0
  0
LINE
  8
0
  6
CONTINUOUS
 62
     2
 10
72.925
 20
111.375
 30
0.0
 11
73.4
 21
111.375
 31
0.0
  0
ARC
  8
0
  6
CONTINUOUS
 62
     2
 10
73.4
 20
111.575
 30
0.0
 40
0.2
 50
270.0
 51
0.0
  0
LINE
  8
0
  6
CONTINUOUS
 62
     2
 10
73.6
 20
111.575
 30
0.0
 11
73.6
 21
112.05
 31
0.0
  0
LINE
  8
0
  6
CONTINUOUS
 62
     2
 10
73.6
 20
112.05
 30
0.0
 11
74.0
 21
112.05
 31
0.0
  0
LINE
  8
0
  6
CONTINUOUS
 62
     2
 10
74.0
 20
112.05
 30
0.0
 11
74.0
 21
111.575
 31
0.0
  0
ARC
  8
0
  6
CONTINUOUS
 62
     2
 10
74.2
 20
111.575
 30
0.0
 40
0.2
 50
180.0
 51
270.0
  0
LINE
  8
0
  6
CONTINUOUS
 62
     2
 10
74.2
 20
111.375
 30
0.0
 11
74.675
 21
111.375
 31
0.0
  0
LINE
  8
0
  6
CONTINUOUS
 62
     2
 10
74.675
 20
111.375
 30
0.0
 11
74.675
 21
110.975
 31
0.0
  0
LINE
  8
0
  6
LTYPE4
 62
     2
 10
75.8
 20
111.175
 30
0.0
 11
71.8
 21
111.175
 31
0.0
  0
LINE
  8
0
  6
LTYPE4
 62
     2
 10
73.8
 20
109.175
 30
0.0
 11
73.8
 21
113.175
 31
0.0
  0
LINE
  8
0
  6
CONTINUOUS
 62
     2
 10
31.744605789
 20
127.76809639
 30
0.0
 11
29.026614965
 21
125.438927894
 31
0.0
  0
LINE
  8
0
  6
CONTINUOUS
 62
     2
 10
29.026614965
 20
125.438927894
 30
0.0
 11
32.46034393
 21
126.449870721
 31
0.0
  0
LINE
  8
0
  6
CONTINUOUS
 62
     2
 10
32.46034393
 20
126.449870721
 30
0.0
 11
41.717058939
 21
131.475856895
 31
0.0
  0
LINE
  8
0
  6
CONTINUOUS
 62
     2
 10
31.223657747
 20
126.631824795
 30
0.0
 11
41.539402942
 21
131.755302005
 31
0.0
  0
LINE
  8
0
  6
CONTINUOUS
 62
     2
 10
41.001320798
 20
132.794082564
 30
0.0
 11
31.744605789
 21
127.76809639
 31
0.0
  0
LINE
  8
0
  6
CONTINUOUS
 62
     2
 10
41.138924797
 20
132.492890993
 30
0.0
 11
31.223657747
 21
126.631824795
 31
0.0
  0
CIRCLE
  8
0
  6
CONTINUOUS
 62
     5
 10
48.8
 20
136.175
 30
0.0
 40
22.5
  0
TEXT
  8
0
  6
CONTINUOUS
 62
     2
 10
40.37
 20
172.175
 30
0.3
 40
3.0
  1
１２０
 50
0.0
 41
0.6
 51
0.0
  7
KANJI2
  0
TEXT
  8
0
  6
CONTINUOUS
 62
     2
 10
46.82
 20
172.175
 30
0.18
 40
1.8
  1
±１．５
 50
0.0
 41
0.6
 51
0.0
  7
KANJI1
  0
LINE
  8
0
  6
LTYPE2
 62
     2
 10
52.7
 20
136.175
 30
0.0
 11
81.141074326
 21
136.175
 31
0.0
  0
CIRCLE
  8
0
  6
CONTINUOUS
 62
     2
 10
48.8
 20
136.175
 30
0.0
 40
8.5
  0
CIRCLE
  8
0
  6
CONTINUOUS
 62
     2
 10
48.8
 20
136.175
 30
0.0
 40
7.8
  0
CIRCLE
  8
0
  6
CONTINUOUS
 62
     2
 10
48.8
 20
136.175
 30
0.0
 40
7.1
  0
CIRCLE
  8
0
  6
CONTINUOUS
 62
     2
 10
48.8
 20
136.175
 30
0.0
 40
6.4
  0
CIRCLE
  8
0
  6
CONTINUOUS
 62
     2
 10
48.8
 20
136.175
 30
0.0
 40
5.7
  0
CIRCLE
  8
0
  6
CONTINUOUS
 62
     2
 10
48.8
 20
136.175
 30
0.0
 40
5.0
  0
CIRCLE
  8
0
  6
CONTINUOUS
 62
     2
 10
48.8
 20
136.175
 30
0.0
 40
4.3
  0
CIRCLE
  8
0
  6
CONTINUOUS
 62
     2
 10
48.8
 20
136.175
 30
0.0
 40
3.6
  0
CIRCLE
  8
0
  6
CONTINUOUS
 62
     2
 10
48.8
 20
136.175
 30
0.0
 40
3.05
  0
CIRCLE
  8
0
  6
CONTINUOUS
 62
     1
 10
48.8
 20
136.175
 30
0.0
 40
3.05
  0
LINE
  8
0
  6
CONTINUOUS
 62
     2
 10
51.816620626
 20
136.625
 30
0.0
 11
45.783379374
 21
136.625
 31
0.0
  0
LINE
  8
0
  6
CONTINUOUS
 62
     2
 10
45.783379374
 20
135.725
 30
0.0
 11
51.816620626
 21
135.725
 31
0.0
  0
LINE
  8
0
  6
CONTINUOUS
 62
     1
 10
96.05
 20
163.675
 30
0.0
 11
92.541074326
 21
163.675
 31
0.0
  0
ARC
  8
0
  6
CONTINUOUS
 62
     1
 10
92.541074326
 20
163.425
 30
0.0
 40
0.25
 50
90.0
 51
177.91743472
  0
LINE
  8
0
  6
CONTINUOUS
 62
     1
 10
96.05
 20
108.675
 30
0.0
 11
92.541074326
 21
108.675
 31
0.0
  0
ARC
  8
0
  6
CONTINUOUS
 62
     1
 10
92.541074326
 20
108.925
 30
0.0
 40
0.25
 50
182.08256528
 51
270.0
  0
LINE
  8
0
  6
CONTINUOUS
 62
     1
 10
91.3
 20
138.425
 30
0.0
 11
92.291239451
 21
163.434084905
 31
0.0
  0
LINE
  8
0
  6
CONTINUOUS
 62
     1
 10
91.3
 20
133.925
 30
0.0
 11
92.291239451
 21
108.915915095
 31
0.0
  0
LINE
  8
0
  6
CONTINUOUS
 62
     1
 10
91.3
 20
138.425
 30
0.0
 11
91.3
 21
133.925
 31
0.0
  0
LINE
  8
0
  6
CONTINUOUS
 62
     2
 10
91.3
 20
138.175
 30
0.0
 11
91.3
 21
134.175
 31
0.0
  0
LINE
  8
0
  6
CONTINUOUS
 62
     1
 10
91.3
 20
137.740990258
 30
0.0
 11
91.3
 21
133.9
 31
0.0
  0
LINE
  8
0
  6
CONTINUOUS
 62
     2
 10
91.3
 20
139.325
 30
0.0
 11
91.3
 21
133.425
 31
0.0
  0
POINT
  8
0
  6
CONTINUOUS
 62
     2
 10
91.3
 20
139.325
 30
0.0
  0
ARC
  8
0
  6
CONTINUOUS
 62
     2
 10
91.3
 20
137.825
 30
0.0
 40
1.5
 50
90.0
 51
180.0
  0
LINE
  8
0
  6
CONTINUOUS
 62
     2
 10
89.8
 20
134.825
 30
0.0
 11
89.8
 21
137.825
 31
0.0
  0
ARC
  8
0
  6
CONTINUOUS
 62
     2
 10
91.2
 20
134.825
 30
0.0
 40
1.4
 50
180.0
 51
270.0
  0
LINE
  8
0
  6
CONTINUOUS
 62
     2
 10
89.8
 20
138.925
 30
0.0
 11
89.8
 21
180.625001907
 31
0.0
  0
LINE
  8
0
  6
CONTINUOUS
 62
     2
 10
102.5
 20
178.625001907
 30
0.0
 11
89.8
 21
178.625001907
 31
0.0
  0
LINE
  8
0
  6
CONTINUOUS
 62
     2
 10
89.8
 20
178.625001907
 30
0.0
 11
92.214814566
 21
177.977954295
 31
0.0
  0
LINE
  8
0
  6
CONTINUOUS
 62
     2
 10
89.8
 20
178.625001907
 30
0.0
 11
92.214814566
 21
179.27204952
 31
0.0
  0
TEXT
  8
0
  6
CONTINUOUS
 62
     2
 10
93.55
 20
179.625001907
 30
0.3
 40
3.0
  1
２４
 50
0.0
 41
0.6
 51
0.0
  7
KANJI2
  0
LINE
  8
0
  6
CONTINUOUS
 62
     2
 10
89.8
 20
136.625
 30
0.0
 11
90.7
 21
136.625
 31
0.0
  0
LINE
  8
0
  6
CONTINUOUS
 62
     2
 10
90.7
 20
136.625
 30
0.0
 11
90.7
 21
135.725
 31
0.0
  0
LINE
  8
0
  6
CONTINUOUS
 62
     2
 10
90.7
 20
135.725
 30
0.0
 11
89.8
 21
135.725
 31
0.0
  0
TEXT
  8
0
  6
CONTINUOUS
 62
     2
 10
54.1
 20
56.9
 30
0.5
 40
3.0
  1
整流形
 50
0.0
 41
0.9
 51
0.0
  7
KANJI0
  0
TEXT
  8
0
  6
CONTINUOUS
 62
     1
 10
168.45
 20
19.1
 30
0.5
 40
3.0
  1
パネルカット
 50
0.0
 41
0.9
 51
0.0
  7
KANJI0
  0
POINT
  8
0
  6
LTYPE1
 62
     2
 10
177.6
 20
23.7
 30
0.0
  0
LINE
  8
0
  6
CONTINUOUS
 62
     2
 10
211.6
 20
53.35
 30
0.0
 11
210.952952387
 21
50.935185434
 31
0.0
  0
LINE
  8
0
  6
CONTINUOUS
 62
     2
 10
211.6
 20
53.35
 30
0.0
 11
212.247047613
 21
50.935185434
 31
0.0
  0
LINE
  8
0
  6
CONTINUOUS
 62
     2
 10
207.0
 20
53.35
 30
0.0
 11
213.6
 21
53.35
 31
0.0
  0
LINE
  8
0
  6
CONTINUOUS
 62
     2
 10
211.6
 20
53.35
 30
0.0
 11
212.247047613
 21
55.764814566
 31
0.0
  0
LINE
  8
0
  6
CONTINUOUS
 62
     2
 10
211.6
 20
53.35
 30
0.0
 11
210.952952387
 21
55.764814566
 31
0.0
  0
TEXT
  8
0
  6
CONTINUOUS
 62
     2
 10
210.6
 20
64.12
 30
0.18
 40
1.8
  1
±０．５
 50
90.0
 41
0.6
 51
0.0
  7
KANJI1
  0
TEXT
  8
0
  6
CONTINUOUS
 62
     2
 10
210.6
 20
41.62
 30
0.18
 40
1.8
  1
±０．５
 50
90.0
 41
0.6
 51
0.0
  7
KANJI1
  0
LINE
  8
0
  6
CONTINUOUS
 62
     2
 10
177.6
 20
82.85
 30
0.0
 11
175.185185434
 21
83.497047613
 31
0.0
  0
LINE
  8
0
  6
CONTINUOUS
 62
     2
 10
177.6
 20
82.85
 30
0.0
 11
175.185185434
 21
82.202952387
 31
0.0
  0
LINE
  8
0
  6
CONTINUOUS
 62
     2
 10
177.6
 20
82.2
 30
0.0
 11
177.6
 21
84.85
 31
0.0
  0
TEXT
  8
0
  6
CONTINUOUS
 62
     2
 10
165.87
 20
83.85
 30
0.18
 40
1.8
  1
±０．５
 50
0.0
 41
0.6
 51
0.0
  7
KANJI1
  0
LINE
  8
0
  6
CONTINUOUS
 62
     2
 10
177.6
 20
82.85
 30
0.0
 11
180.014814566
 21
82.202952387
 31
0.0
  0
LINE
  8
0
  6
CONTINUOUS
 62
     2
 10
177.6
 20
82.85
 30
0.0
 11
180.014814566
 21
83.497047613
 31
0.0
  0
TEXT
  8
0
  6
CONTINUOUS
 62
     2
 10
188.37
 20
83.85
 30
0.18
 40
1.8
  1
±０．５
 50
0.0
 41
0.6
 51
0.0
  7
KANJI1
  0
CIRCLE
  8
0
  6
CONTINUOUS
 62
     1
 10
177.6
 20
53.35
 30
0.0
 40
28.0
  0
LINE
  8
0
  6
CONTINUOUS
 62
     2
 10
205.15
 20
28.35
 30
0.0
 11
213.6
 21
28.35
 31
0.0
  0
LINE
  8
0
  6
CONTINUOUS
 62
     2
 10
211.6
 20
28.35
 30
0.0
 11
212.247047613
 21
30.764814566
 31
0.0
  0
LINE
  8
0
  6
CONTINUOUS
 62
     2
 10
211.6
 20
28.35
 30
0.0
 11
210.952952387
 21
30.764814566
 31
0.0
  0
LINE
  8
0
  6
CONTINUOUS
 62
     2
 10
211.6
 20
78.35
 30
0.0
 11
210.952952387
 21
75.935185434
 31
0.0
  0
LINE
  8
0
  6
CONTINUOUS
 62
     2
 10
211.6
 20
78.35
 30
0.0
 11
212.247047613
 21
75.935185434
 31
0.0
  0
LINE
  8
0
  6
CONTINUOUS
 62
     2
 10
207.35
 20
78.35
 30
0.0
 11
213.6
 21
78.35
 31
0.0
  0
LINE
  8
0
  6
CONTINUOUS
 62
     2
 10
211.6
 20
53.35
 30
0.0
 11
211.6
 21
78.35
 31
0.0
  0
LINE
  8
0
  6
CONTINUOUS
 62
     2
 10
211.6
 20
28.35
 30
0.0
 11
211.6
 21
53.35
 31
0.0
  0
CIRCLE
  8
0
  6
CONTINUOUS
 62
     1
 10
152.6
 20
78.35
 30
0.0
 40
1.75
  0
CIRCLE
  8
0
  6
CONTINUOUS
 62
     1
 10
202.6
 20
78.35
 30
0.0
 40
1.75
  0
LINE
  8
0
  6
CONTINUOUS
 62
     2
 10
202.6
 20
82.85
 30
0.0
 11
200.185185434
 21
83.497047613
 31
0.0
  0
LINE
  8
0
  6
CONTINUOUS
 62
     2
 10
202.6
 20
82.85
 30
0.0
 11
200.185185434
 21
82.202952387
 31
0.0
  0
LINE
  8
0
  6
CONTINUOUS
 62
     2
 10
152.6
 20
82.2
 30
0.0
 11
152.6
 21
84.85
 31
0.0
  0
LINE
  8
0
  6
CONTINUOUS
 62
     2
 10
152.6
 20
82.85
 30
0.0
 11
155.014814566
 21
82.202952387
 31
0.0
  0
LINE
  8
0
  6
CONTINUOUS
 62
     2
 10
152.6
 20
82.85
 30
0.0
 11
155.014814566
 21
83.497047613
 31
0.0
  0
LINE
  8
0
  6
CONTINUOUS
 62
     2
 10
152.6
 20
82.85
 30
0.0
 11
177.6
 21
82.85
 31
0.0
  0
LINE
  8
0
  6
CONTINUOUS
 62
     2
 10
177.6
 20
82.85
 30
0.0
 11
202.6
 21
82.85
 31
0.0
  0
TEXT
  8
0
  6
CONTINUOUS
 62
     2
 10
161.97
 20
83.85
 30
0.3
 40
3.0
  1
５０
 50
0.0
 41
0.6
 51
0.0
  7
KANJI2
  0
TEXT
  8
0
  6
CONTINUOUS
 62
     2
 10
184.47
 20
83.85
 30
0.3
 40
3.0
  1
５０
 50
0.0
 41
0.6
 51
0.0
  7
KANJI2
  0
TEXT
  8
0
  6
CONTINUOUS
 62
     2
 10
210.6
 20
60.22
 30
0.3
 40
3.0
  1
５０
 50
90.0
 41
0.6
 51
0.0
  7
KANJI2
  0
TEXT
  8
0
  6
CONTINUOUS
 62
     2
 10
210.6
 20
37.72
 30
0.3
 40
3.0
  1
５０
 50
90.0
 41
0.6
 51
0.0
  7
KANJI2
  0
LINE
  8
0
  6
CONTINUOUS
 62
     2
 10
159.651618122
 20
31.85917433
 30
0.0
 11
161.696175316
 21
33.297849374
 31
0.0
  0
LINE
  8
0
  6
CONTINUOUS
 62
     2
 10
159.651618122
 20
31.85917433
 30
0.0
 11
160.70291907
 21
34.127382063
 31
0.0
  0
LINE
  8
0
  6
CONTINUOUS
 62
     2
 10
159.651618122
 20
31.85917433
 30
0.0
 11
195.548381878
 21
74.84082567
 31
0.0
  0
LINE
  8
0
  6
CONTINUOUS
 62
     2
 10
195.548381878
 20
74.84082567
 30
0.0
 11
193.503824684
 21
73.402150626
 31
0.0
  0
LINE
  8
0
  6
CONTINUOUS
 62
     2
 10
195.548381878
 20
74.84082567
 30
0.0
 11
194.49708093
 21
72.572617937
 31
0.0
  0
LINE
  8
0
  6
CONTINUOUS
 62
     2
 10
14.6
 20
70.9
 30
0.0
 11
139.6
 21
70.9
 31
0.0
  0
LINE
  8
0
  6
CONTINUOUS
 62
     2
 10
139.6
 20
70.9
 30
0.0
 11
139.6
 21
30.9
 31
0.0
  0
LINE
  8
0
  6
CONTINUOUS
 62
     2
 10
139.6
 20
30.9
 30
0.0
 11
14.6
 21
30.9
 31
0.0
  0
LINE
  8
0
  6
CONTINUOUS
 62
     2
 10
14.6
 20
30.9
 30
0.0
 11
14.6
 21
70.9
 31
0.0
  0
LINE
  8
0
  6
CONTINUOUS
 62
     2
 10
14.6
 20
65.9
 30
0.0
 11
139.6
 21
65.9
 31
0.0
  0
LINE
  8
0
  6
CONTINUOUS
 62
     2
 10
109.6
 20
70.95
 30
0.0
 11
109.6
 21
30.9
 31
0.0
  0
LINE
  8
0
  6
CONTINUOUS
 62
     2
 10
79.6
 20
30.9
 30
0.0
 11
79.6
 21
70.9
 31
0.0
  0
LINE
  8
0
  6
CONTINUOUS
 62
     2
 10
49.6
 20
70.9
 30
0.0
 11
49.6
 21
30.9
 31
0.0
  0
LINE
  8
0
  6
CONTINUOUS
 62
     2
 10
19.6
 20
30.9
 30
0.0
 11
19.6
 21
70.9
 31
0.0
  0
LINE
  8
0
  6
CONTINUOUS
 62
     2
 10
109.6
 20
40.9
 30
0.0
 11
139.6
 21
40.9
 31
0.0
  0
LINE
  8
0
  6
CONTINUOUS
 62
     2
 10
109.6
 20
40.9
 30
0.0
 11
139.6
 21
65.9
 31
0.0
  0
TEXT
  8
0
  6
CONTINUOUS
 62
     2
 10
15.6
 20
66.9
 30
0.3
 40
3.0
  1
項
 50
0.0
 41
0.9
 51
0.0
  7
KANJI3
  0
TEXT
  8
0
  6
CONTINUOUS
 62
     2
 10
15.6
 20
61.9
 30
0.3
 40
3.0
  1
１
 50
0.0
 41
0.9
 51
0.0
  7
KANJI3
  0
TEXT
  8
0
  6
CONTINUOUS
 62
     2
 10
15.6
 20
56.9
 30
0.3
 40
3.0
  1
２
 50
0.0
 41
0.9
 51
0.0
  7
KANJI3
  0
TEXT
  8
0
  6
CONTINUOUS
 62
     2
 10
15.6
 20
51.9
 30
0.3
 40
3.0
  1
３
 50
0.0
 41
0.9
 51
0.0
  7
KANJI3
  0
TEXT
  8
0
  6
CONTINUOUS
 62
     2
 10
15.6
 20
46.9
 30
0.3
 40
3.0
  1
４
 50
0.0
 41
0.9
 51
0.0
  7
KANJI3
  0
TEXT
  8
0
  6
CONTINUOUS
 62
     2
 10
15.6
 20
41.9
 30
0.3
 40
3.0
  1
５
 50
0.0
 41
0.9
 51
0.0
  7
KANJI3
  0
TEXT
  8
0
  6
CONTINUOUS
 62
     2
 10
15.6
 20
36.9
 30
0.3
 40
3.0
  1
６
 50
0.0
 41
0.9
 51
0.0
  7
KANJI3
  0
TEXT
  8
0
  6
CONTINUOUS
 62
     2
 10
15.6
 20
31.9
 30
0.3
 40
3.0
  1
７
 50
0.0
 41
0.9
 51
0.0
  7
KANJI3
  0
TEXT
  8
0
  6
CONTINUOUS
 62
     2
 10
24.6
 20
66.9
 30
1.0
 40
3.0
  1
計器形名
 50
0.0
 41
0.9
 51
0.0
  7
KANJI4
  0
TEXT
  8
0
  6
CONTINUOUS
 62
     2
 10
54.6
 20
66.9
 30
1.0
 40
3.0
  1
動作原理
 50
0.0
 41
0.9
 51
0.0
  7
KANJI4
  0
TEXT
  8
0
  6
CONTINUOUS
 62
     2
 10
110.6
 20
66.9
 30
1.0
 40
3.0
  1
感度調整用抵抗器
 50
0.0
 41
0.9
 51
0.0
  7
KANJI4
  0
TEXT
  8
0
  6
CONTINUOUS
 62
     2
 10
110.6
 20
36.9
 30
1.0
 40
3.0
  1
上図※印の位置に
 50
0.0
 41
0.9
 51
0.0
  7
KANJI4
  0
TEXT
  8
0
  6
CONTINUOUS
 62
     2
 10
24.6
 20
58.4
 30
0.5
 40
3.0
  1
Ｓ
 50
0.0
 41
0.45
 51
0.0
  7
KANJI5
  0
TEXT
  8
0
  6
CONTINUOUS
 62
     2
 10
24.6
 20
55.9
 30
0.5
 40
3.0
  1
Ｃ
 50
0.0
 41
0.45
 51
0.0
  7
KANJI5
  0
TEXT
  8
0
  6
CONTINUOUS
 62
     2
 10
24.8
 20
33.4
 30
0.5
 40
3.0
  1
Ｓ
 50
0.0
 41
0.45
 51
0.0
  7
KANJI5
  0
TEXT
  8
0
  6
CONTINUOUS
 62
     2
 10
24.8
 20
30.9
 30
0.5
 40
3.0
  1
Ｃ　
 50
0.0
 41
0.45
 51
0.0
  7
KANJI5
  0
TEXT
  8
0
  6
CONTINUOUS
 62
     2
 10
54.1
 20
31.9
 30
0.5
 40
3.0
  1
整流形
 50
0.0
 41
0.9
 51
0.0
  7
KANJI0
  0
TEXT
  8
0
  6
CONTINUOUS
 62
     2
 10
88.6
 20
61.9
 30
0.5
 40
3.0
  1
１０２
 50
0.0
 41
0.9
 51
0.0
  7
KANJI0
  0
TEXT
  8
0
  6
CONTINUOUS
 62
     2
 10
88.6
 20
56.9
 30
0.5
 40
3.0
  1
１０２
 50
0.0
 41
0.9
 51
0.0
  7
KANJI0
  0
TEXT
  8
0
  6
CONTINUOUS
 62
     2
 10
88.6
 20
51.9
 30
0.5
 40
3.0
  1
１０２
 50
0.0
 41
0.9
 51
0.0
  7
KANJI0
  0
TEXT
  8
0
  6
CONTINUOUS
 62
     2
 10
88.6
 20
46.9
 30
0.5
 40
3.0
  1
１０２
 50
0.0
 41
0.9
 51
0.0
  7
KANJI0
  0
TEXT
  8
0
  6
CONTINUOUS
 62
     2
 10
88.6
 20
41.9
 30
0.5
 40
3.0
  1
１２９
 50
0.0
 41
0.9
 51
0.0
  7
KANJI0
  0
TEXT
  8
0
  6
CONTINUOUS
 62
     2
 10
88.6
 20
36.9
 30
0.5
 40
3.0
  1
１０２
 50
0.0
 41
0.9
 51
0.0
  7
KANJI0
  0
TEXT
  8
0
  6
CONTINUOUS
 62
     2
 10
88.6
 20
31.9
 30
0.5
 40
3.0
  1
１０２
 50
0.0
 41
0.9
 51
0.0
  7
KANJI0
  0
TEXT
  8
0
  6
CONTINUOUS
 62
     2
 10
110.6
 20
31.9
 30
1.0
 40
3.0
  1
内蔵しています
 50
0.0
 41
0.9
 51
0.0
  7
KANJI4
  0
LINE
  8
0
  6
CONTINUOUS
 62
     2
 10
24.014213562
 20
60.9
 30
0.0
 11
14.6
 21
60.9
 31
0.0
  0
LINE
  8
0
  6
CONTINUOUS
 62
     2
 10
109.6
 20
60.9
 30
0.0
 11
26.014213562
 21
60.9
 31
0.0
  0
LINE
  8
0
  6
CONTINUOUS
 62
     2
 10
14.6
 20
35.9
 30
0.0
 11
24.264213562
 21
35.9
 31
0.0
  0
TEXT
  8
0
  6
CONTINUOUS
 62
     2
 10
85.214213562
 20
67.085786438
 30
0.5
 40
3.0
  1
計器胴寸法
 50
0.0
 41
0.9
 51
0.0
  7
KANJI0
  0
CIRCLE
  8
0
  6
CONTINUOUS
 62
     1
 10
152.6
 20
28.35
 30
0.0
 40
1.75
  0
LINE
  8
0
  6
CONTINUOUS
 62
     2
 10
153.475
 20
29.865544457
 30
0.0
 11
155.242766953
 21
31.63331141
 31
0.0
  0
LINE
  8
0
  6
CONTINUOUS
 62
     2
 10
153.475
 20
29.865544457
 30
0.0
 11
154.122047613
 21
32.280359022
 31
0.0
  0
LINE
  8
0
  6
CONTINUOUS
 62
     2
 10
153.475
 20
29.865544457
 30
0.0
 11
155.371281292
 21
33.15
 31
0.0
  0
CIRCLE
  8
0
  6
CONTINUOUS
 62
     1
 10
202.6
 20
28.35
 30
0.0
 40
1.75
  0
LINE
  8
0
  6
LTYPE2
 62
     2
 10
148.3
 20
53.35
 30
0.0
 11
207.0
 21
53.35
 31
0.0
  0
LINE
  8
0
  6
LTYPE2
 62
     2
 10
152.6
 20
84.7
 30
0.0
 11
152.6
 21
73.95
 31
0.0
  0
LINE
  8
0
  6
LTYPE2
 62
     2
 10
148.55
 20
78.35
 30
0.0
 11
159.2
 21
78.35
 31
0.0
  0
LINE
  8
0
  6
LTYPE2
 62
     2
 10
202.6
 20
72.95
 30
0.0
 11
202.6
 21
84.7
 31
0.0
  0
LINE
  8
0
  6
LTYPE2
 62
     2
 10
196.8
 20
78.35
 30
0.0
 11
209.85
 21
78.35
 31
0.0
  0
LINE
  8
0
  6
LTYPE2
 62
     2
 10
198.2
 20
28.35
 30
0.0
 11
207.5
 21
28.35
 31
0.0
  0
LINE
  8
0
  6
LTYPE2
 62
     2
 10
202.6
 20
24.0
 30
0.0
 11
202.6
 21
33.35
 31
0.0
  0
LINE
  8
0
  6
LTYPE2
 62
     2
 10
148.5
 20
28.35
 30
0.0
 11
155.65
 21
28.35
 31
0.0
  0
LINE
  8
0
  6
LTYPE2
 62
     2
 10
152.6
 20
33.55
 30
0.0
 11
152.6
 21
23.25
 31
0.0
  0
TEXT
  8
0
  6
CONTINUOUS
 62
     2
 10
24.6
 20
61.9
 30
0.5
 40
3.0
  1
ＤＶＦ－１２
 50
0.0
 41
0.9
 51
0.0
  7
KANJI0
  0
TEXT
  8
0
  6
CONTINUOUS
 62
     2
 10
27.9
 20
56.9
 30
0.5
 40
3.0
  1
ＶＦ－１２
 50
0.0
 41
0.9
 51
0.0
  7
KANJI0
  0
TEXT
  8
0
  6
CONTINUOUS
 62
     2
 10
24.8
 20
51.9
 30
0.5
 40
3.0
  1
ＳｅＶＦ－１２
 50
0.0
 41
0.9
 51
0.0
  7
KANJI0
  0
TEXT
  8
0
  6
CONTINUOUS
 62
     2
 10
24.8
 20
46.9
 30
0.5
 40
3.0
  1
ＦＶＦ－１２　
 50
0.0
 41
0.9
 51
0.0
  7
KANJI0
  0
TEXT
  8
0
  6
CONTINUOUS
 62
     2
 10
24.8
 20
41.9
 30
0.5
 40
3.0
  1
ＡＶＦ－１２　
 50
0.0
 41
0.9
 51
0.0
  7
KANJI0
  0
TEXT
  8
0
  6
CONTINUOUS
 62
     2
 10
24.8
 20
36.9
 30
0.5
 40
3.0
  1
ＤＶＦ－１２Ｖ
 50
0.0
 41
0.9
 51
0.0
  7
KANJI0
  0
TEXT
  8
0
  6
CONTINUOUS
 62
     2
 10
27.8
 20
31.9
 30
0.5
 40
3.0
  1
ＶＦ－１２Ｖ
 50
0.0
 41
0.9
 51
0.0
  7
KANJI0
  0
POINT
  8
0
  6
LTYPE1
 62
     2
 10
185.6
 20
167.2
 30
0.0
  0
CIRCLE
  8
0
  6
LTYPE3
 62
     2
 10
185.6
 20
151.2
 30
0.0
 40
1.75
  0
CIRCLE
  8
0
  6
CONTINUOUS
 62
     2
 10
178.1
 20
141.15
 30
0.0
 40
3.175
  0
CIRCLE
  8
0
  6
CONTINUOUS
 62
     2
 10
178.1
 20
141.15
 30
0.0
 40
2.5
  0
LINE
  8
0
  6
CONTINUOUS
 62
     2
 10
179.475
 20
140.8
 30
0.0
 11
179.475
 21
141.5
 31
0.0
  0
LINE
  8
0
  6
CONTINUOUS
 62
     2
 10
176.725
 20
141.5
 30
0.0
 11
176.725
 21
140.8
 31
0.0
  0
LINE
  8
0
  6
CONTINUOUS
 62
     2
 10
179.475
 20
141.5
 30
0.0
 11
179.2
 21
141.5
 31
0.0
  0
LINE
  8
0
  6
CONTINUOUS
 62
     2
 10
178.45
 20
142.25
 30
0.0
 11
178.45
 21
143.625378759
 31
0.0
  0
ARC
  8
0
  6
CONTINUOUS
 62
     2
 10
179.2
 20
142.25
 30
0.0
 40
0.75
 50
180.0
 51
270.0
  0
LINE
  8
0
  6
CONTINUOUS
 62
     2
 10
179.2
 20
140.8
 30
0.0
 11
179.475
 21
140.8
 31
0.0
  0
LINE
  8
0
  6
CONTINUOUS
 62
     2
 10
178.45
 20
138.7
 30
0.0
 11
178.45
 21
140.05
 31
0.0
  0
ARC
  8
0
  6
CONTINUOUS
 62
     2
 10
179.2
 20
140.05
 30
0.0
 40
0.75
 50
90.0
 51
180.0
  0
LINE
  8
0
  6
CONTINUOUS
 62
     2
 10
176.725
 20
140.8
 30
0.0
 11
177.0
 21
140.8
 31
0.0
  0
LINE
  8
0
  6
CONTINUOUS
 62
     2
 10
177.75
 20
140.05
 30
0.0
 11
177.75
 21
138.674621241
 31
0.0
  0
ARC
  8
0
  6
CONTINUOUS
 62
     2
 10
177.0
 20
140.05
 30
0.0
 40
0.75
 50
0.0
 51
90.0
  0
LINE
  8
0
  6
CONTINUOUS
 62
     2
 10
177.0
 20
141.5
 30
0.0
 11
176.725
 21
141.5
 31
0.0
  0
LINE
  8
0
  6
CONTINUOUS
 62
     2
 10
177.75
 20
143.625378759
 30
0.0
 11
177.75
 21
142.25
 31
0.0
  0
ARC
  8
0
  6
CONTINUOUS
 62
     2
 10
177.0
 20
142.25
 30
0.0
 40
0.75
 50
270.0
 51
0.0
  0
CIRCLE
  8
0
  6
CONTINUOUS
 62
     2
 10
193.1
 20
141.15
 30
0.0
 40
3.175
  0
CIRCLE
  8
0
  6
CONTINUOUS
 62
     2
 10
193.1
 20
141.15
 30
0.0
 40
2.5
  0
LINE
  8
0
  6
CONTINUOUS
 62
     2
 10
194.475
 20
140.8
 30
0.0
 11
194.475
 21
141.5
 31
0.0
  0
LINE
  8
0
  6
CONTINUOUS
 62
     2
 10
191.725
 20
141.5
 30
0.0
 11
191.725
 21
140.8
 31
0.0
  0
LINE
  8
0
  6
CONTINUOUS
 62
     2
 10
194.475
 20
141.5
 30
0.0
 11
194.2
 21
141.5
 31
0.0
  0
LINE
  8
0
  6
CONTINUOUS
 62
     2
 10
193.45
 20
142.25
 30
0.0
 11
193.45
 21
143.625378759
 31
0.0
  0
ARC
  8
0
  6
CONTINUOUS
 62
     2
 10
194.2
 20
142.25
 30
0.0
 40
0.75
 50
180.0
 51
270.0
  0
LINE
  8
0
  6
CONTINUOUS
 62
     2
 10
194.2
 20
140.8
 30
0.0
 11
194.475
 21
140.8
 31
0.0
  0
LINE
  8
0
  6
CONTINUOUS
 62
     2
 10
193.45
 20
138.7
 30
0.0
 11
193.45
 21
140.05
 31
0.0
  0
ARC
  8
0
  6
CONTINUOUS
 62
     2
 10
194.2
 20
140.05
 30
0.0
 40
0.75
 50
90.0
 51
180.0
  0
LINE
  8
0
  6
CONTINUOUS
 62
     2
 10
191.725
 20
140.8
 30
0.0
 11
192.0
 21
140.8
 31
0.0
  0
LINE
  8
0
  6
CONTINUOUS
 62
     2
 10
192.75
 20
140.05
 30
0.0
 11
192.75
 21
138.674621241
 31
0.0
  0
ARC
  8
0
  6
CONTINUOUS
 62
     2
 10
192.0
 20
140.05
 30
0.0
 40
0.75
 50
0.0
 51
90.0
  0
LINE
  8
0
  6
CONTINUOUS
 62
     2
 10
192.0
 20
141.5
 30
0.0
 11
191.725
 21
141.5
 31
0.0
  0
LINE
  8
0
  6
CONTINUOUS
 62
     2
 10
192.75
 20
143.625378759
 30
0.0
 11
192.75
 21
142.25
 31
0.0
  0
ARC
  8
0
  6
CONTINUOUS
 62
     2
 10
192.0
 20
142.25
 30
0.0
 40
0.75
 50
270.0
 51
0.0
  0
LINE
  8
0
  6
LTYPE1
 62
     2
 10
183.214213562
 20
151.185786438
 30
0.0
 11
187.864213562
 21
151.185786438
 31
0.0
  0
CIRCLE
  8
0
  6
CONTINUOUS
 62
     1
 10
185.6
 20
136.2
 30
0.0
 40
27.25
  0
LINE
  8
0
  6
CONTINUOUS
 62
     2
 10
170.36612578
 20
113.605939359
 30
0.0
 11
172.252599701
 21
115.246432012
 31
0.0
  0
LINE
  8
0
  6
CONTINUOUS
 62
     2
 10
170.36612578
 20
113.605939359
 30
0.0
 11
171.179613793
 21
115.969884632
 31
0.0
  0
LINE
  8
0
  6
CONTINUOUS
 62
     2
 10
170.36612578
 20
113.605939359
 30
0.0
 11
200.83387422
 21
158.794060641
 31
0.0
  0
LINE
  8
0
  6
CONTINUOUS
 62
     2
 10
200.83387422
 20
158.794060641
 30
0.0
 11
198.947400299
 21
157.153567988
 31
0.0
  0
LINE
  8
0
  6
CONTINUOUS
 62
     2
 10
200.83387422
 20
158.794060641
 30
0.0
 11
200.020386207
 21
156.430115368
 31
0.0
  0
LINE
  8
0
  6
CONTINUOUS
 62
     2
 10
163.024871131
 20
162.6
 30
0.0
 11
160.6
 21
164.0
 31
0.0
  0
LINE
  8
0
  6
CONTINUOUS
 62
     2
 10
160.6
 20
164.0
 30
0.0
 11
158.175128869
 21
162.6
 31
0.0
  0
LINE
  8
0
  6
CONTINUOUS
 62
     2
 10
158.175128869
 20
162.6
 30
0.0
 11
158.175128869
 21
159.8
 31
0.0
  0
LINE
  8
0
  6
CONTINUOUS
 62
     2
 10
158.175128869
 20
159.8
 30
0.0
 11
160.6
 21
158.4
 31
0.0
  0
LINE
  8
0
  6
CONTINUOUS
 62
     2
 10
160.6
 20
158.4
 30
0.0
 11
163.024871131
 21
159.8
 31
0.0
  0
LINE
  8
0
  6
CONTINUOUS
 62
     2
 10
163.024871131
 20
159.8
 30
0.0
 11
163.024871131
 21
162.6
 31
0.0
  0
CIRCLE
  8
0
  6
CONTINUOUS
 62
     2
 10
160.6
 20
161.2
 30
0.0
 40
1.5
  0
CIRCLE
  8
0
  6
CONTINUOUS
 62
     2
 10
160.6
 20
161.2
 30
0.0
 40
1.4
  0
CIRCLE
  8
0
  6
CONTINUOUS
 62
     2
 10
160.6
 20
161.2
 30
0.0
 40
3.0
  0
CIRCLE
  8
0
  6
CONTINUOUS
 62
     2
 10
160.6
 20
161.2
 30
0.0
 40
2.5
  0
LINE
  8
0
  6
CONTINUOUS
 62
     2
 10
213.024871131
 20
162.6
 30
0.0
 11
210.6
 21
164.0
 31
0.0
  0
LINE
  8
0
  6
CONTINUOUS
 62
     2
 10
210.6
 20
164.0
 30
0.0
 11
208.175128869
 21
162.6
 31
0.0
  0
LINE
  8
0
  6
CONTINUOUS
 62
     2
 10
208.175128869
 20
162.6
 30
0.0
 11
208.175128869
 21
159.8
 31
0.0
  0
LINE
  8
0
  6
CONTINUOUS
 62
     2
 10
208.175128869
 20
159.8
 30
0.0
 11
210.6
 21
158.4
 31
0.0
  0
LINE
  8
0
  6
CONTINUOUS
 62
     2
 10
210.6
 20
158.4
 30
0.0
 11
213.024871131
 21
159.8
 31
0.0
  0
LINE
  8
0
  6
CONTINUOUS
 62
     2
 10
213.024871131
 20
159.8
 30
0.0
 11
213.024871131
 21
162.6
 31
0.0
  0
CIRCLE
  8
0
  6
CONTINUOUS
 62
     2
 10
210.6
 20
161.2
 30
0.0
 40
1.5
  0
CIRCLE
  8
0
  6
CONTINUOUS
 62
     2
 10
210.6
 20
161.2
 30
0.0
 40
1.4
  0
CIRCLE
  8
0
  6
CONTINUOUS
 62
     2
 10
210.6
 20
161.2
 30
0.0
 40
3.0
  0
CIRCLE
  8
0
  6
CONTINUOUS
 62
     2
 10
210.6
 20
161.2
 30
0.0
 40
2.5
  0
LINE
  8
0
  6
CONTINUOUS
 62
     2
 10
163.024871131
 20
112.6
 30
0.0
 11
160.6
 21
114.0
 31
0.0
  0
LINE
  8
0
  6
CONTINUOUS
 62
     2
 10
160.6
 20
114.0
 30
0.0
 11
158.175128869
 21
112.6
 31
0.0
  0
LINE
  8
0
  6
CONTINUOUS
 62
     2
 10
158.175128869
 20
112.6
 30
0.0
 11
158.175128869
 21
109.8
 31
0.0
  0
LINE
  8
0
  6
CONTINUOUS
 62
     2
 10
158.175128869
 20
109.8
 30
0.0
 11
160.6
 21
108.4
 31
0.0
  0
LINE
  8
0
  6
CONTINUOUS
 62
     2
 10
160.6
 20
108.4
 30
0.0
 11
163.024871131
 21
109.8
 31
0.0
  0
LINE
  8
0
  6
CONTINUOUS
 62
     2
 10
163.024871131
 20
109.8
 30
0.0
 11
163.024871131
 21
112.6
 31
0.0
  0
CIRCLE
  8
0
  6
CONTINUOUS
 62
     2
 10
160.6
 20
111.2
 30
0.0
 40
1.5
  0
CIRCLE
  8
0
  6
CONTINUOUS
 62
     2
 10
160.6
 20
111.2
 30
0.0
 40
1.4
  0
CIRCLE
  8
0
  6
CONTINUOUS
 62
     2
 10
160.6
 20
111.2
 30
0.0
 40
3.0
  0
CIRCLE
  8
0
  6
CONTINUOUS
 62
     2
 10
160.6
 20
111.2
 30
0.0
 40
2.5
  0
LINE
  8
0
  6
CONTINUOUS
 62
     2
 10
213.024871131
 20
112.6
 30
0.0
 11
210.6
 21
114.0
 31
0.0
  0
LINE
  8
0
  6
CONTINUOUS
 62
     2
 10
210.6
 20
114.0
 30
0.0
 11
208.175128869
 21
112.6
 31
0.0
  0
LINE
  8
0
  6
CONTINUOUS
 62
     2
 10
208.175128869
 20
112.6
 30
0.0
 11
208.175128869
 21
109.8
 31
0.0
  0
LINE
  8
0
  6
CONTINUOUS
 62
     2
 10
208.175128869
 20
109.8
 30
0.0
 11
210.6
 21
108.4
 31
0.0
  0
LINE
  8
0
  6
CONTINUOUS
 62
     2
 10
210.6
 20
108.4
 30
0.0
 11
213.024871131
 21
109.8
 31
0.0
  0
LINE
  8
0
  6
CONTINUOUS
 62
     2
 10
213.024871131
 20
109.8
 30
0.0
 11
213.024871131
 21
112.6
 31
0.0
  0
CIRCLE
  8
0
  6
CONTINUOUS
 62
     2
 10
210.6
 20
111.2
 30
0.0
 40
1.5
  0
CIRCLE
  8
0
  6
CONTINUOUS
 62
     2
 10
210.6
 20
111.2
 30
0.0
 40
1.4
  0
CIRCLE
  8
0
  6
CONTINUOUS
 62
     2
 10
210.6
 20
111.2
 30
0.0
 40
3.0
  0
CIRCLE
  8
0
  6
CONTINUOUS
 62
     2
 10
210.6
 20
111.2
 30
0.0
 40
2.5
  0
LINE
  8
0
  6
CONTINUOUS
 62
     2
 10
210.6
 20
177.7
 30
0.0
 11
208.185185434
 21
178.347047613
 31
0.0
  0
LINE
  8
0
  6
CONTINUOUS
 62
     2
 10
210.6
 20
177.7
 30
0.0
 11
208.185185434
 21
177.052952387
 31
0.0
  0
LINE
  8
0
  6
CONTINUOUS
 62
     2
 10
210.6
 20
177.7
 30
0.0
 11
185.6
 21
177.7
 31
0.0
  0
LINE
  8
0
  6
CONTINUOUS
 62
     2
 10
185.6
 20
177.7
 30
0.0
 11
188.014814566
 21
177.052952387
 31
0.0
  0
LINE
  8
0
  6
CONTINUOUS
 62
     2
 10
185.6
 20
177.7
 30
0.0
 11
188.014814566
 21
178.347047613
 31
0.0
  0
LINE
  8
0
  6
CONTINUOUS
 62
     2
 10
185.6
 20
177.7
 30
0.0
 11
183.185185434
 21
178.347047613
 31
0.0
  0
LINE
  8
0
  6
CONTINUOUS
 62
     2
 10
185.6
 20
177.7
 30
0.0
 11
183.185185434
 21
177.052952387
 31
0.0
  0
LINE
  8
0
  6
CONTINUOUS
 62
     2
 10
185.6
 20
177.7
 30
0.0
 11
160.6
 21
177.7
 31
0.0
  0
LINE
  8
0
  6
CONTINUOUS
 62
     2
 10
160.6
 20
177.7
 30
0.0
 11
163.014814566
 21
177.052952387
 31
0.0
  0
LINE
  8
0
  6
CONTINUOUS
 62
     2
 10
160.6
 20
177.7
 30
0.0
 11
163.014814566
 21
178.347047613
 31
0.0
  0
LINE
  8
0
  6
CONTINUOUS
 62
     2
 10
160.6
 20
166.1
 30
0.0
 11
160.6
 21
179.7
 31
0.0
  0
TEXT
  8
0
  6
CONTINUOUS
 62
     2
 10
168.72
 20
178.7
 30
0.3
 40
3.0
  1
５０
 50
0.0
 41
0.6
 51
0.0
  7
KANJI2
  0
TEXT
  8
0
  6
CONTINUOUS
 62
     2
 10
193.72
 20
178.7
 30
0.3
 40
3.0
  1
５０
 50
0.0
 41
0.6
 51
0.0
  7
KANJI2
  0
CIRCLE
  8
0
  6
CONTINUOUS
 62
     2
 10
164.382377607
 20
123.95
 30
0.0
 40
1.75
  0
CIRCLE
  8
0
  6
CONTINUOUS
 62
     2
 10
164.382377607
 20
123.95
 30
0.0
 40
1.5
  0
LINE
  8
0
  6
CONTINUOUS
 62
     2
 10
163.507377607
 20
124.15
 30
0.0
 11
163.982377607
 21
124.15
 31
0.0
  0
ARC
  8
0
  6
CONTINUOUS
 62
     2
 10
163.982377607
 20
124.35
 30
0.0
 40
0.2
 50
270.0
 51
0.0
  0
LINE
  8
0
  6
CONTINUOUS
 62
     2
 10
164.182377607
 20
124.35
 30
0.0
 11
164.182377607
 21
124.825
 31
0.0
  0
LINE
  8
0
  6
CONTINUOUS
 62
     2
 10
164.182377607
 20
124.825
 30
0.0
 11
164.582377607
 21
124.825
 31
0.0
  0
LINE
  8
0
  6
CONTINUOUS
 62
     2
 10
164.582377607
 20
124.825
 30
0.0
 11
164.582377607
 21
124.35
 31
0.0
  0
ARC
  8
0
  6
CONTINUOUS
 62
     2
 10
164.782377607
 20
124.35
 30
0.0
 40
0.2
 50
180.0
 51
270.0
  0
LINE
  8
0
  6
CONTINUOUS
 62
     2
 10
164.782377607
 20
124.15
 30
0.0
 11
165.257377607
 21
124.15
 31
0.0
  0
LINE
  8
0
  6
CONTINUOUS
 62
     2
 10
165.257377607
 20
124.15
 30
0.0
 11
165.257377607
 21
123.75
 31
0.0
  0
LINE
  8
0
  6
CONTINUOUS
 62
     2
 10
165.257377607
 20
123.75
 30
0.0
 11
164.782377607
 21
123.75
 31
0.0
  0
ARC
  8
0
  6
CONTINUOUS
 62
     2
 10
164.782377607
 20
123.55
 30
0.0
 40
0.2
 50
90.0
 51
180.0
  0
LINE
  8
0
  6
CONTINUOUS
 62
     2
 10
164.582377607
 20
123.55
 30
0.0
 11
164.582377607
 21
123.075
 31
0.0
  0
LINE
  8
0
  6
CONTINUOUS
 62
     2
 10
164.582377607
 20
123.075
 30
0.0
 11
164.182377607
 21
123.075
 31
0.0
  0
LINE
  8
0
  6
CONTINUOUS
 62
     2
 10
164.182377607
 20
123.075
 30
0.0
 11
164.182377607
 21
123.55
 31
0.0
  0
ARC
  8
0
  6
CONTINUOUS
 62
     2
 10
163.982377607
 20
123.55
 30
0.0
 40
0.2
 50
0.0
 51
90.0
  0
LINE
  8
0
  6
CONTINUOUS
 62
     2
 10
163.982377607
 20
123.75
 30
0.0
 11
163.507377607
 21
123.75
 31
0.0
  0
LINE
  8
0
  6
CONTINUOUS
 62
     2
 10
163.507377607
 20
123.75
 30
0.0
 11
163.507377607
 21
124.15
 31
0.0
  0
LINE
  8
0
  6
LTYPE4
 62
     2
 10
162.382377607
 20
123.95
 30
0.0
 11
166.382377607
 21
123.95
 31
0.0
  0
LINE
  8
0
  6
LTYPE4
 62
     2
 10
164.382377607
 20
125.95
 30
0.0
 11
164.382377607
 21
121.95
 31
0.0
  0
CIRCLE
  8
0
  6
CONTINUOUS
 62
     2
 10
206.817622393
 20
123.95
 30
0.0
 40
1.75
  0
CIRCLE
  8
0
  6
CONTINUOUS
 62
     2
 10
206.817622393
 20
123.95
 30
0.0
 40
1.5
  0
LINE
  8
0
  6
CONTINUOUS
 62
     2
 10
205.942622393
 20
124.15
 30
0.0
 11
206.417622393
 21
124.15
 31
0.0
  0
ARC
  8
0
  6
CONTINUOUS
 62
     2
 10
206.417622393
 20
124.35
 30
0.0
 40
0.2
 50
270.0
 51
0.0
  0
LINE
  8
0
  6
CONTINUOUS
 62
     2
 10
206.617622393
 20
124.35
 30
0.0
 11
206.617622393
 21
124.825
 31
0.0
  0
LINE
  8
0
  6
CONTINUOUS
 62
     2
 10
206.617622393
 20
124.825
 30
0.0
 11
207.017622393
 21
124.825
 31
0.0
  0
LINE
  8
0
  6
CONTINUOUS
 62
     2
 10
207.017622393
 20
124.825
 30
0.0
 11
207.017622393
 21
124.35
 31
0.0
  0
ARC
  8
0
  6
CONTINUOUS
 62
     2
 10
207.217622393
 20
124.35
 30
0.0
 40
0.2
 50
180.0
 51
270.0
  0
LINE
  8
0
  6
CONTINUOUS
 62
     2
 10
207.217622393
 20
124.15
 30
0.0
 11
207.692622393
 21
124.15
 31
0.0
  0
LINE
  8
0
  6
CONTINUOUS
 62
     2
 10
207.692622393
 20
124.15
 30
0.0
 11
207.692622393
 21
123.75
 31
0.0
  0
LINE
  8
0
  6
CONTINUOUS
 62
     2
 10
207.692622393
 20
123.75
 30
0.0
 11
207.217622393
 21
123.75
 31
0.0
  0
ARC
  8
0
  6
CONTINUOUS
 62
     2
 10
207.217622393
 20
123.55
 30
0.0
 40
0.2
 50
90.0
 51
180.0
  0
LINE
  8
0
  6
CONTINUOUS
 62
     2
 10
207.017622393
 20
123.55
 30
0.0
 11
207.017622393
 21
123.075
 31
0.0
  0
LINE
  8
0
  6
CONTINUOUS
 62
     2
 10
207.017622393
 20
123.075
 30
0.0
 11
206.617622393
 21
123.075
 31
0.0
  0
LINE
  8
0
  6
CONTINUOUS
 62
     2
 10
206.617622393
 20
123.075
 30
0.0
 11
206.617622393
 21
123.55
 31
0.0
  0
ARC
  8
0
  6
CONTINUOUS
 62
     2
 10
206.417622393
 20
123.55
 30
0.0
 40
0.2
 50
0.0
 51
90.0
  0
LINE
  8
0
  6
CONTINUOUS
 62
     2
 10
206.417622393
 20
123.75
 30
0.0
 11
205.942622393
 21
123.75
 31
0.0
  0
LINE
  8
0
  6
CONTINUOUS
 62
     2
 10
205.942622393
 20
123.75
 30
0.0
 11
205.942622393
 21
124.15
 31
0.0
  0
LINE
  8
0
  6
LTYPE4
 62
     2
 10
204.817622393
 20
123.95
 30
0.0
 11
208.817622393
 21
123.95
 31
0.0
  0
LINE
  8
0
  6
LTYPE4
 62
     2
 10
206.817622393
 20
125.95
 30
0.0
 11
206.817622393
 21
121.95
 31
0.0
  0
CIRCLE
  8
0
  6
CONTINUOUS
 62
     2
 10
185.6
 20
160.7
 30
0.0
 40
1.75
  0
CIRCLE
  8
0
  6
CONTINUOUS
 62
     2
 10
185.6
 20
160.7
 30
0.0
 40
1.5
  0
LINE
  8
0
  6
CONTINUOUS
 62
     2
 10
184.725
 20
160.9
 30
0.0
 11
185.2
 21
160.9
 31
0.0
  0
ARC
  8
0
  6
CONTINUOUS
 62
     2
 10
185.2
 20
161.1
 30
0.0
 40
0.2
 50
270.0
 51
0.0
  0
LINE
  8
0
  6
CONTINUOUS
 62
     2
 10
185.4
 20
161.1
 30
0.0
 11
185.4
 21
161.575
 31
0.0
  0
LINE
  8
0
  6
CONTINUOUS
 62
     2
 10
185.4
 20
161.575
 30
0.0
 11
185.8
 21
161.575
 31
0.0
  0
LINE
  8
0
  6
CONTINUOUS
 62
     2
 10
185.8
 20
161.575
 30
0.0
 11
185.8
 21
161.1
 31
0.0
  0
ARC
  8
0
  6
CONTINUOUS
 62
     2
 10
186.0
 20
161.1
 30
0.0
 40
0.2
 50
180.0
 51
270.0
  0
LINE
  8
0
  6
CONTINUOUS
 62
     2
 10
186.0
 20
160.9
 30
0.0
 11
186.475
 21
160.9
 31
0.0
  0
LINE
  8
0
  6
CONTINUOUS
 62
     2
 10
186.475
 20
160.9
 30
0.0
 11
186.475
 21
160.5
 31
0.0
  0
LINE
  8
0
  6
CONTINUOUS
 62
     2
 10
186.475
 20
160.5
 30
0.0
 11
186.0
 21
160.5
 31
0.0
  0
ARC
  8
0
  6
CONTINUOUS
 62
     2
 10
186.0
 20
160.3
 30
0.0
 40
0.2
 50
90.0
 51
180.0
  0
LINE
  8
0
  6
CONTINUOUS
 62
     2
 10
185.8
 20
160.3
 30
0.0
 11
185.8
 21
159.825
 31
0.0
  0
LINE
  8
0
  6
CONTINUOUS
 62
     2
 10
185.8
 20
159.825
 30
0.0
 11
185.4
 21
159.825
 31
0.0
  0
LINE
  8
0
  6
CONTINUOUS
 62
     2
 10
185.4
 20
159.825
 30
0.0
 11
185.4
 21
160.3
 31
0.0
  0
ARC
  8
0
  6
CONTINUOUS
 62
     2
 10
185.2
 20
160.3
 30
0.0
 40
0.2
 50
0.0
 51
90.0
  0
LINE
  8
0
  6
CONTINUOUS
 62
     2
 10
185.2
 20
160.5
 30
0.0
 11
184.725
 21
160.5
 31
0.0
  0
LINE
  8
0
  6
CONTINUOUS
 62
     2
 10
184.725
 20
160.5
 30
0.0
 11
184.725
 21
160.9
 31
0.0
  0
LINE
  8
0
  6
LTYPE4
 62
     2
 10
183.6
 20
160.7
 30
0.0
 11
187.6
 21
160.7
 31
0.0
  0
LINE
  8
0
  6
LTYPE4
 62
     2
 10
185.6
 20
162.7
 30
0.0
 11
185.6
 21
158.7
 31
0.0
  0
LINE
  8
0
  6
LTYPE2
 62
     2
 10
156.725
 20
161.2
 30
0.0
 11
164.7
 21
161.2
 31
0.0
  0
LINE
  8
0
  6
LTYPE2
 62
     2
 10
160.6
 20
165.1
 30
0.0
 11
160.6
 21
157.375
 31
0.0
  0
LINE
  8
0
  6
LTYPE2
 62
     2
 10
206.725
 20
161.2
 30
0.0
 11
214.7
 21
161.2
 31
0.0
  0
LINE
  8
0
  6
LTYPE2
 62
     2
 10
210.6
 20
165.1
 30
0.0
 11
210.6
 21
157.375
 31
0.0
  0
LINE
  8
0
  6
LTYPE2
 62
     2
 10
206.725
 20
111.2
 30
0.0
 11
214.7
 21
111.2
 31
0.0
  0
LINE
  8
0
  6
LTYPE2
 62
     2
 10
210.6
 20
115.1
 30
0.0
 11
210.6
 21
107.375
 31
0.0
  0
LINE
  8
0
  6
LTYPE2
 62
     2
 10
156.725
 20
111.2
 30
0.0
 11
164.7
 21
111.2
 31
0.0
  0
LINE
  8
0
  6
LTYPE2
 62
     2
 10
160.6
 20
115.1
 30
0.0
 11
160.6
 21
107.375
 31
0.0
  0
LINE
  8
0
  6
CONTINUOUS
 62
     2
 10
221.1
 20
111.2
 30
0.0
 11
221.747047613
 21
113.614814566
 31
0.0
  0
LINE
  8
0
  6
CONTINUOUS
 62
     2
 10
221.1
 20
111.2
 30
0.0
 11
220.452952387
 21
113.614814566
 31
0.0
  0
LINE
  8
0
  6
CONTINUOUS
 62
     2
 10
221.1
 20
111.2
 30
0.0
 11
221.1
 21
136.2
 31
0.0
  0
LINE
  8
0
  6
CONTINUOUS
 62
     2
 10
221.1
 20
136.2
 30
0.0
 11
220.452952387
 21
133.785185434
 31
0.0
  0
LINE
  8
0
  6
CONTINUOUS
 62
     2
 10
221.1
 20
136.2
 30
0.0
 11
221.747047613
 21
133.785185434
 31
0.0
  0
TEXT
  8
0
  6
CONTINUOUS
 62
     2
 10
220.1
 20
119.32
 30
0.3
 40
3.0
  1
５０
 50
90.0
 41
0.6
 51
0.0
  7
KANJI2
  0
TEXT
  8
0
  6
CONTINUOUS
 62
     2
 10
220.1
 20
123.67
 30
0.18
 40
1.8
  1
±０．５
 50
90.0
 41
0.6
 51
0.0
  7
KANJI1
  0
LINE
  8
0
  6
CONTINUOUS
 62
     2
 10
221.1
 20
136.2
 30
0.0
 11
221.747047613
 21
138.614814566
 31
0.0
  0
LINE
  8
0
  6
CONTINUOUS
 62
     2
 10
221.1
 20
136.2
 30
0.0
 11
220.452952387
 21
138.614814566
 31
0.0
  0
LINE
  8
0
  6
CONTINUOUS
 62
     2
 10
221.1
 20
136.2
 30
0.0
 11
221.1
 21
161.2
 31
0.0
  0
LINE
  8
0
  6
CONTINUOUS
 62
     2
 10
221.1
 20
161.2
 30
0.0
 11
220.452952387
 21
158.785185434
 31
0.0
  0
LINE
  8
0
  6
CONTINUOUS
 62
     2
 10
221.1
 20
161.2
 30
0.0
 11
221.747047613
 21
158.785185434
 31
0.0
  0
TEXT
  8
0
  6
CONTINUOUS
 62
     2
 10
220.1
 20
148.67
 30
0.18
 40
1.8
  1
±０．５
 50
90.0
 41
0.6
 51
0.0
  7
KANJI1
  0
TEXT
  8
0
  6
CONTINUOUS
 62
     2
 10
220.1
 20
144.32
 30
0.3
 40
3.0
  1
５０
 50
90.0
 41
0.6
 51
0.0
  7
KANJI2
  0
LINE
  8
0
  6
CONTINUOUS
 62
     2
 10
215.7
 20
161.2
 30
0.0
 11
223.1
 21
161.2
 31
0.0
  0
LINE
  8
0
  6
CONTINUOUS
 62
     2
 10
215.7
 20
111.2
 30
0.0
 11
223.1
 21
111.2
 31
0.0
  0
LINE
  8
0
  6
CONTINUOUS
 62
     1
 10
155.6
 20
162.7
 30
0.0
 11
155.6
 21
109.7
 31
0.0
  0
ARC
  8
0
  6
CONTINUOUS
 62
     1
 10
159.1
 20
109.7
 30
0.0
 40
3.5
 50
180.0
 51
270.0
  0
LINE
  8
0
  6
CONTINUOUS
 62
     1
 10
159.1
 20
106.2
 30
0.0
 11
185.6
 21
106.2
 31
0.0
  0
LINE
  8
0
  6
CONTINUOUS
 62
     1
 10
185.6
 20
106.2
 30
0.0
 11
212.1
 21
106.2
 31
0.0
  0
ARC
  8
0
  6
CONTINUOUS
 62
     1
 10
212.1
 20
109.7
 30
0.0
 40
3.5
 50
270.0
 51
0.0
  0
LINE
  8
0
  6
CONTINUOUS
 62
     1
 10
215.6
 20
109.7
 30
0.0
 11
215.6
 21
162.7
 31
0.0
  0
ARC
  8
0
  6
CONTINUOUS
 62
     1
 10
212.1
 20
162.7
 30
0.0
 40
3.5
 50
0.0
 51
90.0
  0
LINE
  8
0
  6
CONTINUOUS
 62
     1
 10
212.1
 20
166.2
 30
0.0
 11
185.6
 21
166.2
 31
0.0
  0
LINE
  8
0
  6
CONTINUOUS
 62
     1
 10
185.6
 20
166.2
 30
0.0
 11
159.1
 21
166.2
 31
0.0
  0
ARC
  8
0
  6
CONTINUOUS
 62
     1
 10
159.1
 20
162.7
 30
0.0
 40
3.5
 50
90.0
 51
180.0
  0
LINE
  8
0
  6
CONTINUOUS
 62
     1
 10
156.85
 20
162.700000714
 30
0.0
 11
156.85
 21
109.700001992
 31
0.0
  0
ARC
  8
0
  6
CONTINUOUS
 62
     1
 10
159.1
 20
109.7
 30
0.0
 40
2.25
 50
179.999949283
 51
270.0
  0
LINE
  8
0
  6
CONTINUOUS
 62
     1
 10
159.100001992
 20
107.45
 30
0.0
 11
185.6
 21
107.45
 31
0.0
  0
LINE
  8
0
  6
CONTINUOUS
 62
     1
 10
185.6
 20
107.45
 30
0.0
 11
212.100000575
 21
107.45
 31
0.0
  0
ARC
  8
0
  6
CONTINUOUS
 62
     1
 10
212.1
 20
109.7
 30
0.0
 40
2.25
 50
270.0
 51
0.000014637
  0
LINE
  8
0
  6
CONTINUOUS
 62
     1
 10
214.35
 20
109.700000575
 30
0.0
 11
214.35
 21
162.700002036
 31
0.0
  0
ARC
  8
0
  6
CONTINUOUS
 62
     1
 10
212.1
 20
162.7
 30
0.0
 40
2.25
 50
0.000051851
 51
90.0
  0
LINE
  8
0
  6
CONTINUOUS
 62
     1
 10
212.100002036
 20
164.95
 30
0.0
 11
185.6
 21
164.95
 31
0.0
  0
LINE
  8
0
  6
CONTINUOUS
 62
     1
 10
185.6
 20
164.95
 30
0.0
 11
159.100000714
 21
164.95
 31
0.0
  0
ARC
  8
0
  6
CONTINUOUS
 62
     1
 10
159.1
 20
162.7
 30
0.0
 40
2.25
 50
90.0
 51
179.999981818
  0
ARC
  8
0
  6
CONTINUOUS
 62
     2
 10
145.475
 20
140.125
 30
0.0
 40
1.475
 50
270.0
 51
0.0
  0
ARC
  8
0
  6
CONTINUOUS
 62
     2
 10
145.475
 20
142.275
 30
0.0
 40
1.475
 50
0.0
 51
90.0
  0
LINE
  8
0
  6
CONTINUOUS
 62
     2
 10
146.95
 20
142.275
 30
0.0
 11
146.95
 21
140.125
 31
0.0
  0
LINE
  8
0
  6
CONTINUOUS
 62
     2
 10
145.475
 20
138.65
 30
0.0
 11
144.975
 21
138.65
 31
0.0
  0
LINE
  8
0
  6
CONTINUOUS
 62
     2
 10
144.975
 20
138.65
 30
0.0
 11
144.975
 21
143.75
 31
0.0
  0
LINE
  8
0
  6
CONTINUOUS
 62
     2
 10
144.975
 20
143.75
 30
0.0
 11
145.475000132
 21
143.75
 31
0.0
  0
LINE
  8
0
  6
CONTINUOUS
 62
     2
 10
144.275
 20
143.95
 30
0.0
 11
144.95
 21
143.95
 31
0.0
  0
LINE
  8
0
  6
CONTINUOUS
 62
     2
 10
144.95
 20
143.95
 30
0.0
 11
144.95
 21
138.4475
 31
0.0
  0
LINE
  8
0
  6
CONTINUOUS
 62
     2
 10
144.95
 20
138.4475
 30
0.0
 11
144.275
 21
138.4475
 31
0.0
  0
LINE
  8
0
  6
CONTINUOUS
 62
     2
 10
144.275
 20
138.4475
 30
0.0
 11
144.275
 21
143.95
 31
0.0
  0
LINE
  8
0
  6
CONTINUOUS
 62
     2
 10
144.275
 20
141.26
 30
0.0
 11
144.95
 21
141.26
 31
0.0
  0
LINE
  8
0
  6
CONTINUOUS
 62
     2
 10
144.95
 20
141.16
 30
0.0
 11
144.275
 21
141.16
 31
0.0
  0
LINE
  8
0
  6
CONTINUOUS
 62
     2
 10
143.8
 20
138.025
 30
0.0
 11
144.275
 21
138.025
 31
0.0
  0
LINE
  8
0
  6
CONTINUOUS
 62
     2
 10
144.275
 20
138.025
 30
0.0
 11
144.275
 21
144.375
 31
0.0
  0
LINE
  8
0
  6
CONTINUOUS
 62
     2
 10
144.275
 20
144.375
 30
0.0
 11
143.8
 21
144.375
 31
0.0
  0
LINE
  8
0
  6
CONTINUOUS
 62
     2
 10
143.8
 20
144.375
 30
0.0
 11
143.8
 21
138.025
 31
0.0
  0
LINE
  8
0
  6
CONTINUOUS
 62
     2
 10
143.8
 20
139.2
 30
0.0
 11
139.3
 21
139.2
 31
0.0
  0
LINE
  8
0
  6
CONTINUOUS
 62
     2
 10
139.3
 20
143.2
 30
0.0
 11
143.8
 21
143.2
 31
0.0
  0
LINE
  8
0
  6
CONTINUOUS
 62
     2
 10
139.3
 20
143.2
 30
0.0
 11
139.3
 21
139.2
 31
0.0
  0
LINE
  8
0
  6
LTYPE5
 62
     2
 10
139.3
 20
137.95
 30
0.0
 11
139.3
 21
145.45
 31
0.0
  0
ARC
  8
0
  6
CONTINUOUS
 62
     1
 10
138.8
 20
109.45
 30
0.0
 40
0.5
 50
270.0
 51
0.0
  0
ARC
  8
0
  6
CONTINUOUS
 62
     1
 10
138.8
 20
162.95
 30
0.0
 40
0.5
 50
0.0
 51
90.0
  0
LINE
  8
0
  6
CONTINUOUS
 62
     1
 10
136.8
 20
163.45
 30
0.0
 11
136.8
 21
108.95
 31
0.0
  0
LINE
  8
0
  6
CONTINUOUS
 62
     1
 10
139.3
 20
162.95
 30
0.0
 11
139.3
 21
109.45
 31
0.0
  0
LINE
  8
0
  6
CONTINUOUS
 62
     2
 10
139.3
 20
168.075001907
 30
0.0
 11
141.714814566
 21
167.427954295
 31
0.0
  0
LINE
  8
0
  6
CONTINUOUS
 62
     2
 10
139.3
 20
168.075001907
 30
0.0
 11
141.714814566
 21
168.72204952
 31
0.0
  0
LINE
  8
0
  6
CONTINUOUS
 62
     2
 10
139.3
 20
168.075001907
 30
0.0
 11
146.95
 21
168.075001907
 31
0.0
  0
LINE
  8
0
  6
CONTINUOUS
 62
     2
 10
146.95
 20
168.075001907
 30
0.0
 11
144.535185434
 21
168.72204952
 31
0.0
  0
LINE
  8
0
  6
CONTINUOUS
 62
     2
 10
146.95
 20
168.075001907
 30
0.0
 11
144.535185434
 21
167.427954295
 31
0.0
  0
LINE
  8
0
  6
CONTINUOUS
 62
     2
 10
146.95
 20
168.350001907
 30
0.0
 11
146.95
 21
166.075001907
 31
0.0
  0
TEXT
  8
0
  6
CONTINUOUS
 62
     2
 10
141.175
 20
169.075001907
 30
0.3
 40
3.0
  1
１７
 50
0.0
 41
0.6
 51
0.0
  7
KANJI2
  0
LINE
  8
0
  6
CONTINUOUS
 62
     2
 10
139.3
 20
170.075001907
 30
0.0
 11
139.3
 21
175.075001907
 31
0.0
  0
LINE
  8
0
  6
CONTINUOUS
 62
     2
 10
139.3
 20
173.075001907
 30
0.0
 11
141.714814566
 21
172.427954295
 31
0.0
  0
LINE
  8
0
  6
CONTINUOUS
 62
     2
 10
139.3
 20
173.075001907
 30
0.0
 11
141.714814566
 21
173.72204952
 31
0.0
  0
LINE
  8
0
  6
CONTINUOUS
 62
     2
 10
139.3
 20
163.95
 30
0.0
 11
139.3
 21
170.075001907
 31
0.0
  0
LINE
  8
0
  6
CONTINUOUS
 62
     2
 10
139.3
 20
125.525
 30
0.0
 11
139.3
 21
122.375
 31
0.0
  0
LINE
  8
0
  6
CONTINUOUS
 62
     2
 10
139.3
 20
125.525
 30
0.0
 11
139.95
 21
125.468132369
 31
0.0
  0
LINE
  8
0
  6
CONTINUOUS
 62
     2
 10
139.3
 20
122.375
 30
0.0
 11
139.95
 21
122.431867631
 31
0.0
  0
LINE
  8
0
  6
CONTINUOUS
 62
     2
 10
140.244985838
 20
123.75
 30
0.0
 11
139.75
 21
123.75
 31
0.0
  0
LINE
  8
0
  6
CONTINUOUS
 62
     2
 10
139.75
 20
124.15
 30
0.0
 11
139.75
 21
123.75
 31
0.0
  0
LINE
  8
0
  6
CONTINUOUS
 62
     2
 10
140.244985838
 20
124.15
 30
0.0
 11
139.75
 21
124.15
 31
0.0
  0
LINE
  8
0
  6
CONTINUOUS
 62
     2
 10
139.95
 20
124.15
 30
0.0
 11
139.95
 21
125.468132369
 31
0.0
  0
LINE
  8
0
  6
CONTINUOUS
 62
     2
 10
139.95
 20
122.431867631
 30
0.0
 11
139.95
 21
123.75
 31
0.0
  0
ARC
  8
0
  6
CONTINUOUS
 62
     2
 10
136.258790185
 20
123.95
 30
0.0
 40
3.991209815
 50
2.872301273
 51
22.356539414
  0
ARC
  8
0
  6
CONTINUOUS
 62
     2
 10
136.258790185
 20
123.95
 30
0.0
 40
3.991209815
 50
337.643460586
 51
357.127698727
  0
LINE
  8
0
  6
CONTINUOUS
 62
     2
 10
139.3
 20
162.275
 30
0.0
 11
139.3
 21
159.125
 31
0.0
  0
LINE
  8
0
  6
CONTINUOUS
 62
     2
 10
139.3
 20
162.275
 30
0.0
 11
139.95
 21
162.218132369
 31
0.0
  0
LINE
  8
0
  6
CONTINUOUS
 62
     2
 10
139.3
 20
159.125
 30
0.0
 11
139.95
 21
159.181867631
 31
0.0
  0
LINE
  8
0
  6
CONTINUOUS
 62
     2
 10
140.244985838
 20
160.5
 30
0.0
 11
139.75
 21
160.5
 31
0.0
  0
LINE
  8
0
  6
CONTINUOUS
 62
     2
 10
139.75
 20
160.9
 30
0.0
 11
139.75
 21
160.5
 31
0.0
  0
LINE
  8
0
  6
CONTINUOUS
 62
     2
 10
140.244985838
 20
160.9
 30
0.0
 11
139.75
 21
160.9
 31
0.0
  0
LINE
  8
0
  6
CONTINUOUS
 62
     2
 10
139.95
 20
160.9
 30
0.0
 11
139.95
 21
162.218132369
 31
0.0
  0
LINE
  8
0
  6
CONTINUOUS
 62
     2
 10
139.95
 20
159.181867631
 30
0.0
 11
139.95
 21
160.5
 31
0.0
  0
ARC
  8
0
  6
CONTINUOUS
 62
     2
 10
136.258790185
 20
160.7
 30
0.0
 40
3.991209815
 50
2.872301273
 51
22.356539414
  0
ARC
  8
0
  6
CONTINUOUS
 62
     2
 10
136.258790185
 20
160.7
 30
0.0
 40
3.991209815
 50
337.643460586
 51
357.127698727
  0
LINE
  8
0
  6
LTYPE1
 62
     2
 10
139.3
 20
160.7
 30
0.0
 11
141.3
 21
160.7
 31
0.0
  0
LINE
  8
0
  6
LTYPE1
 62
     2
 10
139.3
 20
123.95
 30
0.0
 11
141.3
 21
123.95
 31
0.0
  0
LINE
  8
0
  6
LTYPE2
 62
     2
 10
101.8
 20
136.175
 30
0.0
 11
104.05
 21
136.175
 31
0.0
  0
LINE
  8
0
  6
LTYPE2
 62
     2
 10
99.75
 20
161.2
 30
0.0
 11
111.6
 21
161.2
 31
0.0
  0
LINE
  8
0
  6
LTYPE2
 62
     2
 10
136.525
 20
141.2
 30
0.0
 11
149.25
 21
141.2
 31
0.0
  0
LINE
  8
0
  6
CONTINUOUS
 62
     1
 10
101.8
 20
106.175
 30
0.0
 11
101.8
 21
166.175
 31
0.0
  0
LINE
  8
0
  6
CONTINUOUS
 62
     1
 10
101.8
 20
166.175
 30
0.0
 11
96.55
 21
166.175
 31
0.0
  0
ARC
  8
0
  6
CONTINUOUS
 62
     1
 10
96.55
 20
165.675
 30
0.0
 40
0.5
 50
90.0
 51
180.0
  0
LINE
  8
0
  6
CONTINUOUS
 62
     1
 10
96.55
 20
106.175
 30
0.0
 11
101.8
 21
106.175
 31
0.0
  0
LINE
  8
0
  6
CONTINUOUS
 62
     1
 10
96.05
 20
165.675
 30
0.0
 11
96.05
 21
106.675
 31
0.0
  0
ARC
  8
0
  6
CONTINUOUS
 62
     1
 10
96.55
 20
106.675
 30
0.0
 40
0.5
 50
180.0
 51
270.0
  0
LINE
  8
0
  6
CONTINUOUS
 62
     2
 10
101.8
 20
158.2
 30
0.0
 11
102.05
 21
158.2
 31
0.0
  0
LINE
  8
0
  6
CONTINUOUS
 62
     2
 10
102.05
 20
158.2
 30
0.0
 11
102.05
 21
164.2
 31
0.0
  0
LINE
  8
0
  6
CONTINUOUS
 62
     2
 10
102.05
 20
164.2
 30
0.0
 11
101.8
 21
164.2
 31
0.0
  0
LINE
  8
0
  6
CONTINUOUS
 62
     2
 10
107.55
 20
162.7
 30
0.0
 11
109.55
 21
162.7
 31
0.0
  0
LINE
  8
0
  6
CONTINUOUS
 62
     2
 10
109.55
 20
162.7
 30
0.0
 11
109.55
 21
159.7
 31
0.0
  0
LINE
  8
0
  6
CONTINUOUS
 62
     2
 10
109.55
 20
159.7
 30
0.0
 11
107.55
 21
159.7
 31
0.0
  0
LINE
  8
0
  6
LTYPE1
 62
     2
 10
100.0
 20
161.2
 30
0.0
 11
111.85
 21
161.2
 31
0.0
  0
ARC
  8
0
  6
CONTINUOUS
 62
     2
 10
102.55
 20
161.2
 30
0.0
 40
5.0
 50
343.5
 51
16.5
  0
ARC
  8
0
  6
CONTINUOUS
 62
     2
 10
110.05
 20
161.2
 30
0.0
 40
5.0
 50
163.5
 51
196.3
  0
ARC
  8
0
  6
CONTINUOUS
 62
     2
 10
106.3
 20
163.325
 30
0.0
 40
1.25
 50
325.0
 51
35.0
  0
ARC
  8
0
  6
CONTINUOUS
 62
     2
 10
106.3
 20
163.325
 30
0.0
 40
1.25
 50
145.0
 51
215.0
  0
ARC
  8
0
  6
CONTINUOUS
 62
     2
 10
106.3
 20
159.075
 30
0.0
 40
1.25
 50
145.0
 51
215.0
  0
ARC
  8
0
  6
CONTINUOUS
 62
     2
 10
106.3
 20
159.075
 30
0.0
 40
1.25
 50
325.0
 51
35.0
  0
LINE
  8
0
  6
CONTINUOUS
 62
     2
 10
105.25097354
 20
159.796666455
 30
0.0
 11
107.32597354
 21
159.796666455
 31
0.0
  0
LINE
  8
0
  6
CONTINUOUS
 62
     2
 10
107.344098674
 20
162.620076724
 30
0.0
 11
105.255901326
 21
162.620076724
 31
0.0
  0
LINE
  8
0
  6
CONTINUOUS
 62
     2
 10
107.55
 20
159.075
 30
0.0
 11
107.55
 21
163.325
 31
0.0
  0
LINE
  8
0
  6
CONTINUOUS
 62
     2
 10
107.555
 20
159.825
 30
0.0
 11
109.53
 21
159.825
 31
0.0
  0
LINE
  8
0
  6
CONTINUOUS
 62
     2
 10
109.55
 20
162.585
 30
0.0
 11
107.56
 21
162.585
 31
0.0
  0
LINE
  8
0
  6
CONTINUOUS
 62
     2
 10
107.330901326
 20
164.05
 30
0.0
 11
105.05
 21
164.05
 31
0.0
  0
LINE
  8
0
  6
CONTINUOUS
 62
     2
 10
105.05
 20
158.35
 30
0.0
 11
107.325
 21
158.35
 31
0.0
  0
LINE
  8
0
  6
CONTINUOUS
 62
     2
 10
105.05
 20
164.05
 30
0.0
 11
105.05
 21
158.35
 31
0.0
  0
LINE
  8
0
  6
CONTINUOUS
 62
     2
 10
104.05
 20
164.55
 30
0.0
 11
105.05
 21
164.05
 31
0.0
  0
LINE
  8
0
  6
CONTINUOUS
 62
     2
 10
104.05
 20
157.85
 30
0.0
 11
105.05
 21
158.35
 31
0.0
  0
LINE
  8
0
  6
CONTINUOUS
 62
     2
 10
104.05
 20
164.55
 30
0.0
 11
104.05
 21
157.85
 31
0.0
  0
LINE
  8
0
  6
CONTINUOUS
 62
     2
 10
104.05
 20
162.7
 30
0.0
 11
102.05
 21
162.7
 31
0.0
  0
LINE
  8
0
  6
CONTINUOUS
 62
     2
 10
104.05
 20
162.585
 30
0.0
 11
102.05
 21
162.585
 31
0.0
  0
LINE
  8
0
  6
CONTINUOUS
 62
     1
 10
104.05
 20
163.45
 30
0.0
 11
102.05
 21
163.45
 31
0.0
  0
LINE
  8
0
  6
CONTINUOUS
 62
     2
 10
102.05
 20
159.705
 30
0.0
 11
104.05
 21
159.705
 31
0.0
  0
LINE
  8
0
  6
CONTINUOUS
 62
     2
 10
104.05
 20
159.825
 30
0.0
 11
102.05
 21
159.825
 31
0.0
  0
LINE
  8
0
  6
LTYPE2
 62
     2
 10
99.75
 20
111.15
 30
0.0
 11
111.6
 21
111.15
 31
0.0
  0
LINE
  8
0
  6
CONTINUOUS
 62
     2
 10
101.8
 20
114.15
 30
0.0
 11
102.05
 21
114.15
 31
0.0
  0
LINE
  8
0
  6
CONTINUOUS
 62
     2
 10
102.05
 20
114.15
 30
0.0
 11
102.05
 21
108.15
 31
0.0
  0
LINE
  8
0
  6
CONTINUOUS
 62
     2
 10
102.05
 20
108.15
 30
0.0
 11
101.8
 21
108.15
 31
0.0
  0
LINE
  8
0
  6
CONTINUOUS
 62
     2
 10
107.55
 20
109.65
 30
0.0
 11
109.55
 21
109.65
 31
0.0
  0
LINE
  8
0
  6
CONTINUOUS
 62
     2
 10
109.55
 20
109.65
 30
0.0
 11
109.55
 21
112.65
 31
0.0
  0
LINE
  8
0
  6
CONTINUOUS
 62
     2
 10
109.55
 20
112.65
 30
0.0
 11
107.55
 21
112.65
 31
0.0
  0
LINE
  8
0
  6
LTYPE1
 62
     2
 10
100.0
 20
111.15
 30
0.0
 11
111.85
 21
111.15
 31
0.0
  0
ARC
  8
0
  6
CONTINUOUS
 62
     2
 10
102.55
 20
111.15
 30
0.0
 40
5.0
 50
343.5
 51
16.5
  0
ARC
  8
0
  6
CONTINUOUS
 62
     2
 10
110.05
 20
111.15
 30
0.0
 40
5.0
 50
163.7
 51
196.5
  0
ARC
  8
0
  6
CONTINUOUS
 62
     2
 10
106.3
 20
109.025
 30
0.0
 40
1.25
 50
325.0
 51
35.0
  0
ARC
  8
0
  6
CONTINUOUS
 62
     2
 10
106.3
 20
109.025
 30
0.0
 40
1.25
 50
145.0
 51
215.0
  0
ARC
  8
0
  6
CONTINUOUS
 62
     2
 10
106.3
 20
113.275
 30
0.0
 40
1.25
 50
145.0
 51
215.0
  0
ARC
  8
0
  6
CONTINUOUS
 62
     2
 10
106.3
 20
113.275
 30
0.0
 40
1.25
 50
325.0
 51
35.0
  0
LINE
  8
0
  6
CONTINUOUS
 62
     2
 10
105.25097354
 20
112.553333545
 30
0.0
 11
107.32597354
 21
112.553333545
 31
0.0
  0
LINE
  8
0
  6
CONTINUOUS
 62
     2
 10
107.344098674
 20
109.729923276
 30
0.0
 11
105.255901326
 21
109.729923276
 31
0.0
  0
LINE
  8
0
  6
CONTINUOUS
 62
     2
 10
107.55
 20
113.275
 30
0.0
 11
107.55
 21
109.025
 31
0.0
  0
LINE
  8
0
  6
CONTINUOUS
 62
     2
 10
107.555
 20
112.525
 30
0.0
 11
109.53
 21
112.525
 31
0.0
  0
LINE
  8
0
  6
CONTINUOUS
 62
     2
 10
109.55
 20
109.765
 30
0.0
 11
107.56
 21
109.765
 31
0.0
  0
LINE
  8
0
  6
CONTINUOUS
 62
     2
 10
107.330901326
 20
108.3
 30
0.0
 11
105.05
 21
108.3
 31
0.0
  0
LINE
  8
0
  6
CONTINUOUS
 62
     2
 10
105.05
 20
114.0
 30
0.0
 11
107.325
 21
114.0
 31
0.0
  0
LINE
  8
0
  6
CONTINUOUS
 62
     2
 10
105.05
 20
108.3
 30
0.0
 11
105.05
 21
114.0
 31
0.0
  0
LINE
  8
0
  6
CONTINUOUS
 62
     2
 10
104.05
 20
114.5
 30
0.0
 11
105.05
 21
114.0
 31
0.0
  0
LINE
  8
0
  6
CONTINUOUS
 62
     2
 10
104.05
 20
107.8
 30
0.0
 11
104.05
 21
114.5
 31
0.0
  0
LINE
  8
0
  6
CONTINUOUS
 62
     2
 10
104.05
 20
109.65
 30
0.0
 11
102.05
 21
109.65
 31
0.0
  0
LINE
  8
0
  6
CONTINUOUS
 62
     2
 10
104.05
 20
109.765
 30
0.0
 11
102.05
 21
109.765
 31
0.0
  0
LINE
  8
0
  6
CONTINUOUS
 62
     2
 10
102.05
 20
112.645
 30
0.0
 11
104.05
 21
112.645
 31
0.0
  0
LINE
  8
0
  6
CONTINUOUS
 62
     2
 10
104.05
 20
112.525
 30
0.0
 11
102.05
 21
112.525
 31
0.0
  0
LINE
  8
0
  6
CONTINUOUS
 62
     1
 10
104.05
 20
108.95
 30
0.0
 11
102.05
 21
108.95
 31
0.0
  0
LINE
  8
0
  6
CONTINUOUS
 62
     2
 10
109.55
 20
163.7
 30
0.0
 11
109.55
 21
170.675
 31
0.0
  0
LINE
  8
0
  6
CONTINUOUS
 62
     2
 10
109.55
 20
168.675
 30
0.0
 11
111.964814566
 21
168.027952387
 31
0.0
  0
LINE
  8
0
  6
CONTINUOUS
 62
     2
 10
109.55
 20
168.675
 30
0.0
 11
111.964814566
 21
169.322047613
 31
0.0
  0
LINE
  8
0
  6
CONTINUOUS
 62
     2
 10
113.3
 20
168.675
 30
0.0
 11
109.55
 21
168.675
 31
0.0
  0
LINE
  8
0
  6
CONTINUOUS
 62
     2
 10
109.55
 20
168.675
 30
0.0
 11
102.05
 21
168.675
 31
0.0
  0
LINE
  8
0
  6
CONTINUOUS
 62
     2
 10
102.05
 20
165.2
 30
0.0
 11
102.05
 21
170.675
 31
0.0
  0
TEXT
  8
0
  6
CONTINUOUS
 62
     2
 10
103.85
 20
169.675
 30
0.3
 40
3.0
  1
１５
 50
0.0
 41
0.6
 51
0.0
  7
KANJI2
  0
LINE
  8
0
  6
CONTINUOUS
 62
     2
 10
102.05
 20
168.675
 30
0.0
 11
104.464814566
 21
168.027952387
 31
0.0
  0
LINE
  8
0
  6
CONTINUOUS
 62
     2
 10
102.05
 20
168.675
 30
0.0
 11
104.464814566
 21
169.322047613
 31
0.0
  0
LINE
  8
0
  6
CONTINUOUS
 62
     2
 10
105.8
 20
168.675
 30
0.0
 11
102.05
 21
168.675
 31
0.0
  0
LINE
  8
0
  6
CONTINUOUS
 62
     2
 10
102.05
 20
168.675
 30
0.0
 11
101.8
 21
168.675
 31
0.0
  0
LINE
  8
0
  6
CONTINUOUS
 62
     2
 10
101.8
 20
168.675
 30
0.0
 11
92.05
 21
168.675
 31
0.0
  0
LINE
  8
0
  6
CONTINUOUS
 62
     2
 10
101.8
 20
168.675
 30
0.0
 11
99.385185434
 21
169.322047613
 31
0.0
  0
LINE
  8
0
  6
CONTINUOUS
 62
     2
 10
101.8
 20
168.675
 30
0.0
 11
99.385185434
 21
168.027952387
 31
0.0
  0
TEXT
  8
0
  6
CONTINUOUS
 62
     2
 10
92.05
 20
169.675
 30
0.3
 40
3.0
  1
０．５
 50
0.0
 41
0.6
 51
0.0
  7
KANJI2
  0
LINE
  8
0
  6
CONTINUOUS
 62
     2
 10
146.95
 20
178.625001907
 30
0.0
 11
144.535185434
 21
179.27204952
 31
0.0
  0
LINE
  8
0
  6
CONTINUOUS
 62
     2
 10
146.95
 20
178.625001907
 30
0.0
 11
144.535185434
 21
177.977954295
 31
0.0
  0
LINE
  8
0
  6
CONTINUOUS
 62
     2
 10
101.8
 20
178.625001907
 30
0.0
 11
104.214814566
 21
177.977954295
 31
0.0
  0
LINE
  8
0
  6
CONTINUOUS
 62
     2
 10
101.8
 20
178.625001907
 30
0.0
 11
104.214814566
 21
179.27204952
 31
0.0
  0
LINE
  8
0
  6
CONTINUOUS
 62
     2
 10
101.8
 20
178.625001907
 30
0.0
 11
146.95
 21
178.625001907
 31
0.0
  0
TEXT
  8
0
  6
CONTINUOUS
 62
     2
 10
121.8125
 20
179.300001907
 30
0.4
 40
4.0
  1
ι
 50
0.0
 41
0.9
 51
0.0
  7
KANJI6
  0
LINE
  8
0
  6
CONTINUOUS
 62
     2
 10
101.8
 20
178.625001907
 30
0.0
 11
99.385185434
 21
179.27204952
 31
0.0
  0
LINE
  8
0
  6
CONTINUOUS
 62
     2
 10
101.8
 20
178.625001907
 30
0.0
 11
99.385185434
 21
177.977954295
 31
0.0
  0
LINE
  8
0
  6
CONTINUOUS
 62
     2
 10
146.95
 20
143.1
 30
0.0
 11
146.95
 21
180.625001907
 31
0.0
  0
LINE
  8
0
  6
CONTINUOUS
 62
     2
 10
101.8
 20
180.625001907
 30
0.0
 11
101.8
 21
167.175
 31
0.0
  0
TEXT
  8
0
  6
CONTINUOUS
 62
     2
 10
198.07
 20
178.7
 30
0.18
 40
1.8
  1
±０．５
 50
0.0
 41
0.6
 51
0.0
  7
KANJI1
  0
TEXT
  8
0
  6
CONTINUOUS
 62
     2
 10
173.07
 20
178.7
 30
0.18
 40
1.8
  1
±０．５
 50
0.0
 41
0.6
 51
0.0
  7
KANJI1
  0
ARC
  8
0
  6
LTYPE3
 62
     2
 10
126.3
 20
161.45
 30
0.0
 40
1.0
 50
0.0
 51
180.0
  0
ARC
  8
0
  6
LTYPE3
 62
     2
 10
129.8
 20
161.45
 30
0.0
 40
1.0
 50
0.0
 51
180.0
  0
ARC
  8
0
  6
LTYPE3
 62
     2
 10
133.3
 20
161.45
 30
0.0
 40
1.0
 50
0.0
 51
180.0
  0
ARC
  8
0
  6
LTYPE3
 62
     2
 10
133.3
 20
158.95
 30
0.0
 40
1.0
 50
180.0
 51
0.0
  0
ARC
  8
0
  6
LTYPE3
 62
     2
 10
129.8
 20
158.95
 30
0.0
 40
1.0
 50
180.0
 51
0.0
  0
ARC
  8
0
  6
LTYPE3
 62
     2
 10
126.3
 20
158.95
 30
0.0
 40
1.0
 50
180.0
 51
0.0
  0
POINT
  8
0
  6
LTYPE3
 62
     2
 10
127.3
 20
158.95
 30
0.0
  0
POINT
  8
0
  6
LTYPE3
 62
     2
 10
127.3
 20
158.95
 30
0.0
  0
POINT
  8
0
  6
LTYPE3
 62
     2
 10
127.3
 20
158.95
 30
0.0
  0
POINT
  8
0
  6
LTYPE3
 62
     2
 10
127.3
 20
158.95
 30
0.0
  0
POINT
  8
0
  6
LTYPE3
 62
     2
 10
127.3
 20
158.95
 30
0.0
  0
LINE
  8
0
  6
LTYPE3
 62
     2
 10
127.3
 20
158.95
 30
0.0
 11
127.3
 21
161.45
 31
0.0
  0
LINE
  8
0
  6
LTYPE3
 62
     2
 10
128.8
 20
161.45
 30
0.0
 11
128.8
 21
158.95
 31
0.0
  0
LINE
  8
0
  6
LTYPE3
 62
     2
 10
130.8
 20
158.95
 30
0.0
 11
130.8
 21
161.45
 31
0.0
  0
LINE
  8
0
  6
LTYPE3
 62
     2
 10
132.3
 20
161.45
 30
0.0
 11
132.3
 21
158.95
 31
0.0
  0
LINE
  8
0
  6
LTYPE3
 62
     2
 10
134.3
 20
158.95
 30
0.0
 11
134.3
 21
161.45
 31
0.0
  0
ARC
  8
0
  6
LTYPE3
 62
     2
 10
126.3
 20
113.55
 30
0.0
 40
1.0
 50
0.0
 51
180.0
  0
ARC
  8
0
  6
LTYPE3
 62
     2
 10
129.8
 20
113.55
 30
0.0
 40
1.0
 50
0.0
 51
180.0
  0
ARC
  8
0
  6
LTYPE3
 62
     2
 10
133.3
 20
113.55
 30
0.0
 40
1.0
 50
0.0
 51
180.0
  0
ARC
  8
0
  6
LTYPE3
 62
     2
 10
133.3
 20
110.95
 30
0.0
 40
1.0
 50
180.0
 51
0.0
  0
ARC
  8
0
  6
LTYPE3
 62
     2
 10
129.8
 20
110.95
 30
0.0
 40
1.0
 50
180.0
 51
0.0
  0
ARC
  8
0
  6
LTYPE3
 62
     2
 10
126.3
 20
110.95
 30
0.0
 40
1.0
 50
180.0
 51
0.0
  0
LINE
  8
0
  6
LTYPE3
 62
     2
 10
134.3
 20
110.95
 30
0.0
 11
134.3
 21
113.55
 31
0.0
  0
LINE
  8
0
  6
LTYPE3
 62
     2
 10
132.3
 20
113.55
 30
0.0
 11
132.3
 21
110.95
 31
0.0
  0
POINT
  8
0
  6
LTYPE3
 62
     2
 10
130.8
 20
110.95
 30
0.0
  0
POINT
  8
0
  6
LTYPE3
 62
     2
 10
130.8
 20
110.95
 30
0.0
  0
POINT
  8
0
  6
LTYPE3
 62
     2
 10
130.8
 20
110.95
 30
0.0
  0
POINT
  8
0
  6
LTYPE3
 62
     2
 10
130.8
 20
110.95
 30
0.0
  0
POINT
  8
0
  6
LTYPE3
 62
     2
 10
130.8
 20
110.95
 30
0.0
  0
LINE
  8
0
  6
LTYPE3
 62
     2
 10
130.8
 20
110.95
 30
0.0
 11
130.8
 21
113.55
 31
0.0
  0
LINE
  8
0
  6
LTYPE3
 62
     2
 10
128.8
 20
113.55
 30
0.0
 11
128.8
 21
110.95
 31
0.0
  0
POINT
  8
0
  6
LTYPE3
 62
     2
 10
127.3
 20
110.95
 30
0.0
  0
POINT
  8
0
  6
LTYPE3
 62
     2
 10
127.3
 20
110.95
 30
0.0
  0
LINE
  8
0
  6
LTYPE3
 62
     2
 10
127.3
 20
110.95
 30
0.0
 11
127.3
 21
113.55
 31
0.0
  0
ARC
  8
0
  6
LTYPE3
 62
     2
 10
122.8
 20
161.45
 30
0.0
 40
1.0
 50
0.0
 51
180.0
  0
ARC
  8
0
  6
LTYPE3
 62
     2
 10
122.8
 20
158.95
 30
0.0
 40
1.0
 50
180.0
 51
0.0
  0
LINE
  8
0
  6
LTYPE3
 62
     2
 10
121.8
 20
161.45
 30
0.0
 11
121.8
 21
158.95
 31
0.0
  0
LINE
  8
0
  6
LTYPE3
 62
     2
 10
123.8
 20
158.95
 30
0.0
 11
123.8
 21
161.45
 31
0.0
  0
LINE
  8
0
  6
LTYPE3
 62
     2
 10
125.3
 20
161.45
 30
0.0
 11
125.3
 21
158.95
 31
0.0
  0
ARC
  8
0
  6
LTYPE3
 62
     2
 10
122.8
 20
113.55
 30
0.0
 40
1.0
 50
0.0
 51
180.0
  0
ARC
  8
0
  6
LTYPE3
 62
     2
 10
122.8
 20
110.95
 30
0.0
 40
1.0
 50
180.0
 51
0.0
  0
LINE
  8
0
  6
LTYPE3
 62
     2
 10
125.3
 20
113.55
 30
0.0
 11
125.3
 21
110.95
 31
0.0
  0
LINE
  8
0
  6
LTYPE3
 62
     2
 10
123.8
 20
110.95
 30
0.0
 11
123.8
 21
113.55
 31
0.0
  0
LINE
  8
0
  6
LTYPE3
 62
     2
 10
121.8
 20
113.55
 30
0.0
 11
121.8
 21
110.95
 31
0.0
  0
LINE
  8
0
  6
CONTINUOUS
 62
     1
 10
107.543734296
 20
163.45
 30
0.0
 11
117.2
 21
163.45
 31
0.0
  0
ARC
  8
0
  6
CONTINUOUS
 62
     2
 10
146.3875
 20
149.8125
 30
0.0
 40
32.216324472
 50
154.956246189
 51
205.043753811
  0
ARC
  8
0
  6
CONTINUOUS
 62
     2
 10
146.3875
 20
149.8125
 30
0.0
 40
31.216324472
 50
154.095605658
 51
205.043753811
  0
LINE
  8
0
  6
CONTINUOUS
 62
     1
 10
117.22330975
 20
108.95
 30
0.0
 11
107.5
 21
108.95
 31
0.0
  0
ARC
  8
0
  6
CONTINUOUS
 62
     2
 10
88.0125
 20
122.5375
 30
0.0
 40
32.216324472
 50
335.054358217
 51
25.043753811
  0
ARC
  8
0
  6
CONTINUOUS
 62
     2
 10
88.0125
 20
122.5375
 30
0.0
 40
33.216324472
 50
335.854143562
 51
25.043753811
  0
LINE
  8
0
  6
CONTINUOUS
 62
     1
 10
138.800000253
 20
108.95
 30
0.0
 11
118.32263123
 21
108.95
 31
0.0
  0
LINE
  8
0
  6
CONTINUOUS
 62
     1
 10
118.307658346
 20
163.45
 30
0.0
 11
138.800001835
 21
163.45
 31
0.0
  0
LINE
  8
0
  6
CONTINUOUS
 62
     2
 10
91.541074326
 20
163.675
 30
0.0
 11
84.1
 21
163.675
 31
0.0
  0
LINE
  8
0
  6
CONTINUOUS
 62
     2
 10
86.1
 20
163.675
 30
0.0
 11
85.452952387
 21
161.260185434
 31
0.0
  0
LINE
  8
0
  6
CONTINUOUS
 62
     2
 10
86.1
 20
163.675
 30
0.0
 11
86.747047613
 21
161.260185434
 31
0.0
  0
LINE
  8
0
  6
CONTINUOUS
 62
     2
 10
86.1
 20
163.675
 30
0.0
 11
86.1
 21
108.675
 31
0.0
  0
LINE
  8
0
  6
CONTINUOUS
 62
     2
 10
86.1
 20
108.675
 30
0.0
 11
86.747047613
 21
111.089814566
 31
0.0
  0
LINE
  8
0
  6
CONTINUOUS
 62
     2
 10
86.1
 20
108.675
 30
0.0
 11
85.452952387
 21
111.089814566
 31
0.0
  0
LINE
  8
0
  6
CONTINUOUS
 62
     2
 10
91.541074326
 20
108.675
 30
0.0
 11
84.1
 21
108.675
 31
0.0
  0
CIRCLE
  8
0
  6
CONTINUOUS
 62
     2
 10
123.3
 20
182.5
 30
0.0
 40
0.2
  0
TEXT
  8
0
  6
CONTINUOUS
 62
     2
 10
102.714213562
 20
66.085786438
 30
0.666666667
 40
4.0
  1
ι
 50
0.0
 41
0.9
 51
0.0
  7
KANJI7
  0
CIRCLE
  8
0
  6
CONTINUOUS
 62
     2
 10
104.1
 20
69.5
 30
0.0
 40
0.2
  0
TEXT
  8
0
  6
CONTINUOUS
 62
     2
 10
85.1
 20
133.175
 30
0.3
 40
3.0
  1
φ１１０
 50
90.0
 41
0.6
 51
0.0
  7
KANJI2
  0
LINE
  8
0
  6
LTYPE2
 62
     2
 10
177.6
 20
22.35
 30
0.0
 11
177.6
 21
86.45
 31
0.0
  0
CIRCLE
  8
0
  6
CONTINUOUS
 62
     2
 10
40.3
 20
120.675
 30
0.0
 40
1.75
  0
CIRCLE
  8
0
  6
CONTINUOUS
 62
     2
 10
40.3
 20
120.675
 30
0.0
 40
1.5
  0
LINE
  8
0
  6
CONTINUOUS
 62
     2
 10
39.425
 20
120.875
 30
0.0
 11
39.9
 21
120.875
 31
0.0
  0
ARC
  8
0
  6
CONTINUOUS
 62
     2
 10
39.9
 20
121.075
 30
0.0
 40
0.2
 50
270.0
 51
0.0
  0
LINE
  8
0
  6
CONTINUOUS
 62
     2
 10
40.1
 20
121.075
 30
0.0
 11
40.1
 21
121.55
 31
0.0
  0
LINE
  8
0
  6
CONTINUOUS
 62
     2
 10
40.1
 20
121.55
 30
0.0
 11
40.5
 21
121.55
 31
0.0
  0
LINE
  8
0
  6
CONTINUOUS
 62
     2
 10
40.5
 20
121.55
 30
0.0
 11
40.5
 21
121.075
 31
0.0
  0
ARC
  8
0
  6
CONTINUOUS
 62
     2
 10
40.7
 20
121.075
 30
0.0
 40
0.2
 50
180.0
 51
270.0
  0
LINE
  8
0
  6
CONTINUOUS
 62
     2
 10
40.7
 20
120.875
 30
0.0
 11
41.175
 21
120.875
 31
0.0
  0
LINE
  8
0
  6
CONTINUOUS
 62
     2
 10
41.175
 20
120.875
 30
0.0
 11
41.175
 21
120.475
 31
0.0
  0
LINE
  8
0
  6
CONTINUOUS
 62
     2
 10
41.175
 20
120.475
 30
0.0
 11
40.7
 21
120.475
 31
0.0
  0
ARC
  8
0
  6
CONTINUOUS
 62
     2
 10
40.7
 20
120.275
 30
0.0
 40
0.2
 50
90.0
 51
180.0
  0
LINE
  8
0
  6
CONTINUOUS
 62
     2
 10
40.5
 20
120.275
 30
0.0
 11
40.5
 21
119.8
 31
0.0
  0
LINE
  8
0
  6
CONTINUOUS
 62
     2
 10
40.5
 20
119.8
 30
0.0
 11
40.1
 21
119.8
 31
0.0
  0
LINE
  8
0
  6
CONTINUOUS
 62
     2
 10
40.1
 20
119.8
 30
0.0
 11
40.1
 21
120.275
 31
0.0
  0
ARC
  8
0
  6
CONTINUOUS
 62
     2
 10
39.9
 20
120.275
 30
0.0
 40
0.2
 50
0.0
 51
90.0
  0
LINE
  8
0
  6
CONTINUOUS
 62
     2
 10
39.9
 20
120.475
 30
0.0
 11
39.425
 21
120.475
 31
0.0
  0
LINE
  8
0
  6
CONTINUOUS
 62
     2
 10
39.425
 20
120.475
 30
0.0
 11
39.425
 21
120.875
 31
0.0
  0
LINE
  8
0
  6
LTYPE4
 62
     2
 10
37.5
 20
120.675
 30
0.0
 11
43.05
 21
120.675
 31
0.0
  0
LINE
  8
0
  6
LTYPE4
 62
     2
 10
40.3
 20
123.425
 30
0.0
 11
40.3
 21
117.925
 31
0.0
  0
ARC
  8
0
  6
CONTINUOUS
 62
     2
 10
48.8
 20
136.175
 30
0.0
 40
27.5
 50
90.0
 51
270.0
  0
ARC
  8
0
  6
CONTINUOUS
 62
     2
 10
48.8
 20
136.175
 30
0.0
 40
26.25
 50
90.0
 51
270.0
  0
CIRCLE
  8
0
  6
CONTINUOUS
 62
     2
 10
57.3
 20
120.675
 30
0.0
 40
1.75
  0
CIRCLE
  8
0
  6
CONTINUOUS
 62
     2
 10
57.3
 20
120.675
 30
0.0
 40
1.5
  0
LINE
  8
0
  6
CONTINUOUS
 62
     2
 10
58.175
 20
120.875
 30
0.0
 11
57.7
 21
120.875
 31
0.0
  0
ARC
  8
0
  6
CONTINUOUS
 62
     2
 10
57.7
 20
121.075
 30
0.0
 40
0.2
 50
180.0
 51
270.0
  0
LINE
  8
0
  6
CONTINUOUS
 62
     2
 10
57.5
 20
121.075
 30
0.0
 11
57.5
 21
121.55
 31
0.0
  0
LINE
  8
0
  6
CONTINUOUS
 62
     2
 10
57.1
 20
121.55
 30
0.0
 11
57.1
 21
121.075
 31
0.0
  0
ARC
  8
0
  6
CONTINUOUS
 62
     2
 10
56.9
 20
121.075
 30
0.0
 40
0.2
 50
270.0
 51
0.0
  0
LINE
  8
0
  6
CONTINUOUS
 62
     2
 10
56.9
 20
120.875
 30
0.0
 11
56.425
 21
120.875
 31
0.0
  0
LINE
  8
0
  6
CONTINUOUS
 62
     2
 10
56.425
 20
120.875
 30
0.0
 11
56.425
 21
120.475
 31
0.0
  0
LINE
  8
0
  6
CONTINUOUS
 62
     2
 10
56.425
 20
120.475
 30
0.0
 11
56.9
 21
120.475
 31
0.0
  0
ARC
  8
0
  6
CONTINUOUS
 62
     2
 10
56.9
 20
120.275
 30
0.0
 40
0.2
 50
0.0
 51
90.0
  0
LINE
  8
0
  6
CONTINUOUS
 62
     2
 10
57.1
 20
120.275
 30
0.0
 11
57.1
 21
119.8
 31
0.0
  0
LINE
  8
0
  6
CONTINUOUS
 62
     2
 10
57.1
 20
119.8
 30
0.0
 11
57.5
 21
119.8
 31
0.0
  0
LINE
  8
0
  6
CONTINUOUS
 62
     2
 10
57.5
 20
119.8
 30
0.0
 11
57.5
 21
120.275
 31
0.0
  0
ARC
  8
0
  6
CONTINUOUS
 62
     2
 10
57.7
 20
120.275
 30
0.0
 40
0.2
 50
90.0
 51
180.0
  0
LINE
  8
0
  6
CONTINUOUS
 62
     2
 10
57.7
 20
120.475
 30
0.0
 11
58.175
 21
120.475
 31
0.0
  0
LINE
  8
0
  6
CONTINUOUS
 62
     2
 10
58.175
 20
120.475
 30
0.0
 11
58.175
 21
120.875
 31
0.0
  0
LINE
  8
0
  6
LTYPE4
 62
     2
 10
60.1
 20
120.675
 30
0.0
 11
54.55
 21
120.675
 31
0.0
  0
LINE
  8
0
  6
LTYPE4
 62
     2
 10
57.3
 20
123.425
 30
0.0
 11
57.3
 21
117.925
 31
0.0
  0
ARC
  8
0
  6
CONTINUOUS
 62
     2
 10
48.8
 20
136.175
 30
0.0
 40
27.5
 50
270.0
 51
90.0
  0
ARC
  8
0
  6
CONTINUOUS
 62
     2
 10
48.8
 20
136.175
 30
0.0
 40
26.25
 50
270.0
 51
90.0
  0
LINE
  8
0
  6
CONTINUOUS
 62
     1
 10
48.8
 20
166.175
 30
0.0
 11
22.3
 21
166.175
 31
0.0
  0
ARC
  8
0
  6
CONTINUOUS
 62
     1
 10
22.3
 20
162.675
 30
0.0
 40
3.5
 50
90.0
 51
180.0
  0
LINE
  8
0
  6
CONTINUOUS
 62
     1
 10
18.8
 20
162.675
 30
0.0
 11
18.8
 21
109.675
 31
0.0
  0
LINE
  8
0
  6
CONTINUOUS
 62
     1
 10
48.8
 20
166.175
 30
0.0
 11
75.3
 21
166.175
 31
0.0
  0
ARC
  8
0
  6
CONTINUOUS
 62
     1
 10
75.3
 20
162.675
 30
0.0
 40
3.5
 50
0.0
 51
90.0
  0
LINE
  8
0
  6
CONTINUOUS
 62
     1
 10
75.3
 20
106.175
 30
0.0
 11
48.8
 21
106.175
 31
0.0
  0
ARC
  8
0
  6
CONTINUOUS
 62
     1
 10
75.3
 20
109.675
 30
0.0
 40
3.5
 50
270.0
 51
0.0
  0
LINE
  8
0
  6
CONTINUOUS
 62
     1
 10
78.8
 20
162.675
 30
0.0
 11
78.8
 21
109.675
 31
0.0
  0
LINE
  8
0
  6
CONTINUOUS
 62
     1
 10
22.3
 20
106.175
 30
0.0
 11
48.8
 21
106.175
 31
0.0
  0
ARC
  8
0
  6
CONTINUOUS
 62
     1
 10
22.3
 20
109.675
 30
0.0
 40
3.5
 50
180.0
 51
270.0
  0
LINE
  8
0
  6
CONTINUOUS
 62
     2
 10
18.8
 20
163.675
 30
0.0
 11
18.8
 21
173.175
 31
0.0
  0
LINE
  8
0
  6
CONTINUOUS
 62
     2
 10
18.8
 20
171.175
 30
0.0
 11
21.214814566
 21
170.527952387
 31
0.0
  0
LINE
  8
0
  6
CONTINUOUS
 62
     2
 10
18.8
 20
171.175
 30
0.0
 11
21.214814566
 21
171.822047613
 31
0.0
  0
LINE
  8
0
  6
CONTINUOUS
 62
     2
 10
18.8
 20
171.175
 30
0.0
 11
78.8
 21
171.175
 31
0.0
  0
LINE
  8
0
  6
CONTINUOUS
 62
     2
 10
78.8
 20
171.175
 30
0.0
 11
76.385185434
 21
171.822047613
 31
0.0
  0
LINE
  8
0
  6
CONTINUOUS
 62
     2
 10
78.8
 20
171.175
 30
0.0
 11
76.385185434
 21
170.527952387
 31
0.0
  0
LINE
  8
0
  6
CONTINUOUS
 62
     2
 10
78.8
 20
163.675
 30
0.0
 11
78.8
 21
173.175
 31
0.0
  0
LINE
  8
0
  6
CONTINUOUS
 62
     2
 10
21.3
 20
166.175
 30
0.0
 11
12.8
 21
166.175
 31
0.0
  0
LINE
  8
0
  6
CONTINUOUS
 62
     2
 10
14.8
 20
166.175
 30
0.0
 11
14.152952387
 21
163.760185434
 31
0.0
  0
LINE
  8
0
  6
CONTINUOUS
 62
     2
 10
14.8
 20
166.175
 30
0.0
 11
15.447047613
 21
163.760185434
 31
0.0
  0
LINE
  8
0
  6
CONTINUOUS
 62
     2
 10
14.8
 20
166.175
 30
0.0
 11
14.8
 21
106.175
 31
0.0
  0
LINE
  8
0
  6
CONTINUOUS
 62
     2
 10
14.8
 20
106.175
 30
0.0
 11
15.447047613
 21
108.589814566
 31
0.0
  0
LINE
  8
0
  6
CONTINUOUS
 62
     2
 10
14.8
 20
106.175
 30
0.0
 11
14.152952387
 21
108.589814566
 31
0.0
  0
LINE
  8
0
  6
CONTINUOUS
 62
     2
 10
21.3
 20
106.175
 30
0.0
 11
12.8
 21
106.175
 31
0.0
  0
TEXT
  8
0
  6
CONTINUOUS
 62
     2
 10
13.8
 20
130.745
 30
0.3
 40
3.0
  1
１２０
 50
90.0
 41
0.6
 51
0.0
  7
KANJI2
  0
TEXT
  8
0
  6
CONTINUOUS
 62
     2
 10
13.8
 20
137.195
 30
0.18
 40
1.8
  1
±１．５
 50
90.0
 41
0.6
 51
0.0
  7
KANJI1
  0
CIRCLE
  8
0
  6
CONTINUOUS
 62
     2
 10
23.8
 20
161.175
 30
0.0
 40
1.5
  0
LINE
  8
0
  6
CONTINUOUS
 62
     2
 10
22.925
 20
161.375
 30
0.0
 11
23.4
 21
161.375
 31
0.0
  0
ARC
  8
0
  6
CONTINUOUS
 62
     2
 10
23.4
 20
161.575
 30
0.0
 40
0.2
 50
270.0
 51
0.0
  0
LINE
  8
0
  6
CONTINUOUS
 62
     2
 10
23.6
 20
161.575
 30
0.0
 11
23.6
 21
162.05
 31
0.0
  0
LINE
  8
0
  6
CONTINUOUS
 62
     2
 10
23.6
 20
162.05
 30
0.0
 11
24.0
 21
162.05
 31
0.0
  0
LINE
  8
0
  6
CONTINUOUS
 62
     2
 10
24.0
 20
162.05
 30
0.0
 11
24.0
 21
161.575
 31
0.0
  0
ARC
  8
0
  6
CONTINUOUS
 62
     2
 10
24.2
 20
161.575
 30
0.0
 40
0.2
 50
180.0
 51
270.0
  0
LINE
  8
0
  6
CONTINUOUS
 62
     2
 10
24.2
 20
161.375
 30
0.0
 11
24.675
 21
161.375
 31
0.0
  0
LINE
  8
0
  6
CONTINUOUS
 62
     2
 10
24.675
 20
161.375
 30
0.0
 11
24.675
 21
160.975
 31
0.0
  0
LINE
  8
0
  6
CONTINUOUS
 62
     2
 10
24.675
 20
160.975
 30
0.0
 11
24.2
 21
160.975
 31
0.0
  0
ARC
  8
0
  6
CONTINUOUS
 62
     2
 10
24.2
 20
160.775
 30
0.0
 40
0.2
 50
90.0
 51
180.0
  0
LINE
  8
0
  6
CONTINUOUS
 62
     2
 10
24.0
 20
160.775
 30
0.0
 11
24.0
 21
160.3
 31
0.0
  0
LINE
  8
0
  6
CONTINUOUS
 62
     2
 10
24.0
 20
160.3
 30
0.0
 11
23.6
 21
160.3
 31
0.0
  0
LINE
  8
0
  6
CONTINUOUS
 62
     2
 10
23.6
 20
160.3
 30
0.0
 11
23.6
 21
160.775
 31
0.0
  0
ARC
  8
0
  6
CONTINUOUS
 62
     2
 10
23.4
 20
160.775
 30
0.0
 40
0.2
 50
0.0
 51
90.0
  0
LINE
  8
0
  6
CONTINUOUS
 62
     2
 10
23.4
 20
160.975
 30
0.0
 11
22.925
 21
160.975
 31
0.0
  0
LINE
  8
0
  6
CONTINUOUS
 62
     2
 10
22.925
 20
160.975
 30
0.0
 11
22.925
 21
161.375
 31
0.0
  0
LINE
  8
0
  6
LTYPE4
 62
     2
 10
21.8
 20
161.175
 30
0.0
 11
25.8
 21
161.175
 31
0.0
  0
LINE
  8
0
  6
LTYPE4
 62
     2
 10
23.8
 20
163.175
 30
0.0
 11
23.8
 21
159.175
 31
0.0
  0
CIRCLE
  8
0
  6
CONTINUOUS
 62
     2
 10
73.8
 20
161.175
 30
0.0
 40
1.5
  0
LINE
  8
0
  6
CONTINUOUS
 62
     2
 10
74.675
 20
161.375
 30
0.0
 11
74.2
 21
161.375
 31
0.0
  0
ARC
  8
0
  6
CONTINUOUS
 62
     2
 10
74.2
 20
161.575
 30
0.0
 40
0.2
 50
180.0
 51
270.0
  0
LINE
  8
0
  6
CONTINUOUS
 62
     2
 10
74.0
 20
161.575
 30
0.0
 11
74.0
 21
162.05
 31
0.0
  0
LINE
  8
0
  6
CONTINUOUS
 62
     2
 10
74.0
 20
162.05
 30
0.0
 11
73.6
 21
162.05
 31
0.0
  0
LINE
  8
0
  6
CONTINUOUS
 62
     2
 10
73.6
 20
162.05
 30
0.0
 11
73.6
 21
161.575
 31
0.0
  0
ARC
  8
0
  6
CONTINUOUS
 62
     2
 10
73.4
 20
161.575
 30
0.0
 40
0.2
 50
270.0
 51
0.0
  0
LINE
  8
0
  6
CONTINUOUS
 62
     2
 10
73.4
 20
161.375
 30
0.0
 11
72.925
 21
161.375
 31
0.0
  0
LINE
  8
0
  6
CONTINUOUS
 62
     2
 10
72.925
 20
161.375
 30
0.0
 11
72.925
 21
160.975
 31
0.0
  0
LINE
  8
0
  6
CONTINUOUS
 62
     2
 10
72.925
 20
160.975
 30
0.0
 11
73.4
 21
160.975
 31
0.0
  0
ARC
  8
0
  6
CONTINUOUS
 62
     2
 10
73.4
 20
160.775
 30
0.0
 40
0.2
 50
0.0
 51
90.0
  0
LINE
  8
0
  6
CONTINUOUS
 62
     2
 10
73.6
 20
160.775
 30
0.0
 11
73.6
 21
160.3
 31
0.0
  0
LINE
  8
0
  6
CONTINUOUS
 62
     2
 10
73.6
 20
160.3
 30
0.0
 11
74.0
 21
160.3
 31
0.0
  0
LINE
  8
0
  6
CONTINUOUS
 62
     2
 10
74.0
 20
160.3
 30
0.0
 11
74.0
 21
160.775
 31
0.0
  0
ARC
  8
0
  6
CONTINUOUS
 62
     2
 10
74.2
 20
160.775
 30
0.0
 40
0.2
 50
90.0
 51
180.0
  0
LINE
  8
0
  6
CONTINUOUS
 62
     2
 10
74.2
 20
160.975
 30
0.0
 11
74.675
 21
160.975
 31
0.0
  0
LINE
  8
0
  6
CONTINUOUS
 62
     2
 10
74.675
 20
160.975
 30
0.0
 11
74.675
 21
161.375
 31
0.0
  0
LINE
  8
0
  6
LTYPE4
 62
     2
 10
75.8
 20
161.175
 30
0.0
 11
71.8
 21
161.175
 31
0.0
  0
LINE
  8
0
  6
LTYPE4
 62
     2
 10
73.8
 20
163.175
 30
0.0
 11
73.8
 21
159.175
 31
0.0
  0
CIRCLE
  8
0
  6
CONTINUOUS
 62
     2
 10
23.8
 20
111.175
 30
0.0
 40
1.5
  0
LINE
  8
0
  6
CONTINUOUS
 62
     2
 10
22.925
 20
110.975
 30
0.0
 11
23.4
 21
110.975
 31
0.0
  0
ARC
  8
0
  6
CONTINUOUS
 62
     2
 10
23.4
 20
110.775
 30
0.0
 40
0.2
 50
0.0
 51
90.0
  0
LINE
  8
0
  6
CONTINUOUS
 62
     2
 10
23.6
 20
110.775
 30
0.0
 11
23.6
 21
110.3
 31
0.0
  0
LINE
  8
0
  6
CONTINUOUS
 62
     2
 10
23.6
 20
110.3
 30
0.0
 11
24.0
 21
110.3
 31
0.0
  0
LINE
  8
0
  6
CONTINUOUS
 62
     2
 10
24.0
 20
110.3
 30
0.0
 11
24.0
 21
110.775
 31
0.0
  0
ARC
  8
0
  6
CONTINUOUS
 62
     2
 10
24.2
 20
110.775
 30
0.0
 40
0.2
 50
90.0
 51
180.0
  0
LINE
  8
0
  6
CONTINUOUS
 62
     2
 10
24.2
 20
110.975
 30
0.0
 11
24.675
 21
110.975
 31
0.0
  0
LINE
  8
0
  6
CONTINUOUS
 62
     2
 10
24.675
 20
110.975
 30
0.0
 11
24.675
 21
111.375
 31
0.0
  0
LINE
  8
0
  6
CONTINUOUS
 62
     2
 10
24.675
 20
111.375
 30
0.0
 11
24.2
 21
111.375
 31
0.0
  0
ARC
  8
0
  6
CONTINUOUS
 62
     2
 10
24.2
 20
111.575
 30
0.0
 40
0.2
 50
180.0
 51
270.0
  0
LINE
  8
0
  6
CONTINUOUS
 62
     2
 10
24.0
 20
111.575
 30
0.0
 11
24.0
 21
112.05
 31
0.0
  0
LINE
  8
0
  6
CONTINUOUS
 62
     2
 10
24.0
 20
112.05
 30
0.0
 11
23.6
 21
112.05
 31
0.0
  0
LINE
  8
0
  6
CONTINUOUS
 62
     2
 10
23.6
 20
112.05
 30
0.0
 11
23.6
 21
111.575
 31
0.0
  0
ARC
  8
0
  6
CONTINUOUS
 62
     2
 10
23.4
 20
111.575
 30
0.0
 40
0.2
 50
270.0
 51
0.0
  0
LINE
  8
0
  6
CONTINUOUS
 62
     2
 10
23.4
 20
111.375
 30
0.0
 11
22.925
 21
111.375
 31
0.0
  0
LINE
  8
0
  6
CONTINUOUS
 62
     2
 10
22.925
 20
111.375
 30
0.0
 11
22.925
 21
110.975
 31
0.0
  0
LINE
  8
0
  6
LTYPE4
 62
     2
 10
21.8
 20
111.175
 30
0.0
 11
25.8
 21
111.175
 31
0.0
  0
LINE
  8
0
  6
LTYPE4
 62
     2
 10
23.8
 20
109.175
 30
0.0
 11
23.8
 21
113.175
 31
0.0
  0
CIRCLE
  8
0
  6
CONTINUOUS
 62
     2
 10
73.8
 20
111.175
 30
0.0
 40
1.5
  0
LINE
  8
0
  6
CONTINUOUS
 62
     2
 10
74.675
 20
110.975
 30
0.0
 11
74.2
 21
110.975
 31
0.0
  0
ARC
  8
0
  6
CONTINUOUS
 62
     2
 10
74.2
 20
110.775
 30
0.0
 40
0.2
 50
90.0
 51
180.0
  0
LINE
  8
0
  6
CONTINUOUS
 62
     2
 10
74.0
 20
110.775
 30
0.0
 11
74.0
 21
110.3
 31
0.0
  0
LINE
  8
0
  6
CONTINUOUS
 62
     2
 10
74.0
 20
110.3
 30
0.0
 11
73.6
 21
110.3
 31
0.0
  0
LINE
  8
0
  6
CONTINUOUS
 62
     2
 10
73.6
 20
110.3
 30
0.0
 11
73.6
 21
110.775
 31
0.0
  0
ARC
  8
0
  6
CONTINUOUS
 62
     2
 10
73.4
 20
110.775
 30
0.0
 40
0.2
 50
0.0
 51
90.0
  0
LINE
  8
0
  6
CONTINUOUS
 62
     2
 10
73.4
 20
110.975
 30
0.0
 11
72.925
 21
110.975
 31
0.0
  0
LINE
  8
0
  6
CONTINUOUS
 62
     2
 10
72.925
 20
110.975
 30
0.0
 11
72.925
 21
111.375
 31
0.0
  0
LINE
  8
0
  6
CONTINUOUS
 62
     2
 10
72.925
 20
111.375
 30
0.0
 11
73.4
 21
111.375
 31
0.0
  0
ARC
  8
0
  6
CONTINUOUS
 62
     2
 10
73.4
 20
111.575
 30
0.0
 40
0.2
 50
270.0
 51
0.0
  0
LINE
  8
0
  6
CONTINUOUS
 62
     2
 10
73.6
 20
111.575
 30
0.0
 11
73.6
 21
112.05
 31
0.0
  0
LINE
  8
0
  6
CONTINUOUS
 62
     2
 10
73.6
 20
112.05
 30
0.0
 11
74.0
 21
112.05
 31
0.0
  0
LINE
  8
0
  6
CONTINUOUS
 62
     2
 10
74.0
 20
112.05
 30
0.0
 11
74.0
 21
111.575
 31
0.0
  0
ARC
  8
0
  6
CONTINUOUS
 62
     2
 10
74.2
 20
111.575
 30
0.0
 40
0.2
 50
180.0
 51
270.0
  0
LINE
  8
0
  6
CONTINUOUS
 62
     2
 10
74.2
 20
111.375
 30
0.0
 11
74.675
 21
111.375
 31
0.0
  0
LINE
  8
0
  6
CONTINUOUS
 62
     2
 10
74.675
 20
111.375
 30
0.0
 11
74.675
 21
110.975
 31
0.0
  0
LINE
  8
0
  6
LTYPE4
 62
     2
 10
75.8
 20
111.175
 30
0.0
 11
71.8
 21
111.175
 31
0.0
  0
LINE
  8
0
  6
LTYPE4
 62
     2
 10
73.8
 20
109.175
 30
0.0
 11
73.8
 21
113.175
 31
0.0
  0
LINE
  8
0
  6
CONTINUOUS
 62
     2
 10
31.744605789
 20
127.76809639
 30
0.0
 11
29.026614965
 21
125.438927894
 31
0.0
  0
LINE
  8
0
  6
CONTINUOUS
 62
     2
 10
29.026614965
 20
125.438927894
 30
0.0
 11
32.46034393
 21
126.449870721
 31
0.0
  0
LINE
  8
0
  6
CONTINUOUS
 62
     2
 10
32.46034393
 20
126.449870721
 30
0.0
 11
41.717058939
 21
131.475856895
 31
0.0
  0
LINE
  8
0
  6
CONTINUOUS
 62
     2
 10
31.223657747
 20
126.631824795
 30
0.0
 11
41.539402942
 21
131.755302005
 31
0.0
  0
LINE
  8
0
  6
CONTINUOUS
 62
     2
 10
41.001320798
 20
132.794082564
 30
0.0
 11
31.744605789
 21
127.76809639
 31
0.0
  0
LINE
  8
0
  6
CONTINUOUS
 62
     2
 10
41.138924797
 20
132.492890993
 30
0.0
 11
31.223657747
 21
126.631824795
 31
0.0
  0
CIRCLE
  8
0
  6
CONTINUOUS
 62
     5
 10
48.8
 20
136.175
 30
0.0
 40
22.5
  0
TEXT
  8
0
  6
CONTINUOUS
 62
     2
 10
40.37
 20
172.175
 30
0.3
 40
3.0
  1
１２０
 50
0.0
 41
0.6
 51
0.0
  7
KANJI2
  0
TEXT
  8
0
  6
CONTINUOUS
 62
     2
 10
46.82
 20
172.175
 30
0.18
 40
1.8
  1
±１．５
 50
0.0
 41
0.6
 51
0.0
  7
KANJI1
  0
LINE
  8
0
  6
LTYPE2
 62
     2
 10
52.7
 20
136.175
 30
0.0
 11
81.141074326
 21
136.175
 31
0.0
  0
CIRCLE
  8
0
  6
CONTINUOUS
 62
     2
 10
48.8
 20
136.175
 30
0.0
 40
8.5
  0
CIRCLE
  8
0
  6
CONTINUOUS
 62
     2
 10
48.8
 20
136.175
 30
0.0
 40
7.8
  0
CIRCLE
  8
0
  6
CONTINUOUS
 62
     2
 10
48.8
 20
136.175
 30
0.0
 40
7.1
  0
CIRCLE
  8
0
  6
CONTINUOUS
 62
     2
 10
48.8
 20
136.175
 30
0.0
 40
6.4
  0
CIRCLE
  8
0
  6
CONTINUOUS
 62
     2
 10
48.8
 20
136.175
 30
0.0
 40
5.7
  0
CIRCLE
  8
0
  6
CONTINUOUS
 62
     2
 10
48.8
 20
136.175
 30
0.0
 40
5.0
  0
CIRCLE
  8
0
  6
CONTINUOUS
 62
     2
 10
48.8
 20
136.175
 30
0.0
 40
4.3
  0
CIRCLE
  8
0
  6
CONTINUOUS
 62
     2
 10
48.8
 20
136.175
 30
0.0
 40
3.6
  0
CIRCLE
  8
0
  6
CONTINUOUS
 62
     2
 10
48.8
 20
136.175
 30
0.0
 40
3.05
  0
CIRCLE
  8
0
  6
CONTINUOUS
 62
     1
 10
48.8
 20
136.175
 30
0.0
 40
3.05
  0
LINE
  8
0
  6
CONTINUOUS
 62
     2
 10
51.816620626
 20
136.625
 30
0.0
 11
45.783379374
 21
136.625
 31
0.0
  0
LINE
  8
0
  6
CONTINUOUS
 62
     2
 10
45.783379374
 20
135.725
 30
0.0
 11
51.816620626
 21
135.725
 31
0.0
  0
LINE
  8
0
  6
CONTINUOUS
 62
     1
 10
96.05
 20
163.675
 30
0.0
 11
92.541074326
 21
163.675
 31
0.0
  0
ARC
  8
0
  6
CONTINUOUS
 62
     1
 10
92.541074326
 20
163.425
 30
0.0
 40
0.25
 50
90.0
 51
177.91743472
  0
LINE
  8
0
  6
CONTINUOUS
 62
     1
 10
96.05
 20
108.675
 30
0.0
 11
92.541074326
 21
108.675
 31
0.0
  0
ARC
  8
0
  6
CONTINUOUS
 62
     1
 10
92.541074326
 20
108.925
 30
0.0
 40
0.25
 50
182.08256528
 51
270.0
  0
LINE
  8
0
  6
CONTINUOUS
 62
     1
 10
91.3
 20
138.425
 30
0.0
 11
92.291239451
 21
163.434084905
 31
0.0
  0
LINE
  8
0
  6
CONTINUOUS
 62
     1
 10
91.3
 20
133.925
 30
0.0
 11
92.291239451
 21
108.915915095
 31
0.0
  0
LINE
  8
0
  6
CONTINUOUS
 62
     1
 10
91.3
 20
138.425
 30
0.0
 11
91.3
 21
133.925
 31
0.0
  0
LINE
  8
0
  6
CONTINUOUS
 62
     2
 10
91.3
 20
138.175
 30
0.0
 11
91.3
 21
134.175
 31
0.0
  0
LINE
  8
0
  6
CONTINUOUS
 62
     1
 10
91.3
 20
137.740990258
 30
0.0
 11
91.3
 21
133.9
 31
0.0
  0
LINE
  8
0
  6
CONTINUOUS
 62
     2
 10
91.3
 20
139.325
 30
0.0
 11
91.3
 21
133.425
 31
0.0
  0
POINT
  8
0
  6
CONTINUOUS
 62
     2
 10
91.3
 20
139.325
 30
0.0
  0
ARC
  8
0
  6
CONTINUOUS
 62
     2
 10
91.3
 20
137.825
 30
0.0
 40
1.5
 50
90.0
 51
180.0
  0
LINE
  8
0
  6
CONTINUOUS
 62
     2
 10
89.8
 20
134.825
 30
0.0
 11
89.8
 21
137.825
 31
0.0
  0
ARC
  8
0
  6
CONTINUOUS
 62
     2
 10
91.2
 20
134.825
 30
0.0
 40
1.4
 50
180.0
 51
270.0
  0
LINE
  8
0
  6
CONTINUOUS
 62
     2
 10
89.8
 20
138.925
 30
0.0
 11
89.8
 21
180.625001907
 31
0.0
  0
LINE
  8
0
  6
CONTINUOUS
 62
     2
 10
102.5
 20
178.625001907
 30
0.0
 11
89.8
 21
178.625001907
 31
0.0
  0
LINE
  8
0
  6
CONTINUOUS
 62
     2
 10
89.8
 20
178.625001907
 30
0.0
 11
92.214814566
 21
177.977954295
 31
0.0
  0
LINE
  8
0
  6
CONTINUOUS
 62
     2
 10
89.8
 20
178.625001907
 30
0.0
 11
92.214814566
 21
179.27204952
 31
0.0
  0
TEXT
  8
0
  6
CONTINUOUS
 62
     2
 10
93.55
 20
179.625001907
 30
0.3
 40
3.0
  1
２４
 50
0.0
 41
0.6
 51
0.0
  7
KANJI2
  0
LINE
  8
0
  6
CONTINUOUS
 62
     2
 10
89.8
 20
136.625
 30
0.0
 11
90.7
 21
136.625
 31
0.0
  0
LINE
  8
0
  6
CONTINUOUS
 62
     2
 10
90.7
 20
136.625
 30
0.0
 11
90.7
 21
135.725
 31
0.0
  0
LINE
  8
0
  6
CONTINUOUS
 62
     2
 10
90.7
 20
135.725
 30
0.0
 11
89.8
 21
135.725
 31
0.0
  0
TEXT
  8
0
  6
CONTINUOUS
 62
     2
 10
54.1
 20
56.9
 30
0.5
 40
3.0
  1
整流形
 50
0.0
 41
0.9
 51
0.0
  7
KANJI0
  0
LINE
  8
0
  6
CONTINUOUS
 62
     2
 10
14.6
 20
55.9
 30
0.0
 11
109.6
 21
55.9
 31
0.0
  0
LINE
  8
0
  6
CONTINUOUS
 62
     2
 10
109.6
 20
50.9
 30
0.0
 11
14.6
 21
50.9
 31
0.0
  0
LINE
  8
0
  6
CONTINUOUS
 62
     2
 10
14.6
 20
45.9
 30
0.0
 11
109.6
 21
45.9
 31
0.0
  0
LINE
  8
0
  6
CONTINUOUS
 62
     2
 10
109.6
 20
40.9
 30
0.0
 11
14.6
 21
40.9
 31
0.0
  0
TEXT
  8
0
  6
CONTINUOUS
 62
     2
 10
54.1
 20
41.9
 30
0.5
 40
3.0
  1
可動鉄片形
 50
0.0
 41
0.9
 51
0.0
  7
KANJI0
  0
LINE
  8
0
  6
CONTINUOUS
 62
     2
 10
26.364213562
 20
35.9
 30
0.0
 11
109.6
 21
35.9
 31
0.0
  0
LINE
  8
0
  6
CONTINUOUS
 62
     2
 10
14.6
 20
55.9
 30
0.0
 11
109.6
 21
55.9
 31
0.0
  0
LINE
  8
0
  6
CONTINUOUS
 62
     2
 10
109.6
 20
50.9
 30
0.0
 11
14.6
 21
50.9
 31
0.0
  0
LINE
  8
0
  6
CONTINUOUS
 62
     2
 10
14.6
 20
45.9
 30
0.0
 11
109.6
 21
45.9
 31
0.0
  0
LINE
  8
0
  6
CONTINUOUS
 62
     2
 10
109.6
 20
40.9
 30
0.0
 11
14.6
 21
40.9
 31
0.0
  0
TEXT
  8
0
  6
CONTINUOUS
 62
     2
 10
54.1
 20
41.9
 30
0.5
 40
3.0
  1
可動鉄片形
 50
0.0
 41
0.9
 51
0.0
  7
KANJI0
  0
LINE
  8
0
  6
CONTINUOUS
 62
     2
 10
26.364213562
 20
35.9
 30
0.0
 11
109.6
 21
35.9
 31
0.0
  0
TEXT
  8
0
  6
CONTINUOUS
 62
     2
 10
54.1
 20
61.6
 30
0.1
 40
3.0
  1
永久磁石可動コイル形
 50
0.0
 41
0.666666667
 51
0.0
  7
KANJI8
  0
TEXT
  8
0
  6
CONTINUOUS
 62
     2
 10
54.1
 20
36.6
 30
0.1
 40
3.0
  1
永久磁石可動コイル形
 50
0.0
 41
0.666666667
 51
0.0
  7
KANJI8
  0
TEXT
  8
0
  6
CONTINUOUS
 62
     2
 10
176.750662897
 20
124.848186888
 30
0.18
 40
1.8
  1
　　　　　　　　　　　　　　±１
 50
56.010479907
 41
0.6
 51
0.0
  7
KANJI1
  0
TEXT
  8
0
  6
CONTINUOUS
 62
     2
 10
175.032470512
 20
51.691013638
 30
0.3
 40
3.0
  1
１１２
 50
50.13255444
 41
0.6
 51
0.0
  7
KANJI2
  0
TEXT
  8
0
  6
CONTINUOUS
 62
     2
 10
182.47086016
 20
133.359041256
 30
0.3
 40
3.0
  1
１０９
 50
56.010479907
 41
0.6
 51
0.0
  7
KANJI2
  0
LINE
  8
0
  6
CONTINUOUS
 62
     2
 10
32.0
 20
125.975
 30
0.0
 11
30.925549258
 21
123.717666262
 31
0.0
  0
LINE
  8
0
  6
CONTINUOUS
 62
     2
 10
32.0
 20
125.975
 30
0.0
 11
32.198165231
 21
123.482866267
 31
0.0
  0
LINE
  8
0
  6
CONTINUOUS
 62
     2
 10
32.0
 20
125.975
 30
0.0
 11
27.0
 21
98.875
 31
0.0
  0
LINE
  8
0
  6
CONTINUOUS
 62
     2
 10
27.0
 20
98.875
 30
0.0
 11
21.5
 21
98.875
 31
0.0
  0
TEXT
  8
0
  6
CONTINUOUS
 62
     2
 10
21.5
 20
99.875
 30
0.1
 40
3.0
  1
指針
 50
0.0
 41
0.9
 51
0.0
  7
KANJI9
  0
LINE
  8
0
  6
CONTINUOUS
 62
     2
 10
49.4
 20
133.375
 30
0.0
 11
49.105997085
 21
130.892347732
 31
0.0
  0
LINE
  8
0
  6
CONTINUOUS
 62
     2
 10
49.4
 20
133.375
 30
0.0
 11
50.386712141
 21
131.077958609
 31
0.0
  0
LINE
  8
0
  6
CONTINUOUS
 62
     2
 10
49.4
 20
133.375
 30
0.0
 11
54.4
 21
98.875
 31
0.0
  0
LINE
  8
0
  6
CONTINUOUS
 62
     2
 10
54.4
 20
98.875
 30
0.0
 11
76.7
 21
98.875
 31
0.0
  0
TEXT
  8
0
  6
CONTINUOUS
 62
     2
 10
54.4
 20
99.875
 30
0.1
 40
3.0
  1
機械的零位調整器
 50
0.0
 41
0.9
 51
0.0
  7
KANJI9
  0
TEXT
  8
0
  6
CONTINUOUS
 62
     2
 10
112.8
 20
99.875
 30
0.1
 40
3.0
  1
４－Ｍ６取付ホ゛ルト
 50
0.0
 41
0.9
 51
0.0
  7
KANJI9
  0
LINE
  8
0
  6
CONTINUOUS
 62
     2
 10
105.05
 20
108.3
 30
0.0
 11
104.05
 21
107.8
 31
0.0
  0
LINE
  8
0
  6
CONTINUOUS
 62
     2
 10
144.975
 20
138.65
 30
0.0
 11
144.627122017
 21
136.174322131
 31
0.0
  0
LINE
  8
0
  6
CONTINUOUS
 62
     2
 10
144.975
 20
138.65
 30
0.0
 11
145.911567764
 21
136.332061083
 31
0.0
  0
LINE
  8
0
  6
CONTINUOUS
 62
     2
 10
144.975
 20
138.65
 30
0.0
 11
149.875
 21
98.75
 31
0.0
  0
LINE
  8
0
  6
CONTINUOUS
 62
     2
 10
151.875
 20
26.95
 30
0.0
 11
150.046455562
 21
25.245175893
 31
0.0
  0
LINE
  8
0
  6
CONTINUOUS
 62
     2
 10
151.875
 20
26.95
 30
0.0
 11
151.143846118
 21
24.559306795
 31
0.0
  0
LINE
  8
0
  6
CONTINUOUS
 62
     2
 10
151.875
 20
26.95
 30
0.0
 11
146.875
 21
18.95
 31
0.0
  0
LINE
  8
0
  6
CONTINUOUS
 62
     2
 10
146.875
 20
18.95
 30
0.0
 11
139.825
 21
18.95
 31
0.0
  0
TEXT
  8
0
  6
CONTINUOUS
 62
     2
 10
139.825
 20
19.95
 30
0.1
 40
3.0
  1
４－φ７
 50
0.0
 41
0.9
 51
0.0
  7
KANJI9
  0
LINE
  8
0
  6
CONTINUOUS
 62
     2
 10
108.05
 20
109.7
 30
0.0
 11
108.230838565
 21
107.206549095
 31
0.0
  0
LINE
  8
0
  6
CONTINUOUS
 62
     2
 10
108.05
 20
109.7
 30
0.0
 11
109.453336244
 21
107.631027456
 31
0.0
  0
LINE
  8
0
  6
CONTINUOUS
 62
     2
 10
111.853499374
 20
98.875
 30
0.0
 11
129.9
 21
98.875
 31
0.0
  0
LINE
  8
0
  6
CONTINUOUS
 62
     2
 10
108.05
 20
109.7
 30
0.0
 11
111.808680556
 21
98.875
 31
0.0
  0
LINE
  8
0
  6
CONTINUOUS
 62
     2
 10
186.7
 20
152.5
 30
0.0
 11
189.089648505
 21
153.234561109
 31
0.0
  0
LINE
  8
0
  6
CONTINUOUS
 62
     2
 10
186.7
 20
152.5
 30
0.0
 11
188.402215757
 21
154.330972833
 31
0.0
  0
LINE
  8
0
  6
CONTINUOUS
 62
     2
 10
186.7
 20
152.5
 30
0.0
 11
224.5
 21
176.2
 31
0.0
  0
LINE
  8
0
  6
CONTINUOUS
 62
     2
 10
224.5
 20
176.2
 30
0.0
 11
246.8
 21
176.2
 31
0.0
  0
TEXT
  8
0
  6
CONTINUOUS
 62
     2
 10
224.5
 20
177.2
 30
0.1
 40
3.0
  1
感度調整用抵抗器
 50
0.0
 41
0.9
 51
0.0
  7
KANJI9
  0
TEXT
  8
0
  6
CONTINUOUS
 62
     2
 10
224.2
 20
180.2
 30
0.5
 40
3.0
  1
※
 50
0.0
 41
0.9
 51
0.0
  7
KANJI0
  0
TEXT
  8
0
  6
CONTINUOUS
 62
     2
 10
224.2
 20
180.2
 30
0.5
 40
3.0
  1
※
 50
0.0
 41
0.9
 51
0.0
  7
KANJI0
  0
LINE
  8
0
  6
CONTINUOUS
 62
     2
 10
104.3
 20
107.9
 30
0.0
 11
104.386848575
 21
105.40150899
 31
0.0
  0
LINE
  8
0
  6
CONTINUOUS
 62
     2
 10
104.3
 20
107.9
 30
0.0
 11
105.624458577
 21
105.779667602
 31
0.0
  0
LINE
  8
0
  6
CONTINUOUS
 62
     2
 10
104.3
 20
107.9
 30
0.0
 11
108.7
 21
93.5
 31
0.0
  0
LINE
  8
0
  6
CONTINUOUS
 62
     2
 10
108.7
 20
93.5
 30
0.0
 11
128.6
 21
93.5
 31
0.0
  0
TEXT
  8
0
  6
CONTINUOUS
 62
     2
 10
108.7
 20
94.5
 30
0.1
 40
3.0
  1
フランシ゛付六角ナット
 50
0.0
 41
0.9
 51
0.0
  7
KANJI9
  0
LINE
  8
0
  6
CONTINUOUS
 62
     2
 10
147.0
 20
94.3
 30
0.0
 11
159.75
 21
94.3
 31
0.0
  0
LINE
  8
0
  6
CONTINUOUS
 62
     2
 10
133.9
 20
162.1
 30
0.0
 11
133.888868383
 21
164.599975217
 31
0.0
  0
LINE
  8
0
  6
CONTINUOUS
 62
     2
 10
133.9
 20
162.1
 30
0.0
 11
132.640372129
 21
164.259476239
 31
0.0
  0
LINE
  8
0
  6
CONTINUOUS
 62
     2
 10
133.9
 20
162.1
 30
0.0
 11
130.9
 21
173.1
 31
0.0
  0
LINE
  8
0
  6
CONTINUOUS
 62
     2
 10
130.9
 20
173.1
 30
0.0
 11
102.7
 21
173.1
 31
0.0
  0
TEXT
  8
0
  6
CONTINUOUS
 62
     2
 10
102.7
 20
174.1
 30
0.1
 40
3.0
  1
ＡＶＦ－１２形電圧計放熱穴
 50
0.0
 41
0.9
 51
0.0
  7
KANJI9
  0
TEXT
  8
0
  6
CONTINUOUS
 62
     3
 10
233.0
 20
12.0
 30
0.6
 40
6.0
  1
ＭＳ－５６７７
 50
0.0
 41
0.9
 51
0.0
  7
KANJI10
  0
TEXT
  8
0
  6
CONTINUOUS
 62
     3
 10
279.2
 20
12.1
 30
0.6
 40
6.0
  1
Ｄ
 50
0.0
 41
0.9
 51
0.0
  7
KANJI10
  0
LINE
  8
0
  6
CONTINUOUS
 62
     1
 10
178.1
 20
148.15
 30
0.0
 11
193.1
 21
148.15
 31
0.0
  0
ARC
  8
0
  6
CONTINUOUS
 62
     1
 10
193.1
 20
141.15
 30
0.0
 40
7.0
 50
24.160871774
 51
90.0
  0
LINE
  8
0
  6
CONTINUOUS
 62
     1
 10
199.486799282
 20
144.015099462
 30
0.0
 11
204.477699564
 21
132.889524673
 31
0.0
  0
ARC
  8
0
  6
CONTINUOUS
 62
     1
 10
200.6
 20
131.15
 30
0.0
 40
4.25
 50
0.0
 51
24.160864651
  0
LINE
  8
0
  6
CONTINUOUS
 62
     1
 10
204.85
 20
124.1499984
 30
0.0
 11
204.85
 21
131.15
 31
0.0
  0
LINE
  8
0
  6
CONTINUOUS
 62
     1
 10
166.35
 20
124.1499984
 30
0.0
 11
166.35
 21
131.15
 31
0.0
  0
ARC
  8
0
  6
CONTINUOUS
 62
     1
 10
170.6
 20
131.15
 30
0.0
 40
4.25
 50
155.839135349
 51
180.0
  0
LINE
  8
0
  6
CONTINUOUS
 62
     1
 10
171.713200718
 20
144.015099462
 30
0.0
 11
166.722300436
 21
132.889524673
 31
0.0
  0
ARC
  8
0
  6
CONTINUOUS
 62
     1
 10
178.1
 20
141.15
 30
0.0
 40
7.0
 50
90.0
 51
155.839128226
  0
LINE
  8
0
  6
CONTINUOUS
 62
     1
 10
166.35
 20
124.15
 30
0.0
 11
204.85
 21
124.15
 31
0.0
  0
LINE
  8
0
  6
LTYPE1
 62
     5
 10
174.1
 20
141.15
 30
0.0
 11
182.1
 21
141.15
 31
0.0
  0
LINE
  8
0
  6
LTYPE1
 62
     5
 10
189.1
 20
141.15
 30
0.0
 11
197.1
 21
141.15
 31
0.0
  0
LINE
  8
0
  6
LTYPE1
 62
     5
 10
193.1
 20
137.15
 30
0.0
 11
193.1
 21
149.15
 31
0.0
  0
LINE
  8
0
  6
LTYPE1
 62
     5
 10
178.1
 20
137.15
 30
0.0
 11
178.1
 21
149.15
 31
0.0
  0
LINE
  8
0
  6
LTYPE5
 62
     2
 10
190.9
 20
139.15
 30
0.0
 11
190.4
 21
139.15
 31
0.0
  0
ARC
  8
0
  6
LTYPE5
 62
     2
 10
189.65
 20
146.65
 30
0.0
 40
0.75
 50
0.0
 51
90.0
  0
LINE
  8
0
  6
LTYPE5
 62
     2
 10
190.4
 20
139.15
 30
0.0
 11
190.4
 21
146.65
 31
0.0
  0
LINE
  8
0
  6
LTYPE5
 62
     2
 10
178.075
 20
147.4
 30
0.0
 11
193.1
 21
147.4
 31
0.0
  0
ARC
  8
0
  6
LTYPE5
 62
     2
 10
193.1
 20
141.15
 30
0.0
 40
6.25
 50
24.160864651
 51
90.000006668
  0
ARC
  8
0
  6
LTYPE5
 62
     2
 10
181.55
 20
146.65
 30
0.0
 40
0.75
 50
90.0
 51
180.0
  0
LINE
  8
0
  6
LTYPE5
 62
     2
 10
180.8
 20
139.15
 30
0.0
 11
180.8
 21
146.65
 31
0.0
  0
ARC
  8
0
  6
LTYPE5
 62
     2
 10
178.1
 20
141.15
 30
0.0
 40
6.25
 50
89.999993332
 51
155.839135349
  0
ARC
  8
0
  6
LTYPE5
 62
     2
 10
196.3
 20
145.927290027
 30
0.0
 40
0.5
 50
56.184407518
 51
180.0
  0
LINE
  8
0
  6
LTYPE5
 62
     2
 10
195.8
 20
139.15
 30
0.0
 11
195.8
 21
145.927290027
 31
0.0
  0
LINE
  8
0
  6
LTYPE5
 62
     2
 10
175.4
 20
139.15
 30
0.0
 11
175.4
 21
145.927290027
 31
0.0
  0
ARC
  8
0
  6
LTYPE5
 62
     2
 10
174.9
 20
145.927290027
 30
0.0
 40
0.5
 50
0.0
 51
123.815592482
  0
ARC
  8
0
  6
LTYPE5
 62
     2
 10
177.349999046
 20
147.15
 30
0.0
 40
0.25
 50
0.0
 51
90.0
  0
ARC
  8
0
  6
LTYPE5
 62
     2
 10
178.850000954
 20
147.15
 30
0.0
 40
0.25
 50
90.0
 51
180.0
  0
ARC
  8
0
  6
LTYPE5
 62
     2
 10
193.850000954
 20
147.15
 30
0.0
 40
0.25
 50
90.0
 51
180.0
  0
ARC
  8
0
  6
LTYPE5
 62
     2
 10
192.349999046
 20
147.15
 30
0.0
 40
0.25
 50
0.0
 51
90.0
  0
LINE
  8
0
  6
LTYPE5
 62
     2
 10
178.600000954
 20
147.15
 30
0.0
 11
178.600000954
 21
145.15
 31
0.0
  0
LINE
  8
0
  6
LTYPE5
 62
     2
 10
178.600000954
 20
145.15
 30
0.0
 11
177.600000954
 21
145.15
 31
0.0
  0
LINE
  8
0
  6
LTYPE5
 62
     2
 10
177.600000954
 20
147.15
 30
0.0
 11
177.600000954
 21
145.15
 31
0.0
  0
LINE
  8
0
  6
LTYPE5
 62
     2
 10
176.85
 20
143.85
 30
0.0
 11
176.85
 21
142.774807681
 31
0.0
  0
LINE
  8
0
  6
LTYPE5
 62
     2
 10
176.45
 20
143.85
 30
0.0
 11
176.45
 21
147.952756794
 31
0.0
  0
LINE
  8
0
  6
LTYPE5
 62
     2
 10
176.25
 20
139.15
 30
0.0
 11
175.4
 21
139.15
 31
0.0
  0
ARC
  8
0
  6
LTYPE5
 62
     2
 10
178.1
 20
141.15
 30
0.0
 40
2.05
 50
127.57186932
 51
228.748359415
  0
ARC
  8
0
  6
LTYPE5
 62
     2
 10
176.25
 20
139.65
 30
0.0
 40
0.5
 50
270.0
 51
355.269685628
  0
LINE
  8
0
  6
LTYPE5
 62
     2
 10
179.35
 20
143.85
 30
0.0
 11
179.35
 21
142.774807681
 31
0.0
  0
LINE
  8
0
  6
LTYPE5
 62
     2
 10
179.75
 20
143.85
 30
0.0
 11
179.75
 21
147.952756794
 31
0.0
  0
ARC
  8
0
  6
LTYPE5
 62
     2
 10
178.1
 20
141.15
 30
0.0
 40
2.05
 50
311.251640585
 51
52.42813068
  0
LINE
  8
0
  6
LTYPE5
 62
     2
 10
179.95
 20
139.15
 30
0.0
 11
180.8
 21
139.15
 31
0.0
  0
ARC
  8
0
  6
LTYPE5
 62
     2
 10
179.95
 20
139.65
 30
0.0
 40
0.5
 50
184.730314372
 51
270.0
  0
LINE
  8
0
  6
LTYPE5
 62
     2
 10
193.599999046
 20
147.15
 30
0.0
 11
193.599999046
 21
145.15
 31
0.0
  0
LINE
  8
0
  6
LTYPE5
 62
     2
 10
192.599999046
 20
145.15
 30
0.0
 11
193.599999046
 21
145.15
 31
0.0
  0
LINE
  8
0
  6
LTYPE5
 62
     2
 10
192.599999046
 20
147.15
 30
0.0
 11
192.599999046
 21
145.15
 31
0.0
  0
LINE
  8
0
  6
LTYPE5
 62
     2
 10
191.85
 20
143.85
 30
0.0
 11
191.85
 21
142.774807681
 31
0.0
  0
LINE
  8
0
  6
LTYPE5
 62
     2
 10
191.45
 20
143.85
 30
0.0
 11
191.45
 21
147.952756794
 31
0.0
  0
ARC
  8
0
  6
LTYPE5
 62
     2
 10
193.1
 20
141.15
 30
0.0
 40
2.05
 50
127.57186932
 51
228.748359415
  0
LINE
  8
0
  6
LTYPE5
 62
     2
 10
191.25
 20
139.15
 30
0.0
 11
190.4
 21
139.15
 31
0.0
  0
ARC
  8
0
  6
LTYPE5
 62
     2
 10
191.25
 20
139.65
 30
0.0
 40
0.5
 50
270.0
 51
355.269685628
  0
LINE
  8
0
  6
LTYPE5
 62
     2
 10
194.35
 20
143.85
 30
0.0
 11
194.35
 21
142.774807681
 31
0.0
  0
LINE
  8
0
  6
LTYPE5
 62
     2
 10
194.75
 20
143.85
 30
0.0
 11
194.75
 21
147.952756794
 31
0.0
  0
ARC
  8
0
  6
LTYPE5
 62
     2
 10
193.1
 20
141.15
 30
0.0
 40
2.05
 50
311.251640585
 51
52.42813068
  0
LINE
  8
0
  6
LTYPE5
 62
     2
 10
195.3
 20
139.15
 30
0.0
 11
195.8
 21
139.15
 31
0.0
  0
LINE
  8
0
  6
LTYPE5
 62
     2
 10
194.95
 20
139.15
 30
0.0
 11
195.8
 21
139.15
 31
0.0
  0
ARC
  8
0
  6
LTYPE5
 62
     2
 10
194.95
 20
139.65
 30
0.0
 40
0.5
 50
184.730314372
 51
270.0
  0
ARC
  8
0
  6
LTYPE5
 62
     2
 10
170.6
 20
131.15
 30
0.0
 40
3.5
 50
154.667064238
 51
180.0
  0
ARC
  8
0
  6
LTYPE5
 62
     2
 10
170.6
 20
131.15
 30
0.0
 40
3.5
 50
155.83910686
 51
180.0
  0
LINE
  8
0
  6
LTYPE5
 62
     2
 10
167.406600359
 20
132.582549731
 30
0.0
 11
172.397500641
 21
143.708124519
 31
0.0
  0
LINE
  8
0
  6
LTYPE5
 62
     2
 10
167.1
 20
131.15
 30
0.0
 11
167.1
 21
124.15
 31
0.0
  0
LINE
  8
0
  6
LTYPE5
 62
     2
 10
204.1
 20
131.15
 30
0.0
 11
204.1
 21
124.15
 31
0.0
  0
ARC
  8
0
  6
LTYPE5
 62
     2
 10
200.6
 20
131.15
 30
0.0
 40
3.5
 50
0.0
 51
24.16089314
  0
LINE
  8
0
  6
LTYPE5
 62
     2
 10
203.793399641
 20
132.582549731
 30
0.0
 11
198.802499359
 21
143.708124519
 31
0.0
  0
LINE
  8
0
  6
CONTINUOUS
 62
     5
 10
166.378
 20
131.15
 30
0.0
 11
166.35
 21
131.15
 31
0.0
  0
LINE
  8
0
  6
CONTINUOUS
 62
     2
 10
179.75
 20
143.85
 30
0.0
 11
179.35
 21
143.85
 31
0.0
  0
LINE
  8
0
  6
CONTINUOUS
 62
     2
 10
191.45
 20
143.85
 30
0.0
 11
191.85
 21
143.85
 31
0.0
  0
LINE
  8
0
  6
CONTINUOUS
 62
     2
 10
194.75
 20
143.85
 30
0.0
 11
194.35
 21
143.85
 31
0.0
  0
LINE
  8
0
  6
CONTINUOUS
 62
     2
 10
176.45
 20
143.85
 30
0.0
 11
176.85
 21
143.85
 31
0.0
  0
LINE
  8
0
  6
CONTINUOUS
 62
     1
 10
139.3
 20
124.2
 30
0.0
 11
139.3
 21
148.2
 31
0.0
  0
LINE
  8
0
  6
CONTINUOUS
 62
     1
 10
148.8
 20
145.2
 30
0.0
 11
148.8
 21
124.2
 31
0.0
  0
LINE
  8
0
  6
CONTINUOUS
 62
     1
 10
148.8
 20
124.2
 30
0.0
 11
139.3
 21
124.2
 31
0.0
  0
ARC
  8
0
  6
CONTINUOUS
 62
     1
 10
145.8
 20
145.2
 30
0.0
 40
3.0
 50
0.0
 51
90.0
  0
LINE
  8
0
  6
CONTINUOUS
 62
     1
 10
139.3
 20
148.2
 30
0.0
 11
145.8
 21
148.2
 31
0.0
  0
LINE
  8
0
  6
LTYPE5
 62
     2
 10
139.3
 20
147.45
 30
0.0
 11
145.8
 21
147.45
 31
0.0
  0
LINE
  8
0
  6
LTYPE5
 62
     2
 10
148.05
 20
145.2
 30
0.0
 11
148.05
 21
124.2
 31
0.0
  0
ARC
  8
0
  6
LTYPE5
 62
     2
 10
145.8
 20
145.2
 30
0.0
 40
2.25
 50
0.0
 51
90.0
  0
LINE
  8
0
  6
LTYPE5
 62
     2
 10
139.3
 20
142.824807681
 30
0.0
 11
143.7
 21
142.824807681
 31
0.0
  0
LINE
  8
0
  6
LTYPE5
 62
     2
 10
143.7
 20
139.2
 30
0.0
 11
139.3
 21
139.2
 31
0.0
  0
LINE
  8
0
  6
LTYPE5
 62
     2
 10
143.7
 20
139.658767098
 30
0.0
 11
139.3
 21
139.658767098
 31
0.0
  0
LINE
  8
0
  6
LTYPE1
 62
     5
 10
150.0115
 20
141.2
 30
0.0
 11
138.3305
 21
141.2
 31
0.0
  0
LINE
  8
0
  6
CONTINUOUS
 62
     2
 10
148.8
 20
173.075001907
 30
0.0
 11
146.385185434
 21
173.72204952
 31
0.0
  0
LINE
  8
0
  6
CONTINUOUS
 62
     2
 10
148.8
 20
173.075001907
 30
0.0
 11
146.385185434
 21
172.427954295
 31
0.0
  0
LINE
  8
0
  6
CONTINUOUS
 62
     2
 10
148.8
 20
142.2
 30
0.0
 11
148.8
 21
175.075001907
 31
0.0
  0
LINE
  8
0
  6
CONTINUOUS
 62
     2
 10
148.8
 20
173.075001907
 30
0.0
 11
146.385185434
 21
173.72204952
 31
0.0
  0
LINE
  8
0
  6
CONTINUOUS
 62
     2
 10
148.8
 20
173.075001907
 30
0.0
 11
146.385185434
 21
172.427954295
 31
0.0
  0
LINE
  8
0
  6
CONTINUOUS
 62
     2
 10
148.8
 20
142.2
 30
0.0
 11
148.8
 21
175.075001907
 31
0.0
  0
LINE
  8
0
  6
CONTINUOUS
 62
     2
 10
139.3
 20
173.075001907
 30
0.0
 11
148.8
 21
173.075001907
 31
0.0
  0
LINE
  8
0
  6
CONTINUOUS
 62
     2
 10
139.3
 20
173.075001907
 30
0.0
 11
148.8
 21
173.075001907
 31
0.0
  0
TEXT
  8
0
  6
CONTINUOUS
 62
     2
 10
142.244
 20
174.075001907
 30
0.3
 40
3.0
  1
１９
 50
0.0
 41
0.6
 51
0.0
  7
KANJI2
  0
LINE
  8
0
  6
CONTINUOUS
 62
     2
 10
143.100801364
 20
128.668427908
 30
0.0
 11
142.779136713
 21
126.189207899
 31
0.0
  0
LINE
  8
0
  6
CONTINUOUS
 62
     2
 10
143.100801364
 20
128.668427908
 30
0.0
 11
144.061841609
 21
126.360528074
 31
0.0
  0
LINE
  8
0
  6
CONTINUOUS
 62
     2
 10
143.156591483
 20
129.098428468
 30
0.0
 11
147.0
 21
94.3
 31
0.0
  0
LINE
  8
0
  6
CONTINUOUS
 62
     2
 10
166.35
 20
123.15
 30
0.0
 11
166.35
 21
114.726
 31
0.0
  0
LINE
  8
0
  6
CONTINUOUS
 62
     2
 10
166.35
 20
116.726
 30
0.0
 11
168.764814566
 21
116.078952387
 31
0.0
  0
LINE
  8
0
  6
CONTINUOUS
 62
     2
 10
166.35
 20
116.726
 30
0.0
 11
168.764814566
 21
117.373047613
 31
0.0
  0
LINE
  8
0
  6
CONTINUOUS
 62
     2
 10
166.35
 20
116.726
 30
0.0
 11
204.85
 21
116.726
 31
0.0
  0
TEXT
  8
0
  6
CONTINUOUS
 62
     2
 10
183.65
 20
117.726
 30
0.3
 40
3.0
  1
７７
 50
0.0
 41
0.6
 51
0.0
  7
KANJI2
  0
LINE
  8
0
  6
CONTINUOUS
 62
     2
 10
166.35
 20
116.726
 30
0.0
 11
204.85
 21
116.726
 31
0.0
  0
LINE
  8
0
  6
CONTINUOUS
 62
     2
 10
204.85
 20
116.726
 30
0.0
 11
202.435185434
 21
117.373047613
 31
0.0
  0
LINE
  8
0
  6
CONTINUOUS
 62
     2
 10
204.85
 20
116.726
 30
0.0
 11
202.435185434
 21
116.078952387
 31
0.0
  0
LINE
  8
0
  6
CONTINUOUS
 62
     2
 10
204.85
 20
123.15
 30
0.0
 11
204.85
 21
114.726
 31
0.0
  0
LINE
  8
0
  6
CONTINUOUS
 62
     2
 10
209.948443581
 20
148.05
 30
0.0
 11
209.301395968
 21
145.635185434
 31
0.0
  0
LINE
  8
0
  6
CONTINUOUS
 62
     2
 10
209.948443581
 20
148.05
 30
0.0
 11
210.595491193
 21
145.635185434
 31
0.0
  0
LINE
  8
0
  6
CONTINUOUS
 62
     2
 10
193.827839335
 20
148.05
 30
0.0
 11
211.330065621
 21
148.05
 31
0.0
  0
LINE
  8
0
  6
CONTINUOUS
 62
     2
 10
209.948443581
 20
136.2
 30
0.0
 11
210.595491193
 21
138.614814566
 31
0.0
  0
LINE
  8
0
  6
CONTINUOUS
 62
     2
 10
209.948443581
 20
136.2
 30
0.0
 11
209.301395968
 21
138.614814566
 31
0.0
  0
LINE
  8
0
  6
CONTINUOUS
 62
     2
 10
209.948065621
 20
136.0
 30
0.0
 11
210.595113233
 21
133.585185434
 31
0.0
  0
LINE
  8
0
  6
CONTINUOUS
 62
     2
 10
209.948065621
 20
136.0
 30
0.0
 11
209.301018008
 21
133.585185434
 31
0.0
  0
TEXT
  8
0
  6
CONTINUOUS
 62
     2
 10
209.015712839
 20
140.426052291
 30
0.3
 40
3.0
  1
２４
 50
90.0
 41
0.6
 51
0.0
  7
KANJI2
  0
LINE
  8
0
  6
CONTINUOUS
 62
     2
 10
193.827839335
 20
124.35
 30
0.0
 11
211.330065621
 21
124.35
 31
0.0
  0
TEXT
  8
0
  6
CONTINUOUS
 62
     2
 10
209.015712839
 20
128.073947709
 30
0.3
 40
3.0
  1
２４
 50
90.0
 41
0.6
 51
0.0
  7
KANJI2
  0
LINE
  8
0
  6
CONTINUOUS
 62
     2
 10
209.948443581
 20
124.35
 30
0.0
 11
209.301395968
 21
126.764814566
 31
0.0
  0
LINE
  8
0
  6
CONTINUOUS
 62
     2
 10
209.948443581
 20
124.35
 30
0.0
 11
210.595491193
 21
126.764814566
 31
0.0
  0
LINE
  8
0
  6
CONTINUOUS
 62
     2
 10
209.948443581
 20
148.05
 30
0.0
 11
209.948443581
 21
124.35
 31
0.0
  0
LINE
  8
0
  6
CONTINUOUS
 62
     2
 10
178.888709386
 20
152.798063177
 30
0.0
 11
180.033967219
 21
155.0203108
 31
0.0
  0
LINE
  8
0
  6
CONTINUOUS
 62
     2
 10
178.888709386
 20
152.798063177
 30
0.0
 11
178.769407952
 21
155.295214988
 31
0.0
  0
TEXT
  8
0
  6
CONTINUOUS
 62
     2
 10
176.8
 20
148.7
 30
0.3
 40
3.0
  1
＋
 50
0.0
 41
0.9
 51
0.0
  7
KANJI3
  0
TEXT
  8
0
  6
CONTINUOUS
 62
     2
 10
150.655
 20
99.75
 30
0.1
 40
3.0
  1
２－Ｍ６ターミナルネシ゛
 50
0.0
 41
0.45
 51
0.0
  7
KANJI11
  0
TEXT
  8
0
  6
CONTINUOUS
 62
     2
 10
148.0
 20
95.3
 30
0.1
 40
3.0
  1
端子キャッフ゜
 50
0.0
 41
0.9
 51
0.0
  7
KANJI9
  0
LINE
  8
0
  6
CONTINUOUS
 62
     2
 10
210.6
 20
166.1
 30
0.0
 11
210.6
 21
173.16
 31
0.0
  0
LINE
  8
0
  6
CONTINUOUS
 62
     2
 10
210.6
 20
166.1
 30
0.0
 11
210.6
 21
173.33
 31
0.0
  0
LINE
  8
0
  6
CONTINUOUS
 62
     2
 10
149.875
 20
98.75
 30
0.0
 11
167.02
 21
98.75
 31
0.0
  0
TEXT
  8
0
  6
CONTINUOUS
 62
     1
 10
233.1
 20
21.9
 30
0.4
 40
4.0
  1
広角度計器　外形図
 50
0.0
 41
0.9
 51
0.0
  7
KANJI6
  0
TEXT
  8
0
  6
CONTINUOUS
 62
     2
 10
233.1
 20
26.9
 30
0.3
 40
3.0
  1
端子キャップ付
 50
0.0
 41
0.9
 51
0.0
  7
KANJI3
  0
TEXT
  8
0
  6
CONTINUOUS
 62
     6
 10
233.0
 20
32.4
 30
1.0
 40
5.0
  1
□ＶＦ－１２
 50
0.0
 41
0.9
 51
0.0
  7
KANJI12
  0
TEXT
  8
0
  6
CONTINUOUS
 62
     2
 10
185.65
 20
183.9
 30
0.1
 40
3.0
  1
直流計器のみ＋記号を表示
 50
0.0
 41
0.9
 51
0.0
  7
KANJI9
  0
LINE
  8
0
  6
CONTINUOUS
 62
     2
 10
185.432608696
 20
182.9
 30
0.0
 11
219.15
 21
182.9
 31
0.0
  0
LINE
  8
0
  6
CONTINUOUS
 62
     2
 10
178.888709386
 20
152.798063177
 30
0.0
 11
185.432608696
 21
182.9
 31
0.0
  0
LINE
  8
0
  6
LTYPE2
 62
     2
 10
185.6
 20
179.7
 30
0.0
 11
185.6
 21
173.14
 31
0.0
  0
LINE
  8
0
  6
LTYPE2
 62
     2
 10
185.6
 20
179.7
 30
0.0
 11
185.6
 21
173.14
 31
0.0
  0
LINE
  8
0
  6
CONTINUOUS
 62
     2
 10
210.6
 20
173.16
 30
0.0
 11
210.6
 21
179.7
 31
0.0
  0
LINE
  8
0
  6
CONTINUOUS
 62
     2
 10
210.6
 20
173.16
 30
0.0
 11
210.6
 21
179.7
 31
0.0
  0
LINE
  8
0
  6
LTYPE2
 62
     2
 10
88.1
 20
136.175
 30
0.0
 11
150.4
 21
136.175
 31
0.0
  0
LINE
  8
0
  6
LTYPE2
 62
     2
 10
224.4
 20
136.2
 30
0.0
 11
154.6
 21
136.2
 31
0.0
  0
LINE
  8
0
  6
LTYPE2
 62
     2
 10
52.9
 20
136.175
 30
0.0
 11
16.6
 21
136.175
 31
0.0
  0
LINE
  8
0
  6
LTYPE2
 62
     2
 10
48.8
 20
169.16
 30
0.0
 11
48.8
 21
101.175
 31
0.0
  0
LINE
  8
0
  6
LTYPE2
 62
     2
 10
185.6
 20
173.14
 30
0.0
 11
185.6
 21
103.16
 31
0.0
  0
TEXT
  8
0
  6
CONTINUOUS
 62
     2
 10
54.1
 20
52.0
 30
0.5
 40
3.0
  1
電子テ゛ハ゛イス形
 50
0.0
 41
0.9
 51
0.0
  7
KANJI0
  0
TEXT
  8
0
  6
CONTINUOUS
 62
     2
 10
54.1
 20
47.0
 30
0.5
 40
3.0
  1
電子テ゛ハ゛イス形
 50
0.0
 41
0.9
 51
0.0
  7
KANJI0
  0
ENDSEC
  0
EOF
