  0
SECTION
  2
HEADER
  9
$ACADVER
  1
AC1009
  9
$DWGCODEPAGE
  3
dos932
  9
$EXTMIN
 10
0.0
 20
0.0
 30
0.0
  9
$EXTMAX
 10
297.0
 20
210.0
 30
0.0
  9
$LIMMIN
 10
0.0
 20
0.0
  9
$LIMMAX
 10
297.0
 20
210.0
  9
$LTSCALE
 40
1.0
  9
$PDMODE
 70
     0
  0
ENDSEC
  0
SECTION
  2
TABLES
  0
TABLE
  2
VPORT
 70
     1
  0
VPORT
  2
*ACTIVE
 70
     0
 10
0.0
 20
0.0
 11
1.0
 21
1.0
 12
148.5
 22
105.0
 13
0.0
 23
0.0
 14
10.0
 24
10.0
 15
10.0
 25
10.0
 16
0.0
 26
0.0
 36
1.0
 17
0.0
 27
0.0
 37
0.0
 40
297.0
 41
1.414285714
 42
50.0
 43
0.0
 44
0.0
 50
0.0
 51
0.0
 71
     0
 72
  1000
 73
     1
 74
     3
 75
     0
 76
     0
 77
     0
 78
     0
  0
ENDTAB
  0
TABLE
  2
LTYPE
 70
     5
  0
LTYPE
  2
CONTINUOUS
 70
    64
  3
Solid line
 72
    65
 73
     0
 40
0.0
  0
LTYPE
  2
LTYPE1
 70
    64
  3
CENTER
 72
    65
 73
     4
 40
15.0
 49
10.5
 49
-1.5
 49
1.5
 49
-1.5
  0
LTYPE
  2
LTYPE2
 70
    64
  3
CENTER
 72
    65
 73
     4
 40
5.0
 49
3.5
 49
-0.5
 49
0.5
 49
-0.5
  0
LTYPE
  2
LTYPE3
 70
    64
  3
HIDDEN
 72
    65
 73
     2
 40
1.0
 49
0.6
 49
-0.4
  0
LTYPE
  2
LTYPE4
 70
    64
  3
HIDDEN
 72
    65
 73
     2
 40
2.0
 49
1.2
 49
-0.8
  0
ENDTAB
  0
TABLE
  2
LAYER
 70
   128
  0
LAYER
  2
0
 70
     0
 62
     7
  6
CONTINUOUS
  0
LAYER
  2
2
 70
     0
 62
     7
  6
CONTINUOUS
  0
LAYER
  2
3
 70
     0
 62
     7
  6
CONTINUOUS
  0
LAYER
  2
4
 70
     0
 62
     7
  6
CONTINUOUS
  0
LAYER
  2
5
 70
     0
 62
     7
  6
CONTINUOUS
  0
LAYER
  2
6
 70
     0
 62
     7
  6
CONTINUOUS
  0
LAYER
  2
7
 70
     0
 62
     7
  6
CONTINUOUS
  0
LAYER
  2
8
 70
     0
 62
     7
  6
CONTINUOUS
  0
LAYER
  2
9
 70
     0
 62
     7
  6
CONTINUOUS
  0
LAYER
  2
10
 70
     0
 62
     7
  6
CONTINUOUS
  0
LAYER
  2
11
 70
     0
 62
     7
  6
CONTINUOUS
  0
LAYER
  2
12
 70
     0
 62
     7
  6
CONTINUOUS
  0
LAYER
  2
13
 70
     0
 62
     7
  6
CONTINUOUS
  0
LAYER
  2
14
 70
     0
 62
     7
  6
CONTINUOUS
  0
LAYER
  2
15
 70
     0
 62
     7
  6
CONTINUOUS
  0
LAYER
  2
16
 70
     0
 62
     7
  6
CONTINUOUS
  0
LAYER
  2
17
 70
     0
 62
     7
  6
CONTINUOUS
  0
LAYER
  2
18
 70
     0
 62
     7
  6
CONTINUOUS
  0
LAYER
  2
19
 70
     0
 62
     7
  6
CONTINUOUS
  0
LAYER
  2
20
 70
     0
 62
     7
  6
CONTINUOUS
  0
LAYER
  2
21
 70
     0
 62
     7
  6
CONTINUOUS
  0
LAYER
  2
22
 70
     0
 62
     7
  6
CONTINUOUS
  0
LAYER
  2
23
 70
     0
 62
     7
  6
CONTINUOUS
  0
LAYER
  2
24
 70
     0
 62
     7
  6
CONTINUOUS
  0
LAYER
  2
25
 70
     0
 62
     7
  6
CONTINUOUS
  0
LAYER
  2
26
 70
     0
 62
     7
  6
CONTINUOUS
  0
LAYER
  2
27
 70
     0
 62
     7
  6
CONTINUOUS
  0
LAYER
  2
28
 70
     0
 62
     7
  6
CONTINUOUS
  0
LAYER
  2
29
 70
     0
 62
     7
  6
CONTINUOUS
  0
LAYER
  2
30
 70
     0
 62
     7
  6
CONTINUOUS
  0
LAYER
  2
31
 70
     0
 62
     7
  6
CONTINUOUS
  0
LAYER
  2
32
 70
     0
 62
     7
  6
CONTINUOUS
  0
LAYER
  2
33
 70
     0
 62
     7
  6
CONTINUOUS
  0
LAYER
  2
34
 70
     0
 62
     7
  6
CONTINUOUS
  0
LAYER
  2
35
 70
     0
 62
     7
  6
CONTINUOUS
  0
LAYER
  2
36
 70
     0
 62
     7
  6
CONTINUOUS
  0
LAYER
  2
37
 70
     0
 62
     7
  6
CONTINUOUS
  0
LAYER
  2
38
 70
     0
 62
     7
  6
CONTINUOUS
  0
LAYER
  2
39
 70
     0
 62
     7
  6
CONTINUOUS
  0
LAYER
  2
40
 70
     0
 62
     7
  6
CONTINUOUS
  0
LAYER
  2
41
 70
     0
 62
     7
  6
CONTINUOUS
  0
LAYER
  2
42
 70
     0
 62
     7
  6
CONTINUOUS
  0
LAYER
  2
43
 70
     0
 62
     7
  6
CONTINUOUS
  0
LAYER
  2
44
 70
     0
 62
     7
  6
CONTINUOUS
  0
LAYER
  2
45
 70
     0
 62
     7
  6
CONTINUOUS
  0
LAYER
  2
46
 70
     0
 62
     7
  6
CONTINUOUS
  0
LAYER
  2
47
 70
     0
 62
     7
  6
CONTINUOUS
  0
LAYER
  2
48
 70
     0
 62
     7
  6
CONTINUOUS
  0
LAYER
  2
49
 70
     0
 62
     7
  6
CONTINUOUS
  0
LAYER
  2
50
 70
     0
 62
     7
  6
CONTINUOUS
  0
LAYER
  2
51
 70
     0
 62
     7
  6
CONTINUOUS
  0
LAYER
  2
52
 70
     0
 62
     7
  6
CONTINUOUS
  0
LAYER
  2
53
 70
     0
 62
     7
  6
CONTINUOUS
  0
LAYER
  2
54
 70
     0
 62
     7
  6
CONTINUOUS
  0
LAYER
  2
55
 70
     0
 62
     7
  6
CONTINUOUS
  0
LAYER
  2
56
 70
     0
 62
     7
  6
CONTINUOUS
  0
LAYER
  2
57
 70
     0
 62
     7
  6
CONTINUOUS
  0
LAYER
  2
58
 70
     0
 62
     7
  6
CONTINUOUS
  0
LAYER
  2
59
 70
     0
 62
     7
  6
CONTINUOUS
  0
LAYER
  2
60
 70
     0
 62
     7
  6
CONTINUOUS
  0
LAYER
  2
61
 70
     0
 62
     7
  6
CONTINUOUS
  0
LAYER
  2
62
 70
     0
 62
     7
  6
CONTINUOUS
  0
LAYER
  2
63
 70
     0
 62
     7
  6
CONTINUOUS
  0
LAYER
  2
64
 70
     0
 62
     7
  6
CONTINUOUS
  0
LAYER
  2
65
 70
     0
 62
     7
  6
CONTINUOUS
  0
LAYER
  2
66
 70
     0
 62
     7
  6
CONTINUOUS
  0
LAYER
  2
67
 70
     0
 62
     7
  6
CONTINUOUS
  0
LAYER
  2
68
 70
     0
 62
     7
  6
CONTINUOUS
  0
LAYER
  2
69
 70
     0
 62
     7
  6
CONTINUOUS
  0
LAYER
  2
70
 70
     0
 62
     7
  6
CONTINUOUS
  0
LAYER
  2
71
 70
     0
 62
     7
  6
CONTINUOUS
  0
LAYER
  2
72
 70
     0
 62
     7
  6
CONTINUOUS
  0
LAYER
  2
73
 70
     0
 62
     7
  6
CONTINUOUS
  0
LAYER
  2
74
 70
     0
 62
     7
  6
CONTINUOUS
  0
LAYER
  2
75
 70
     0
 62
     7
  6
CONTINUOUS
  0
LAYER
  2
76
 70
     0
 62
     7
  6
CONTINUOUS
  0
LAYER
  2
77
 70
     0
 62
     7
  6
CONTINUOUS
  0
LAYER
  2
78
 70
     0
 62
     7
  6
CONTINUOUS
  0
LAYER
  2
79
 70
     0
 62
     7
  6
CONTINUOUS
  0
LAYER
  2
80
 70
     0
 62
     7
  6
CONTINUOUS
  0
LAYER
  2
81
 70
     0
 62
     7
  6
CONTINUOUS
  0
LAYER
  2
82
 70
     0
 62
     7
  6
CONTINUOUS
  0
LAYER
  2
83
 70
     0
 62
     7
  6
CONTINUOUS
  0
LAYER
  2
84
 70
     0
 62
     7
  6
CONTINUOUS
  0
LAYER
  2
85
 70
     0
 62
     7
  6
CONTINUOUS
  0
LAYER
  2
86
 70
     0
 62
     7
  6
CONTINUOUS
  0
LAYER
  2
87
 70
     0
 62
     7
  6
CONTINUOUS
  0
LAYER
  2
88
 70
     0
 62
     7
  6
CONTINUOUS
  0
LAYER
  2
89
 70
     0
 62
     7
  6
CONTINUOUS
  0
LAYER
  2
90
 70
     0
 62
     7
  6
CONTINUOUS
  0
LAYER
  2
91
 70
     0
 62
     7
  6
CONTINUOUS
  0
LAYER
  2
92
 70
     0
 62
     7
  6
CONTINUOUS
  0
LAYER
  2
93
 70
     0
 62
     7
  6
CONTINUOUS
  0
LAYER
  2
94
 70
     0
 62
     7
  6
CONTINUOUS
  0
LAYER
  2
95
 70
     0
 62
     7
  6
CONTINUOUS
  0
LAYER
  2
96
 70
     0
 62
     7
  6
CONTINUOUS
  0
LAYER
  2
97
 70
     0
 62
     7
  6
CONTINUOUS
  0
LAYER
  2
98
 70
     0
 62
     7
  6
CONTINUOUS
  0
LAYER
  2
99
 70
     0
 62
     7
  6
CONTINUOUS
  0
LAYER
  2
100
 70
     0
 62
     7
  6
CONTINUOUS
  0
LAYER
  2
101
 70
     0
 62
     7
  6
CONTINUOUS
  0
LAYER
  2
102
 70
     0
 62
     7
  6
CONTINUOUS
  0
LAYER
  2
103
 70
     0
 62
     7
  6
CONTINUOUS
  0
LAYER
  2
104
 70
     0
 62
     7
  6
CONTINUOUS
  0
LAYER
  2
105
 70
     0
 62
     7
  6
CONTINUOUS
  0
LAYER
  2
106
 70
     0
 62
     7
  6
CONTINUOUS
  0
LAYER
  2
107
 70
     0
 62
     7
  6
CONTINUOUS
  0
LAYER
  2
108
 70
     0
 62
     7
  6
CONTINUOUS
  0
LAYER
  2
109
 70
     0
 62
     7
  6
CONTINUOUS
  0
LAYER
  2
110
 70
     0
 62
     7
  6
CONTINUOUS
  0
LAYER
  2
111
 70
     0
 62
     7
  6
CONTINUOUS
  0
LAYER
  2
112
 70
     0
 62
     7
  6
CONTINUOUS
  0
LAYER
  2
113
 70
     0
 62
     7
  6
CONTINUOUS
  0
LAYER
  2
114
 70
     0
 62
     7
  6
CONTINUOUS
  0
LAYER
  2
115
 70
     0
 62
     7
  6
CONTINUOUS
  0
LAYER
  2
116
 70
     0
 62
     7
  6
CONTINUOUS
  0
LAYER
  2
117
 70
     0
 62
     7
  6
CONTINUOUS
  0
LAYER
  2
118
 70
     0
 62
     7
  6
CONTINUOUS
  0
LAYER
  2
119
 70
     0
 62
     7
  6
CONTINUOUS
  0
LAYER
  2
120
 70
     0
 62
     7
  6
CONTINUOUS
  0
LAYER
  2
121
 70
     0
 62
     7
  6
CONTINUOUS
  0
LAYER
  2
122
 70
     0
 62
     7
  6
CONTINUOUS
  0
LAYER
  2
123
 70
     0
 62
     7
  6
CONTINUOUS
  0
LAYER
  2
124
 70
     0
 62
     7
  6
CONTINUOUS
  0
LAYER
  2
125
 70
     0
 62
     7
  6
CONTINUOUS
  0
LAYER
  2
126
 70
     0
 62
     7
  6
CONTINUOUS
  0
LAYER
  2
127
 70
     0
 62
     7
  6
CONTINUOUS
  0
LAYER
  2
128
 70
     0
 62
     7
  6
CONTINUOUS
  0
ENDTAB
  0
TABLE
  2
STYLE
 70
    15
  0
STYLE
  2
STANDARD
 70
     0
 40
0.0
 41
1.0
 50
0.0
 71
     0
 42
0.2
  3
txt.shx
  4
extfont.shx
  0
STYLE
  2
KANJI0
 70
     0
 40
3.0
 41
0.9
 50
0.0
 71
     0
 42
3.0
  3
txt.shx
  4
extfont.shx
  0
STYLE
  2
KANJI1
 70
     0
 40
3.0
 41
0.6
 50
0.0
 71
     0
 42
3.0
  3
txt.shx
  4
extfont.shx
  0
STYLE
  2
KANJI2
 70
     0
 40
1.8
 41
0.6
 50
0.0
 71
     0
 42
1.8
  3
txt.shx
  4
extfont.shx
  0
STYLE
  2
KANJI3
 70
     0
 40
3.0
 41
0.9
 50
0.0
 71
     0
 42
3.0
  3
txt.shx
  4
extfont.shx
  0
STYLE
  2
KANJI4
 70
     0
 40
3.0
 41
0.9
 50
0.0
 71
     0
 42
3.0
  3
txt.shx
  4
extfont.shx
  0
STYLE
  2
KANJI5
 70
     0
 40
3.0
 41
0.45
 50
0.0
 71
     0
 42
3.0
  3
txt.shx
  4
extfont.shx
  0
STYLE
  2
KANJI6
 70
     0
 40
3.0
 41
0.666666667
 50
0.0
 71
     0
 42
3.0
  3
txt.shx
  4
extfont.shx
  0
STYLE
  2
KANJI7
 70
     0
 40
3.0
 41
0.9
 50
0.0
 71
     0
 42
3.0
  3
txt.shx
  4
extfont.shx
  0
STYLE
  2
KANJI8
 70
     0
 40
3.0
 41
0.833333333
 50
0.0
 71
     0
 42
3.0
  3
txt.shx
  4
extfont.shx
  0
STYLE
  2
KANJI9
 70
     0
 40
6.0
 41
0.9
 50
0.0
 71
     0
 42
6.0
  3
txt.shx
  4
extfont.shx
  0
STYLE
  2
KANJI10
 70
     0
 40
3.0
 41
1.0
 50
0.0
 71
     0
 42
3.0
  3
txt.shx
  4
extfont.shx
  0
STYLE
  2
KANJI11
 70
     0
 40
4.0
 41
0.9
 50
0.0
 71
     0
 42
4.0
  3
txt.shx
  4
extfont.shx
  0
STYLE
  2
KANJI12
 70
     0
 40
5.0
 41
0.92
 50
0.0
 71
     0
 42
5.0
  3
txt.shx
  4
extfont.shx
  0
STYLE
  2
KANJI13
 70
     0
 40
5.0
 41
0.9
 50
0.0
 71
     0
 42
5.0
  3
txt.shx
  4
extfont.shx
  0
ENDTAB
  0
TABLE
  2
VIEW
 70
     0
  0
ENDTAB
  0
ENDSEC
  0
SECTION
  2
BLOCKS
  0
ENDSEC
  0
SECTION
  2
ENTITIES
  0
ARC
  8
0
  6
CONTINUOUS
 62
     1
 10
79.4
 20
97.4
 30
0.0
 40
3.0
 50
270.0
 51
0.0
  0
LINE
  8
0
  6
CONTINUOUS
 62
     1
 10
82.4
 20
97.4
 30
0.0
 11
82.4
 21
146.4
 31
0.0
  0
ARC
  8
0
  6
CONTINUOUS
 62
     1
 10
79.4
 20
146.4
 30
0.0
 40
3.0
 50
0.0
 51
90.0
  0
LINE
  8
0
  6
CONTINUOUS
 62
     1
 10
79.4
 20
149.4
 30
0.0
 11
30.4
 21
149.4
 31
0.0
  0
ARC
  8
0
  6
CONTINUOUS
 62
     1
 10
30.4
 20
146.4
 30
0.0
 40
3.0
 50
90.0
 51
180.0
  0
LINE
  8
0
  6
CONTINUOUS
 62
     1
 10
30.4
 20
94.4
 30
0.0
 11
79.4
 21
94.4
 31
0.0
  0
LINE
  8
0
  6
CONTINUOUS
 62
     1
 10
27.4
 20
146.4
 30
0.0
 11
27.4
 21
97.4
 31
0.0
  0
ARC
  8
0
  6
CONTINUOUS
 62
     1
 10
30.4
 20
97.4
 30
0.0
 40
3.0
 50
180.0
 51
270.0
  0
CIRCLE
  8
0
  6
CONTINUOUS
 62
     1
 10
54.9
 20
121.9
 30
0.0
 40
25.5
  0
CIRCLE
  8
0
  6
CONTINUOUS
 62
     1
 10
54.9
 20
121.9
 30
0.0
 40
3.05
  0
LINE
  8
0
  6
CONTINUOUS
 62
     1
 10
104.5
 20
149.375
 30
0.0
 11
99.25
 21
149.375
 31
0.0
  0
ARC
  8
0
  6
CONTINUOUS
 62
     1
 10
99.25
 20
148.875
 30
0.0
 40
0.5
 50
90.0
 51
180.0
  0
LINE
  8
0
  6
CONTINUOUS
 62
     1
 10
98.75
 20
147.375
 30
0.0
 11
95.25
 21
147.375
 31
0.0
  0
ARC
  8
0
  6
CONTINUOUS
 62
     1
 10
95.25
 20
147.125
 30
0.0
 40
0.25
 50
90.0
 51
180.0
  0
LINE
  8
0
  6
CONTINUOUS
 62
     1
 10
94.0
 20
119.625
 30
0.0
 11
94.2
 21
119.625
 31
0.0
  0
LINE
  8
0
  6
CONTINUOUS
 62
     1
 10
104.5
 20
94.375
 30
0.0
 11
99.25
 21
94.375
 31
0.0
  0
ARC
  8
0
  6
CONTINUOUS
 62
     1
 10
99.25
 20
94.875
 30
0.0
 40
0.5
 50
180.0
 51
270.0
  0
LINE
  8
0
  6
CONTINUOUS
 62
     1
 10
98.75
 20
96.375
 30
0.0
 11
95.25
 21
96.375
 31
0.0
  0
ARC
  8
0
  6
CONTINUOUS
 62
     1
 10
95.25
 20
96.625
 30
0.0
 40
0.25
 50
180.0
 51
270.0
  0
LINE
  8
0
  6
CONTINUOUS
 62
     1
 10
94.2
 20
119.625
 30
0.0
 11
95.0
 21
96.625
 31
0.0
  0
LINE
  8
0
  6
CONTINUOUS
 62
     1
 10
98.75
 20
94.875
 30
0.0
 11
98.75
 21
121.875
 31
0.0
  0
LINE
  8
0
  6
CONTINUOUS
 62
     1
 10
94.177077922
 20
123.465990258
 30
0.0
 11
95.0
 21
147.125
 31
0.0
  0
LINE
  8
0
  6
CONTINUOUS
 62
     1
 10
98.75
 20
148.875
 30
0.0
 11
98.75
 21
147.525
 31
0.0
  0
LINE
  8
0
  6
CONTINUOUS
 62
     1
 10
104.5
 20
149.375
 30
0.0
 11
104.5
 21
148.725
 31
0.0
  0
LINE
  8
0
  6
CONTINUOUS
 62
     1
 10
98.75
 20
147.525
 30
0.0
 11
98.75
 21
147.375
 31
0.0
  0
LINE
  8
0
  6
CONTINUOUS
 62
     1
 10
104.5
 20
148.725
 30
0.0
 11
104.5
 21
122.125
 31
0.0
  0
LINE
  8
0
  6
CONTINUOUS
 62
     1
 10
104.5
 20
122.125
 30
0.0
 11
104.5
 21
94.375
 31
0.0
  0
LINE
  8
0
  6
CONTINUOUS
 62
     1
 10
94.0
 20
123.465990258
 30
0.0
 11
94.0
 21
119.625
 31
0.0
  0
LINE
  8
0
  6
CONTINUOUS
 62
     1
 10
98.75
 20
121.9
 30
0.0
 11
98.75
 21
147.375
 31
0.0
  0
LINE
  8
0
  6
CONTINUOUS
 62
     1
 10
144.5
 20
146.65
 30
0.0
 11
144.5
 21
97.15
 31
0.0
  0
LINE
  8
0
  6
CONTINUOUS
 62
     1
 10
146.5
 20
97.15
 30
0.0
 11
110.3
 21
97.15
 31
0.0
  0
ARC
  8
0
  6
CONTINUOUS
 62
     1
 10
146.5
 20
97.65
 30
0.0
 40
0.5
 50
270.0
 51
0.0
  0
LINE
  8
0
  6
CONTINUOUS
 62
     1
 10
110.25
 20
146.65
 30
0.0
 11
146.5
 21
146.65
 31
0.0
  0
LINE
  8
0
  6
CONTINUOUS
 62
     1
 10
147.0
 20
146.15
 30
0.0
 11
147.0
 21
97.65
 31
0.0
  0
ARC
  8
0
  6
CONTINUOUS
 62
     1
 10
146.5
 20
146.15
 30
0.0
 40
0.5
 50
0.0
 51
90.0
  0
LINE
  8
0
  6
CONTINUOUS
 62
     1
 10
98.75
 20
139.875
 30
0.0
 11
98.75
 21
148.875001907
 31
0.0
  0
ARC
  8
0
  6
CONTINUOUS
 62
     1
 10
212.8
 20
97.4
 30
0.0
 40
3.0
 50
270.0
 51
0.0
  0
LINE
  8
0
  6
CONTINUOUS
 62
     1
 10
163.8
 20
94.4
 30
0.0
 11
212.8
 21
94.4
 31
0.0
  0
ARC
  8
0
  6
CONTINUOUS
 62
     1
 10
163.8
 20
97.4
 30
0.0
 40
3.0
 50
180.0
 51
270.0
  0
LINE
  8
0
  6
CONTINUOUS
 62
     1
 10
160.8
 20
146.4
 30
0.0
 11
160.8
 21
97.4
 31
0.0
  0
ARC
  8
0
  6
CONTINUOUS
 62
     1
 10
163.8
 20
146.4
 30
0.0
 40
3.0
 50
90.0
 51
180.0
  0
LINE
  8
0
  6
CONTINUOUS
 62
     1
 10
215.8
 20
97.4
 30
0.0
 11
215.8
 21
146.4
 31
0.0
  0
LINE
  8
0
  6
CONTINUOUS
 62
     1
 10
212.8
 20
149.4
 30
0.0
 11
163.8
 21
149.4
 31
0.0
  0
ARC
  8
0
  6
CONTINUOUS
 62
     1
 10
212.8
 20
146.4
 30
0.0
 40
3.0
 50
0.0
 51
90.0
  0
CIRCLE
  8
0
  6
CONTINUOUS
 62
     1
 10
188.3
 20
121.9
 30
0.0
 40
24.75
  0
CIRCLE
  8
0
  6
CONTINUOUS
 62
     1
 10
188.3
 20
51.05
 30
0.0
 40
25.5
  0
CIRCLE
  8
0
  6
CONTINUOUS
 62
     1
 10
165.8
 20
73.55
 30
0.0
 40
1.75
  0
CIRCLE
  8
0
  6
CONTINUOUS
 62
     1
 10
165.8
 20
28.55
 30
0.0
 40
1.75
  0
CIRCLE
  8
0
  6
CONTINUOUS
 62
     1
 10
210.8
 20
28.55
 30
0.0
 40
1.75
  0
CIRCLE
  8
0
  6
CONTINUOUS
 62
     1
 10
210.8
 20
73.55
 30
0.0
 40
1.75
  0
TEXT
  8
0
  6
CONTINUOUS
 62
     1
 10
179.15
 20
16.8
 30
0.5
 40
3.0
  1
パネルカット
 50
0.0
 41
0.9
 51
0.0
  7
KANJI0
  0
LINE
  8
0
  6
CONTINUOUS
 62
     1
 10
177.9
 20
15.95
 30
0.0
 11
198.8
 21
15.95
 31
0.0
  0
LINE
  8
0
  6
LTYPE1
 62
     2
 10
54.9
 20
153.4
 30
0.0
 11
54.9
 21
86.9
 31
0.0
  0
CIRCLE
  8
0
  6
CONTINUOUS
 62
     2
 10
77.4
 20
144.4
 30
0.0
 40
1.5
  0
LINE
  8
0
  6
CONTINUOUS
 62
     2
 10
76.525
 20
144.6
 30
0.0
 11
77.0
 21
144.6
 31
0.0
  0
ARC
  8
0
  6
CONTINUOUS
 62
     2
 10
77.0
 20
144.8
 30
0.0
 40
0.2
 50
270.0
 51
0.0
  0
LINE
  8
0
  6
CONTINUOUS
 62
     2
 10
77.2
 20
144.8
 30
0.0
 11
77.2
 21
145.275
 31
0.0
  0
LINE
  8
0
  6
CONTINUOUS
 62
     2
 10
77.2
 20
145.275
 30
0.0
 11
77.6
 21
145.275
 31
0.0
  0
LINE
  8
0
  6
CONTINUOUS
 62
     2
 10
77.6
 20
145.275
 30
0.0
 11
77.6
 21
144.8
 31
0.0
  0
ARC
  8
0
  6
CONTINUOUS
 62
     2
 10
77.8
 20
144.8
 30
0.0
 40
0.2
 50
180.0
 51
270.0
  0
LINE
  8
0
  6
CONTINUOUS
 62
     2
 10
77.8
 20
144.6
 30
0.0
 11
78.275
 21
144.6
 31
0.0
  0
LINE
  8
0
  6
CONTINUOUS
 62
     2
 10
78.275
 20
144.6
 30
0.0
 11
78.275
 21
144.2
 31
0.0
  0
LINE
  8
0
  6
CONTINUOUS
 62
     2
 10
78.275
 20
144.2
 30
0.0
 11
77.8
 21
144.2
 31
0.0
  0
ARC
  8
0
  6
CONTINUOUS
 62
     2
 10
77.8
 20
144.0
 30
0.0
 40
0.2
 50
90.0
 51
180.0
  0
LINE
  8
0
  6
CONTINUOUS
 62
     2
 10
77.6
 20
144.0
 30
0.0
 11
77.6
 21
143.525
 31
0.0
  0
LINE
  8
0
  6
CONTINUOUS
 62
     2
 10
77.6
 20
143.525
 30
0.0
 11
77.2
 21
143.525
 31
0.0
  0
LINE
  8
0
  6
CONTINUOUS
 62
     2
 10
77.2
 20
143.525
 30
0.0
 11
77.2
 21
144.0
 31
0.0
  0
ARC
  8
0
  6
CONTINUOUS
 62
     2
 10
77.0
 20
144.0
 30
0.0
 40
0.2
 50
0.0
 51
90.0
  0
LINE
  8
0
  6
CONTINUOUS
 62
     2
 10
77.0
 20
144.2
 30
0.0
 11
76.525
 21
144.2
 31
0.0
  0
LINE
  8
0
  6
CONTINUOUS
 62
     2
 10
76.525
 20
144.2
 30
0.0
 11
76.525
 21
144.6
 31
0.0
  0
LINE
  8
0
  6
LTYPE2
 62
     2
 10
75.4
 20
144.4
 30
0.0
 11
79.4
 21
144.4
 31
0.0
  0
LINE
  8
0
  6
LTYPE2
 62
     2
 10
77.4
 20
146.4
 30
0.0
 11
77.4
 21
142.4
 31
0.0
  0
CIRCLE
  8
0
  6
CONTINUOUS
 62
     2
 10
32.4
 20
144.4
 30
0.0
 40
1.5
  0
LINE
  8
0
  6
CONTINUOUS
 62
     2
 10
31.525
 20
144.6
 30
0.0
 11
32.0
 21
144.6
 31
0.0
  0
ARC
  8
0
  6
CONTINUOUS
 62
     2
 10
32.0
 20
144.8
 30
0.0
 40
0.2
 50
270.0
 51
0.0
  0
LINE
  8
0
  6
CONTINUOUS
 62
     2
 10
32.2
 20
144.8
 30
0.0
 11
32.2
 21
145.275
 31
0.0
  0
LINE
  8
0
  6
CONTINUOUS
 62
     2
 10
32.2
 20
145.275
 30
0.0
 11
32.6
 21
145.275
 31
0.0
  0
LINE
  8
0
  6
CONTINUOUS
 62
     2
 10
32.6
 20
145.275
 30
0.0
 11
32.6
 21
144.8
 31
0.0
  0
ARC
  8
0
  6
CONTINUOUS
 62
     2
 10
32.8
 20
144.8
 30
0.0
 40
0.2
 50
180.0
 51
270.0
  0
LINE
  8
0
  6
CONTINUOUS
 62
     2
 10
32.8
 20
144.6
 30
0.0
 11
33.275
 21
144.6
 31
0.0
  0
LINE
  8
0
  6
CONTINUOUS
 62
     2
 10
33.275
 20
144.6
 30
0.0
 11
33.275
 21
144.2
 31
0.0
  0
LINE
  8
0
  6
CONTINUOUS
 62
     2
 10
33.275
 20
144.2
 30
0.0
 11
32.8
 21
144.2
 31
0.0
  0
ARC
  8
0
  6
CONTINUOUS
 62
     2
 10
32.8
 20
144.0
 30
0.0
 40
0.2
 50
90.0
 51
180.0
  0
LINE
  8
0
  6
CONTINUOUS
 62
     2
 10
32.6
 20
144.0
 30
0.0
 11
32.6
 21
143.525
 31
0.0
  0
LINE
  8
0
  6
CONTINUOUS
 62
     2
 10
32.6
 20
143.525
 30
0.0
 11
32.2
 21
143.525
 31
0.0
  0
LINE
  8
0
  6
CONTINUOUS
 62
     2
 10
32.2
 20
143.525
 30
0.0
 11
32.2
 21
144.0
 31
0.0
  0
ARC
  8
0
  6
CONTINUOUS
 62
     2
 10
32.0
 20
144.0
 30
0.0
 40
0.2
 50
0.0
 51
90.0
  0
LINE
  8
0
  6
CONTINUOUS
 62
     2
 10
32.0
 20
144.2
 30
0.0
 11
31.525
 21
144.2
 31
0.0
  0
LINE
  8
0
  6
CONTINUOUS
 62
     2
 10
31.525
 20
144.2
 30
0.0
 11
31.525
 21
144.6
 31
0.0
  0
LINE
  8
0
  6
LTYPE2
 62
     2
 10
30.4
 20
144.4
 30
0.0
 11
34.4
 21
144.4
 31
0.0
  0
LINE
  8
0
  6
LTYPE2
 62
     2
 10
32.4
 20
146.4
 30
0.0
 11
32.4
 21
142.4
 31
0.0
  0
CIRCLE
  8
0
  6
CONTINUOUS
 62
     2
 10
32.4
 20
99.4
 30
0.0
 40
1.5
  0
LINE
  8
0
  6
CONTINUOUS
 62
     2
 10
31.525
 20
99.6
 30
0.0
 11
32.0
 21
99.6
 31
0.0
  0
ARC
  8
0
  6
CONTINUOUS
 62
     2
 10
32.0
 20
99.8
 30
0.0
 40
0.2
 50
270.0
 51
0.0
  0
LINE
  8
0
  6
CONTINUOUS
 62
     2
 10
32.2
 20
99.8
 30
0.0
 11
32.2
 21
100.275
 31
0.0
  0
LINE
  8
0
  6
CONTINUOUS
 62
     2
 10
32.2
 20
100.275
 30
0.0
 11
32.6
 21
100.275
 31
0.0
  0
LINE
  8
0
  6
CONTINUOUS
 62
     2
 10
32.6
 20
100.275
 30
0.0
 11
32.6
 21
99.8
 31
0.0
  0
ARC
  8
0
  6
CONTINUOUS
 62
     2
 10
32.8
 20
99.8
 30
0.0
 40
0.2
 50
180.0
 51
270.0
  0
LINE
  8
0
  6
CONTINUOUS
 62
     2
 10
32.8
 20
99.6
 30
0.0
 11
33.275
 21
99.6
 31
0.0
  0
LINE
  8
0
  6
CONTINUOUS
 62
     2
 10
33.275
 20
99.6
 30
0.0
 11
33.275
 21
99.2
 31
0.0
  0
LINE
  8
0
  6
CONTINUOUS
 62
     2
 10
33.275
 20
99.2
 30
0.0
 11
32.8
 21
99.2
 31
0.0
  0
ARC
  8
0
  6
CONTINUOUS
 62
     2
 10
32.8
 20
99.0
 30
0.0
 40
0.2
 50
90.0
 51
180.0
  0
LINE
  8
0
  6
CONTINUOUS
 62
     2
 10
32.6
 20
99.0
 30
0.0
 11
32.6
 21
98.525
 31
0.0
  0
LINE
  8
0
  6
CONTINUOUS
 62
     2
 10
32.6
 20
98.525
 30
0.0
 11
32.2
 21
98.525
 31
0.0
  0
LINE
  8
0
  6
CONTINUOUS
 62
     2
 10
32.2
 20
98.525
 30
0.0
 11
32.2
 21
99.0
 31
0.0
  0
ARC
  8
0
  6
CONTINUOUS
 62
     2
 10
32.0
 20
99.0
 30
0.0
 40
0.2
 50
0.0
 51
90.0
  0
LINE
  8
0
  6
CONTINUOUS
 62
     2
 10
32.0
 20
99.2
 30
0.0
 11
31.525
 21
99.2
 31
0.0
  0
LINE
  8
0
  6
CONTINUOUS
 62
     2
 10
31.525
 20
99.2
 30
0.0
 11
31.525
 21
99.6
 31
0.0
  0
LINE
  8
0
  6
LTYPE2
 62
     2
 10
30.4
 20
99.4
 30
0.0
 11
34.4
 21
99.4
 31
0.0
  0
LINE
  8
0
  6
LTYPE2
 62
     2
 10
32.4
 20
101.4
 30
0.0
 11
32.4
 21
97.4
 31
0.0
  0
CIRCLE
  8
0
  6
CONTINUOUS
 62
     2
 10
77.4
 20
99.4
 30
0.0
 40
1.5
  0
LINE
  8
0
  6
CONTINUOUS
 62
     2
 10
76.525
 20
99.6
 30
0.0
 11
77.0
 21
99.6
 31
0.0
  0
ARC
  8
0
  6
CONTINUOUS
 62
     2
 10
77.0
 20
99.8
 30
0.0
 40
0.2
 50
270.0
 51
0.0
  0
LINE
  8
0
  6
CONTINUOUS
 62
     2
 10
77.2
 20
99.8
 30
0.0
 11
77.2
 21
100.275
 31
0.0
  0
LINE
  8
0
  6
CONTINUOUS
 62
     2
 10
77.2
 20
100.275
 30
0.0
 11
77.6
 21
100.275
 31
0.0
  0
LINE
  8
0
  6
CONTINUOUS
 62
     2
 10
77.6
 20
100.275
 30
0.0
 11
77.6
 21
99.8
 31
0.0
  0
ARC
  8
0
  6
CONTINUOUS
 62
     2
 10
77.8
 20
99.8
 30
0.0
 40
0.2
 50
180.0
 51
270.0
  0
LINE
  8
0
  6
CONTINUOUS
 62
     2
 10
77.8
 20
99.6
 30
0.0
 11
78.275
 21
99.6
 31
0.0
  0
LINE
  8
0
  6
CONTINUOUS
 62
     2
 10
78.275
 20
99.6
 30
0.0
 11
78.275
 21
99.2
 31
0.0
  0
LINE
  8
0
  6
CONTINUOUS
 62
     2
 10
78.275
 20
99.2
 30
0.0
 11
77.8
 21
99.2
 31
0.0
  0
ARC
  8
0
  6
CONTINUOUS
 62
     2
 10
77.8
 20
99.0
 30
0.0
 40
0.2
 50
90.0
 51
180.0
  0
LINE
  8
0
  6
CONTINUOUS
 62
     2
 10
77.6
 20
99.0
 30
0.0
 11
77.6
 21
98.525
 31
0.0
  0
LINE
  8
0
  6
CONTINUOUS
 62
     2
 10
77.6
 20
98.525
 30
0.0
 11
77.2
 21
98.525
 31
0.0
  0
LINE
  8
0
  6
CONTINUOUS
 62
     2
 10
77.2
 20
98.525
 30
0.0
 11
77.2
 21
99.0
 31
0.0
  0
ARC
  8
0
  6
CONTINUOUS
 62
     2
 10
77.0
 20
99.0
 30
0.0
 40
0.2
 50
0.0
 51
90.0
  0
LINE
  8
0
  6
CONTINUOUS
 62
     2
 10
77.0
 20
99.2
 30
0.0
 11
76.525
 21
99.2
 31
0.0
  0
LINE
  8
0
  6
CONTINUOUS
 62
     2
 10
76.525
 20
99.2
 30
0.0
 11
76.525
 21
99.6
 31
0.0
  0
LINE
  8
0
  6
LTYPE2
 62
     2
 10
75.4
 20
99.4
 30
0.0
 11
79.4
 21
99.4
 31
0.0
  0
LINE
  8
0
  6
LTYPE2
 62
     2
 10
77.4
 20
101.4
 30
0.0
 11
77.4
 21
97.4
 31
0.0
  0
LINE
  8
0
  6
CONTINUOUS
 62
     2
 10
55.35
 20
118.883379374
 30
0.0
 11
55.35
 21
124.916620626
 31
0.0
  0
LINE
  8
0
  6
CONTINUOUS
 62
     2
 10
54.45
 20
124.916620626
 30
0.0
 11
54.45
 21
118.883379374
 31
0.0
  0
CIRCLE
  8
0
  6
CONTINUOUS
 62
     2
 10
54.9
 20
121.9
 30
0.0
 40
8.5
  0
CIRCLE
  8
0
  6
CONTINUOUS
 62
     2
 10
54.9
 20
121.9
 30
0.0
 40
7.8
  0
CIRCLE
  8
0
  6
CONTINUOUS
 62
     2
 10
54.9
 20
121.9
 30
0.0
 40
7.1
  0
CIRCLE
  8
0
  6
CONTINUOUS
 62
     2
 10
54.9
 20
121.9
 30
0.0
 40
6.4
  0
CIRCLE
  8
0
  6
CONTINUOUS
 62
     2
 10
54.9
 20
121.9
 30
0.0
 40
5.7
  0
CIRCLE
  8
0
  6
CONTINUOUS
 62
     2
 10
54.9
 20
121.9
 30
0.0
 40
5.0
  0
CIRCLE
  8
0
  6
CONTINUOUS
 62
     2
 10
54.9
 20
121.9
 30
0.0
 40
4.3
  0
CIRCLE
  8
0
  6
CONTINUOUS
 62
     2
 10
54.9
 20
121.9
 30
0.0
 40
3.6
  0
CIRCLE
  8
0
  6
CONTINUOUS
 62
     2
 10
54.9
 20
121.9
 30
0.0
 40
24.25
  0
CIRCLE
  8
0
  6
CONTINUOUS
 62
     2
 10
54.9
 20
121.9
 30
0.0
 40
21.0
  0
CIRCLE
  8
0
  6
CONTINUOUS
 62
     2
 10
46.4
 20
106.4
 30
0.0
 40
1.5
  0
LINE
  8
0
  6
CONTINUOUS
 62
     2
 10
45.63986021
 20
105.922702923
 30
0.0
 11
45.975735931
 21
106.258578644
 31
0.0
  0
ARC
  8
0
  6
CONTINUOUS
 62
     2
 10
45.834314575
 20
106.4
 30
0.0
 40
0.2
 50
315.0
 51
45.0
  0
LINE
  8
0
  6
CONTINUOUS
 62
     2
 10
45.975735931
 20
106.541421356
 30
0.0
 11
45.63986021
 21
106.877297077
 31
0.0
  0
LINE
  8
0
  6
CONTINUOUS
 62
     2
 10
45.63986021
 20
106.877297077
 30
0.0
 11
45.922702923
 21
107.16013979
 31
0.0
  0
LINE
  8
0
  6
CONTINUOUS
 62
     2
 10
45.922702923
 20
107.16013979
 30
0.0
 11
46.258578644
 21
106.824264069
 31
0.0
  0
ARC
  8
0
  6
CONTINUOUS
 62
     2
 10
46.4
 20
106.965685425
 30
0.0
 40
0.2
 50
225.0
 51
315.0
  0
LINE
  8
0
  6
CONTINUOUS
 62
     2
 10
46.541421356
 20
106.824264069
 30
0.0
 11
46.877297077
 21
107.16013979
 31
0.0
  0
LINE
  8
0
  6
CONTINUOUS
 62
     2
 10
46.877297077
 20
107.16013979
 30
0.0
 11
47.16013979
 21
106.877297077
 31
0.0
  0
LINE
  8
0
  6
CONTINUOUS
 62
     2
 10
47.16013979
 20
106.877297077
 30
0.0
 11
46.824264069
 21
106.541421356
 31
0.0
  0
ARC
  8
0
  6
CONTINUOUS
 62
     2
 10
46.965685425
 20
106.4
 30
0.0
 40
0.2
 50
135.0
 51
225.0
  0
LINE
  8
0
  6
CONTINUOUS
 62
     2
 10
46.824264069
 20
106.258578644
 30
0.0
 11
47.16013979
 21
105.922702923
 31
0.0
  0
LINE
  8
0
  6
CONTINUOUS
 62
     2
 10
47.16013979
 20
105.922702923
 30
0.0
 11
46.877297077
 21
105.63986021
 31
0.0
  0
LINE
  8
0
  6
CONTINUOUS
 62
     2
 10
46.877297077
 20
105.63986021
 30
0.0
 11
46.541421356
 21
105.975735931
 31
0.0
  0
ARC
  8
0
  6
CONTINUOUS
 62
     2
 10
46.4
 20
105.834314575
 30
0.0
 40
0.2
 50
45.0
 51
135.0
  0
LINE
  8
0
  6
CONTINUOUS
 62
     2
 10
46.258578644
 20
105.975735931
 30
0.0
 11
45.922702923
 21
105.63986021
 31
0.0
  0
LINE
  8
0
  6
CONTINUOUS
 62
     2
 10
45.922702923
 20
105.63986021
 30
0.0
 11
45.63986021
 21
105.922702923
 31
0.0
  0
CIRCLE
  8
0
  6
CONTINUOUS
 62
     2
 10
63.4
 20
106.4
 30
0.0
 40
1.5
  0
LINE
  8
0
  6
CONTINUOUS
 62
     2
 10
62.63986021
 20
105.922702923
 30
0.0
 11
62.975735931
 21
106.258578644
 31
0.0
  0
ARC
  8
0
  6
CONTINUOUS
 62
     2
 10
62.834314575
 20
106.4
 30
0.0
 40
0.2
 50
315.0
 51
45.0
  0
LINE
  8
0
  6
CONTINUOUS
 62
     2
 10
62.975735931
 20
106.541421356
 30
0.0
 11
62.63986021
 21
106.877297077
 31
0.0
  0
LINE
  8
0
  6
CONTINUOUS
 62
     2
 10
62.63986021
 20
106.877297077
 30
0.0
 11
62.922702923
 21
107.16013979
 31
0.0
  0
LINE
  8
0
  6
CONTINUOUS
 62
     2
 10
62.922702923
 20
107.16013979
 30
0.0
 11
63.258578644
 21
106.824264069
 31
0.0
  0
ARC
  8
0
  6
CONTINUOUS
 62
     2
 10
63.4
 20
106.965685425
 30
0.0
 40
0.2
 50
225.0
 51
315.0
  0
LINE
  8
0
  6
CONTINUOUS
 62
     2
 10
63.541421356
 20
106.824264069
 30
0.0
 11
63.877297077
 21
107.16013979
 31
0.0
  0
LINE
  8
0
  6
CONTINUOUS
 62
     2
 10
63.877297077
 20
107.16013979
 30
0.0
 11
64.16013979
 21
106.877297077
 31
0.0
  0
LINE
  8
0
  6
CONTINUOUS
 62
     2
 10
64.16013979
 20
106.877297077
 30
0.0
 11
63.824264069
 21
106.541421356
 31
0.0
  0
ARC
  8
0
  6
CONTINUOUS
 62
     2
 10
63.965685425
 20
106.4
 30
0.0
 40
0.2
 50
135.0
 51
225.0
  0
LINE
  8
0
  6
CONTINUOUS
 62
     2
 10
63.824264069
 20
106.258578644
 30
0.0
 11
64.16013979
 21
105.922702923
 31
0.0
  0
LINE
  8
0
  6
CONTINUOUS
 62
     2
 10
64.16013979
 20
105.922702923
 30
0.0
 11
63.877297077
 21
105.63986021
 31
0.0
  0
LINE
  8
0
  6
CONTINUOUS
 62
     2
 10
63.877297077
 20
105.63986021
 30
0.0
 11
63.541421356
 21
105.975735931
 31
0.0
  0
ARC
  8
0
  6
CONTINUOUS
 62
     2
 10
63.4
 20
105.834314575
 30
0.0
 40
0.2
 50
45.0
 51
135.0
  0
LINE
  8
0
  6
CONTINUOUS
 62
     2
 10
63.258578644
 20
105.975735931
 30
0.0
 11
62.922702923
 21
105.63986021
 31
0.0
  0
LINE
  8
0
  6
CONTINUOUS
 62
     2
 10
62.922702923
 20
105.63986021
 30
0.0
 11
62.63986021
 21
105.922702923
 31
0.0
  0
LINE
  8
0
  6
CONTINUOUS
 62
     2
 10
39.602240015
 20
114.44741391
 30
0.0
 11
36.88424919
 21
112.118245415
 31
0.0
  0
LINE
  8
0
  6
CONTINUOUS
 62
     2
 10
36.88424919
 20
112.118245415
 30
0.0
 11
40.317978155
 21
113.129188241
 31
0.0
  0
LINE
  8
0
  6
CONTINUOUS
 62
     2
 10
40.317978155
 20
113.129188241
 30
0.0
 11
47.817058939
 21
117.200856895
 31
0.0
  0
LINE
  8
0
  6
CONTINUOUS
 62
     2
 10
39.081291972
 20
113.311142315
 30
0.0
 11
47.601656687
 21
117.542915552
 31
0.0
  0
LINE
  8
0
  6
CONTINUOUS
 62
     2
 10
47.270878852
 20
118.152132538
 30
0.0
 11
39.081291972
 21
113.311142315
 31
0.0
  0
LINE
  8
0
  6
CONTINUOUS
 62
     2
 10
47.101320798
 20
118.519082564
 30
0.0
 11
39.602240015
 21
114.44741391
 31
0.0
  0
LINE
  8
0
  6
CONTINUOUS
 62
     2
 10
27.413820798
 20
147.468245415
 30
0.0
 11
27.413820798
 21
169.118245415
 31
0.0
  0
LINE
  8
0
  6
CONTINUOUS
 62
     2
 10
27.413820798
 20
167.118245415
 30
0.0
 11
29.828635364
 21
166.471197802
 31
0.0
  0
LINE
  8
0
  6
CONTINUOUS
 62
     2
 10
27.413820798
 20
167.118245415
 30
0.0
 11
29.828635364
 21
167.765293027
 31
0.0
  0
LINE
  8
0
  6
CONTINUOUS
 62
     2
 10
27.413820798
 20
167.118245415
 30
0.0
 11
82.413820798
 21
167.118245415
 31
0.0
  0
LINE
  8
0
  6
CONTINUOUS
 62
     2
 10
82.413820798
 20
167.118245415
 30
0.0
 11
79.999006233
 21
167.765293027
 31
0.0
  0
LINE
  8
0
  6
CONTINUOUS
 62
     2
 10
82.413820798
 20
167.118245415
 30
0.0
 11
79.999006233
 21
166.471197802
 31
0.0
  0
LINE
  8
0
  6
CONTINUOUS
 62
     2
 10
82.413820798
 20
147.868245415
 30
0.0
 11
82.413820798
 21
169.118245415
 31
0.0
  0
TEXT
  8
0
  6
CONTINUOUS
 62
     2
 10
49.483820798
 20
168.118245415
 30
0.3
 40
3.0
  1
１１０
 50
0.0
 41
0.6
 51
0.0
  7
KANJI1
  0
TEXT
  8
0
  6
CONTINUOUS
 62
     2
 10
55.483820798
 20
168.118245415
 30
0.18
 40
1.8
  1
±１．５
 50
0.0
 41
0.6
 51
0.0
  7
KANJI2
  0
LINE
  8
0
  6
CONTINUOUS
 62
     2
 10
29.763820798
 20
149.418245415
 30
0.0
 11
14.863820798
 21
149.418245415
 31
0.0
  0
LINE
  8
0
  6
CONTINUOUS
 62
     2
 10
16.863820798
 20
149.418245415
 30
0.0
 11
16.216773186
 21
147.003430849
 31
0.0
  0
LINE
  8
0
  6
CONTINUOUS
 62
     2
 10
16.863820798
 20
149.418245415
 30
0.0
 11
17.510868411
 21
147.003430849
 31
0.0
  0
LINE
  8
0
  6
CONTINUOUS
 62
     2
 10
16.863820798
 20
149.418245415
 30
0.0
 11
16.863820798
 21
94.418245415
 31
0.0
  0
LINE
  8
0
  6
CONTINUOUS
 62
     2
 10
16.863820798
 20
94.418245415
 30
0.0
 11
17.510868411
 21
96.83305998
 31
0.0
  0
LINE
  8
0
  6
CONTINUOUS
 62
     2
 10
16.863820798
 20
94.418245415
 30
0.0
 11
16.216773186
 21
96.83305998
 31
0.0
  0
LINE
  8
0
  6
CONTINUOUS
 62
     2
 10
29.763820798
 20
94.418245415
 30
0.0
 11
14.863820798
 21
94.418245415
 31
0.0
  0
TEXT
  8
0
  6
CONTINUOUS
 62
     2
 10
15.863820798
 20
116.488245415
 30
0.3
 40
3.0
  1
１１０
 50
90.0
 41
0.6
 51
0.0
  7
KANJI1
  0
TEXT
  8
0
  6
CONTINUOUS
 62
     2
 10
15.863820798
 20
122.488245415
 30
0.18
 40
1.8
  1
±１．５
 50
90.0
 41
0.6
 51
0.0
  7
KANJI2
  0
LINE
  8
0
  6
CONTINUOUS
 62
     2
 10
98.75
 20
100.625
 30
0.0
 11
98.65
 21
100.625
 31
0.0
  0
LINE
  8
0
  6
CONTINUOUS
 62
     2
 10
98.65
 20
100.625
 30
0.0
 11
98.65
 21
98.125
 31
0.0
  0
LINE
  8
0
  6
CONTINUOUS
 62
     2
 10
98.65
 20
98.125
 30
0.0
 11
98.75
 21
98.125
 31
0.0
  0
LINE
  8
0
  6
LTYPE2
 62
     2
 10
104.75
 20
121.875
 30
0.0
 11
107.0
 21
121.875
 31
0.0
  0
LINE
  8
0
  6
LTYPE2
 62
     2
 10
98.5
 20
121.875
 30
0.0
 11
104.75
 21
121.875
 31
0.0
  0
LINE
  8
0
  6
CONTINUOUS
 62
     2
 10
104.5
 20
141.4
 30
0.0
 11
104.75
 21
141.4
 31
0.0
  0
LINE
  8
0
  6
CONTINUOUS
 62
     2
 10
104.75
 20
141.4
 30
0.0
 11
104.75
 21
147.4
 31
0.0
  0
LINE
  8
0
  6
CONTINUOUS
 62
     2
 10
104.75
 20
147.4
 30
0.0
 11
104.5
 21
147.4
 31
0.0
  0
LINE
  8
0
  6
CONTINUOUS
 62
     2
 10
110.25
 20
145.9
 30
0.0
 11
112.25
 21
145.9
 31
0.0
  0
LINE
  8
0
  6
CONTINUOUS
 62
     2
 10
112.25
 20
145.9
 30
0.0
 11
112.25
 21
142.9
 31
0.0
  0
LINE
  8
0
  6
CONTINUOUS
 62
     2
 10
112.25
 20
142.9
 30
0.0
 11
110.25
 21
142.9
 31
0.0
  0
LINE
  8
0
  6
LTYPE1
 62
     2
 10
102.7
 20
144.4
 30
0.0
 11
114.55
 21
144.4
 31
0.0
  0
ARC
  8
0
  6
CONTINUOUS
 62
     2
 10
105.25
 20
144.4
 30
0.0
 40
5.0
 50
343.5
 51
16.5
  0
ARC
  8
0
  6
CONTINUOUS
 62
     2
 10
112.75
 20
144.4
 30
0.0
 40
5.0
 50
163.5
 51
196.3
  0
ARC
  8
0
  6
CONTINUOUS
 62
     2
 10
109.0
 20
146.525
 30
0.0
 40
1.25
 50
325.0
 51
35.0
  0
ARC
  8
0
  6
CONTINUOUS
 62
     2
 10
109.0
 20
146.525
 30
0.0
 40
1.25
 50
145.0
 51
215.0
  0
ARC
  8
0
  6
CONTINUOUS
 62
     2
 10
109.0
 20
142.275
 30
0.0
 40
1.25
 50
145.0
 51
215.0
  0
ARC
  8
0
  6
CONTINUOUS
 62
     2
 10
109.0
 20
142.275
 30
0.0
 40
1.25
 50
325.0
 51
35.0
  0
LINE
  8
0
  6
CONTINUOUS
 62
     2
 10
107.95097354
 20
142.996666455
 30
0.0
 11
110.02597354
 21
142.996666455
 31
0.0
  0
LINE
  8
0
  6
CONTINUOUS
 62
     2
 10
110.044098674
 20
145.820076724
 30
0.0
 11
107.955901326
 21
145.820076724
 31
0.0
  0
LINE
  8
0
  6
CONTINUOUS
 62
     2
 10
110.25
 20
142.275
 30
0.0
 11
110.25
 21
146.525
 31
0.0
  0
LINE
  8
0
  6
CONTINUOUS
 62
     2
 10
110.255
 20
143.025
 30
0.0
 11
112.23
 21
143.025
 31
0.0
  0
LINE
  8
0
  6
CONTINUOUS
 62
     2
 10
112.25
 20
145.785
 30
0.0
 11
110.26
 21
145.785
 31
0.0
  0
LINE
  8
0
  6
CONTINUOUS
 62
     2
 10
104.5
 20
96.4
 30
0.0
 11
104.75
 21
96.4
 31
0.0
  0
LINE
  8
0
  6
CONTINUOUS
 62
     2
 10
104.75
 20
96.4
 30
0.0
 11
104.75
 21
102.4
 31
0.0
  0
LINE
  8
0
  6
CONTINUOUS
 62
     2
 10
104.75
 20
102.4
 30
0.0
 11
104.5
 21
102.4
 31
0.0
  0
LINE
  8
0
  6
CONTINUOUS
 62
     2
 10
110.25
 20
100.9
 30
0.0
 11
112.25
 21
100.9
 31
0.0
  0
LINE
  8
0
  6
CONTINUOUS
 62
     2
 10
112.25
 20
100.9
 30
0.0
 11
112.25
 21
97.9
 31
0.0
  0
LINE
  8
0
  6
CONTINUOUS
 62
     2
 10
112.25
 20
97.9
 30
0.0
 11
110.25
 21
97.9
 31
0.0
  0
LINE
  8
0
  6
LTYPE1
 62
     2
 10
102.7
 20
99.4
 30
0.0
 11
114.55
 21
99.4
 31
0.0
  0
ARC
  8
0
  6
CONTINUOUS
 62
     2
 10
105.25
 20
99.4
 30
0.0
 40
5.0
 50
343.5
 51
16.5
  0
ARC
  8
0
  6
CONTINUOUS
 62
     2
 10
112.75
 20
99.4
 30
0.0
 40
5.0
 50
163.5
 51
196.3
  0
ARC
  8
0
  6
CONTINUOUS
 62
     2
 10
109.0
 20
101.525
 30
0.0
 40
1.25
 50
325.0
 51
35.0
  0
ARC
  8
0
  6
CONTINUOUS
 62
     2
 10
109.0
 20
101.525
 30
0.0
 40
1.25
 50
145.0
 51
215.0
  0
ARC
  8
0
  6
CONTINUOUS
 62
     2
 10
109.0
 20
97.275
 30
0.0
 40
1.25
 50
145.0
 51
215.0
  0
ARC
  8
0
  6
CONTINUOUS
 62
     2
 10
109.0
 20
97.275
 30
0.0
 40
1.25
 50
325.0
 51
35.0
  0
LINE
  8
0
  6
CONTINUOUS
 62
     2
 10
107.95097354
 20
97.996666455
 30
0.0
 11
110.02597354
 21
97.996666455
 31
0.0
  0
LINE
  8
0
  6
CONTINUOUS
 62
     2
 10
110.044098674
 20
100.820076724
 30
0.0
 11
107.955901326
 21
100.820076724
 31
0.0
  0
LINE
  8
0
  6
CONTINUOUS
 62
     2
 10
110.030901326
 20
102.25
 30
0.0
 11
107.75
 21
102.25
 31
0.0
  0
LINE
  8
0
  6
CONTINUOUS
 62
     2
 10
110.25
 20
97.275
 30
0.0
 11
110.25
 21
101.525
 31
0.0
  0
LINE
  8
0
  6
CONTINUOUS
 62
     2
 10
110.255
 20
98.025
 30
0.0
 11
112.23
 21
98.025
 31
0.0
  0
LINE
  8
0
  6
CONTINUOUS
 62
     2
 10
112.25
 20
100.785
 30
0.0
 11
110.26
 21
100.785
 31
0.0
  0
ARC
  8
0
  6
CONTINUOUS
 62
     2
 10
153.175
 20
125.825
 30
0.0
 40
1.475
 50
270.0
 51
0.0
  0
ARC
  8
0
  6
CONTINUOUS
 62
     2
 10
153.175
 20
127.975
 30
0.0
 40
1.475
 50
0.0
 51
90.0
  0
LINE
  8
0
  6
CONTINUOUS
 62
     2
 10
154.65
 20
127.975
 30
0.0
 11
154.65
 21
125.825
 31
0.0
  0
LINE
  8
0
  6
CONTINUOUS
 62
     2
 10
153.175
 20
124.35
 30
0.0
 11
152.675
 21
124.35
 31
0.0
  0
LINE
  8
0
  6
CONTINUOUS
 62
     2
 10
152.675
 20
124.35
 30
0.0
 11
152.675
 21
129.45
 31
0.0
  0
LINE
  8
0
  6
CONTINUOUS
 62
     2
 10
152.675
 20
129.45
 30
0.0
 11
153.175000132
 21
129.45
 31
0.0
  0
LINE
  8
0
  6
CONTINUOUS
 62
     2
 10
151.975
 20
129.65
 30
0.0
 11
152.65
 21
129.65
 31
0.0
  0
LINE
  8
0
  6
CONTINUOUS
 62
     2
 10
152.65
 20
129.65
 30
0.0
 11
152.65
 21
124.1475
 31
0.0
  0
LINE
  8
0
  6
CONTINUOUS
 62
     2
 10
152.65
 20
124.1475
 30
0.0
 11
151.975
 21
124.1475
 31
0.0
  0
LINE
  8
0
  6
CONTINUOUS
 62
     2
 10
151.975
 20
124.1475
 30
0.0
 11
151.975
 21
129.65
 31
0.0
  0
LINE
  8
0
  6
CONTINUOUS
 62
     2
 10
151.975
 20
126.96
 30
0.0
 11
152.65
 21
126.96
 31
0.0
  0
LINE
  8
0
  6
CONTINUOUS
 62
     2
 10
152.65
 20
126.86
 30
0.0
 11
151.975
 21
126.86
 31
0.0
  0
LINE
  8
0
  6
CONTINUOUS
 62
     2
 10
151.5
 20
123.725
 30
0.0
 11
151.975
 21
123.725
 31
0.0
  0
LINE
  8
0
  6
CONTINUOUS
 62
     2
 10
151.975
 20
123.725
 30
0.0
 11
151.975
 21
130.075
 31
0.0
  0
LINE
  8
0
  6
CONTINUOUS
 62
     2
 10
151.975
 20
130.075
 30
0.0
 11
151.5
 21
130.075
 31
0.0
  0
LINE
  8
0
  6
CONTINUOUS
 62
     2
 10
151.5
 20
130.075
 30
0.0
 11
151.5
 21
123.725
 31
0.0
  0
LINE
  8
0
  6
CONTINUOUS
 62
     2
 10
151.5
 20
124.9
 30
0.0
 11
147.0
 21
124.9
 31
0.0
  0
LINE
  8
0
  6
CONTINUOUS
 62
     2
 10
147.0
 20
128.9
 30
0.0
 11
151.5
 21
128.9
 31
0.0
  0
LINE
  8
0
  6
CONTINUOUS
 62
     2
 10
147.0
 20
128.9
 30
0.0
 11
147.0
 21
124.9
 31
0.0
  0
LINE
  8
0
  6
LTYPE1
 62
     2
 10
144.225
 20
126.9
 30
0.0
 11
156.95
 21
126.9
 31
0.0
  0
LINE
  8
0
  6
CONTINUOUS
 62
     2
 10
98.65
 20
100.9
 30
0.0
 11
98.65
 21
97.9
 31
0.0
  0
LINE
  8
0
  6
CONTINUOUS
 62
     2
 10
98.3
 20
97.9
 30
0.0
 11
98.65
 21
97.9
 31
0.0
  0
ARC
  8
0
  6
CONTINUOUS
 62
     2
 10
98.3
 20
98.3
 30
0.0
 40
0.4
 50
180.0
 51
270.0
  0
LINE
  8
0
  6
CONTINUOUS
 62
     2
 10
98.3
 20
100.9
 30
0.0
 11
98.75
 21
100.9
 31
0.0
  0
LINE
  8
0
  6
CONTINUOUS
 62
     2
 10
97.9
 20
98.3
 30
0.0
 11
97.9
 21
100.5
 31
0.0
  0
ARC
  8
0
  6
CONTINUOUS
 62
     2
 10
98.3
 20
100.5
 30
0.0
 40
0.4
 50
90.0
 51
180.0
  0
LINE
  8
0
  6
CONTINUOUS
 62
     2
 10
97.9
 20
99.5
 30
0.0
 11
98.0
 21
99.5
 31
0.0
  0
LINE
  8
0
  6
CONTINUOUS
 62
     2
 10
98.0
 20
99.5
 30
0.0
 11
98.0
 21
99.3
 31
0.0
  0
LINE
  8
0
  6
CONTINUOUS
 62
     2
 10
98.0
 20
99.3
 30
0.0
 11
97.9
 21
99.3
 31
0.0
  0
LINE
  8
0
  6
CONTINUOUS
 62
     2
 10
98.75
 20
145.625
 30
0.0
 11
98.65
 21
145.625
 31
0.0
  0
LINE
  8
0
  6
CONTINUOUS
 62
     2
 10
98.65
 20
145.625
 30
0.0
 11
98.65
 21
143.125
 31
0.0
  0
LINE
  8
0
  6
CONTINUOUS
 62
     2
 10
98.65
 20
143.125
 30
0.0
 11
98.75
 21
143.125
 31
0.0
  0
LINE
  8
0
  6
CONTINUOUS
 62
     2
 10
98.65
 20
145.9
 30
0.0
 11
98.65
 21
142.9
 31
0.0
  0
LINE
  8
0
  6
CONTINUOUS
 62
     2
 10
98.3
 20
142.9
 30
0.0
 11
98.65
 21
142.9
 31
0.0
  0
ARC
  8
0
  6
CONTINUOUS
 62
     2
 10
98.3
 20
143.3
 30
0.0
 40
0.4
 50
180.0
 51
270.0
  0
LINE
  8
0
  6
CONTINUOUS
 62
     2
 10
98.3
 20
145.9
 30
0.0
 11
98.75
 21
145.9
 31
0.0
  0
LINE
  8
0
  6
CONTINUOUS
 62
     2
 10
97.9
 20
143.3
 30
0.0
 11
97.9
 21
145.5
 31
0.0
  0
ARC
  8
0
  6
CONTINUOUS
 62
     2
 10
98.3
 20
145.5
 30
0.0
 40
0.4
 50
90.0
 51
180.0
  0
LINE
  8
0
  6
CONTINUOUS
 62
     2
 10
97.9
 20
144.5
 30
0.0
 11
98.0
 21
144.5
 31
0.0
  0
LINE
  8
0
  6
CONTINUOUS
 62
     2
 10
98.0
 20
144.5
 30
0.0
 11
98.0
 21
144.3
 31
0.0
  0
LINE
  8
0
  6
CONTINUOUS
 62
     2
 10
98.0
 20
144.3
 30
0.0
 11
97.9
 21
144.3
 31
0.0
  0
LINE
  8
0
  6
CONTINUOUS
 62
     2
 10
94.0
 20
125.05
 30
0.0
 11
94.0
 21
119.15
 31
0.0
  0
POINT
  8
0
  6
CONTINUOUS
 62
     2
 10
94.0
 20
125.05
 30
0.0
  0
ARC
  8
0
  6
CONTINUOUS
 62
     2
 10
94.0
 20
123.55
 30
0.0
 40
1.5
 50
90.0
 51
180.0
  0
LINE
  8
0
  6
CONTINUOUS
 62
     2
 10
94.0
 20
119.15
 30
0.0
 11
93.9
 21
119.15
 31
0.0
  0
LINE
  8
0
  6
CONTINUOUS
 62
     2
 10
92.5
 20
120.55
 30
0.0
 11
92.5
 21
123.55
 31
0.0
  0
ARC
  8
0
  6
CONTINUOUS
 62
     2
 10
93.9
 20
120.55
 30
0.0
 40
1.4
 50
180.0
 51
270.0
  0
LINE
  8
0
  6
CONTINUOUS
 62
     2
 10
95.05
 20
96.375
 30
0.0
 11
87.625
 21
96.375
 31
0.0
  0
LINE
  8
0
  6
CONTINUOUS
 62
     2
 10
89.625
 20
96.375
 30
0.0
 11
90.272047613
 21
98.789814566
 31
0.0
  0
LINE
  8
0
  6
CONTINUOUS
 62
     2
 10
89.625
 20
96.375
 30
0.0
 11
88.977952387
 21
98.789814566
 31
0.0
  0
LINE
  8
0
  6
CONTINUOUS
 62
     2
 10
89.625
 20
96.375
 30
0.0
 11
89.625
 21
147.375
 31
0.0
  0
LINE
  8
0
  6
CONTINUOUS
 62
     2
 10
89.625
 20
147.375
 30
0.0
 11
88.977952387
 21
144.960185434
 31
0.0
  0
LINE
  8
0
  6
CONTINUOUS
 62
     2
 10
89.625
 20
147.375
 30
0.0
 11
90.272047613
 21
144.960185434
 31
0.0
  0
LINE
  8
0
  6
CONTINUOUS
 62
     2
 10
95.05
 20
147.375
 30
0.0
 11
87.625
 21
147.375
 31
0.0
  0
TEXT
  8
0
  6
CONTINUOUS
 62
     2
 10
88.625
 20
117.825
 30
0.3
 40
3.0
  1
φ１０２
 50
90.0
 41
0.6
 51
0.0
  7
KANJI1
  0
LINE
  8
0
  6
CONTINUOUS
 62
     2
 10
92.5
 20
124.0
 30
0.0
 11
92.5
 21
169.325001907
 31
0.0
  0
LINE
  8
0
  6
CONTINUOUS
 62
     2
 10
92.5
 20
167.325001907
 30
0.0
 11
94.914814566
 21
166.677954295
 31
0.0
  0
LINE
  8
0
  6
CONTINUOUS
 62
     2
 10
92.5
 20
167.325001907
 30
0.0
 11
94.914814566
 21
167.97204952
 31
0.0
  0
LINE
  8
0
  6
CONTINUOUS
 62
     2
 10
92.5
 20
167.325001907
 30
0.0
 11
104.5
 21
167.325001907
 31
0.0
  0
LINE
  8
0
  6
CONTINUOUS
 62
     2
 10
104.5
 20
167.325001907
 30
0.0
 11
102.085185434
 21
167.97204952
 31
0.0
  0
LINE
  8
0
  6
CONTINUOUS
 62
     2
 10
104.5
 20
167.325001907
 30
0.0
 11
102.085185434
 21
166.677954295
 31
0.0
  0
LINE
  8
0
  6
CONTINUOUS
 62
     2
 10
104.5
 20
149.6
 30
0.0
 11
104.5
 21
169.325001907
 31
0.0
  0
TEXT
  8
0
  6
CONTINUOUS
 62
     2
 10
96.55
 20
168.325001907
 30
0.3
 40
3.0
  1
２４
 50
0.0
 41
0.6
 51
0.0
  7
KANJI1
  0
LINE
  8
0
  6
CONTINUOUS
 62
     2
 10
104.5
 20
167.325001907
 30
0.0
 11
106.914814566
 21
166.677954295
 31
0.0
  0
LINE
  8
0
  6
CONTINUOUS
 62
     2
 10
104.5
 20
167.325001907
 30
0.0
 11
106.914814566
 21
167.97204952
 31
0.0
  0
LINE
  8
0
  6
CONTINUOUS
 62
     2
 10
104.5
 20
167.325001907
 30
0.0
 11
154.65
 21
167.325001907
 31
0.0
  0
LINE
  8
0
  6
CONTINUOUS
 62
     2
 10
154.65
 20
167.325001907
 30
0.0
 11
152.235185434
 21
167.97204952
 31
0.0
  0
LINE
  8
0
  6
CONTINUOUS
 62
     2
 10
154.65
 20
167.325001907
 30
0.0
 11
152.235185434
 21
166.677954295
 31
0.0
  0
LINE
  8
0
  6
CONTINUOUS
 62
     2
 10
154.65
 20
128.8
 30
0.0
 11
154.65
 21
169.325001907
 31
0.0
  0
LINE
  8
0
  6
CONTINUOUS
 62
     2
 10
147.0
 20
146.500001907
 30
0.0
 11
147.0
 21
159.775001907
 31
0.0
  0
LINE
  8
0
  6
CONTINUOUS
 62
     2
 10
147.0
 20
157.775001907
 30
0.0
 11
149.414814566
 21
157.127954295
 31
0.0
  0
LINE
  8
0
  6
CONTINUOUS
 62
     2
 10
147.0
 20
157.775001907
 30
0.0
 11
149.414814566
 21
158.42204952
 31
0.0
  0
LINE
  8
0
  6
CONTINUOUS
 62
     2
 10
104.75
 20
147.65
 30
0.0
 11
104.75
 21
159.775001907
 31
0.0
  0
LINE
  8
0
  6
CONTINUOUS
 62
     2
 10
112.25
 20
146.15
 30
0.0
 11
112.25
 21
159.775001907
 31
0.0
  0
POINT
  8
0
  6
LTYPE1
 62
     2
 10
188.3
 20
21.4
 30
0.0
  0
POINT
  8
0
  6
LTYPE1
 62
     2
 10
188.3
 20
152.9
 30
0.0
  0
ARC
  8
0
  6
CONTINUOUS
 62
     2
 10
163.55
 20
97.15
 30
0.0
 40
1.5
 50
180.0
 51
270.0
  0
LINE
  8
0
  6
CONTINUOUS
 62
     2
 10
162.05
 20
146.65
 30
0.0
 11
162.05
 21
97.15
 31
0.0
  0
ARC
  8
0
  6
CONTINUOUS
 62
     2
 10
163.55
 20
146.65
 30
0.0
 40
1.5
 50
90.0
 51
180.0
  0
LINE
  8
0
  6
CONTINUOUS
 62
     2
 10
213.05
 20
148.15
 30
0.0
 11
163.55
 21
148.15
 31
0.0
  0
ARC
  8
0
  6
CONTINUOUS
 62
     2
 10
213.05
 20
146.65
 30
0.0
 40
1.5
 50
0.0
 51
90.0
  0
LINE
  8
0
  6
CONTINUOUS
 62
     2
 10
163.55
 20
95.65
 30
0.0
 11
213.05
 21
95.65
 31
0.0
  0
LINE
  8
0
  6
CONTINUOUS
 62
     2
 10
214.55
 20
97.15
 30
0.0
 11
214.55
 21
146.65
 31
0.0
  0
ARC
  8
0
  6
CONTINUOUS
 62
     2
 10
213.05
 20
97.15
 30
0.0
 40
1.5
 50
270.0
 51
0.0
  0
LINE
  8
0
  6
CONTINUOUS
 62
     2
 10
213.224871131
 20
145.8
 30
0.0
 11
210.8
 21
147.2
 31
0.0
  0
LINE
  8
0
  6
CONTINUOUS
 62
     2
 10
210.8
 20
147.2
 30
0.0
 11
208.375128869
 21
145.8
 31
0.0
  0
LINE
  8
0
  6
CONTINUOUS
 62
     2
 10
208.375128869
 20
145.8
 30
0.0
 11
208.375128869
 21
143.0
 31
0.0
  0
LINE
  8
0
  6
CONTINUOUS
 62
     2
 10
208.375128869
 20
143.0
 30
0.0
 11
210.8
 21
141.6
 31
0.0
  0
LINE
  8
0
  6
CONTINUOUS
 62
     2
 10
210.8
 20
141.6
 30
0.0
 11
213.224871131
 21
143.0
 31
0.0
  0
LINE
  8
0
  6
CONTINUOUS
 62
     2
 10
213.224871131
 20
143.0
 30
0.0
 11
213.224871131
 21
145.8
 31
0.0
  0
CIRCLE
  8
0
  6
CONTINUOUS
 62
     2
 10
210.8
 20
144.4
 30
0.0
 40
1.5
  0
CIRCLE
  8
0
  6
CONTINUOUS
 62
     2
 10
210.8
 20
144.4
 30
0.0
 40
1.4
  0
CIRCLE
  8
0
  6
CONTINUOUS
 62
     2
 10
210.8
 20
144.4
 30
0.0
 40
3.0
  0
CIRCLE
  8
0
  6
CONTINUOUS
 62
     2
 10
210.8
 20
144.4
 30
0.0
 40
2.5
  0
LINE
  8
0
  6
LTYPE1
 62
     2
 10
206.925
 20
144.4
 30
0.0
 11
214.9
 21
144.4
 31
0.0
  0
LINE
  8
0
  6
LTYPE1
 62
     2
 10
210.8
 20
148.3
 30
0.0
 11
210.8
 21
140.575
 31
0.0
  0
LINE
  8
0
  6
CONTINUOUS
 62
     2
 10
168.224871131
 20
145.8
 30
0.0
 11
165.8
 21
147.2
 31
0.0
  0
LINE
  8
0
  6
CONTINUOUS
 62
     2
 10
165.8
 20
147.2
 30
0.0
 11
163.375128869
 21
145.8
 31
0.0
  0
LINE
  8
0
  6
CONTINUOUS
 62
     2
 10
163.375128869
 20
145.8
 30
0.0
 11
163.375128869
 21
143.0
 31
0.0
  0
LINE
  8
0
  6
CONTINUOUS
 62
     2
 10
163.375128869
 20
143.0
 30
0.0
 11
165.8
 21
141.6
 31
0.0
  0
LINE
  8
0
  6
CONTINUOUS
 62
     2
 10
165.8
 20
141.6
 30
0.0
 11
168.224871131
 21
143.0
 31
0.0
  0
LINE
  8
0
  6
CONTINUOUS
 62
     2
 10
168.224871131
 20
143.0
 30
0.0
 11
168.224871131
 21
145.8
 31
0.0
  0
CIRCLE
  8
0
  6
CONTINUOUS
 62
     2
 10
165.8
 20
144.4
 30
0.0
 40
1.5
  0
CIRCLE
  8
0
  6
CONTINUOUS
 62
     2
 10
165.8
 20
144.4
 30
0.0
 40
1.4
  0
CIRCLE
  8
0
  6
CONTINUOUS
 62
     2
 10
165.8
 20
144.4
 30
0.0
 40
3.0
  0
CIRCLE
  8
0
  6
CONTINUOUS
 62
     2
 10
165.8
 20
144.4
 30
0.0
 40
2.5
  0
LINE
  8
0
  6
LTYPE1
 62
     2
 10
161.925
 20
144.4
 30
0.0
 11
169.9
 21
144.4
 31
0.0
  0
LINE
  8
0
  6
LTYPE1
 62
     2
 10
165.8
 20
148.3
 30
0.0
 11
165.8
 21
140.575
 31
0.0
  0
LINE
  8
0
  6
CONTINUOUS
 62
     2
 10
168.224871131
 20
100.8
 30
0.0
 11
165.8
 21
102.2
 31
0.0
  0
LINE
  8
0
  6
CONTINUOUS
 62
     2
 10
165.8
 20
102.2
 30
0.0
 11
163.375128869
 21
100.8
 31
0.0
  0
LINE
  8
0
  6
CONTINUOUS
 62
     2
 10
163.375128869
 20
100.8
 30
0.0
 11
163.375128869
 21
98.0
 31
0.0
  0
LINE
  8
0
  6
CONTINUOUS
 62
     2
 10
163.375128869
 20
98.0
 30
0.0
 11
165.8
 21
96.6
 31
0.0
  0
LINE
  8
0
  6
CONTINUOUS
 62
     2
 10
165.8
 20
96.6
 30
0.0
 11
168.224871131
 21
98.0
 31
0.0
  0
LINE
  8
0
  6
CONTINUOUS
 62
     2
 10
168.224871131
 20
98.0
 30
0.0
 11
168.224871131
 21
100.8
 31
0.0
  0
CIRCLE
  8
0
  6
CONTINUOUS
 62
     2
 10
165.8
 20
99.4
 30
0.0
 40
1.5
  0
CIRCLE
  8
0
  6
CONTINUOUS
 62
     2
 10
165.8
 20
99.4
 30
0.0
 40
1.4
  0
CIRCLE
  8
0
  6
CONTINUOUS
 62
     2
 10
165.8
 20
99.4
 30
0.0
 40
3.0
  0
CIRCLE
  8
0
  6
CONTINUOUS
 62
     2
 10
165.8
 20
99.4
 30
0.0
 40
2.5
  0
LINE
  8
0
  6
LTYPE1
 62
     2
 10
161.925
 20
99.4
 30
0.0
 11
169.9
 21
99.4
 31
0.0
  0
LINE
  8
0
  6
LTYPE1
 62
     2
 10
165.8
 20
103.3
 30
0.0
 11
165.8
 21
95.575
 31
0.0
  0
LINE
  8
0
  6
CONTINUOUS
 62
     2
 10
213.224871131
 20
100.8
 30
0.0
 11
210.8
 21
102.2
 31
0.0
  0
LINE
  8
0
  6
CONTINUOUS
 62
     2
 10
210.8
 20
102.2
 30
0.0
 11
208.375128869
 21
100.8
 31
0.0
  0
LINE
  8
0
  6
CONTINUOUS
 62
     2
 10
208.375128869
 20
100.8
 30
0.0
 11
208.375128869
 21
98.0
 31
0.0
  0
LINE
  8
0
  6
CONTINUOUS
 62
     2
 10
208.375128869
 20
98.0
 30
0.0
 11
210.8
 21
96.6
 31
0.0
  0
LINE
  8
0
  6
CONTINUOUS
 62
     2
 10
210.8
 20
96.6
 30
0.0
 11
213.224871131
 21
98.0
 31
0.0
  0
LINE
  8
0
  6
CONTINUOUS
 62
     2
 10
213.224871131
 20
98.0
 30
0.0
 11
213.224871131
 21
100.8
 31
0.0
  0
CIRCLE
  8
0
  6
CONTINUOUS
 62
     2
 10
210.8
 20
99.4
 30
0.0
 40
1.5
  0
CIRCLE
  8
0
  6
CONTINUOUS
 62
     2
 10
210.8
 20
99.4
 30
0.0
 40
1.4
  0
CIRCLE
  8
0
  6
CONTINUOUS
 62
     2
 10
210.8
 20
99.4
 30
0.0
 40
3.0
  0
CIRCLE
  8
0
  6
CONTINUOUS
 62
     2
 10
210.8
 20
99.4
 30
0.0
 40
2.5
  0
LINE
  8
0
  6
LTYPE1
 62
     2
 10
206.925
 20
99.4
 30
0.0
 11
214.9
 21
99.4
 31
0.0
  0
LINE
  8
0
  6
LTYPE1
 62
     2
 10
210.8
 20
103.3
 30
0.0
 11
210.8
 21
95.575
 31
0.0
  0
CIRCLE
  8
0
  6
CONTINUOUS
 62
     2
 10
207.352558883
 20
110.9
 30
0.0
 40
1.75
  0
CIRCLE
  8
0
  6
CONTINUOUS
 62
     2
 10
188.3
 20
143.9
 30
0.0
 40
1.75
  0
CIRCLE
  8
0
  6
CONTINUOUS
 62
     2
 10
169.247441117
 20
110.9
 30
0.0
 40
1.75
  0
CIRCLE
  8
0
  6
CONTINUOUS
 62
     2
 10
169.247441117
 20
110.9
 30
0.0
 40
1.5
  0
LINE
  8
0
  6
CONTINUOUS
 62
     2
 10
168.372441117
 20
111.1
 30
0.0
 11
168.847441117
 21
111.1
 31
0.0
  0
ARC
  8
0
  6
CONTINUOUS
 62
     2
 10
168.847441117
 20
111.3
 30
0.0
 40
0.2
 50
270.0
 51
0.0
  0
LINE
  8
0
  6
CONTINUOUS
 62
     2
 10
169.047441117
 20
111.3
 30
0.0
 11
169.047441117
 21
111.775
 31
0.0
  0
LINE
  8
0
  6
CONTINUOUS
 62
     2
 10
169.047441117
 20
111.775
 30
0.0
 11
169.447441117
 21
111.775
 31
0.0
  0
LINE
  8
0
  6
CONTINUOUS
 62
     2
 10
169.447441117
 20
111.775
 30
0.0
 11
169.447441117
 21
111.3
 31
0.0
  0
ARC
  8
0
  6
CONTINUOUS
 62
     2
 10
169.647441117
 20
111.3
 30
0.0
 40
0.2
 50
180.0
 51
270.0
  0
LINE
  8
0
  6
CONTINUOUS
 62
     2
 10
169.647441117
 20
111.1
 30
0.0
 11
170.122441117
 21
111.1
 31
0.0
  0
LINE
  8
0
  6
CONTINUOUS
 62
     2
 10
170.122441117
 20
111.1
 30
0.0
 11
170.122441117
 21
110.7
 31
0.0
  0
LINE
  8
0
  6
CONTINUOUS
 62
     2
 10
170.122441117
 20
110.7
 30
0.0
 11
169.647441117
 21
110.7
 31
0.0
  0
ARC
  8
0
  6
CONTINUOUS
 62
     2
 10
169.647441117
 20
110.5
 30
0.0
 40
0.2
 50
90.0
 51
180.0
  0
LINE
  8
0
  6
CONTINUOUS
 62
     2
 10
169.447441117
 20
110.5
 30
0.0
 11
169.447441117
 21
110.025
 31
0.0
  0
LINE
  8
0
  6
CONTINUOUS
 62
     2
 10
169.447441117
 20
110.025
 30
0.0
 11
169.047441117
 21
110.025
 31
0.0
  0
LINE
  8
0
  6
CONTINUOUS
 62
     2
 10
169.047441117
 20
110.025
 30
0.0
 11
169.047441117
 21
110.5
 31
0.0
  0
ARC
  8
0
  6
CONTINUOUS
 62
     2
 10
168.847441117
 20
110.5
 30
0.0
 40
0.2
 50
0.0
 51
90.0
  0
LINE
  8
0
  6
CONTINUOUS
 62
     2
 10
168.847441117
 20
110.7
 30
0.0
 11
168.372441117
 21
110.7
 31
0.0
  0
LINE
  8
0
  6
CONTINUOUS
 62
     2
 10
168.372441117
 20
110.7
 30
0.0
 11
168.372441117
 21
111.1
 31
0.0
  0
LINE
  8
0
  6
LTYPE2
 62
     2
 10
167.247441117
 20
110.9
 30
0.0
 11
171.247441117
 21
110.9
 31
0.0
  0
LINE
  8
0
  6
LTYPE2
 62
     2
 10
169.247441117
 20
112.9
 30
0.0
 11
169.247441117
 21
108.9
 31
0.0
  0
CIRCLE
  8
0
  6
CONTINUOUS
 62
     2
 10
188.3
 20
143.9
 30
0.0
 40
1.5
  0
LINE
  8
0
  6
CONTINUOUS
 62
     2
 10
187.425
 20
144.1
 30
0.0
 11
187.9
 21
144.1
 31
0.0
  0
ARC
  8
0
  6
CONTINUOUS
 62
     2
 10
187.9
 20
144.3
 30
0.0
 40
0.2
 50
270.0
 51
0.0
  0
LINE
  8
0
  6
CONTINUOUS
 62
     2
 10
188.1
 20
144.3
 30
0.0
 11
188.1
 21
144.775
 31
0.0
  0
LINE
  8
0
  6
CONTINUOUS
 62
     2
 10
188.1
 20
144.775
 30
0.0
 11
188.5
 21
144.775
 31
0.0
  0
LINE
  8
0
  6
CONTINUOUS
 62
     2
 10
188.5
 20
144.775
 30
0.0
 11
188.5
 21
144.3
 31
0.0
  0
ARC
  8
0
  6
CONTINUOUS
 62
     2
 10
188.7
 20
144.3
 30
0.0
 40
0.2
 50
180.0
 51
270.0
  0
LINE
  8
0
  6
CONTINUOUS
 62
     2
 10
188.7
 20
144.1
 30
0.0
 11
189.175
 21
144.1
 31
0.0
  0
LINE
  8
0
  6
CONTINUOUS
 62
     2
 10
189.175
 20
144.1
 30
0.0
 11
189.175
 21
143.7
 31
0.0
  0
LINE
  8
0
  6
CONTINUOUS
 62
     2
 10
189.175
 20
143.7
 30
0.0
 11
188.7
 21
143.7
 31
0.0
  0
ARC
  8
0
  6
CONTINUOUS
 62
     2
 10
188.7
 20
143.5
 30
0.0
 40
0.2
 50
90.0
 51
180.0
  0
LINE
  8
0
  6
CONTINUOUS
 62
     2
 10
188.5
 20
143.5
 30
0.0
 11
188.5
 21
143.025
 31
0.0
  0
LINE
  8
0
  6
CONTINUOUS
 62
     2
 10
188.5
 20
143.025
 30
0.0
 11
188.1
 21
143.025
 31
0.0
  0
LINE
  8
0
  6
CONTINUOUS
 62
     2
 10
188.1
 20
143.025
 30
0.0
 11
188.1
 21
143.5
 31
0.0
  0
ARC
  8
0
  6
CONTINUOUS
 62
     2
 10
187.9
 20
143.5
 30
0.0
 40
0.2
 50
0.0
 51
90.0
  0
LINE
  8
0
  6
CONTINUOUS
 62
     2
 10
187.9
 20
143.7
 30
0.0
 11
187.425
 21
143.7
 31
0.0
  0
LINE
  8
0
  6
CONTINUOUS
 62
     2
 10
187.425
 20
143.7
 30
0.0
 11
187.425
 21
144.1
 31
0.0
  0
LINE
  8
0
  6
LTYPE2
 62
     2
 10
186.3
 20
143.9
 30
0.0
 11
190.3
 21
143.9
 31
0.0
  0
LINE
  8
0
  6
LTYPE2
 62
     2
 10
188.3
 20
145.9
 30
0.0
 11
188.3
 21
141.9
 31
0.0
  0
CIRCLE
  8
0
  6
CONTINUOUS
 62
     2
 10
207.352558883
 20
110.9
 30
0.0
 40
1.5
  0
LINE
  8
0
  6
CONTINUOUS
 62
     2
 10
206.477558883
 20
111.1
 30
0.0
 11
206.952558883
 21
111.1
 31
0.0
  0
ARC
  8
0
  6
CONTINUOUS
 62
     2
 10
206.952558883
 20
111.3
 30
0.0
 40
0.2
 50
270.0
 51
0.0
  0
LINE
  8
0
  6
CONTINUOUS
 62
     2
 10
207.152558883
 20
111.3
 30
0.0
 11
207.152558883
 21
111.775
 31
0.0
  0
LINE
  8
0
  6
CONTINUOUS
 62
     2
 10
207.152558883
 20
111.775
 30
0.0
 11
207.552558883
 21
111.775
 31
0.0
  0
LINE
  8
0
  6
CONTINUOUS
 62
     2
 10
207.552558883
 20
111.775
 30
0.0
 11
207.552558883
 21
111.3
 31
0.0
  0
ARC
  8
0
  6
CONTINUOUS
 62
     2
 10
207.752558883
 20
111.3
 30
0.0
 40
0.2
 50
180.0
 51
270.0
  0
LINE
  8
0
  6
CONTINUOUS
 62
     2
 10
207.752558883
 20
111.1
 30
0.0
 11
208.227558883
 21
111.1
 31
0.0
  0
LINE
  8
0
  6
CONTINUOUS
 62
     2
 10
208.227558883
 20
111.1
 30
0.0
 11
208.227558883
 21
110.7
 31
0.0
  0
LINE
  8
0
  6
CONTINUOUS
 62
     2
 10
208.227558883
 20
110.7
 30
0.0
 11
207.752558883
 21
110.7
 31
0.0
  0
ARC
  8
0
  6
CONTINUOUS
 62
     2
 10
207.752558883
 20
110.5
 30
0.0
 40
0.2
 50
90.0
 51
180.0
  0
LINE
  8
0
  6
CONTINUOUS
 62
     2
 10
207.552558883
 20
110.5
 30
0.0
 11
207.552558883
 21
110.025
 31
0.0
  0
LINE
  8
0
  6
CONTINUOUS
 62
     2
 10
207.552558883
 20
110.025
 30
0.0
 11
207.152558883
 21
110.025
 31
0.0
  0
LINE
  8
0
  6
CONTINUOUS
 62
     2
 10
207.152558883
 20
110.025
 30
0.0
 11
207.152558883
 21
110.5
 31
0.0
  0
ARC
  8
0
  6
CONTINUOUS
 62
     2
 10
206.952558883
 20
110.5
 30
0.0
 40
0.2
 50
0.0
 51
90.0
  0
LINE
  8
0
  6
CONTINUOUS
 62
     2
 10
206.952558883
 20
110.7
 30
0.0
 11
206.477558883
 21
110.7
 31
0.0
  0
LINE
  8
0
  6
CONTINUOUS
 62
     2
 10
206.477558883
 20
110.7
 30
0.0
 11
206.477558883
 21
111.1
 31
0.0
  0
LINE
  8
0
  6
LTYPE2
 62
     2
 10
205.352558883
 20
110.9
 30
0.0
 11
209.352558883
 21
110.9
 31
0.0
  0
LINE
  8
0
  6
LTYPE2
 62
     2
 10
207.352558883
 20
112.9
 30
0.0
 11
207.352558883
 21
108.9
 31
0.0
  0
CIRCLE
  8
0
  6
LTYPE3
 62
     2
 10
188.3
 20
136.9
 30
0.0
 40
1.75
  0
LINE
  8
0
  6
CONTINUOUS
 62
     2
 10
165.8
 20
148.5
 30
0.0
 11
165.8
 21
169.25
 31
0.0
  0
LINE
  8
0
  6
CONTINUOUS
 62
     2
 10
165.8
 20
167.25
 30
0.0
 11
168.214814566
 21
166.602952387
 31
0.0
  0
LINE
  8
0
  6
CONTINUOUS
 62
     2
 10
165.8
 20
167.25
 30
0.0
 11
168.214814566
 21
167.897047613
 31
0.0
  0
LINE
  8
0
  6
CONTINUOUS
 62
     2
 10
165.8
 20
167.25
 30
0.0
 11
188.3
 21
167.25
 31
0.0
  0
LINE
  8
0
  6
CONTINUOUS
 62
     2
 10
188.3
 20
167.25
 30
0.0
 11
185.885185434
 21
167.897047613
 31
0.0
  0
LINE
  8
0
  6
CONTINUOUS
 62
     2
 10
188.3
 20
167.25
 30
0.0
 11
185.885185434
 21
166.602952387
 31
0.0
  0
TEXT
  8
0
  6
CONTINUOUS
 62
     2
 10
172.67
 20
168.25
 30
0.3
 40
3.0
  1
４５
 50
0.0
 41
0.6
 51
0.0
  7
KANJI1
  0
TEXT
  8
0
  6
CONTINUOUS
 62
     2
 10
176.57
 20
168.25
 30
0.18
 40
1.8
  1
±０．５
 50
0.0
 41
0.6
 51
0.0
  7
KANJI2
  0
LINE
  8
0
  6
CONTINUOUS
 62
     2
 10
188.3
 20
167.25
 30
0.0
 11
190.714814566
 21
166.602952387
 31
0.0
  0
LINE
  8
0
  6
CONTINUOUS
 62
     2
 10
188.3
 20
167.25
 30
0.0
 11
190.714814566
 21
167.897047613
 31
0.0
  0
LINE
  8
0
  6
CONTINUOUS
 62
     2
 10
188.3
 20
167.25
 30
0.0
 11
210.8
 21
167.25
 31
0.0
  0
LINE
  8
0
  6
CONTINUOUS
 62
     2
 10
210.8
 20
167.25
 30
0.0
 11
208.385185434
 21
167.897047613
 31
0.0
  0
LINE
  8
0
  6
CONTINUOUS
 62
     2
 10
210.8
 20
167.25
 30
0.0
 11
208.385185434
 21
166.602952387
 31
0.0
  0
TEXT
  8
0
  6
CONTINUOUS
 62
     2
 10
195.17
 20
168.25
 30
0.3
 40
3.0
  1
４５
 50
0.0
 41
0.6
 51
0.0
  7
KANJI1
  0
TEXT
  8
0
  6
CONTINUOUS
 62
     2
 10
199.07
 20
168.25
 30
0.18
 40
1.8
  1
±０．５
 50
0.0
 41
0.6
 51
0.0
  7
KANJI2
  0
LINE
  8
0
  6
CONTINUOUS
 62
     2
 10
215.05
 20
99.4
 30
0.0
 11
224.9
 21
99.4
 31
0.0
  0
LINE
  8
0
  6
CONTINUOUS
 62
     2
 10
222.9
 20
99.4
 30
0.0
 11
223.547047613
 21
101.814814566
 31
0.0
  0
LINE
  8
0
  6
CONTINUOUS
 62
     2
 10
222.9
 20
99.4
 30
0.0
 11
222.252952387
 21
101.814814566
 31
0.0
  0
LINE
  8
0
  6
CONTINUOUS
 62
     2
 10
222.9
 20
99.4
 30
0.0
 11
222.9
 21
121.9
 31
0.0
  0
LINE
  8
0
  6
CONTINUOUS
 62
     2
 10
222.9
 20
121.9
 30
0.0
 11
222.252952387
 21
119.485185434
 31
0.0
  0
LINE
  8
0
  6
CONTINUOUS
 62
     2
 10
222.9
 20
121.9
 30
0.0
 11
223.547047613
 21
119.485185434
 31
0.0
  0
LINE
  8
0
  6
CONTINUOUS
 62
     2
 10
210.5
 20
121.9
 30
0.0
 11
224.9
 21
121.9
 31
0.0
  0
TEXT
  8
0
  6
CONTINUOUS
 62
     2
 10
221.9
 20
106.27
 30
0.3
 40
3.0
  1
４５
 50
90.0
 41
0.6
 51
0.0
  7
KANJI1
  0
TEXT
  8
0
  6
CONTINUOUS
 62
     2
 10
221.9
 20
110.17
 30
0.18
 40
1.8
  1
±０．５
 50
90.0
 41
0.6
 51
0.0
  7
KANJI2
  0
LINE
  8
0
  6
CONTINUOUS
 62
     2
 10
222.9
 20
121.9
 30
0.0
 11
223.547047613
 21
124.314814566
 31
0.0
  0
LINE
  8
0
  6
CONTINUOUS
 62
     2
 10
222.9
 20
121.9
 30
0.0
 11
222.252952387
 21
124.314814566
 31
0.0
  0
LINE
  8
0
  6
CONTINUOUS
 62
     2
 10
222.9
 20
121.9
 30
0.0
 11
222.9
 21
144.4
 31
0.0
  0
LINE
  8
0
  6
CONTINUOUS
 62
     2
 10
222.9
 20
144.4
 30
0.0
 11
222.252952387
 21
141.985185434
 31
0.0
  0
LINE
  8
0
  6
CONTINUOUS
 62
     2
 10
222.9
 20
144.4
 30
0.0
 11
223.547047613
 21
141.985185434
 31
0.0
  0
LINE
  8
0
  6
CONTINUOUS
 62
     2
 10
215.0
 20
144.4
 30
0.0
 11
224.9
 21
144.4
 31
0.0
  0
TEXT
  8
0
  6
CONTINUOUS
 62
     2
 10
221.9
 20
128.77
 30
0.3
 40
3.0
  1
４５
 50
90.0
 41
0.6
 51
0.0
  7
KANJI1
  0
TEXT
  8
0
  6
CONTINUOUS
 62
     2
 10
221.9
 20
132.67
 30
0.18
 40
1.8
  1
±０．５
 50
90.0
 41
0.6
 51
0.0
  7
KANJI2
  0
CIRCLE
  8
0
  6
CONTINUOUS
 62
     2
 10
180.8
 20
126.85
 30
0.0
 40
3.175
  0
CIRCLE
  8
0
  6
CONTINUOUS
 62
     2
 10
180.8
 20
126.85
 30
0.0
 40
2.5
  0
LINE
  8
0
  6
CONTINUOUS
 62
     2
 10
182.175
 20
126.5
 30
0.0
 11
182.175
 21
127.2
 31
0.0
  0
LINE
  8
0
  6
CONTINUOUS
 62
     2
 10
179.425
 20
127.2
 30
0.0
 11
179.425
 21
126.5
 31
0.0
  0
LINE
  8
0
  6
CONTINUOUS
 62
     2
 10
182.175
 20
127.2
 30
0.0
 11
181.9
 21
127.2
 31
0.0
  0
LINE
  8
0
  6
CONTINUOUS
 62
     2
 10
181.15
 20
127.95
 30
0.0
 11
181.15
 21
129.325378759
 31
0.0
  0
ARC
  8
0
  6
CONTINUOUS
 62
     2
 10
181.9
 20
127.95
 30
0.0
 40
0.75
 50
180.0
 51
270.0
  0
LINE
  8
0
  6
CONTINUOUS
 62
     2
 10
181.9
 20
126.5
 30
0.0
 11
182.175
 21
126.5
 31
0.0
  0
LINE
  8
0
  6
CONTINUOUS
 62
     2
 10
181.15
 20
124.4
 30
0.0
 11
181.15
 21
125.75
 31
0.0
  0
ARC
  8
0
  6
CONTINUOUS
 62
     2
 10
181.9
 20
125.75
 30
0.0
 40
0.75
 50
90.0
 51
180.0
  0
LINE
  8
0
  6
CONTINUOUS
 62
     2
 10
179.425
 20
126.5
 30
0.0
 11
179.7
 21
126.5
 31
0.0
  0
LINE
  8
0
  6
CONTINUOUS
 62
     2
 10
180.45
 20
125.75
 30
0.0
 11
180.45
 21
124.374621241
 31
0.0
  0
ARC
  8
0
  6
CONTINUOUS
 62
     2
 10
179.7
 20
125.75
 30
0.0
 40
0.75
 50
0.0
 51
90.0
  0
LINE
  8
0
  6
CONTINUOUS
 62
     2
 10
179.7
 20
127.2
 30
0.0
 11
179.425
 21
127.2
 31
0.0
  0
LINE
  8
0
  6
CONTINUOUS
 62
     2
 10
180.45
 20
129.325378759
 30
0.0
 11
180.45
 21
127.95
 31
0.0
  0
ARC
  8
0
  6
CONTINUOUS
 62
     2
 10
179.7
 20
127.95
 30
0.0
 40
0.75
 50
270.0
 51
0.0
  0
CIRCLE
  8
0
  6
CONTINUOUS
 62
     2
 10
195.8
 20
126.85
 30
0.0
 40
3.175
  0
CIRCLE
  8
0
  6
CONTINUOUS
 62
     2
 10
195.8
 20
126.85
 30
0.0
 40
2.5
  0
LINE
  8
0
  6
CONTINUOUS
 62
     2
 10
197.175
 20
126.5
 30
0.0
 11
197.175
 21
127.2
 31
0.0
  0
LINE
  8
0
  6
CONTINUOUS
 62
     2
 10
194.425
 20
127.2
 30
0.0
 11
194.425
 21
126.5
 31
0.0
  0
LINE
  8
0
  6
CONTINUOUS
 62
     2
 10
197.175
 20
127.2
 30
0.0
 11
196.9
 21
127.2
 31
0.0
  0
LINE
  8
0
  6
CONTINUOUS
 62
     2
 10
196.15
 20
127.95
 30
0.0
 11
196.15
 21
129.325378759
 31
0.0
  0
ARC
  8
0
  6
CONTINUOUS
 62
     2
 10
196.9
 20
127.95
 30
0.0
 40
0.75
 50
180.0
 51
270.0
  0
LINE
  8
0
  6
CONTINUOUS
 62
     2
 10
196.9
 20
126.5
 30
0.0
 11
197.175
 21
126.5
 31
0.0
  0
LINE
  8
0
  6
CONTINUOUS
 62
     2
 10
196.15
 20
124.4
 30
0.0
 11
196.15
 21
125.75
 31
0.0
  0
ARC
  8
0
  6
CONTINUOUS
 62
     2
 10
196.9
 20
125.75
 30
0.0
 40
0.75
 50
90.0
 51
180.0
  0
LINE
  8
0
  6
CONTINUOUS
 62
     2
 10
194.425
 20
126.5
 30
0.0
 11
194.7
 21
126.5
 31
0.0
  0
LINE
  8
0
  6
CONTINUOUS
 62
     2
 10
195.45
 20
125.75
 30
0.0
 11
195.45
 21
124.374621241
 31
0.0
  0
ARC
  8
0
  6
CONTINUOUS
 62
     2
 10
194.7
 20
125.75
 30
0.0
 40
0.75
 50
0.0
 51
90.0
  0
LINE
  8
0
  6
CONTINUOUS
 62
     2
 10
194.7
 20
127.2
 30
0.0
 11
194.425
 21
127.2
 31
0.0
  0
LINE
  8
0
  6
CONTINUOUS
 62
     2
 10
195.45
 20
129.325378759
 30
0.0
 11
195.45
 21
127.95
 31
0.0
  0
ARC
  8
0
  6
CONTINUOUS
 62
     2
 10
194.7
 20
127.95
 30
0.0
 40
0.75
 50
270.0
 51
0.0
  0
LINE
  8
0
  6
CONTINUOUS
 62
     2
 10
175.46294005
 20
100.739366932
 30
0.0
 11
177.268639301
 21
102.468369597
 31
0.0
  0
LINE
  8
0
  6
CONTINUOUS
 62
     2
 10
175.46294005
 20
100.739366932
 30
0.0
 11
176.16222014
 21
103.139576788
 31
0.0
  0
LINE
  8
0
  6
CONTINUOUS
 62
     2
 10
201.13705995
 20
143.060633068
 30
0.0
 11
199.331360699
 21
141.331630403
 31
0.0
  0
LINE
  8
0
  6
CONTINUOUS
 62
     2
 10
201.13705995
 20
143.060633068
 30
0.0
 11
200.43777986
 21
140.660423212
 31
0.0
  0
LINE
  8
0
  6
CONTINUOUS
 62
     2
 10
110.65
 20
98.05
 30
0.0
 11
111.296786092
 21
95.635115375
 31
0.0
  0
LINE
  8
0
  6
CONTINUOUS
 62
     2
 10
110.65
 20
98.05
 30
0.0
 11
112.417575499
 21
96.282041614
 31
0.0
  0
LINE
  8
0
  6
CONTINUOUS
 62
     2
 10
110.65
 20
98.05
 30
0.0
 11
118.5
 21
84.45
 31
0.0
  0
LINE
  8
0
  6
LTYPE1
 62
     2
 10
159.0
 20
51.05
 30
0.0
 11
217.7
 21
51.05
 31
0.0
  0
LINE
  8
0
  6
LTYPE1
 62
     2
 10
161.7
 20
28.55
 30
0.0
 11
168.85
 21
28.55
 31
0.0
  0
LINE
  8
0
  6
LTYPE1
 62
     2
 10
206.4
 20
28.55
 30
0.0
 11
215.7
 21
28.55
 31
0.0
  0
LINE
  8
0
  6
LTYPE1
 62
     2
 10
210.8
 20
24.2
 30
0.0
 11
210.8
 21
33.55
 31
0.0
  0
LINE
  8
0
  6
LTYPE1
 62
     2
 10
210.8
 20
68.15
 30
0.0
 11
210.8
 21
79.9
 31
0.0
  0
LINE
  8
0
  6
LTYPE1
 62
     2
 10
165.8
 20
79.9
 30
0.0
 11
165.8
 21
69.15
 31
0.0
  0
LINE
  8
0
  6
LTYPE1
 62
     2
 10
165.8
 20
33.75
 30
0.0
 11
165.8
 21
23.45
 31
0.0
  0
LINE
  8
0
  6
LTYPE1
 62
     2
 10
161.75
 20
73.55
 30
0.0
 11
172.4
 21
73.55
 31
0.0
  0
LINE
  8
0
  6
LTYPE1
 62
     2
 10
205.0
 20
73.55
 30
0.0
 11
218.05
 21
73.55
 31
0.0
  0
LINE
  8
0
  6
CONTINUOUS
 62
     2
 10
215.85
 20
28.55
 30
0.0
 11
224.3
 21
28.55
 31
0.0
  0
LINE
  8
0
  6
CONTINUOUS
 62
     2
 10
222.3
 20
28.55
 30
0.0
 11
222.947047613
 21
30.964814566
 31
0.0
  0
LINE
  8
0
  6
CONTINUOUS
 62
     2
 10
222.3
 20
28.55
 30
0.0
 11
221.652952387
 21
30.964814566
 31
0.0
  0
LINE
  8
0
  6
CONTINUOUS
 62
     2
 10
222.3
 20
51.05
 30
0.0
 11
221.652952387
 21
48.635185434
 31
0.0
  0
LINE
  8
0
  6
CONTINUOUS
 62
     2
 10
222.3
 20
51.05
 30
0.0
 11
222.947047613
 21
48.635185434
 31
0.0
  0
LINE
  8
0
  6
CONTINUOUS
 62
     2
 10
217.7
 20
51.05
 30
0.0
 11
224.3
 21
51.05
 31
0.0
  0
LINE
  8
0
  6
CONTINUOUS
 62
     2
 10
222.3
 20
51.05
 30
0.0
 11
222.947047613
 21
53.464814566
 31
0.0
  0
LINE
  8
0
  6
CONTINUOUS
 62
     2
 10
222.3
 20
51.05
 30
0.0
 11
221.652952387
 21
53.464814566
 31
0.0
  0
LINE
  8
0
  6
CONTINUOUS
 62
     2
 10
222.3
 20
51.05
 30
0.0
 11
222.3
 21
73.55
 31
0.0
  0
LINE
  8
0
  6
CONTINUOUS
 62
     2
 10
222.3
 20
73.55
 30
0.0
 11
221.652952387
 21
71.135185434
 31
0.0
  0
LINE
  8
0
  6
CONTINUOUS
 62
     2
 10
222.3
 20
73.55
 30
0.0
 11
222.947047613
 21
71.135185434
 31
0.0
  0
LINE
  8
0
  6
CONTINUOUS
 62
     2
 10
218.05
 20
73.55
 30
0.0
 11
224.3
 21
73.55
 31
0.0
  0
TEXT
  8
0
  6
CONTINUOUS
 62
     2
 10
221.3
 20
57.92
 30
0.3
 40
3.0
  1
４５
 50
90.0
 41
0.6
 51
0.0
  7
KANJI1
  0
TEXT
  8
0
  6
CONTINUOUS
 62
     2
 10
221.3
 20
61.82
 30
0.18
 40
1.8
  1
±０．５
 50
90.0
 41
0.6
 51
0.0
  7
KANJI2
  0
LINE
  8
0
  6
CONTINUOUS
 62
     2
 10
222.3
 20
28.55
 30
0.0
 11
222.3
 21
51.05
 31
0.0
  0
TEXT
  8
0
  6
CONTINUOUS
 62
     2
 10
221.3
 20
35.42
 30
0.3
 40
3.0
  1
４５
 50
90.0
 41
0.6
 51
0.0
  7
KANJI1
  0
TEXT
  8
0
  6
CONTINUOUS
 62
     2
 10
221.3
 20
39.32
 30
0.18
 40
1.8
  1
±０．５
 50
90.0
 41
0.6
 51
0.0
  7
KANJI2
  0
LINE
  8
0
  6
CONTINUOUS
 62
     2
 10
165.8
 20
79.9
 30
0.0
 11
165.8
 21
82.55
 31
0.0
  0
LINE
  8
0
  6
CONTINUOUS
 62
     2
 10
165.8
 20
80.55
 30
0.0
 11
168.214814566
 21
79.902952387
 31
0.0
  0
LINE
  8
0
  6
CONTINUOUS
 62
     2
 10
165.8
 20
80.55
 30
0.0
 11
168.214814566
 21
81.197047613
 31
0.0
  0
LINE
  8
0
  6
CONTINUOUS
 62
     2
 10
165.8
 20
80.55
 30
0.0
 11
188.3
 21
80.55
 31
0.0
  0
LINE
  8
0
  6
CONTINUOUS
 62
     2
 10
188.3
 20
80.55
 30
0.0
 11
185.885185434
 21
81.197047613
 31
0.0
  0
LINE
  8
0
  6
CONTINUOUS
 62
     2
 10
188.3
 20
80.55
 30
0.0
 11
185.885185434
 21
79.902952387
 31
0.0
  0
LINE
  8
0
  6
CONTINUOUS
 62
     2
 10
188.3
 20
79.9
 30
0.0
 11
188.3
 21
82.55
 31
0.0
  0
TEXT
  8
0
  6
CONTINUOUS
 62
     2
 10
172.67
 20
81.55
 30
0.3
 40
3.0
  1
４５
 50
0.0
 41
0.6
 51
0.0
  7
KANJI1
  0
TEXT
  8
0
  6
CONTINUOUS
 62
     2
 10
176.57
 20
81.55
 30
0.18
 40
1.8
  1
±０．５
 50
0.0
 41
0.6
 51
0.0
  7
KANJI2
  0
LINE
  8
0
  6
CONTINUOUS
 62
     2
 10
188.3
 20
80.55
 30
0.0
 11
190.714814566
 21
79.902952387
 31
0.0
  0
LINE
  8
0
  6
CONTINUOUS
 62
     2
 10
188.3
 20
80.55
 30
0.0
 11
190.714814566
 21
81.197047613
 31
0.0
  0
LINE
  8
0
  6
CONTINUOUS
 62
     2
 10
188.3
 20
80.55
 30
0.0
 11
210.8
 21
80.55
 31
0.0
  0
LINE
  8
0
  6
CONTINUOUS
 62
     2
 10
210.8
 20
80.55
 30
0.0
 11
208.385185434
 21
81.197047613
 31
0.0
  0
LINE
  8
0
  6
CONTINUOUS
 62
     2
 10
210.8
 20
80.55
 30
0.0
 11
208.385185434
 21
79.902952387
 31
0.0
  0
TEXT
  8
0
  6
CONTINUOUS
 62
     2
 10
195.17
 20
81.55
 30
0.3
 40
3.0
  1
４５
 50
0.0
 41
0.6
 51
0.0
  7
KANJI1
  0
TEXT
  8
0
  6
CONTINUOUS
 62
     2
 10
199.07
 20
81.55
 30
0.18
 40
1.8
  1
±０．５
 50
0.0
 41
0.6
 51
0.0
  7
KANJI2
  0
LINE
  8
0
  6
CONTINUOUS
 62
     2
 10
170.697520726
 20
32.599993946
 30
0.0
 11
172.832609185
 21
33.900531246
 31
0.0
  0
LINE
  8
0
  6
CONTINUOUS
 62
     2
 10
170.697520726
 20
32.599993946
 30
0.0
 11
171.896292921
 21
34.793836516
 31
0.0
  0
LINE
  8
0
  6
CONTINUOUS
 62
     2
 10
205.902479274
 20
69.500006054
 30
0.0
 11
203.767390815
 21
68.199468754
 31
0.0
  0
LINE
  8
0
  6
CONTINUOUS
 62
     2
 10
205.902479274
 20
69.500006054
 30
0.0
 11
204.703707079
 21
67.306163484
 31
0.0
  0
ARC
  8
0
  6
LTYPE3
 62
     2
 10
130.5
 20
101.75
 30
0.0
 40
1.0
 50
0.0
 51
180.0
  0
ARC
  8
0
  6
LTYPE3
 62
     2
 10
134.0
 20
101.75
 30
0.0
 40
1.0
 50
0.0
 51
180.0
  0
ARC
  8
0
  6
LTYPE3
 62
     2
 10
137.5
 20
101.75
 30
0.0
 40
1.0
 50
0.0
 51
180.0
  0
ARC
  8
0
  6
LTYPE3
 62
     2
 10
141.0
 20
101.75
 30
0.0
 40
1.0
 50
0.0
 51
180.0
  0
ARC
  8
0
  6
LTYPE3
 62
     2
 10
141.0
 20
99.15
 30
0.0
 40
1.0
 50
180.0
 51
0.0
  0
ARC
  8
0
  6
LTYPE3
 62
     2
 10
137.5
 20
99.15
 30
0.0
 40
1.0
 50
180.0
 51
0.0
  0
ARC
  8
0
  6
LTYPE3
 62
     2
 10
134.0
 20
99.15
 30
0.0
 40
1.0
 50
180.0
 51
0.0
  0
ARC
  8
0
  6
LTYPE3
 62
     2
 10
130.5
 20
99.15
 30
0.0
 40
1.0
 50
180.0
 51
0.0
  0
ARC
  8
0
  6
LTYPE3
 62
     2
 10
130.5
 20
144.65
 30
0.0
 40
1.0
 50
0.0
 51
180.0
  0
ARC
  8
0
  6
LTYPE3
 62
     2
 10
134.0
 20
144.65
 30
0.0
 40
1.0
 50
0.0
 51
180.0
  0
ARC
  8
0
  6
LTYPE3
 62
     2
 10
137.5
 20
144.65
 30
0.0
 40
1.0
 50
0.0
 51
180.0
  0
ARC
  8
0
  6
LTYPE3
 62
     2
 10
141.0
 20
144.65
 30
0.0
 40
1.0
 50
0.0
 51
180.0
  0
ARC
  8
0
  6
LTYPE3
 62
     2
 10
141.0
 20
142.15
 30
0.0
 40
1.0
 50
180.0
 51
0.0
  0
ARC
  8
0
  6
LTYPE3
 62
     2
 10
137.5
 20
142.15
 30
0.0
 40
1.0
 50
180.0
 51
0.0
  0
ARC
  8
0
  6
LTYPE3
 62
     2
 10
134.0
 20
142.15
 30
0.0
 40
1.0
 50
180.0
 51
0.0
  0
ARC
  8
0
  6
LTYPE3
 62
     2
 10
130.5
 20
142.15
 30
0.0
 40
1.0
 50
180.0
 51
0.0
  0
LINE
  8
0
  6
LTYPE3
 62
     2
 10
129.5
 20
144.65
 30
0.0
 11
129.5
 21
142.15
 31
0.0
  0
LINE
  8
0
  6
LTYPE3
 62
     2
 10
131.5
 20
142.15
 30
0.0
 11
131.5
 21
144.65
 31
0.0
  0
LINE
  8
0
  6
LTYPE3
 62
     2
 10
133.0
 20
144.65
 30
0.0
 11
133.0
 21
142.15
 31
0.0
  0
POINT
  8
0
  6
LTYPE3
 62
     2
 10
135.0
 20
142.15
 30
0.0
  0
POINT
  8
0
  6
LTYPE3
 62
     2
 10
135.0
 20
142.15
 30
0.0
  0
POINT
  8
0
  6
LTYPE3
 62
     2
 10
135.0
 20
142.15
 30
0.0
  0
POINT
  8
0
  6
LTYPE3
 62
     2
 10
135.0
 20
142.15
 30
0.0
  0
POINT
  8
0
  6
LTYPE3
 62
     2
 10
135.0
 20
142.15
 30
0.0
  0
LINE
  8
0
  6
LTYPE3
 62
     2
 10
135.0
 20
142.15
 30
0.0
 11
135.0
 21
144.65
 31
0.0
  0
LINE
  8
0
  6
LTYPE3
 62
     2
 10
136.5
 20
144.65
 30
0.0
 11
136.5
 21
142.15
 31
0.0
  0
LINE
  8
0
  6
LTYPE3
 62
     2
 10
138.5
 20
142.15
 30
0.0
 11
138.5
 21
144.65
 31
0.0
  0
LINE
  8
0
  6
LTYPE3
 62
     2
 10
140.0
 20
144.65
 30
0.0
 11
140.0
 21
142.15
 31
0.0
  0
LINE
  8
0
  6
LTYPE3
 62
     2
 10
142.0
 20
142.15
 30
0.0
 11
142.0
 21
144.65
 31
0.0
  0
LINE
  8
0
  6
LTYPE3
 62
     2
 10
142.0
 20
99.15
 30
0.0
 11
142.0
 21
101.75
 31
0.0
  0
LINE
  8
0
  6
LTYPE3
 62
     2
 10
140.0
 20
101.75
 30
0.0
 11
140.0
 21
99.15
 31
0.0
  0
POINT
  8
0
  6
LTYPE3
 62
     2
 10
138.5
 20
99.15
 30
0.0
  0
POINT
  8
0
  6
LTYPE3
 62
     2
 10
138.5
 20
99.15
 30
0.0
  0
POINT
  8
0
  6
LTYPE3
 62
     2
 10
138.5
 20
99.15
 30
0.0
  0
POINT
  8
0
  6
LTYPE3
 62
     2
 10
138.5
 20
99.15
 30
0.0
  0
POINT
  8
0
  6
LTYPE3
 62
     2
 10
138.5
 20
99.15
 30
0.0
  0
LINE
  8
0
  6
LTYPE3
 62
     2
 10
138.5
 20
99.15
 30
0.0
 11
138.5
 21
101.75
 31
0.0
  0
LINE
  8
0
  6
LTYPE3
 62
     2
 10
136.5
 20
101.75
 30
0.0
 11
136.5
 21
99.15
 31
0.0
  0
POINT
  8
0
  6
LTYPE3
 62
     2
 10
135.0
 20
99.15
 30
0.0
  0
POINT
  8
0
  6
LTYPE3
 62
     2
 10
135.0
 20
99.15
 30
0.0
  0
LINE
  8
0
  6
LTYPE3
 62
     2
 10
135.0
 20
99.15
 30
0.0
 11
135.0
 21
101.75
 31
0.0
  0
LINE
  8
0
  6
LTYPE3
 62
     2
 10
133.0
 20
101.75
 30
0.0
 11
133.0
 21
99.15
 31
0.0
  0
LINE
  8
0
  6
LTYPE3
 62
     2
 10
131.5
 20
99.15
 30
0.0
 11
131.5
 21
101.75
 31
0.0
  0
LINE
  8
0
  6
LTYPE3
 62
     2
 10
129.5
 20
101.75
 30
0.0
 11
129.5
 21
99.15
 31
0.0
  0
LINE
  8
0
  6
CONTINUOUS
 62
     2
 10
27.3
 20
72.3
 30
0.0
 11
152.3
 21
72.3
 31
0.0
  0
LINE
  8
0
  6
CONTINUOUS
 62
     2
 10
152.3
 20
32.3
 30
0.0
 11
27.3
 21
32.3
 31
0.0
  0
LINE
  8
0
  6
CONTINUOUS
 62
     2
 10
27.3
 20
67.3
 30
0.0
 11
152.3
 21
67.3
 31
0.0
  0
LINE
  8
0
  6
CONTINUOUS
 62
     2
 10
27.3
 20
57.3
 30
0.0
 11
122.3
 21
57.3
 31
0.0
  0
LINE
  8
0
  6
CONTINUOUS
 62
     2
 10
122.3
 20
52.3
 30
0.0
 11
27.3
 21
52.3
 31
0.0
  0
LINE
  8
0
  6
CONTINUOUS
 62
     2
 10
27.3
 20
47.3
 30
0.0
 11
122.3
 21
47.3
 31
0.0
  0
LINE
  8
0
  6
CONTINUOUS
 62
     2
 10
122.3
 20
42.3
 30
0.0
 11
27.3
 21
42.3
 31
0.0
  0
LINE
  8
0
  6
CONTINUOUS
 62
     2
 10
122.3
 20
42.3
 30
0.0
 11
152.3
 21
42.3
 31
0.0
  0
LINE
  8
0
  6
CONTINUOUS
 62
     2
 10
122.3
 20
42.3
 30
0.0
 11
152.3
 21
67.3
 31
0.0
  0
TEXT
  8
0
  6
CONTINUOUS
 62
     2
 10
28.3
 20
68.3
 30
0.3
 40
3.0
  1
項
 50
0.0
 41
0.9
 51
0.0
  7
KANJI3
  0
TEXT
  8
0
  6
CONTINUOUS
 62
     2
 10
28.3
 20
63.3
 30
0.3
 40
3.0
  1
１
 50
0.0
 41
0.9
 51
0.0
  7
KANJI3
  0
TEXT
  8
0
  6
CONTINUOUS
 62
     2
 10
28.3
 20
58.3
 30
0.3
 40
3.0
  1
２
 50
0.0
 41
0.9
 51
0.0
  7
KANJI3
  0
TEXT
  8
0
  6
CONTINUOUS
 62
     2
 10
28.3
 20
53.3
 30
0.3
 40
3.0
  1
３
 50
0.0
 41
0.9
 51
0.0
  7
KANJI3
  0
TEXT
  8
0
  6
CONTINUOUS
 62
     2
 10
28.3
 20
48.3
 30
0.3
 40
3.0
  1
４
 50
0.0
 41
0.9
 51
0.0
  7
KANJI3
  0
TEXT
  8
0
  6
CONTINUOUS
 62
     2
 10
28.3
 20
43.3
 30
0.3
 40
3.0
  1
５
 50
0.0
 41
0.9
 51
0.0
  7
KANJI3
  0
TEXT
  8
0
  6
CONTINUOUS
 62
     2
 10
28.3
 20
38.3
 30
0.3
 40
3.0
  1
６
 50
0.0
 41
0.9
 51
0.0
  7
KANJI3
  0
TEXT
  8
0
  6
CONTINUOUS
 62
     2
 10
28.3
 20
33.3
 30
0.3
 40
3.0
  1
７
 50
0.0
 41
0.9
 51
0.0
  7
KANJI3
  0
TEXT
  8
0
  6
CONTINUOUS
 62
     2
 10
37.3
 20
68.3
 30
1.0
 40
3.0
  1
計器形名
 50
0.0
 41
0.9
 51
0.0
  7
KANJI4
  0
TEXT
  8
0
  6
CONTINUOUS
 62
     2
 10
123.3
 20
68.3
 30
1.0
 40
3.0
  1
感度調整用抵抗器
 50
0.0
 41
0.9
 51
0.0
  7
KANJI4
  0
TEXT
  8
0
  6
CONTINUOUS
 62
     2
 10
123.3
 20
38.3
 30
1.0
 40
3.0
  1
上図※印の位置に
 50
0.0
 41
0.9
 51
0.0
  7
KANJI4
  0
TEXT
  8
0
  6
CONTINUOUS
 62
     2
 10
37.3
 20
63.3
 30
0.5
 40
3.0
  1
ＤＶＦ－１１
 50
0.0
 41
0.9
 51
0.0
  7
KANJI0
  0
TEXT
  8
0
  6
CONTINUOUS
 62
     2
 10
37.3
 20
59.8
 30
0.5
 40
3.0
  1
Ｓ
 50
0.0
 41
0.45
 51
0.0
  7
KANJI5
  0
TEXT
  8
0
  6
CONTINUOUS
 62
     2
 10
37.3
 20
57.3
 30
0.5
 40
3.0
  1
Ｃ
 50
0.0
 41
0.45
 51
0.0
  7
KANJI5
  0
TEXT
  8
0
  6
CONTINUOUS
 62
     2
 10
40.6
 20
58.3
 30
0.5
 40
3.0
  1
ＶＦ－１１
 50
0.0
 41
0.9
 51
0.0
  7
KANJI0
  0
TEXT
  8
0
  6
CONTINUOUS
 62
     2
 10
37.5
 20
53.3
 30
0.5
 40
3.0
  1
ＳｅＶＦ－１１
 50
0.0
 41
0.9
 51
0.0
  7
KANJI0
  0
TEXT
  8
0
  6
CONTINUOUS
 62
     2
 10
37.5
 20
48.3
 30
0.5
 40
3.0
  1
ＦＶＦ－１１　
 50
0.0
 41
0.9
 51
0.0
  7
KANJI0
  0
TEXT
  8
0
  6
CONTINUOUS
 62
     2
 10
37.5
 20
43.3
 30
0.5
 40
3.0
  1
ＡＶＦ－１１　
 50
0.0
 41
0.9
 51
0.0
  7
KANJI0
  0
TEXT
  8
0
  6
CONTINUOUS
 62
     2
 10
37.5
 20
38.3
 30
0.5
 40
3.0
  1
ＤＶＦ－１１Ｖ
 50
0.0
 41
0.9
 51
0.0
  7
KANJI0
  0
TEXT
  8
0
  6
CONTINUOUS
 62
     2
 10
37.5
 20
34.8
 30
0.5
 40
3.0
  1
Ｓ
 50
0.0
 41
0.45
 51
0.0
  7
KANJI5
  0
TEXT
  8
0
  6
CONTINUOUS
 62
     2
 10
37.5
 20
32.3
 30
0.5
 40
3.0
  1
Ｃ　
 50
0.0
 41
0.45
 51
0.0
  7
KANJI5
  0
TEXT
  8
0
  6
CONTINUOUS
 62
     2
 10
40.5
 20
33.3
 30
0.5
 40
3.0
  1
ＶＦ－１１Ｖ
 50
0.0
 41
0.9
 51
0.0
  7
KANJI0
  0
TEXT
  8
0
  6
CONTINUOUS
 62
     2
 10
101.3
 20
63.3
 30
0.5
 40
3.0
  1
１０２
 50
0.0
 41
0.9
 51
0.0
  7
KANJI0
  0
TEXT
  8
0
  6
CONTINUOUS
 62
     2
 10
101.3
 20
58.3
 30
0.5
 40
3.0
  1
１０２
 50
0.0
 41
0.9
 51
0.0
  7
KANJI0
  0
TEXT
  8
0
  6
CONTINUOUS
 62
     2
 10
101.3
 20
53.3
 30
0.5
 40
3.0
  1
１０２
 50
0.0
 41
0.9
 51
0.0
  7
KANJI0
  0
TEXT
  8
0
  6
CONTINUOUS
 62
     2
 10
101.3
 20
48.3
 30
0.5
 40
3.0
  1
１０２
 50
0.0
 41
0.9
 51
0.0
  7
KANJI0
  0
TEXT
  8
0
  6
CONTINUOUS
 62
     2
 10
101.3
 20
43.3
 30
0.5
 40
3.0
  1
１２９
 50
0.0
 41
0.9
 51
0.0
  7
KANJI0
  0
TEXT
  8
0
  6
CONTINUOUS
 62
     2
 10
101.3
 20
38.3
 30
0.5
 40
3.0
  1
１０２
 50
0.0
 41
0.9
 51
0.0
  7
KANJI0
  0
TEXT
  8
0
  6
CONTINUOUS
 62
     2
 10
101.3
 20
33.3
 30
0.5
 40
3.0
  1
１０２
 50
0.0
 41
0.9
 51
0.0
  7
KANJI0
  0
LINE
  8
0
  6
LTYPE1
 62
     2
 10
185.914213562
 20
136.885786438
 30
0.0
 11
190.564213562
 21
136.885786438
 31
0.0
  0
TEXT
  8
0
  6
CONTINUOUS
 62
     2
 10
123.3
 20
33.3
 30
1.0
 40
3.0
  1
内蔵しています
 50
0.0
 41
0.9
 51
0.0
  7
KANJI4
  0
LINE
  8
0
  6
CONTINUOUS
 62
     2
 10
36.714213562
 20
62.3
 30
0.0
 11
27.3
 21
62.3
 31
0.0
  0
LINE
  8
0
  6
CONTINUOUS
 62
     2
 10
122.3
 20
62.3
 30
0.0
 11
38.714213562
 21
62.3
 31
0.0
  0
LINE
  8
0
  6
CONTINUOUS
 62
     2
 10
39.064213562
 20
37.3
 30
0.0
 11
122.3
 21
37.3
 31
0.0
  0
LINE
  8
0
  6
CONTINUOUS
 62
     2
 10
27.3
 20
37.3
 30
0.0
 11
36.964213562
 21
37.3
 31
0.0
  0
TEXT
  8
0
  6
CONTINUOUS
 62
     2
 10
97.914213562
 20
68.485786438
 30
0.5
 40
3.0
  1
計器胴寸法
 50
0.0
 41
0.9
 51
0.0
  7
KANJI0
  0
LINE
  8
0
  6
LTYPE4
 62
     2
 10
147.0
 20
123.65
 30
0.0
 11
147.0
 21
131.15
 31
0.0
  0
LINE
  8
0
  6
CONTINUOUS
 62
     2
 10
110.030901326
 20
147.25
 30
0.0
 11
107.75
 21
147.25
 31
0.0
  0
LINE
  8
0
  6
CONTINUOUS
 62
     2
 10
107.75
 20
141.55
 30
0.0
 11
110.025
 21
141.55
 31
0.0
  0
LINE
  8
0
  6
CONTINUOUS
 62
     2
 10
107.75
 20
147.25
 30
0.0
 11
107.75
 21
141.55
 31
0.0
  0
LINE
  8
0
  6
CONTINUOUS
 62
     2
 10
106.75
 20
147.75
 30
0.0
 11
107.75
 21
147.25
 31
0.0
  0
LINE
  8
0
  6
CONTINUOUS
 62
     2
 10
106.75
 20
141.05
 30
0.0
 11
107.75
 21
141.55
 31
0.0
  0
LINE
  8
0
  6
CONTINUOUS
 62
     2
 10
106.75
 20
147.75
 30
0.0
 11
106.75
 21
141.05
 31
0.0
  0
LINE
  8
0
  6
CONTINUOUS
 62
     2
 10
106.75
 20
145.9
 30
0.0
 11
104.75
 21
145.9
 31
0.0
  0
LINE
  8
0
  6
CONTINUOUS
 62
     2
 10
106.75
 20
145.785
 30
0.0
 11
104.75
 21
145.785
 31
0.0
  0
LINE
  8
0
  6
CONTINUOUS
 62
     1
 10
106.75
 20
146.65
 30
0.0
 11
104.75
 21
146.65
 31
0.0
  0
LINE
  8
0
  6
CONTINUOUS
 62
     2
 10
104.75
 20
142.905
 30
0.0
 11
106.75
 21
142.905
 31
0.0
  0
LINE
  8
0
  6
CONTINUOUS
 62
     2
 10
106.75
 20
143.025
 30
0.0
 11
104.75
 21
143.025
 31
0.0
  0
LINE
  8
0
  6
CONTINUOUS
 62
     2
 10
104.75
 20
97.905
 30
0.0
 11
106.85
 21
97.905
 31
0.0
  0
LINE
  8
0
  6
CONTINUOUS
 62
     2
 10
106.85
 20
98.025
 30
0.0
 11
104.75
 21
98.025
 31
0.0
  0
LINE
  8
0
  6
CONTINUOUS
 62
     2
 10
106.75
 20
102.75
 30
0.0
 11
107.75
 21
102.25
 31
0.0
  0
LINE
  8
0
  6
CONTINUOUS
 62
     2
 10
106.75
 20
102.75
 30
0.0
 11
106.75
 21
96.05
 31
0.0
  0
LINE
  8
0
  6
CONTINUOUS
 62
     2
 10
106.75
 20
96.05
 30
0.0
 11
107.75
 21
96.55
 31
0.0
  0
LINE
  8
0
  6
CONTINUOUS
 62
     2
 10
107.75
 20
96.55
 30
0.0
 11
110.025
 21
96.55
 31
0.0
  0
LINE
  8
0
  6
CONTINUOUS
 62
     2
 10
107.75
 20
102.25
 30
0.0
 11
107.75
 21
96.55
 31
0.0
  0
LINE
  8
0
  6
CONTINUOUS
 62
     2
 10
106.75
 20
100.8
 30
0.0
 11
104.75
 21
100.8
 31
0.0
  0
LINE
  8
0
  6
CONTINUOUS
 62
     2
 10
106.75
 20
100.685
 30
0.0
 11
104.75
 21
100.685
 31
0.0
  0
TEXT
  8
0
  6
CONTINUOUS
 62
     2
 10
67.3
 20
68.3
 30
1.0
 40
3.0
  1
動作原理
 50
0.0
 41
0.9
 51
0.0
  7
KANJI4
  0
TEXT
  8
0
  6
CONTINUOUS
 62
     2
 10
67.3
 20
58.3
 30
0.5
 40
3.0
  1
整流形
 50
0.0
 41
0.9
 51
0.0
  7
KANJI0
  0
TEXT
  8
0
  6
CONTINUOUS
 62
     2
 10
66.8
 20
43.3
 30
0.5
 40
3.0
  1
可動鉄片形
 50
0.0
 41
0.9
 51
0.0
  7
KANJI0
  0
TEXT
  8
0
  6
CONTINUOUS
 62
     2
 10
66.8
 20
38.3
 30
0.5
 40
3.0
  1
可動コイル形
 50
0.0
 41
0.9
 51
0.0
  7
KANJI0
  0
TEXT
  8
0
  6
CONTINUOUS
 62
     2
 10
66.8
 20
33.3
 30
0.5
 40
3.0
  1
整流形
 50
0.0
 41
0.9
 51
0.0
  7
KANJI0
  0
LINE
  8
0
  6
CONTINUOUS
 62
     1
 10
106.75
 20
97.15
 30
0.0
 11
104.75
 21
97.15
 31
0.0
  0
TEXT
  8
0
  6
CONTINUOUS
 62
     2
 10
67.3
 20
63.3
 30
0.5
 40
3.0
  1
永久磁石可動コイル形
 50
0.0
 41
0.666666667
 51
0.0
  7
KANJI6
  0
TEXT
  8
0
  6
CONTINUOUS
 62
     2
 10
67.3
 20
53.3
 30
0.5
 40
3.0
  1
電子テ゛ハ゛イス形
 50
0.0
 41
0.666666667
 51
0.0
  7
KANJI6
  0
TEXT
  8
0
  6
CONTINUOUS
 62
     2
 10
67.3
 20
48.3
 30
0.5
 40
3.0
  1
電子テ゛ハ゛イス形
 50
0.0
 41
0.666666667
 51
0.0
  7
KANJI6
  0
LINE
  8
0
  6
CONTINUOUS
 62
     2
 10
108.0
 20
96.65
 30
0.0
 11
108.675878283
 21
94.243095651
 31
0.0
  0
LINE
  8
0
  6
CONTINUOUS
 62
     2
 10
108.0
 20
96.65
 30
0.0
 11
109.788779937
 21
94.90349883
 31
0.0
  0
LINE
  8
0
  6
CONTINUOUS
 62
     2
 10
108.0
 20
96.65
 30
0.0
 11
118.8
 21
78.45
 31
0.0
  0
LINE
  8
0
  6
CONTINUOUS
 62
     2
 10
175.5258801
 20
100.878733864
 30
0.0
 11
201.2
 21
143.2
 31
0.0
  0
LINE
  8
0
  6
CONTINUOUS
 62
     2
 10
170.697520726
 20
32.599993946
 30
0.0
 11
205.902479274
 21
69.500006054
 31
0.0
  0
LINE
  8
0
  6
CONTINUOUS
 62
     2
 10
40.0
 20
112.9
 30
0.0
 11
38.941306112
 21
110.63523351
 31
0.0
  0
LINE
  8
0
  6
CONTINUOUS
 62
     2
 10
40.0
 20
112.9
 30
0.0
 11
40.215527443
 21
110.409307743
 31
0.0
  0
LINE
  8
0
  6
CONTINUOUS
 62
     2
 10
40.0
 20
112.9
 30
0.0
 11
35.0
 21
84.7
 31
0.0
  0
LINE
  8
0
  6
CONTINUOUS
 62
     2
 10
35.0
 20
84.7
 30
0.0
 11
29.5
 21
84.7
 31
0.0
  0
TEXT
  8
0
  6
CONTINUOUS
 62
     2
 10
29.5
 20
85.7
 30
0.1
 40
3.0
  1
指針
 50
0.0
 41
0.9
 51
0.0
  7
KANJI7
  0
LINE
  8
0
  6
CONTINUOUS
 62
     2
 10
56.3
 20
119.2
 30
0.0
 11
56.012005002
 21
116.716643626
 31
0.0
  0
LINE
  8
0
  6
CONTINUOUS
 62
     2
 10
56.3
 20
119.2
 30
0.0
 11
57.292267202
 21
116.905352794
 31
0.0
  0
LINE
  8
0
  6
CONTINUOUS
 62
     2
 10
56.3
 20
119.2
 30
0.0
 11
61.4
 21
84.6
 31
0.0
  0
LINE
  8
0
  6
CONTINUOUS
 62
     2
 10
104.5
 20
154.775001907
 30
0.0
 11
102.085185434
 21
155.42204952
 31
0.0
  0
LINE
  8
0
  6
CONTINUOUS
 62
     2
 10
104.5
 20
154.775001907
 30
0.0
 11
102.085185434
 21
154.127954295
 31
0.0
  0
LINE
  8
0
  6
CONTINUOUS
 62
     2
 10
93.5
 20
154.775001907
 30
0.0
 11
109.75
 21
154.775001907
 31
0.0
  0
TEXT
  8
0
  6
CONTINUOUS
 62
     2
 10
94.65
 20
155.775001907
 30
0.3
 40
3.0
  1
０．５
 50
0.0
 41
0.6
 51
0.0
  7
KANJI1
  0
LINE
  8
0
  6
CONTINUOUS
 62
     2
 10
104.75
 20
154.775001907
 30
0.0
 11
107.164814566
 21
154.127954295
 31
0.0
  0
LINE
  8
0
  6
CONTINUOUS
 62
     2
 10
104.75
 20
154.775001907
 30
0.0
 11
107.164814566
 21
155.42204952
 31
0.0
  0
LINE
  8
0
  6
CONTINUOUS
 62
     2
 10
104.75
 20
154.775001907
 30
0.0
 11
112.25
 21
154.775001907
 31
0.0
  0
LINE
  8
0
  6
CONTINUOUS
 62
     2
 10
112.25
 20
154.775001907
 30
0.0
 11
109.835185434
 21
155.42204952
 31
0.0
  0
LINE
  8
0
  6
CONTINUOUS
 62
     2
 10
112.25
 20
154.775001907
 30
0.0
 11
109.835185434
 21
154.127954295
 31
0.0
  0
TEXT
  8
0
  6
CONTINUOUS
 62
     2
 10
106.55
 20
155.775001907
 30
0.3
 40
3.0
  1
１５
 50
0.0
 41
0.6
 51
0.0
  7
KANJI1
  0
LINE
  8
0
  6
CONTINUOUS
 62
     2
 10
104.75
 20
154.775001907
 30
0.0
 11
107.164814566
 21
154.127954295
 31
0.0
  0
LINE
  8
0
  6
CONTINUOUS
 62
     2
 10
104.75
 20
154.775001907
 30
0.0
 11
107.164814566
 21
155.42204952
 31
0.0
  0
LINE
  8
0
  6
CONTINUOUS
 62
     2
 10
141.0
 20
145.5
 30
0.0
 11
140.901734827
 21
147.998068045
 31
0.0
  0
LINE
  8
0
  6
CONTINUOUS
 62
     2
 10
141.0
 20
145.5
 30
0.0
 11
139.665865842
 21
147.614257801
 31
0.0
  0
LINE
  8
0
  6
CONTINUOUS
 62
     2
 10
141.0
 20
145.5
 30
0.0
 11
136.0
 21
161.6
 31
0.0
  0
LINE
  8
0
  6
CONTINUOUS
 62
     2
 10
136.0
 20
161.6
 30
0.0
 11
107.8
 21
161.6
 31
0.0
  0
TEXT
  8
0
  6
CONTINUOUS
 62
     2
 10
107.8
 20
162.6
 30
0.1
 40
3.0
  1
ＡＶＦ－１１形電圧計放熱穴
 50
0.0
 41
0.9
 51
0.0
  7
KANJI7
  0
LINE
  8
0
  6
CONTINUOUS
 62
     2
 10
189.5
 20
138.0
 30
0.0
 11
191.833251286
 21
138.89774074
 31
0.0
  0
LINE
  8
0
  6
CONTINUOUS
 62
     2
 10
189.5
 20
138.0
 30
0.0
 11
191.071784517
 21
139.94409193
 31
0.0
  0
LINE
  8
0
  6
CONTINUOUS
 62
     2
 10
189.5
 20
138.0
 30
0.0
 11
228.8
 21
166.6
 31
0.0
  0
LINE
  8
0
  6
CONTINUOUS
 62
     2
 10
228.8
 20
166.6
 30
0.0
 11
251.1
 21
166.6
 31
0.0
  0
TEXT
  8
0
  6
CONTINUOUS
 62
     2
 10
228.8
 20
167.6
 30
0.1
 40
3.0
  1
感度調整用抵抗器
 50
0.0
 41
0.9
 51
0.0
  7
KANJI7
  0
TEXT
  8
0
  6
CONTINUOUS
 62
     2
 10
228.3
 20
170.8
 30
0.5
 40
3.0
  1
※
 50
0.0
 41
0.9
 51
0.0
  7
KANJI0
  0
TEXT
  8
0
  6
CONTINUOUS
 62
     2
 10
119.8
 20
79.45
 30
0.1
 40
3.0
  1
フランジ付六角ナット
 50
0.0
 41
0.833333333
 51
0.0
  7
KANJI8
  0
LINE
  8
0
  6
CONTINUOUS
 62
     2
 10
118.5
 20
84.45
 30
0.0
 11
143.8
 21
84.45
 31
0.0
  0
LINE
  8
0
  6
CONTINUOUS
 62
     2
 10
118.8
 20
78.45
 30
0.0
 11
145.3
 21
78.45
 31
0.0
  0
LINE
  8
0
  6
CONTINUOUS
 62
     2
 10
152.7
 20
124.3
 30
0.0
 11
152.400961894
 21
121.817949192
 31
0.0
  0
LINE
  8
0
  6
CONTINUOUS
 62
     2
 10
152.7
 20
124.3
 30
0.0
 11
153.682050808
 21
122.000961894
 31
0.0
  0
LINE
  8
0
  6
CONTINUOUS
 62
     2
 10
152.7
 20
124.3
 30
0.0
 11
157.7
 21
89.3
 31
0.0
  0
TEXT
  8
0
  6
CONTINUOUS
 62
     2
 10
118.5
 20
85.45
 30
0.1
 40
3.0
  1
４－Ｍ６取付ボルト
 50
0.0
 41
0.9
 51
0.0
  7
KANJI7
  0
LINE
  8
0
  6
CONTINUOUS
 62
     2
 10
164.7
 20
27.2
 30
0.0
 11
163.119727759
 21
25.262801083
 31
0.0
  0
LINE
  8
0
  6
CONTINUOUS
 62
     2
 10
164.7
 20
27.2
 30
0.0
 11
164.300043553
 21
24.732200405
 31
0.0
  0
LINE
  8
0
  6
CONTINUOUS
 62
     2
 10
164.7
 20
27.2
 30
0.0
 11
159.8
 21
16.3
 31
0.0
  0
TEXT
  8
0
  6
CONTINUOUS
 62
     2
 10
61.4
 20
85.6
 30
0.1
 40
3.0
  1
機械的零位調整器
 50
0.0
 41
0.9
 51
0.0
  7
KANJI7
  0
LINE
  8
0
  6
CONTINUOUS
 62
     2
 10
61.4
 20
84.6
 30
0.0
 11
84.3
 21
84.6
 31
0.0
  0
TEXT
  8
0
  6
CONTINUOUS
 62
     3
 10
233.0
 20
12.0
 30
0.6
 40
6.0
  1
ＭＳ－５６７６
 50
0.0
 41
0.9
 51
0.0
  7
KANJI9
  0
LINE
  8
0
  6
CONTINUOUS
 62
     1
 10
147.0
 20
109.9
 30
0.0
 11
147.0
 21
133.9
 31
0.0
  0
LINE
  8
0
  6
CONTINUOUS
 62
     1
 10
156.5
 20
130.9
 30
0.0
 11
156.5
 21
109.9
 31
0.0
  0
LINE
  8
0
  6
CONTINUOUS
 62
     1
 10
156.5
 20
109.9
 30
0.0
 11
147.0
 21
109.9
 31
0.0
  0
ARC
  8
0
  6
CONTINUOUS
 62
     1
 10
153.5
 20
130.9
 30
0.0
 40
3.0
 50
0.0
 51
90.0
  0
LINE
  8
0
  6
CONTINUOUS
 62
     1
 10
147.0
 20
133.9
 30
0.0
 11
153.5
 21
133.9
 31
0.0
  0
LINE
  8
0
  6
LTYPE4
 62
     2
 10
147.0
 20
133.15
 30
0.0
 11
153.5
 21
133.15
 31
0.0
  0
LINE
  8
0
  6
LTYPE4
 62
     2
 10
155.75
 20
130.9
 30
0.0
 11
155.75
 21
109.9
 31
0.0
  0
ARC
  8
0
  6
LTYPE4
 62
     2
 10
153.5
 20
130.9
 30
0.0
 40
2.25
 50
0.0
 51
90.0
  0
LINE
  8
0
  6
LTYPE4
 62
     2
 10
147.0
 20
128.524807681
 30
0.0
 11
151.4
 21
128.524807681
 31
0.0
  0
LINE
  8
0
  6
LTYPE4
 62
     2
 10
151.4
 20
124.9
 30
0.0
 11
147.0
 21
124.9
 31
0.0
  0
LINE
  8
0
  6
LTYPE4
 62
     2
 10
151.4
 20
125.358767098
 30
0.0
 11
147.0
 21
125.358767098
 31
0.0
  0
LINE
  8
0
  6
LTYPE1
 62
     5
 10
157.7115
 20
126.9
 30
0.0
 11
146.0305
 21
126.9
 31
0.0
  0
LINE
  8
0
  6
CONTINUOUS
 62
     1
 10
180.8
 20
133.85
 30
0.0
 11
195.8
 21
133.85
 31
0.0
  0
ARC
  8
0
  6
CONTINUOUS
 62
     1
 10
195.8
 20
126.85
 30
0.0
 40
7.0
 50
24.160871774
 51
90.0
  0
LINE
  8
0
  6
CONTINUOUS
 62
     1
 10
202.186799282
 20
129.715099462
 30
0.0
 11
207.177699564
 21
118.589524673
 31
0.0
  0
ARC
  8
0
  6
CONTINUOUS
 62
     1
 10
203.3
 20
116.85
 30
0.0
 40
4.25
 50
0.0
 51
24.160864651
  0
LINE
  8
0
  6
CONTINUOUS
 62
     1
 10
207.55
 20
109.8499984
 30
0.0
 11
207.55
 21
116.85
 31
0.0
  0
LINE
  8
0
  6
CONTINUOUS
 62
     1
 10
169.05
 20
109.8499984
 30
0.0
 11
169.05
 21
116.85
 31
0.0
  0
ARC
  8
0
  6
CONTINUOUS
 62
     1
 10
173.3
 20
116.85
 30
0.0
 40
4.25
 50
155.839135349
 51
180.0
  0
LINE
  8
0
  6
CONTINUOUS
 62
     1
 10
174.413200718
 20
129.715099462
 30
0.0
 11
169.422300436
 21
118.589524673
 31
0.0
  0
ARC
  8
0
  6
CONTINUOUS
 62
     1
 10
180.8
 20
126.85
 30
0.0
 40
7.0
 50
90.0
 51
155.839128226
  0
LINE
  8
0
  6
CONTINUOUS
 62
     1
 10
169.05
 20
109.85
 30
0.0
 11
207.55
 21
109.85
 31
0.0
  0
LINE
  8
0
  6
LTYPE1
 62
     5
 10
176.8
 20
126.85
 30
0.0
 11
184.8
 21
126.85
 31
0.0
  0
LINE
  8
0
  6
LTYPE1
 62
     5
 10
191.8
 20
126.85
 30
0.0
 11
199.8
 21
126.85
 31
0.0
  0
LINE
  8
0
  6
LTYPE1
 62
     5
 10
195.8
 20
122.85
 30
0.0
 11
195.8
 21
134.85
 31
0.0
  0
LINE
  8
0
  6
LTYPE1
 62
     5
 10
180.8
 20
122.85
 30
0.0
 11
180.8
 21
134.85
 31
0.0
  0
LINE
  8
0
  6
LTYPE4
 62
     2
 10
193.6
 20
124.85
 30
0.0
 11
193.1
 21
124.85
 31
0.0
  0
ARC
  8
0
  6
LTYPE4
 62
     2
 10
192.35
 20
132.35
 30
0.0
 40
0.75
 50
0.0
 51
90.0
  0
LINE
  8
0
  6
LTYPE4
 62
     2
 10
193.1
 20
124.85
 30
0.0
 11
193.1
 21
132.35
 31
0.0
  0
LINE
  8
0
  6
LTYPE4
 62
     2
 10
180.775
 20
133.1
 30
0.0
 11
195.8
 21
133.1
 31
0.0
  0
ARC
  8
0
  6
LTYPE4
 62
     2
 10
195.8
 20
126.85
 30
0.0
 40
6.25
 50
24.160864651
 51
90.000006668
  0
ARC
  8
0
  6
LTYPE4
 62
     2
 10
184.25
 20
132.35
 30
0.0
 40
0.75
 50
90.0
 51
180.0
  0
LINE
  8
0
  6
LTYPE4
 62
     2
 10
183.5
 20
124.85
 30
0.0
 11
183.5
 21
132.35
 31
0.0
  0
ARC
  8
0
  6
LTYPE4
 62
     2
 10
180.8
 20
126.85
 30
0.0
 40
6.25
 50
89.999993332
 51
155.839135349
  0
ARC
  8
0
  6
LTYPE4
 62
     2
 10
199.0
 20
131.627290027
 30
0.0
 40
0.5
 50
56.184407518
 51
180.0
  0
LINE
  8
0
  6
LTYPE4
 62
     2
 10
198.5
 20
124.85
 30
0.0
 11
198.5
 21
131.627290027
 31
0.0
  0
LINE
  8
0
  6
LTYPE4
 62
     2
 10
178.1
 20
124.85
 30
0.0
 11
178.1
 21
131.627290027
 31
0.0
  0
ARC
  8
0
  6
LTYPE4
 62
     2
 10
177.6
 20
131.627290027
 30
0.0
 40
0.5
 50
0.0
 51
123.815592482
  0
ARC
  8
0
  6
LTYPE4
 62
     2
 10
180.049999046
 20
132.85
 30
0.0
 40
0.25
 50
0.0
 51
90.0
  0
ARC
  8
0
  6
LTYPE4
 62
     2
 10
181.550000954
 20
132.85
 30
0.0
 40
0.25
 50
90.0
 51
180.0
  0
ARC
  8
0
  6
LTYPE4
 62
     2
 10
196.550000954
 20
132.85
 30
0.0
 40
0.25
 50
90.0
 51
180.0
  0
ARC
  8
0
  6
LTYPE4
 62
     2
 10
195.049999046
 20
132.85
 30
0.0
 40
0.25
 50
0.0
 51
90.0
  0
LINE
  8
0
  6
LTYPE4
 62
     2
 10
181.300000954
 20
132.85
 30
0.0
 11
181.300000954
 21
130.85
 31
0.0
  0
LINE
  8
0
  6
LTYPE4
 62
     2
 10
181.300000954
 20
130.85
 30
0.0
 11
180.300000954
 21
130.85
 31
0.0
  0
LINE
  8
0
  6
LTYPE4
 62
     2
 10
180.300000954
 20
132.85
 30
0.0
 11
180.300000954
 21
130.85
 31
0.0
  0
LINE
  8
0
  6
LTYPE4
 62
     2
 10
179.55
 20
129.55
 30
0.0
 11
179.55
 21
128.474807681
 31
0.0
  0
LINE
  8
0
  6
LTYPE4
 62
     2
 10
179.15
 20
129.55
 30
0.0
 11
179.15
 21
133.652756794
 31
0.0
  0
LINE
  8
0
  6
LTYPE4
 62
     2
 10
178.95
 20
124.85
 30
0.0
 11
178.1
 21
124.85
 31
0.0
  0
ARC
  8
0
  6
LTYPE4
 62
     2
 10
180.8
 20
126.85
 30
0.0
 40
2.05
 50
127.57186932
 51
228.748359415
  0
ARC
  8
0
  6
LTYPE4
 62
     2
 10
178.95
 20
125.35
 30
0.0
 40
0.5
 50
270.0
 51
355.269685628
  0
LINE
  8
0
  6
LTYPE4
 62
     2
 10
182.05
 20
129.55
 30
0.0
 11
182.05
 21
128.474807681
 31
0.0
  0
LINE
  8
0
  6
LTYPE4
 62
     2
 10
182.45
 20
129.55
 30
0.0
 11
182.45
 21
133.652756794
 31
0.0
  0
ARC
  8
0
  6
LTYPE4
 62
     2
 10
180.8
 20
126.85
 30
0.0
 40
2.05
 50
311.251640585
 51
52.42813068
  0
LINE
  8
0
  6
LTYPE4
 62
     2
 10
182.65
 20
124.85
 30
0.0
 11
183.5
 21
124.85
 31
0.0
  0
ARC
  8
0
  6
LTYPE4
 62
     2
 10
182.65
 20
125.35
 30
0.0
 40
0.5
 50
184.730314372
 51
270.0
  0
LINE
  8
0
  6
LTYPE4
 62
     2
 10
196.299999046
 20
132.85
 30
0.0
 11
196.299999046
 21
130.85
 31
0.0
  0
LINE
  8
0
  6
LTYPE4
 62
     2
 10
195.299999046
 20
130.85
 30
0.0
 11
196.299999046
 21
130.85
 31
0.0
  0
LINE
  8
0
  6
LTYPE4
 62
     2
 10
195.299999046
 20
132.85
 30
0.0
 11
195.299999046
 21
130.85
 31
0.0
  0
LINE
  8
0
  6
LTYPE4
 62
     2
 10
194.55
 20
129.55
 30
0.0
 11
194.55
 21
128.474807681
 31
0.0
  0
LINE
  8
0
  6
LTYPE4
 62
     2
 10
194.15
 20
129.55
 30
0.0
 11
194.15
 21
133.652756794
 31
0.0
  0
ARC
  8
0
  6
LTYPE4
 62
     2
 10
195.8
 20
126.85
 30
0.0
 40
2.05
 50
127.57186932
 51
228.748359415
  0
LINE
  8
0
  6
LTYPE4
 62
     2
 10
193.95
 20
124.85
 30
0.0
 11
193.1
 21
124.85
 31
0.0
  0
ARC
  8
0
  6
LTYPE4
 62
     2
 10
193.95
 20
125.35
 30
0.0
 40
0.5
 50
270.0
 51
355.269685628
  0
LINE
  8
0
  6
LTYPE4
 62
     2
 10
197.05
 20
129.55
 30
0.0
 11
197.05
 21
128.474807681
 31
0.0
  0
LINE
  8
0
  6
LTYPE4
 62
     2
 10
197.45
 20
129.55
 30
0.0
 11
197.45
 21
133.652756794
 31
0.0
  0
ARC
  8
0
  6
LTYPE4
 62
     2
 10
195.8
 20
126.85
 30
0.0
 40
2.05
 50
311.251640585
 51
52.42813068
  0
LINE
  8
0
  6
LTYPE4
 62
     2
 10
198.0
 20
124.85
 30
0.0
 11
198.5
 21
124.85
 31
0.0
  0
LINE
  8
0
  6
LTYPE4
 62
     2
 10
197.65
 20
124.85
 30
0.0
 11
198.5
 21
124.85
 31
0.0
  0
ARC
  8
0
  6
LTYPE4
 62
     2
 10
197.65
 20
125.35
 30
0.0
 40
0.5
 50
184.730314372
 51
270.0
  0
ARC
  8
0
  6
LTYPE4
 62
     2
 10
173.3
 20
116.85
 30
0.0
 40
3.5
 50
154.667064238
 51
180.0
  0
ARC
  8
0
  6
LTYPE4
 62
     2
 10
173.3
 20
116.85
 30
0.0
 40
3.5
 50
155.83910686
 51
180.0
  0
LINE
  8
0
  6
LTYPE4
 62
     2
 10
170.106600359
 20
118.282549731
 30
0.0
 11
175.097500641
 21
129.408124519
 31
0.0
  0
LINE
  8
0
  6
LTYPE4
 62
     2
 10
169.8
 20
116.85
 30
0.0
 11
169.8
 21
109.85
 31
0.0
  0
LINE
  8
0
  6
LTYPE4
 62
     2
 10
206.8
 20
116.85
 30
0.0
 11
206.8
 21
109.85
 31
0.0
  0
ARC
  8
0
  6
LTYPE4
 62
     2
 10
203.3
 20
116.85
 30
0.0
 40
3.5
 50
0.0
 51
24.16089314
  0
LINE
  8
0
  6
LTYPE4
 62
     2
 10
206.493399641
 20
118.282549731
 30
0.0
 11
201.502499359
 21
129.408124519
 31
0.0
  0
LINE
  8
0
  6
CONTINUOUS
 62
     5
 10
169.078
 20
116.85
 30
0.0
 11
169.05
 21
116.85
 31
0.0
  0
LINE
  8
0
  6
CONTINUOUS
 62
     2
 10
182.45
 20
129.55
 30
0.0
 11
182.05
 21
129.55
 31
0.0
  0
LINE
  8
0
  6
CONTINUOUS
 62
     2
 10
194.15
 20
129.55
 30
0.0
 11
194.55
 21
129.55
 31
0.0
  0
LINE
  8
0
  6
CONTINUOUS
 62
     2
 10
197.45
 20
129.55
 30
0.0
 11
197.05
 21
129.55
 31
0.0
  0
LINE
  8
0
  6
CONTINUOUS
 62
     2
 10
179.15
 20
129.55
 30
0.0
 11
179.55
 21
129.55
 31
0.0
  0
TEXT
  8
0
  6
CONTINUOUS
 62
     3
 10
279.2
 20
12.1
 30
0.6
 40
6.0
  1
Ｃ
 50
0.0
 41
0.9
 51
0.0
  7
KANJI9
  0
LINE
  8
0
  6
CONTINUOUS
 62
     2
 10
156.5
 20
157.775001907
 30
0.0
 11
154.085185434
 21
158.42204952
 31
0.0
  0
LINE
  8
0
  6
CONTINUOUS
 62
     2
 10
156.5
 20
157.775001907
 30
0.0
 11
154.085185434
 21
157.127954295
 31
0.0
  0
LINE
  8
0
  6
CONTINUOUS
 62
     2
 10
147.0
 20
157.775001907
 30
0.0
 11
156.5
 21
157.775001907
 31
0.0
  0
LINE
  8
0
  6
CONTINUOUS
 62
     2
 10
156.5
 20
158.050001907
 30
0.0
 11
156.5
 21
132.837001907
 31
0.0
  0
TEXT
  8
0
  6
CONTINUOUS
 62
     2
 10
149.875
 20
158.775001907
 30
0.3
 40
3.0
  1
１９
 50
0.0
 41
0.6
 51
0.0
  7
KANJI1
  0
LINE
  8
0
  6
CONTINUOUS
 62
     2
 10
149.697367505
 20
114.368427908
 30
0.0
 11
149.375702855
 21
111.889207899
 31
0.0
  0
LINE
  8
0
  6
CONTINUOUS
 62
     2
 10
149.697367505
 20
114.368427908
 30
0.0
 11
150.658407751
 21
112.060528074
 31
0.0
  0
LINE
  8
0
  6
CONTINUOUS
 62
     2
 10
149.697367505
 20
114.368427908
 30
0.0
 11
153.7
 21
84.4
 31
0.0
  0
LINE
  8
0
  6
CONTINUOUS
 62
     2
 10
180.914065621
 20
138.293141227
 30
0.0
 11
182.005501985
 21
140.542311443
 31
0.0
  0
LINE
  8
0
  6
CONTINUOUS
 62
     2
 10
180.914065621
 20
138.293141227
 30
0.0
 11
180.73469213
 21
140.786697954
 31
0.0
  0
TEXT
  8
0
  6
CONTINUOUS
 62
     2
 10
178.8
 20
134.599858773
 30
1.5
 40
3.0
  1
＋
 50
0.0
 41
1.0
 51
0.0
  7
KANJI10
  0
LINE
  8
0
  6
CONTINUOUS
 62
     2
 10
212.648443581
 20
133.85
 30
0.0
 11
212.001395968
 21
131.435185434
 31
0.0
  0
LINE
  8
0
  6
CONTINUOUS
 62
     2
 10
212.648443581
 20
133.85
 30
0.0
 11
213.295491193
 21
131.435185434
 31
0.0
  0
LINE
  8
0
  6
CONTINUOUS
 62
     2
 10
212.648443581
 20
133.85
 30
0.0
 11
212.648443581
 21
122.0
 31
0.0
  0
LINE
  8
0
  6
CONTINUOUS
 62
     2
 10
212.648443581
 20
122.0
 30
0.0
 11
213.295491193
 21
124.414814566
 31
0.0
  0
LINE
  8
0
  6
CONTINUOUS
 62
     2
 10
212.648443581
 20
122.0
 30
0.0
 11
212.001395968
 21
124.414814566
 31
0.0
  0
TEXT
  8
0
  6
CONTINUOUS
 62
     2
 10
211.648443581
 20
125.975
 30
0.3
 40
3.0
  1
２４
 50
90.0
 41
0.6
 51
0.0
  7
KANJI1
  0
POLYLINE
  8
0
  6
CONTINUOUS
 62
     2
 66
     1
  0
VERTEX
  8
0
  6
CONTINUOUS
 62
     2
 10
212.648065621
 20
109.95
 30
0.0
  0
VERTEX
  8
0
  6
CONTINUOUS
 62
     2
 10
212.648065621
 20
121.8
 30
0.0
  0
VERTEX
  8
0
  6
CONTINUOUS
 62
     2
 10
213.295113233
 20
119.385185434
 30
0.0
  0
SEQEND
  0
LINE
  8
0
  6
CONTINUOUS
 62
     2
 10
212.648065621
 20
121.8
 30
0.0
 11
212.001018008
 21
119.385185434
 31
0.0
  0
TEXT
  8
0
  6
CONTINUOUS
 62
     2
 10
211.648065621
 20
113.925
 30
0.3
 40
3.0
  1
２４
 50
90.0
 41
0.6
 51
0.0
  7
KANJI1
  0
LINE
  8
0
  6
CONTINUOUS
 62
     2
 10
212.648065621
 20
109.95
 30
0.0
 11
212.001018008
 21
112.364814566
 31
0.0
  0
LINE
  8
0
  6
CONTINUOUS
 62
     2
 10
212.648065621
 20
109.95
 30
0.0
 11
213.295113233
 21
112.364814566
 31
0.0
  0
LINE
  8
0
  6
CONTINUOUS
 62
     2
 10
196.527839335
 20
109.95
 30
0.0
 11
214.030065621
 21
109.95
 31
0.0
  0
LINE
  8
0
  6
CONTINUOUS
 62
     2
 10
196.527839335
 20
133.85
 30
0.0
 11
214.030065621
 21
133.85
 31
0.0
  0
LINE
  8
0
  6
CONTINUOUS
 62
     2
 10
169.05
 20
108.85
 30
0.0
 11
169.05
 21
100.426
 31
0.0
  0
LINE
  8
0
  6
CONTINUOUS
 62
     2
 10
169.05
 20
102.426
 30
0.0
 11
171.464814566
 21
101.778952387
 31
0.0
  0
LINE
  8
0
  6
CONTINUOUS
 62
     2
 10
169.05
 20
102.426
 30
0.0
 11
171.464814566
 21
103.073047613
 31
0.0
  0
LINE
  8
0
  6
CONTINUOUS
 62
     2
 10
169.05
 20
102.426
 30
0.0
 11
207.55
 21
102.426
 31
0.0
  0
LINE
  8
0
  6
CONTINUOUS
 62
     2
 10
207.55
 20
102.426
 30
0.0
 11
205.135185434
 21
103.073047613
 31
0.0
  0
LINE
  8
0
  6
CONTINUOUS
 62
     2
 10
207.55
 20
102.426
 30
0.0
 11
205.135185434
 21
101.778952387
 31
0.0
  0
LINE
  8
0
  6
CONTINUOUS
 62
     2
 10
207.55
 20
108.85
 30
0.0
 11
207.55
 21
100.426
 31
0.0
  0
TEXT
  8
0
  6
CONTINUOUS
 62
     2
 10
186.35
 20
103.426
 30
0.3
 40
3.0
  1
７７
 50
0.0
 41
0.6
 51
0.0
  7
KANJI1
  0
LINE
  8
0
  6
CONTINUOUS
 62
     2
 10
188.3
 20
165.65
 30
0.0
 11
188.3
 21
169.25
 31
0.0
  0
LINE
  8
0
  6
CONTINUOUS
 62
     2
 10
210.8
 20
165.97
 30
0.0
 11
210.8
 21
169.25
 31
0.0
  0
TEXT
  8
0
  6
CONTINUOUS
 62
     2
 10
157.7
 20
90.3
 30
0.1
 40
3.0
  1
２－Ｍ６ターミナルネジ
 50
0.0
 41
0.9
 51
0.0
  7
KANJI7
  0
LINE
  8
0
  6
CONTINUOUS
 62
     2
 10
157.7
 20
89.3
 30
0.0
 11
187.75
 21
89.3
 31
0.0
  0
TEXT
  8
0
  6
CONTINUOUS
 62
     2
 10
154.7
 20
85.4
 30
0.1
 40
3.0
  1
端子キャップ
 50
0.0
 41
0.9
 51
0.0
  7
KANJI7
  0
LINE
  8
0
  6
CONTINUOUS
 62
     2
 10
153.7
 20
84.4
 30
0.0
 11
171.4
 21
84.4
 31
0.0
  0
TEXT
  8
0
  6
CONTINUOUS
 62
     2
 10
126.9125
 20
167.400001907
 30
0.4
 40
4.0
  1
ι
 50
0.0
 41
0.9
 51
0.0
  7
KANJI11
  0
CIRCLE
  8
0
  6
CONTINUOUS
 62
     2
 10
128.4
 20
170.6
 30
0.0
 40
0.2
  0
CIRCLE
  8
0
  6
CONTINUOUS
 62
     2
 10
117.43
 20
70.925001907
 30
0.0
 40
0.3
  0
CIRCLE
  8
0
  6
CONTINUOUS
 62
     2
 10
117.43
 20
70.925001907
 30
0.0
 40
0.1
  0
TEXT
  8
0
  6
CONTINUOUS
 62
     2
 10
115.201320344
 20
67.233681564
 30
1.0
 40
5.0
  1
ι
 50
0.0
 41
0.92
 51
0.0
  7
KANJI12
  0
LINE
  8
0
  6
CONTINUOUS
 62
     2
 10
122.3
 20
32.3
 30
0.0
 11
27.3
 21
32.3
 31
0.0
  0
LINE
  8
0
  6
CONTINUOUS
 62
     2
 10
27.3
 20
22.3
 30
0.0
 11
27.3
 21
72.3
 31
0.0
  0
LINE
  8
0
  6
CONTINUOUS
 62
     2
 10
32.3
 20
22.3
 30
0.0
 11
32.3
 21
72.3
 31
0.0
  0
LINE
  8
0
  6
CONTINUOUS
 62
     2
 10
62.3
 20
72.3
 30
0.0
 11
62.3
 21
22.3
 31
0.0
  0
LINE
  8
0
  6
CONTINUOUS
 62
     2
 10
92.3
 20
22.3
 30
0.0
 11
92.3
 21
72.3
 31
0.0
  0
LINE
  8
0
  6
CONTINUOUS
 62
     2
 10
27.3
 20
27.3
 30
0.0
 11
122.3
 21
27.3
 31
0.0
  0
LINE
  8
0
  6
CONTINUOUS
 62
     2
 10
122.3
 20
72.35
 30
0.0
 11
122.3
 21
22.3
 31
0.0
  0
LINE
  8
0
  6
CONTINUOUS
 62
     2
 10
152.3
 20
72.3
 30
0.0
 11
152.3
 21
22.3
 31
0.0
  0
LINE
  8
0
  6
CONTINUOUS
 62
     2
 10
152.3
 20
22.3
 30
0.0
 11
27.3
 21
22.3
 31
0.0
  0
LINE
  8
0
  6
CONTINUOUS
 62
     2
 10
122.3
 20
22.3
 30
0.0
 11
152.3
 21
32.3
 31
0.0
  0
TEXT
  8
0
  6
CONTINUOUS
 62
     2
 10
67.3
 20
28.3
 30
0.5
 40
3.0
  1
電子テ゛ハ゛イス形
 50
0.0
 41
0.666666667
 51
0.0
  7
KANJI6
  0
TEXT
  8
0
  6
CONTINUOUS
 62
     2
 10
67.3
 20
23.3
 30
0.5
 40
3.0
  1
電子テ゛ハ゛イス形
 50
0.0
 41
0.666666667
 51
0.0
  7
KANJI6
  0
TEXT
  8
0
  6
CONTINUOUS
 62
     2
 10
101.3
 20
28.3
 30
0.5
 40
3.0
  1
１０２
 50
0.0
 41
0.9
 51
0.0
  7
KANJI0
  0
TEXT
  8
0
  6
CONTINUOUS
 62
     2
 10
101.3
 20
23.3
 30
0.5
 40
3.0
  1
１０２
 50
0.0
 41
0.9
 51
0.0
  7
KANJI0
  0
TEXT
  8
0
  6
CONTINUOUS
 62
     2
 10
28.3
 20
28.3
 30
0.3
 40
3.0
  1
８
 50
0.0
 41
0.9
 51
0.0
  7
KANJI3
  0
TEXT
  8
0
  6
CONTINUOUS
 62
     2
 10
28.3
 20
23.3
 30
0.3
 40
3.0
  1
９
 50
0.0
 41
0.9
 51
0.0
  7
KANJI3
  0
TEXT
  8
0
  6
CONTINUOUS
 62
     2
 10
37.5
 20
28.3
 30
0.5
 40
3.0
  1
ＥＶＦ－１１　
 50
0.0
 41
0.9
 51
0.0
  7
KANJI0
  0
TEXT
  8
0
  6
CONTINUOUS
 62
     2
 10
37.5
 20
23.3
 30
0.5
 40
3.0
  1
ＲＶＦ－１１　
 50
0.0
 41
0.9
 51
0.0
  7
KANJI0
  0
TEXT
  8
0
  6
CONTINUOUS
 62
     2
 10
192.576470351
 20
56.390293305
 30
0.3
 40
3.0
  1
１０２
 50
46.346669025
 41
0.6
 51
0.0
  7
KANJI1
  0
TEXT
  8
0
  6
CONTINUOUS
 62
     1
 10
234.6
 20
22.9
 30
0.4
 40
4.0
  1
広角度計器　外形図
 50
0.0
 41
0.9
 51
0.0
  7
KANJI11
  0
TEXT
  8
0
  6
CONTINUOUS
 62
     6
 10
239.0
 20
33.4
 30
1.0
 40
5.0
  1
□ＶＦ－１１
 50
0.0
 41
0.9
 51
0.0
  7
KANJI13
  0
TEXT
  8
0
  6
CONTINUOUS
 62
     2
 10
234.6
 20
27.9
 30
0.3
 40
3.0
  1
端子キャップ付
 50
0.0
 41
0.9
 51
0.0
  7
KANJI3
  0
TEXT
  8
0
  6
CONTINUOUS
 62
     2
 10
184.30703946
 20
117.09851953
 30
0.18
 40
1.8
  1
±１
 50
58.756981116
 41
0.6
 51
0.0
  7
KANJI2
  0
TEXT
  8
0
  6
CONTINUOUS
 62
     2
 10
181.895024927
 20
113.168669089
 30
0.3
 40
3.0
  1
９９
 50
58.756981116
 41
0.6
 51
0.0
  7
KANJI1
  0
LINE
  8
0
  6
LTYPE1
 62
     2
 10
188.3
 20
21.4
 30
0.0
 11
188.3
 21
83.0
 31
0.0
  0
LINE
  8
0
  6
LTYPE1
 62
     2
 10
188.3
 20
84.0
 30
0.0
 11
188.3
 21
21.4
 31
0.0
  0
LINE
  8
0
  6
LTYPE1
 62
     2
 10
188.3
 20
93.0
 30
0.0
 11
188.3
 21
152.9
 31
0.0
  0
LINE
  8
0
  6
LTYPE1
 62
     2
 10
188.3
 20
152.9
 30
0.0
 11
188.3
 21
92.0
 31
0.0
  0
LINE
  8
0
  6
LTYPE1
 62
     2
 10
91.0
 20
121.9
 30
0.0
 11
210.2
 21
121.9
 31
0.0
  0
LINE
  8
0
  6
LTYPE1
 62
     2
 10
17.8
 20
121.9
 30
0.0
 11
84.0
 21
121.9
 31
0.0
  0
LINE
  8
0
  6
CONTINUOUS
 62
     2
 10
186.9
 20
173.25
 30
0.0
 11
220.4
 21
173.25
 31
0.0
  0
TEXT
  8
0
  6
CONTINUOUS
 62
     2
 10
186.9
 20
174.25
 30
0.1
 40
3.0
  1
直流計器のみ＋記号を表示
 50
0.0
 41
0.9
 51
0.0
  7
KANJI7
  0
LINE
  8
0
  6
CONTINUOUS
 62
     2
 10
210.8
 20
148.4
 30
0.0
 11
210.8
 21
165.97
 31
0.0
  0
LINE
  8
0
  6
CONTINUOUS
 62
     2
 10
188.3
 20
153.1
 30
0.0
 11
188.3
 21
165.65
 31
0.0
  0
LINE
  8
0
  6
CONTINUOUS
 62
     2
 10
180.914065621
 20
138.293141227
 30
0.0
 11
186.9
 21
173.25
 31
0.0
  0
LINE
  8
0
  6
LTYPE2
 62
     2
 10
107.0
 20
121.875
 30
0.0
 11
157.2
 21
121.875
 31
0.0
  0
TEXT
  8
0
  6
CONTINUOUS
 62
     2
 10
147.25
 20
17.3
 30
0.1
 40
3.0
  1
４－φ７
 50
0.0
 41
0.9
 51
0.0
  7
KANJI7
  0
LINE
  8
0
  6
CONTINUOUS
 62
     2
 10
159.8
 20
16.3
 30
0.0
 11
146.35
 21
16.3
 31
0.0
  0
ENDSEC
  0
EOF
