  0
SECTION
  2
HEADER
  9
$ACADVER
  1
AC1009
  9
$DWGCODEPAGE
  3
dos932
  9
$EXTMIN
 10
0.0
 20
0.0
 30
0.0
  9
$EXTMAX
 10
297.0
 20
210.0
 30
0.0
  9
$LIMMIN
 10
0.0
 20
0.0
  9
$LIMMAX
 10
297.0
 20
210.0
  9
$LTSCALE
 40
1.0
  9
$PDMODE
 70
     0
  0
ENDSEC
  0
SECTION
  2
TABLES
  0
TABLE
  2
VPORT
 70
     1
  0
VPORT
  2
*ACTIVE
 70
     0
 10
0.0
 20
0.0
 11
1.0
 21
1.0
 12
148.5
 22
105.0
 13
0.0
 23
0.0
 14
10.0
 24
10.0
 15
10.0
 25
10.0
 16
0.0
 26
0.0
 36
1.0
 17
0.0
 27
0.0
 37
0.0
 40
297.0
 41
1.414285714
 42
50.0
 43
0.0
 44
0.0
 50
0.0
 51
0.0
 71
     0
 72
  1000
 73
     1
 74
     3
 75
     0
 76
     0
 77
     0
 78
     0
  0
ENDTAB
  0
TABLE
  2
LTYPE
 70
     4
  0
LTYPE
  2
CONTINUOUS
 70
    64
  3
Solid line
 72
    65
 73
     0
 40
0.0
  0
LTYPE
  2
LTYPE1
 70
    64
  3
CENTER
 72
    65
 73
     4
 40
15.0
 49
10.5
 49
-1.5
 49
1.5
 49
-1.5
  0
LTYPE
  2
LTYPE2
 70
    64
  3
CENTER
 72
    65
 73
     4
 40
5.0
 49
3.5
 49
-0.5
 49
0.5
 49
-0.5
  0
LTYPE
  2
LTYPE3
 70
    64
  3
HIDDEN
 72
    65
 73
     2
 40
2.0
 49
1.2
 49
-0.8
  0
ENDTAB
  0
TABLE
  2
LAYER
 70
   128
  0
LAYER
  2
0
 70
     0
 62
     7
  6
CONTINUOUS
  0
LAYER
  2
2
 70
     0
 62
     7
  6
CONTINUOUS
  0
LAYER
  2
3
 70
     0
 62
     7
  6
CONTINUOUS
  0
LAYER
  2
4
 70
     0
 62
     7
  6
CONTINUOUS
  0
LAYER
  2
5
 70
     0
 62
     7
  6
CONTINUOUS
  0
LAYER
  2
6
 70
     0
 62
     7
  6
CONTINUOUS
  0
LAYER
  2
7
 70
     0
 62
     7
  6
CONTINUOUS
  0
LAYER
  2
8
 70
     0
 62
     7
  6
CONTINUOUS
  0
LAYER
  2
9
 70
     0
 62
     7
  6
CONTINUOUS
  0
LAYER
  2
10
 70
     0
 62
     7
  6
CONTINUOUS
  0
LAYER
  2
11
 70
     0
 62
     7
  6
CONTINUOUS
  0
LAYER
  2
12
 70
     0
 62
     7
  6
CONTINUOUS
  0
LAYER
  2
13
 70
     0
 62
     7
  6
CONTINUOUS
  0
LAYER
  2
14
 70
     0
 62
     7
  6
CONTINUOUS
  0
LAYER
  2
15
 70
     0
 62
     7
  6
CONTINUOUS
  0
LAYER
  2
16
 70
     0
 62
     7
  6
CONTINUOUS
  0
LAYER
  2
17
 70
     0
 62
     7
  6
CONTINUOUS
  0
LAYER
  2
18
 70
     0
 62
     7
  6
CONTINUOUS
  0
LAYER
  2
19
 70
     0
 62
     7
  6
CONTINUOUS
  0
LAYER
  2
20
 70
     0
 62
     7
  6
CONTINUOUS
  0
LAYER
  2
21
 70
     0
 62
     7
  6
CONTINUOUS
  0
LAYER
  2
22
 70
     0
 62
     7
  6
CONTINUOUS
  0
LAYER
  2
23
 70
     0
 62
     7
  6
CONTINUOUS
  0
LAYER
  2
24
 70
     0
 62
     7
  6
CONTINUOUS
  0
LAYER
  2
25
 70
     0
 62
     7
  6
CONTINUOUS
  0
LAYER
  2
26
 70
     0
 62
     7
  6
CONTINUOUS
  0
LAYER
  2
27
 70
     0
 62
     7
  6
CONTINUOUS
  0
LAYER
  2
28
 70
     0
 62
     7
  6
CONTINUOUS
  0
LAYER
  2
29
 70
     0
 62
     7
  6
CONTINUOUS
  0
LAYER
  2
30
 70
     0
 62
     7
  6
CONTINUOUS
  0
LAYER
  2
31
 70
     0
 62
     7
  6
CONTINUOUS
  0
LAYER
  2
32
 70
     0
 62
     7
  6
CONTINUOUS
  0
LAYER
  2
33
 70
     0
 62
     7
  6
CONTINUOUS
  0
LAYER
  2
34
 70
     0
 62
     7
  6
CONTINUOUS
  0
LAYER
  2
35
 70
     0
 62
     7
  6
CONTINUOUS
  0
LAYER
  2
36
 70
     0
 62
     7
  6
CONTINUOUS
  0
LAYER
  2
37
 70
     0
 62
     7
  6
CONTINUOUS
  0
LAYER
  2
38
 70
     0
 62
     7
  6
CONTINUOUS
  0
LAYER
  2
39
 70
     0
 62
     7
  6
CONTINUOUS
  0
LAYER
  2
40
 70
     0
 62
     7
  6
CONTINUOUS
  0
LAYER
  2
41
 70
     0
 62
     7
  6
CONTINUOUS
  0
LAYER
  2
42
 70
     0
 62
     7
  6
CONTINUOUS
  0
LAYER
  2
43
 70
     0
 62
     7
  6
CONTINUOUS
  0
LAYER
  2
44
 70
     0
 62
     7
  6
CONTINUOUS
  0
LAYER
  2
45
 70
     0
 62
     7
  6
CONTINUOUS
  0
LAYER
  2
46
 70
     0
 62
     7
  6
CONTINUOUS
  0
LAYER
  2
47
 70
     0
 62
     7
  6
CONTINUOUS
  0
LAYER
  2
48
 70
     0
 62
     7
  6
CONTINUOUS
  0
LAYER
  2
49
 70
     0
 62
     7
  6
CONTINUOUS
  0
LAYER
  2
50
 70
     0
 62
     7
  6
CONTINUOUS
  0
LAYER
  2
51
 70
     0
 62
     7
  6
CONTINUOUS
  0
LAYER
  2
52
 70
     0
 62
     7
  6
CONTINUOUS
  0
LAYER
  2
53
 70
     0
 62
     7
  6
CONTINUOUS
  0
LAYER
  2
54
 70
     0
 62
     7
  6
CONTINUOUS
  0
LAYER
  2
55
 70
     0
 62
     7
  6
CONTINUOUS
  0
LAYER
  2
56
 70
     0
 62
     7
  6
CONTINUOUS
  0
LAYER
  2
57
 70
     0
 62
     7
  6
CONTINUOUS
  0
LAYER
  2
58
 70
     0
 62
     7
  6
CONTINUOUS
  0
LAYER
  2
59
 70
     0
 62
     7
  6
CONTINUOUS
  0
LAYER
  2
60
 70
     0
 62
     7
  6
CONTINUOUS
  0
LAYER
  2
61
 70
     0
 62
     7
  6
CONTINUOUS
  0
LAYER
  2
62
 70
     0
 62
     7
  6
CONTINUOUS
  0
LAYER
  2
63
 70
     0
 62
     7
  6
CONTINUOUS
  0
LAYER
  2
64
 70
     0
 62
     7
  6
CONTINUOUS
  0
LAYER
  2
65
 70
     0
 62
     7
  6
CONTINUOUS
  0
LAYER
  2
66
 70
     0
 62
     7
  6
CONTINUOUS
  0
LAYER
  2
67
 70
     0
 62
     7
  6
CONTINUOUS
  0
LAYER
  2
68
 70
     0
 62
     7
  6
CONTINUOUS
  0
LAYER
  2
69
 70
     0
 62
     7
  6
CONTINUOUS
  0
LAYER
  2
70
 70
     0
 62
     7
  6
CONTINUOUS
  0
LAYER
  2
71
 70
     0
 62
     7
  6
CONTINUOUS
  0
LAYER
  2
72
 70
     0
 62
     7
  6
CONTINUOUS
  0
LAYER
  2
73
 70
     0
 62
     7
  6
CONTINUOUS
  0
LAYER
  2
74
 70
     0
 62
     7
  6
CONTINUOUS
  0
LAYER
  2
75
 70
     0
 62
     7
  6
CONTINUOUS
  0
LAYER
  2
76
 70
     0
 62
     7
  6
CONTINUOUS
  0
LAYER
  2
77
 70
     0
 62
     7
  6
CONTINUOUS
  0
LAYER
  2
78
 70
     0
 62
     7
  6
CONTINUOUS
  0
LAYER
  2
79
 70
     0
 62
     7
  6
CONTINUOUS
  0
LAYER
  2
80
 70
     0
 62
     7
  6
CONTINUOUS
  0
LAYER
  2
81
 70
     0
 62
     7
  6
CONTINUOUS
  0
LAYER
  2
82
 70
     0
 62
     7
  6
CONTINUOUS
  0
LAYER
  2
83
 70
     0
 62
     7
  6
CONTINUOUS
  0
LAYER
  2
84
 70
     0
 62
     7
  6
CONTINUOUS
  0
LAYER
  2
85
 70
     0
 62
     7
  6
CONTINUOUS
  0
LAYER
  2
86
 70
     0
 62
     7
  6
CONTINUOUS
  0
LAYER
  2
87
 70
     0
 62
     7
  6
CONTINUOUS
  0
LAYER
  2
88
 70
     0
 62
     7
  6
CONTINUOUS
  0
LAYER
  2
89
 70
     0
 62
     7
  6
CONTINUOUS
  0
LAYER
  2
90
 70
     0
 62
     7
  6
CONTINUOUS
  0
LAYER
  2
91
 70
     0
 62
     7
  6
CONTINUOUS
  0
LAYER
  2
92
 70
     0
 62
     7
  6
CONTINUOUS
  0
LAYER
  2
93
 70
     0
 62
     7
  6
CONTINUOUS
  0
LAYER
  2
94
 70
     0
 62
     7
  6
CONTINUOUS
  0
LAYER
  2
95
 70
     0
 62
     7
  6
CONTINUOUS
  0
LAYER
  2
96
 70
     0
 62
     7
  6
CONTINUOUS
  0
LAYER
  2
97
 70
     0
 62
     7
  6
CONTINUOUS
  0
LAYER
  2
98
 70
     0
 62
     7
  6
CONTINUOUS
  0
LAYER
  2
99
 70
     0
 62
     7
  6
CONTINUOUS
  0
LAYER
  2
100
 70
     0
 62
     7
  6
CONTINUOUS
  0
LAYER
  2
101
 70
     0
 62
     7
  6
CONTINUOUS
  0
LAYER
  2
102
 70
     0
 62
     7
  6
CONTINUOUS
  0
LAYER
  2
103
 70
     0
 62
     7
  6
CONTINUOUS
  0
LAYER
  2
104
 70
     0
 62
     7
  6
CONTINUOUS
  0
LAYER
  2
105
 70
     0
 62
     7
  6
CONTINUOUS
  0
LAYER
  2
106
 70
     0
 62
     7
  6
CONTINUOUS
  0
LAYER
  2
107
 70
     0
 62
     7
  6
CONTINUOUS
  0
LAYER
  2
108
 70
     0
 62
     7
  6
CONTINUOUS
  0
LAYER
  2
109
 70
     0
 62
     7
  6
CONTINUOUS
  0
LAYER
  2
110
 70
     0
 62
     7
  6
CONTINUOUS
  0
LAYER
  2
111
 70
     0
 62
     7
  6
CONTINUOUS
  0
LAYER
  2
112
 70
     0
 62
     7
  6
CONTINUOUS
  0
LAYER
  2
113
 70
     0
 62
     7
  6
CONTINUOUS
  0
LAYER
  2
114
 70
     0
 62
     7
  6
CONTINUOUS
  0
LAYER
  2
115
 70
     0
 62
     7
  6
CONTINUOUS
  0
LAYER
  2
116
 70
     0
 62
     7
  6
CONTINUOUS
  0
LAYER
  2
117
 70
     0
 62
     7
  6
CONTINUOUS
  0
LAYER
  2
118
 70
     0
 62
     7
  6
CONTINUOUS
  0
LAYER
  2
119
 70
     0
 62
     7
  6
CONTINUOUS
  0
LAYER
  2
120
 70
     0
 62
     7
  6
CONTINUOUS
  0
LAYER
  2
121
 70
     0
 62
     7
  6
CONTINUOUS
  0
LAYER
  2
122
 70
     0
 62
     7
  6
CONTINUOUS
  0
LAYER
  2
123
 70
     0
 62
     7
  6
CONTINUOUS
  0
LAYER
  2
124
 70
     0
 62
     7
  6
CONTINUOUS
  0
LAYER
  2
125
 70
     0
 62
     7
  6
CONTINUOUS
  0
LAYER
  2
126
 70
     0
 62
     7
  6
CONTINUOUS
  0
LAYER
  2
127
 70
     0
 62
     7
  6
CONTINUOUS
  0
LAYER
  2
128
 70
     0
 62
     7
  6
CONTINUOUS
  0
ENDTAB
  0
TABLE
  2
STYLE
 70
     6
  0
STYLE
  2
STANDARD
 70
     0
 40
0.0
 41
1.0
 50
0.0
 71
     0
 42
0.2
  3
txt.shx
  4
extfont.shx
  0
STYLE
  2
KANJI0
 70
     0
 40
3.0
 41
0.8
 50
0.0
 71
     0
 42
3.0
  3
txt.shx
  4
extfont.shx
  0
STYLE
  2
KANJI1
 70
     0
 40
3.0
 41
0.8
 50
0.0
 71
     0
 42
3.0
  3
txt.shx
  4
extfont.shx
  0
STYLE
  2
KANJI2
 70
     0
 40
1.8
 41
0.8
 50
0.0
 71
     0
 42
1.8
  3
txt.shx
  4
extfont.shx
  0
STYLE
  2
KANJI3
 70
     0
 40
5.8
 41
0.827586207
 50
0.0
 71
     0
 42
5.8
  3
txt.shx
  4
extfont.shx
  0
STYLE
  2
KANJI4
 70
     0
 40
4.0
 41
0.9
 50
0.0
 71
     0
 42
4.0
  3
txt.shx
  4
extfont.shx
  0
ENDTAB
  0
TABLE
  2
VIEW
 70
     0
  0
ENDTAB
  0
ENDSEC
  0
SECTION
  2
BLOCKS
  0
ENDSEC
  0
SECTION
  2
ENTITIES
  0
LINE
  8
0
  6
CONTINUOUS
 62
     1
 10
49.179
 20
131.021
 30
0.0
 11
79.179
 21
131.021
 31
0.0
  0
LINE
  8
0
  6
CONTINUOUS
 62
     1
 10
139.179
 20
83.021
 30
0.0
 11
139.179
 21
131.021
 31
0.0
  0
ARC
  8
0
  6
CONTINUOUS
 62
     1
 10
79.179
 20
117.021
 30
0.0
 40
14.0
 50
24.160871774
 51
90.0
  0
LINE
  8
0
  6
CONTINUOUS
 62
     1
 10
91.952598565
 20
122.751198924
 30
0.0
 11
101.934399129
 21
100.500049346
 31
0.0
  0
ARC
  8
0
  6
CONTINUOUS
 62
     1
 10
94.179
 20
97.021
 30
0.0
 40
8.5
 50
0.0
 51
24.160864651
  0
LINE
  8
0
  6
CONTINUOUS
 62
     1
 10
102.679
 20
83.020996801
 30
0.0
 11
102.679
 21
97.021
 31
0.0
  0
LINE
  8
0
  6
CONTINUOUS
 62
     1
 10
25.679
 20
83.020996801
 30
0.0
 11
25.679
 21
97.021
 31
0.0
  0
ARC
  8
0
  6
CONTINUOUS
 62
     1
 10
34.179
 20
97.021
 30
0.0
 40
8.5
 50
155.839135349
 51
180.0
  0
LINE
  8
0
  6
CONTINUOUS
 62
     1
 10
36.405401435
 20
122.751198924
 30
0.0
 11
26.423600871
 21
100.500049346
 31
0.0
  0
ARC
  8
0
  6
CONTINUOUS
 62
     1
 10
49.179
 20
117.021
 30
0.0
 40
14.0
 50
90.0
 51
155.839128226
  0
LINE
  8
0
  6
CONTINUOUS
 62
     1
 10
25.679
 20
83.021
 30
0.0
 11
102.679
 21
83.021
 31
0.0
  0
LINE
  8
0
  6
CONTINUOUS
 62
     1
 10
169.179
 20
131.021
 30
0.0
 11
199.179
 21
131.021
 31
0.0
  0
ARC
  8
0
  6
CONTINUOUS
 62
     1
 10
199.179
 20
117.021
 30
0.0
 40
14.0
 50
24.160871774
 51
90.0
  0
LINE
  8
0
  6
CONTINUOUS
 62
     1
 10
211.952598565
 20
122.751198924
 30
0.0
 11
221.934399129
 21
100.500049346
 31
0.0
  0
ARC
  8
0
  6
CONTINUOUS
 62
     1
 10
214.179
 20
97.021
 30
0.0
 40
8.5
 50
0.0
 51
24.160864651
  0
LINE
  8
0
  6
CONTINUOUS
 62
     1
 10
222.679
 20
83.020996801
 30
0.0
 11
222.679
 21
97.021
 31
0.0
  0
LINE
  8
0
  6
CONTINUOUS
 62
     1
 10
145.679
 20
83.020996801
 30
0.0
 11
145.679
 21
97.021
 31
0.0
  0
ARC
  8
0
  6
CONTINUOUS
 62
     1
 10
154.179
 20
97.021
 30
0.0
 40
8.5
 50
155.839135349
 51
180.0
  0
LINE
  8
0
  6
CONTINUOUS
 62
     1
 10
156.405401435
 20
122.751198924
 30
0.0
 11
146.423600871
 21
100.500049346
 31
0.0
  0
ARC
  8
0
  6
CONTINUOUS
 62
     1
 10
169.179
 20
117.021
 30
0.0
 40
14.0
 50
90.0
 51
155.839128226
  0
LINE
  8
0
  6
CONTINUOUS
 62
     1
 10
145.679
 20
83.021
 30
0.0
 11
222.679
 21
83.021
 31
0.0
  0
LINE
  8
0
  6
CONTINUOUS
 62
     1
 10
120.179
 20
125.021
 30
0.0
 11
120.179
 21
83.021
 31
0.0
  0
LINE
  8
0
  6
CONTINUOUS
 62
     1
 10
120.179
 20
83.021
 30
0.0
 11
139.179
 21
83.021
 31
0.0
  0
ARC
  8
0
  6
CONTINUOUS
 62
     1
 10
126.179
 20
125.021
 30
0.0
 40
6.0
 50
90.0
 51
180.0
  0
LINE
  8
0
  6
CONTINUOUS
 62
     1
 10
139.179
 20
131.021
 30
0.0
 11
126.179
 21
131.021
 31
0.0
  0
LINE
  8
0
  6
CONTINUOUS
 62
     1
 10
147.179
 20
97.021
 30
0.0
 11
147.179
 21
83.021
 31
0.0
  0
ARC
  8
0
  6
CONTINUOUS
 62
     1
 10
154.179
 20
97.021
 30
0.0
 40
7.0
 50
154.667064238
 51
180.0
  0
ARC
  8
0
  6
CONTINUOUS
 62
     1
 10
154.179
 20
97.021
 30
0.0
 40
7.0
 50
155.83910686
 51
180.0
  0
LINE
  8
0
  6
CONTINUOUS
 62
     1
 10
147.792200718
 20
99.886099462
 30
0.0
 11
157.774001281
 21
122.137249039
 31
0.0
  0
ARC
  8
0
  6
CONTINUOUS
 62
     1
 10
169.179
 20
117.021
 30
0.0
 40
12.5
 50
89.999993332
 51
155.839135349
  0
LINE
  8
0
  6
CONTINUOUS
 62
     1
 10
163.779
 20
113.021
 30
0.0
 11
163.779
 21
126.575580054
 31
0.0
  0
ARC
  8
0
  6
CONTINUOUS
 62
     1
 10
162.779
 20
126.575580054
 30
0.0
 40
1.0
 50
0.0
 51
123.815592482
  0
ARC
  8
0
  6
CONTINUOUS
 62
     1
 10
176.079
 20
128.021
 30
0.0
 40
1.5
 50
90.0
 51
180.0
  0
LINE
  8
0
  6
CONTINUOUS
 62
     1
 10
174.579
 20
113.021
 30
0.0
 11
174.579
 21
128.021
 31
0.0
  0
LINE
  8
0
  6
CONTINUOUS
 62
     1
 10
221.179
 20
97.021
 30
0.0
 11
221.179
 21
83.021
 31
0.0
  0
ARC
  8
0
  6
CONTINUOUS
 62
     1
 10
214.179
 20
97.021
 30
0.0
 40
7.0
 50
0.0
 51
24.16089314
  0
LINE
  8
0
  6
CONTINUOUS
 62
     1
 10
220.565799282
 20
99.886099462
 30
0.0
 11
210.583998719
 21
122.137249039
 31
0.0
  0
ARC
  8
0
  6
CONTINUOUS
 62
     1
 10
199.179
 20
117.021
 30
0.0
 40
12.5
 50
24.160864651
 51
90.000006668
  0
ARC
  8
0
  6
CONTINUOUS
 62
     1
 10
205.579
 20
126.575580054
 30
0.0
 40
1.0
 50
56.184407518
 51
180.0
  0
LINE
  8
0
  6
CONTINUOUS
 62
     1
 10
204.579
 20
113.021
 30
0.0
 11
204.579
 21
126.575580054
 31
0.0
  0
ARC
  8
0
  6
CONTINUOUS
 62
     1
 10
192.279
 20
128.021
 30
0.0
 40
1.5
 50
0.0
 51
90.0
  0
LINE
  8
0
  6
CONTINUOUS
 62
     1
 10
193.779
 20
113.021
 30
0.0
 11
193.779
 21
128.021
 31
0.0
  0
LINE
  8
0
  6
CONTINUOUS
 62
     1
 10
170.679001907
 20
129.521
 30
0.0
 11
199.179
 21
129.521
 31
0.0
  0
ARC
  8
0
  6
CONTINUOUS
 62
     1
 10
170.679001907
 20
129.021
 30
0.0
 40
0.5
 50
90.0
 51
180.0
  0
LINE
  8
0
  6
CONTINUOUS
 62
     1
 10
169.129
 20
129.521
 30
0.0
 11
170.679001907
 21
129.521
 31
0.0
  0
ARC
  8
0
  6
CONTINUOUS
 62
     1
 10
167.678998093
 20
129.021
 30
0.0
 40
0.5
 50
0.0
 51
90.0
  0
ARC
  8
0
  6
CONTINUOUS
 62
     1
 10
200.679001907
 20
129.021
 30
0.0
 40
0.5
 50
90.0
 51
180.0
  0
ARC
  8
0
  6
CONTINUOUS
 62
     1
 10
197.678998093
 20
129.021
 30
0.0
 40
0.5
 50
0.0
 51
90.0
  0
TEXT
  8
0
  6
CONTINUOUS
 62
     2
 10
19.179
 20
109.521
 30
0.2
 40
3.0
  1
１０
 50
90.0
 41
0.8
 51
0.0
  7
KANJI0
  0
LINE
  8
0
  6
CONTINUOUS
 62
     5
 10
20.179
 20
107.021
 30
0.0
 11
20.826047613
 21
109.435814566
 31
0.0
  0
LINE
  8
0
  6
CONTINUOUS
 62
     5
 10
20.179
 20
107.021
 30
0.0
 11
19.531952387
 21
109.435814566
 31
0.0
  0
LINE
  8
0
  6
CONTINUOUS
 62
     5
 10
20.179
 20
107.021
 30
0.0
 11
20.179
 21
117.021
 31
0.0
  0
LINE
  8
0
  6
CONTINUOUS
 62
     5
 10
20.179
 20
117.021
 30
0.0
 11
19.531952387
 21
114.606185434
 31
0.0
  0
LINE
  8
0
  6
CONTINUOUS
 62
     5
 10
20.179
 20
117.021
 30
0.0
 11
20.826047613
 21
114.606185434
 31
0.0
  0
LINE
  8
0
  6
LTYPE1
 62
     5
 10
41.179
 20
117.021
 30
0.0
 11
57.179
 21
117.021
 31
0.0
  0
LINE
  8
0
  6
LTYPE1
 62
     5
 10
71.179
 20
117.021
 30
0.0
 11
87.179
 21
117.021
 31
0.0
  0
LINE
  8
0
  6
CONTINUOUS
 62
     5
 10
195.511848517
 20
115.187424258
 30
0.0
 11
197.961092815
 21
115.688625184
 31
0.0
  0
LINE
  8
0
  6
CONTINUOUS
 62
     5
 10
195.511848517
 20
115.187424258
 30
0.0
 11
197.382355836
 21
116.846099142
 31
0.0
  0
LINE
  8
0
  6
CONTINUOUS
 62
     5
 10
202.846151483
 20
118.854575742
 30
0.0
 11
200.396907185
 21
118.353374816
 31
0.0
  0
LINE
  8
0
  6
CONTINUOUS
 62
     5
 10
202.846151483
 20
118.854575742
 30
0.0
 11
200.975644164
 21
117.195900858
 31
0.0
  0
LINE
  8
0
  6
CONTINUOUS
 62
     5
 10
191.179
 20
113.021
 30
0.0
 11
202.846151483
 21
118.854575742
 31
0.0
  0
LINE
  8
0
  6
CONTINUOUS
 62
     5
 10
191.179
 20
113.021
 30
0.0
 11
184.879
 21
113.021
 31
0.0
  0
LINE
  8
0
  6
CONTINUOUS
 62
     5
 10
20.179
 20
117.021
 30
0.0
 11
20.826047613
 21
119.435814566
 31
0.0
  0
LINE
  8
0
  6
CONTINUOUS
 62
     5
 10
20.179
 20
117.021
 30
0.0
 11
19.531952387
 21
119.435814566
 31
0.0
  0
LINE
  8
0
  6
CONTINUOUS
 62
     5
 10
20.179
 20
117.021
 30
0.0
 11
20.179
 21
131.021
 31
0.0
  0
LINE
  8
0
  6
CONTINUOUS
 62
     5
 10
20.179
 20
131.021
 30
0.0
 11
19.531952387
 21
128.606185434
 31
0.0
  0
LINE
  8
0
  6
CONTINUOUS
 62
     5
 10
20.179
 20
131.021
 30
0.0
 11
20.826047613
 21
128.606185434
 31
0.0
  0
LINE
  8
0
  6
CONTINUOUS
 62
     5
 10
46.179
 20
131.021
 30
0.0
 11
18.179
 21
131.021
 31
0.0
  0
LINE
  8
0
  6
LTYPE1
 62
     5
 10
162.179
 20
97.021
 30
0.0
 11
146.179
 21
97.021
 31
0.0
  0
LINE
  8
0
  6
LTYPE1
 62
     5
 10
154.179
 20
89.021
 30
0.0
 11
154.179
 21
105.021
 31
0.0
  0
LINE
  8
0
  6
LTYPE1
 62
     5
 10
206.179
 20
97.021
 30
0.0
 11
222.179
 21
97.021
 31
0.0
  0
LINE
  8
0
  6
LTYPE1
 62
     5
 10
214.179
 20
89.021
 30
0.0
 11
214.179
 21
105.021
 31
0.0
  0
LINE
  8
0
  6
LTYPE1
 62
     5
 10
191.179001349
 20
117.021
 30
0.0
 11
207.179001349
 21
117.021
 31
0.0
  0
LINE
  8
0
  6
LTYPE1
 62
     5
 10
79.179
 20
109.021
 30
0.0
 11
79.179
 21
133.021
 31
0.0
  0
LINE
  8
0
  6
LTYPE1
 62
     5
 10
49.179
 20
109.021
 30
0.0
 11
49.179
 21
133.021
 31
0.0
  0
LINE
  8
0
  6
CONTINUOUS
 62
     5
 10
40.179
 20
117.021
 30
0.0
 11
18.179
 21
117.021
 31
0.0
  0
LINE
  8
0
  6
LTYPE1
 62
     5
 10
42.179
 20
97.021
 30
0.0
 11
26.179
 21
97.021
 31
0.0
  0
LINE
  8
0
  6
LTYPE1
 62
     5
 10
34.179
 20
89.021
 30
0.0
 11
34.179
 21
105.021
 31
0.0
  0
LINE
  8
0
  6
LTYPE1
 62
     5
 10
94.179
 20
89.021
 30
0.0
 11
94.179
 21
105.465
 31
0.0
  0
POLYLINE
  8
0
  6
CONTINUOUS
 62
     5
 66
     1
  0
VERTEX
  8
0
  6
CONTINUOUS
 62
     5
 10
49.179
 20
141.021
 30
0.0
  0
VERTEX
  8
0
  6
CONTINUOUS
 62
     5
 10
79.179
 20
141.021
 30
0.0
  0
VERTEX
  8
0
  6
CONTINUOUS
 62
     5
 10
76.764185434
 20
141.668047613
 30
0.0
  0
SEQEND
  0
LINE
  8
0
  6
CONTINUOUS
 62
     5
 10
79.179
 20
141.021
 30
0.0
 11
76.764185434
 21
140.373952387
 31
0.0
  0
LINE
  8
0
  6
CONTINUOUS
 62
     5
 10
49.179
 20
141.021
 30
0.0
 11
51.593814566
 21
140.373952387
 31
0.0
  0
LINE
  8
0
  6
CONTINUOUS
 62
     5
 10
49.179
 20
141.021
 30
0.0
 11
51.593814566
 21
141.668047613
 31
0.0
  0
LINE
  8
0
  6
CONTINUOUS
 62
     5
 10
79.179
 20
134.021
 30
0.0
 11
79.179
 21
143.021
 31
0.0
  0
LINE
  8
0
  6
CONTINUOUS
 62
     5
 10
49.179
 20
134.021
 30
0.0
 11
49.179
 21
143.021
 31
0.0
  0
TEXT
  8
0
  6
CONTINUOUS
 62
     2
 10
61.679
 20
69.021
 30
0.2
 40
3.0
  1
７７
 50
0.0
 41
0.8
 51
0.0
  7
KANJI0
  0
LINE
  8
0
  6
CONTINUOUS
 62
     5
 10
25.679
 20
82.020996801
 30
0.0
 11
25.679
 21
66.021
 31
0.0
  0
LINE
  8
0
  6
CONTINUOUS
 62
     5
 10
25.679
 20
68.021
 30
0.0
 11
28.093814566
 21
67.373952387
 31
0.0
  0
LINE
  8
0
  6
CONTINUOUS
 62
     5
 10
25.679
 20
68.021
 30
0.0
 11
28.093814566
 21
68.668047613
 31
0.0
  0
LINE
  8
0
  6
CONTINUOUS
 62
     5
 10
25.679
 20
68.021
 30
0.0
 11
102.679
 21
68.021
 31
0.0
  0
LINE
  8
0
  6
CONTINUOUS
 62
     5
 10
102.679
 20
68.021
 30
0.0
 11
100.264185434
 21
68.668047613
 31
0.0
  0
LINE
  8
0
  6
CONTINUOUS
 62
     5
 10
102.679
 20
68.021
 30
0.0
 11
100.264185434
 21
67.373952387
 31
0.0
  0
LINE
  8
0
  6
CONTINUOUS
 62
     5
 10
102.679
 20
82.020996801
 30
0.0
 11
102.679
 21
66.021
 31
0.0
  0
LINE
  8
0
  6
LTYPE1
 62
     5
 10
64.179
 20
133.421
 30
0.0
 11
64.179
 21
79.307
 31
0.0
  0
TEXT
  8
0
  6
CONTINUOUS
 62
     2
 10
184.879
 20
114.021
 30
0.3
 40
3.0
  1
８．２
 50
0.0
 41
0.8
 51
0.0
  7
KANJI1
  0
LINE
  8
0
  6
LTYPE1
 62
     5
 10
184.179
 20
132.45
 30
0.0
 11
184.179
 21
79.22
 31
0.0
  0
ARC
  8
0
  6
CONTINUOUS
 62
     1
 10
79.179
 20
162.221
 30
0.0
 40
3.3
 50
180.0
 51
359.999981488
  0
LINE
  8
0
  6
CONTINUOUS
 62
     1
 10
82.479
 20
172.021
 30
0.0
 11
82.479
 21
162.221
 31
0.0
  0
LINE
  8
0
  6
CONTINUOUS
 62
     1
 10
75.879
 20
172.021
 30
0.0
 11
75.879
 21
162.221
 31
0.0
  0
ARC
  8
0
  6
CONTINUOUS
 62
     1
 10
49.179
 20
162.221
 30
0.0
 40
3.3
 50
180.000018512
 51
0.0
  0
LINE
  8
0
  6
CONTINUOUS
 62
     1
 10
45.879
 20
172.021
 30
0.0
 11
45.879
 21
162.221
 31
0.0
  0
LINE
  8
0
  6
CONTINUOUS
 62
     1
 10
52.479
 20
172.021
 30
0.0
 11
52.479
 21
162.221
 31
0.0
  0
LINE
  8
0
  6
CONTINUOUS
 62
     1
 10
25.679
 20
172.021
 30
0.0
 11
25.679
 21
159.021
 31
0.0
  0
ARC
  8
0
  6
CONTINUOUS
 62
     1
 10
31.679
 20
159.021
 30
0.0
 40
6.0
 50
180.0
 51
270.0
  0
LINE
  8
0
  6
CONTINUOUS
 62
     1
 10
31.679
 20
153.021
 30
0.0
 11
96.679
 21
153.021
 31
0.0
  0
LINE
  8
0
  6
CONTINUOUS
 62
     1
 10
102.679
 20
172.021
 30
0.0
 11
102.679
 21
159.021
 31
0.0
  0
ARC
  8
0
  6
CONTINUOUS
 62
     1
 10
96.679
 20
159.021
 30
0.0
 40
6.0
 50
270.0
 51
0.0
  0
LINE
  8
0
  6
LTYPE1
 62
     5
 10
64.179
 20
175.021
 30
0.0
 11
64.179
 21
156.953
 31
0.0
  0
LINE
  8
0
  6
LTYPE1
 62
     5
 10
34.179
 20
175.021
 30
0.0
 11
34.179
 21
150.021
 31
0.0
  0
LINE
  8
0
  6
LTYPE1
 62
     5
 10
49.179
 20
175.021
 30
0.0
 11
49.179
 21
150.021
 31
0.0
  0
LINE
  8
0
  6
LTYPE1
 62
     5
 10
79.179
 20
175.021
 30
0.0
 11
79.179
 21
150.021
 31
0.0
  0
LINE
  8
0
  6
LTYPE1
 62
     5
 10
94.179
 20
175.021
 30
0.0
 11
94.179
 21
150.021
 31
0.0
  0
LINE
  8
0
  6
LTYPE1
 62
     5
 10
64.179
 20
176.707
 30
0.0
 11
64.179
 21
148.421
 31
0.0
  0
LINE
  8
0
  6
CONTINUOUS
 62
     1
 10
168.179001907
 20
129.021
 30
0.0
 11
168.179001907
 21
125.021
 31
0.0
  0
LINE
  8
0
  6
CONTINUOUS
 62
     1
 10
170.179001907
 20
125.021
 30
0.0
 11
168.179001907
 21
125.021
 31
0.0
  0
LINE
  8
0
  6
CONTINUOUS
 62
     1
 10
170.179001907
 20
129.021
 30
0.0
 11
170.179001907
 21
125.021
 31
0.0
  0
LINE
  8
0
  6
CONTINUOUS
 62
     1
 10
200.178998093
 20
129.021
 30
0.0
 11
200.178998093
 21
125.021
 31
0.0
  0
LINE
  8
0
  6
CONTINUOUS
 62
     1
 10
198.178998093
 20
125.021
 30
0.0
 11
200.178998093
 21
125.021
 31
0.0
  0
LINE
  8
0
  6
CONTINUOUS
 62
     1
 10
198.178998093
 20
129.021
 30
0.0
 11
198.178998093
 21
125.021
 31
0.0
  0
LINE
  8
0
  6
LTYPE1
 62
     5
 10
169.179
 20
110.442
 30
0.0
 11
169.179
 21
133.021
 31
0.0
  0
LINE
  8
0
  6
LTYPE2
 62
     5
 10
199.179
 20
110.442
 30
0.0
 11
199.179
 21
133.021
 31
0.0
  0
LINE
  8
0
  6
CONTINUOUS
 62
     1
 10
172.479
 20
122.421
 30
0.0
 11
171.679
 21
122.421
 31
0.0
  0
LINE
  8
0
  6
CONTINUOUS
 62
     1
 10
172.479
 20
122.421
 30
0.0
 11
172.479
 21
131.021
 31
0.0
  0
LINE
  8
0
  6
CONTINUOUS
 62
     1
 10
171.679
 20
122.421
 30
0.0
 11
171.679
 21
120.270615362
 31
0.0
  0
LINE
  8
0
  6
CONTINUOUS
 62
     1
 10
166.679
 20
122.421
 30
0.0
 11
166.679
 21
120.270615362
 31
0.0
  0
LINE
  8
0
  6
CONTINUOUS
 62
     1
 10
165.879
 20
122.421
 30
0.0
 11
166.679
 21
122.421
 31
0.0
  0
LINE
  8
0
  6
CONTINUOUS
 62
     1
 10
165.879
 20
122.421
 30
0.0
 11
165.879
 21
130.626513588
 31
0.0
  0
LINE
  8
0
  6
CONTINUOUS
 62
     1
 10
172.879
 20
113.021
 30
0.0
 11
174.579
 21
113.021
 31
0.0
  0
LINE
  8
0
  6
CONTINUOUS
 62
     1
 10
165.479
 20
113.021
 30
0.0
 11
163.779
 21
113.021
 31
0.0
  0
ARC
  8
0
  6
CONTINUOUS
 62
     1
 10
169.179
 20
117.021
 30
0.0
 40
4.1
 50
127.57186932
 51
228.748359415
  0
ARC
  8
0
  6
CONTINUOUS
 62
     1
 10
165.479
 20
114.021
 30
0.0
 40
1.0
 50
270.0
 51
355.269685628
  0
ARC
  8
0
  6
CONTINUOUS
 62
     1
 10
169.179
 20
117.021
 30
0.0
 40
4.1
 50
311.251640585
 51
52.42813068
  0
ARC
  8
0
  6
CONTINUOUS
 62
     1
 10
172.879
 20
114.021
 30
0.0
 40
1.0
 50
184.730314372
 51
270.0
  0
LINE
  8
0
  6
CONTINUOUS
 62
     1
 10
195.879
 20
122.421
 30
0.0
 11
196.679
 21
122.421
 31
0.0
  0
LINE
  8
0
  6
CONTINUOUS
 62
     1
 10
195.879
 20
122.421
 30
0.0
 11
195.879
 21
131.021
 31
0.0
  0
LINE
  8
0
  6
CONTINUOUS
 62
     1
 10
196.679
 20
122.421
 30
0.0
 11
196.679
 21
120.270615362
 31
0.0
  0
ARC
  8
0
  6
CONTINUOUS
 62
     1
 10
199.179
 20
117.021
 30
0.0
 40
4.1
 50
127.57186932
 51
228.748359415
  0
LINE
  8
0
  6
CONTINUOUS
 62
     1
 10
195.479
 20
113.021
 30
0.0
 11
193.779
 21
113.021
 31
0.0
  0
ARC
  8
0
  6
CONTINUOUS
 62
     1
 10
195.479
 20
114.021
 30
0.0
 40
1.0
 50
270.0
 51
355.269685628
  0
LINE
  8
0
  6
CONTINUOUS
 62
     1
 10
201.679
 20
122.421
 30
0.0
 11
201.679
 21
120.270615362
 31
0.0
  0
LINE
  8
0
  6
CONTINUOUS
 62
     1
 10
202.479
 20
122.421
 30
0.0
 11
201.679
 21
122.421
 31
0.0
  0
LINE
  8
0
  6
CONTINUOUS
 62
     1
 10
202.479
 20
122.421
 30
0.0
 11
202.479
 21
130.626513588
 31
0.0
  0
ARC
  8
0
  6
CONTINUOUS
 62
     1
 10
199.179
 20
117.021
 30
0.0
 40
4.1
 50
311.251640585
 51
52.42813068
  0
LINE
  8
0
  6
CONTINUOUS
 62
     1
 10
202.879
 20
113.021
 30
0.0
 11
204.579
 21
113.021
 31
0.0
  0
ARC
  8
0
  6
CONTINUOUS
 62
     1
 10
202.879
 20
114.021
 30
0.0
 40
1.0
 50
184.730314372
 51
270.0
  0
TEXT
  8
0
  6
CONTINUOUS
 62
     2
 10
127.179
 20
147.021
 30
0.2
 40
3.0
  1
１９
 50
0.0
 41
0.8
 51
0.0
  7
KANJI0
  0
LINE
  8
0
  6
CONTINUOUS
 62
     5
 10
139.179
 20
146.021
 30
0.0
 11
136.764185434
 21
146.668047613
 31
0.0
  0
LINE
  8
0
  6
CONTINUOUS
 62
     5
 10
139.179
 20
146.021
 30
0.0
 11
136.764185434
 21
145.373952387
 31
0.0
  0
LINE
  8
0
  6
CONTINUOUS
 62
     5
 10
139.179
 20
146.021
 30
0.0
 11
120.179
 21
146.021
 31
0.0
  0
LINE
  8
0
  6
CONTINUOUS
 62
     5
 10
120.179
 20
146.021
 30
0.0
 11
122.593814566
 21
145.373952387
 31
0.0
  0
LINE
  8
0
  6
CONTINUOUS
 62
     5
 10
120.179
 20
146.021
 30
0.0
 11
122.593814566
 21
146.668047613
 31
0.0
  0
LINE
  8
0
  6
CONTINUOUS
 62
     5
 10
139.179
 20
132.021
 30
0.0
 11
139.179
 21
148.021
 31
0.0
  0
LINE
  8
0
  6
CONTINUOUS
 62
     5
 10
120.179
 20
127.021
 30
0.0
 11
120.179
 21
148.021
 31
0.0
  0
LINE
  8
0
  6
CONTINUOUS
 62
     5
 10
195.879
 20
132.021
 30
0.0
 11
195.879
 21
148.021
 31
0.0
  0
LINE
  8
0
  6
CONTINUOUS
 62
     5
 10
195.879
 20
146.021
 30
0.0
 11
198.293814566
 21
145.373952387
 31
0.0
  0
LINE
  8
0
  6
CONTINUOUS
 62
     5
 10
195.879
 20
146.021
 30
0.0
 11
198.293814566
 21
146.668047613
 31
0.0
  0
LINE
  8
0
  6
CONTINUOUS
 62
     5
 10
195.879
 20
146.021
 30
0.0
 11
202.479
 21
146.021
 31
0.0
  0
LINE
  8
0
  6
CONTINUOUS
 62
     5
 10
202.479
 20
146.021
 30
0.0
 11
200.064185434
 21
146.668047613
 31
0.0
  0
LINE
  8
0
  6
CONTINUOUS
 62
     5
 10
202.479
 20
146.021
 30
0.0
 11
200.064185434
 21
145.373952387
 31
0.0
  0
LINE
  8
0
  6
CONTINUOUS
 62
     5
 10
202.479
 20
131.626513588
 30
0.0
 11
202.479
 21
148.021
 31
0.0
  0
TEXT
  8
0
  6
CONTINUOUS
 62
     2
 10
195.975
 20
147.06
 30
0.2
 40
3.0
  1
６．６
 50
0.0
 41
0.8
 51
0.0
  7
KANJI0
  0
LINE
  8
0
  6
LTYPE3
 62
     2
 10
27.179
 20
159.021
 30
0.0
 11
27.179
 21
172.021
 31
0.0
  0
ARC
  8
0
  6
LTYPE3
 62
     2
 10
31.679
 20
159.021
 30
0.0
 40
4.5
 50
180.0
 51
270.0
  0
LINE
  8
0
  6
LTYPE3
 62
     2
 10
101.179
 20
159.021
 30
0.0
 11
101.179
 21
172.021
 31
0.0
  0
ARC
  8
0
  6
LTYPE3
 62
     2
 10
96.679
 20
159.021
 30
0.0
 40
4.5
 50
270.0
 51
0.0
  0
LINE
  8
0
  6
LTYPE3
 62
     2
 10
54.579
 20
163.221
 30
0.0
 11
54.579
 21
172.021
 31
0.0
  0
LINE
  8
0
  6
LTYPE3
 62
     2
 10
53.279
 20
172.021
 30
0.0
 11
53.279
 21
163.221
 31
0.0
  0
LINE
  8
0
  6
LTYPE3
 62
     2
 10
43.779
 20
163.221
 30
0.0
 11
43.779
 21
172.021
 31
0.0
  0
LINE
  8
0
  6
LTYPE3
 62
     2
 10
45.079
 20
172.021
 30
0.0
 11
45.079
 21
163.221
 31
0.0
  0
LINE
  8
0
  6
LTYPE3
 62
     2
 10
48.179001907
 20
154.521
 30
0.0
 11
48.179001907
 21
158.921
 31
0.0
  0
LINE
  8
0
  6
LTYPE3
 62
     2
 10
48.179001907
 20
158.921
 30
0.0
 11
50.179001907
 21
158.921
 31
0.0
  0
LINE
  8
0
  6
LTYPE3
 62
     2
 10
50.179001907
 20
158.921
 30
0.0
 11
50.179001907
 21
154.521
 31
0.0
  0
LINE
  8
0
  6
LTYPE3
 62
     2
 10
73.779
 20
163.221
 30
0.0
 11
73.779
 21
172.021
 31
0.0
  0
LINE
  8
0
  6
LTYPE3
 62
     2
 10
75.079
 20
172.021
 30
0.0
 11
75.079
 21
163.221
 31
0.0
  0
LINE
  8
0
  6
LTYPE3
 62
     2
 10
84.579
 20
163.221
 30
0.0
 11
84.579
 21
172.021
 31
0.0
  0
LINE
  8
0
  6
LTYPE3
 62
     2
 10
83.279
 20
172.021
 30
0.0
 11
83.279
 21
163.221
 31
0.0
  0
LINE
  8
0
  6
LTYPE3
 62
     2
 10
80.178998093
 20
154.521
 30
0.0
 11
80.178998093
 21
158.921
 31
0.0
  0
LINE
  8
0
  6
LTYPE3
 62
     2
 10
80.178998093
 20
158.921
 30
0.0
 11
78.178998093
 21
158.921
 31
0.0
  0
LINE
  8
0
  6
LTYPE3
 62
     2
 10
78.178998093
 20
158.921
 30
0.0
 11
78.178998093
 21
154.521
 31
0.0
  0
LINE
  8
0
  6
LTYPE3
 62
     2
 10
82.479
 20
163.221
 30
0.0
 11
84.579
 21
163.221
 31
0.0
  0
LINE
  8
0
  6
LTYPE3
 62
     2
 10
96.679001349
 20
154.521
 30
0.0
 11
31.679001349
 21
154.521
 31
0.0
  0
LINE
  8
0
  6
LTYPE3
 62
     2
 10
74.779
 20
113.021
 30
0.0
 11
73.779
 21
113.021
 31
0.0
  0
ARC
  8
0
  6
LTYPE3
 62
     2
 10
72.279
 20
128.021
 30
0.0
 40
1.5
 50
0.0
 51
90.0
  0
LINE
  8
0
  6
LTYPE3
 62
     2
 10
73.779
 20
113.021
 30
0.0
 11
73.779
 21
128.021
 31
0.0
  0
LINE
  8
0
  6
LTYPE3
 62
     2
 10
49.129
 20
129.521
 30
0.0
 11
79.179
 21
129.521
 31
0.0
  0
ARC
  8
0
  6
LTYPE3
 62
     2
 10
79.179
 20
117.021
 30
0.0
 40
12.5
 50
24.160864651
 51
90.000006668
  0
ARC
  8
0
  6
LTYPE3
 62
     2
 10
56.079
 20
128.021
 30
0.0
 40
1.5
 50
90.0
 51
180.0
  0
LINE
  8
0
  6
LTYPE3
 62
     2
 10
54.579
 20
113.021
 30
0.0
 11
54.579
 21
128.021
 31
0.0
  0
ARC
  8
0
  6
LTYPE3
 62
     2
 10
49.179
 20
117.021
 30
0.0
 40
12.5
 50
89.999993332
 51
155.839135349
  0
ARC
  8
0
  6
LTYPE3
 62
     2
 10
85.579
 20
126.575580054
 30
0.0
 40
1.0
 50
56.184407518
 51
180.0
  0
LINE
  8
0
  6
LTYPE3
 62
     2
 10
84.579
 20
113.021
 30
0.0
 11
84.579
 21
126.575580054
 31
0.0
  0
LINE
  8
0
  6
LTYPE3
 62
     2
 10
43.779
 20
113.021
 30
0.0
 11
43.779
 21
126.575580054
 31
0.0
  0
ARC
  8
0
  6
LTYPE3
 62
     2
 10
42.779
 20
126.575580054
 30
0.0
 40
1.0
 50
0.0
 51
123.815592482
  0
ARC
  8
0
  6
LTYPE3
 62
     2
 10
47.678998093
 20
129.021
 30
0.0
 40
0.5
 50
0.0
 51
90.0
  0
ARC
  8
0
  6
LTYPE3
 62
     2
 10
50.679001907
 20
129.021
 30
0.0
 40
0.5
 50
90.0
 51
180.0
  0
ARC
  8
0
  6
LTYPE3
 62
     2
 10
80.679001907
 20
129.021
 30
0.0
 40
0.5
 50
90.0
 51
180.0
  0
ARC
  8
0
  6
LTYPE3
 62
     2
 10
77.678998093
 20
129.021
 30
0.0
 40
0.5
 50
0.0
 51
90.0
  0
LINE
  8
0
  6
LTYPE3
 62
     2
 10
50.179001907
 20
129.021
 30
0.0
 11
50.179001907
 21
125.021
 31
0.0
  0
LINE
  8
0
  6
LTYPE3
 62
     2
 10
50.179001907
 20
125.021
 30
0.0
 11
48.179001907
 21
125.021
 31
0.0
  0
LINE
  8
0
  6
LTYPE3
 62
     2
 10
48.179001907
 20
129.021
 30
0.0
 11
48.179001907
 21
125.021
 31
0.0
  0
LINE
  8
0
  6
LTYPE3
 62
     2
 10
46.679
 20
122.421
 30
0.0
 11
46.679
 21
120.270615362
 31
0.0
  0
LINE
  8
0
  6
LTYPE3
 62
     2
 10
45.879
 20
122.421
 30
0.0
 11
45.879
 21
130.626513588
 31
0.0
  0
LINE
  8
0
  6
LTYPE3
 62
     2
 10
45.479
 20
113.021
 30
0.0
 11
43.779
 21
113.021
 31
0.0
  0
ARC
  8
0
  6
LTYPE3
 62
     2
 10
49.179
 20
117.021
 30
0.0
 40
4.1
 50
127.57186932
 51
228.748359415
  0
ARC
  8
0
  6
LTYPE3
 62
     2
 10
45.479
 20
114.021
 30
0.0
 40
1.0
 50
270.0
 51
355.269685628
  0
LINE
  8
0
  6
LTYPE3
 62
     2
 10
51.679
 20
122.421
 30
0.0
 11
51.679
 21
120.270615362
 31
0.0
  0
LINE
  8
0
  6
LTYPE3
 62
     2
 10
52.479
 20
122.421
 30
0.0
 11
52.479
 21
130.626513588
 31
0.0
  0
ARC
  8
0
  6
LTYPE3
 62
     2
 10
49.179
 20
117.021
 30
0.0
 40
4.1
 50
311.251640585
 51
52.42813068
  0
LINE
  8
0
  6
LTYPE3
 62
     2
 10
52.879
 20
113.021
 30
0.0
 11
54.579
 21
113.021
 31
0.0
  0
ARC
  8
0
  6
LTYPE3
 62
     2
 10
52.879
 20
114.021
 30
0.0
 40
1.0
 50
184.730314372
 51
270.0
  0
LINE
  8
0
  6
LTYPE3
 62
     2
 10
80.178998093
 20
129.021
 30
0.0
 11
80.178998093
 21
125.021
 31
0.0
  0
LINE
  8
0
  6
LTYPE3
 62
     2
 10
78.178998093
 20
125.021
 30
0.0
 11
80.178998093
 21
125.021
 31
0.0
  0
LINE
  8
0
  6
LTYPE3
 62
     2
 10
78.178998093
 20
129.021
 30
0.0
 11
78.178998093
 21
125.021
 31
0.0
  0
LINE
  8
0
  6
LTYPE3
 62
     2
 10
76.679
 20
122.421
 30
0.0
 11
76.679
 21
120.270615362
 31
0.0
  0
LINE
  8
0
  6
LTYPE3
 62
     2
 10
75.879
 20
122.421
 30
0.0
 11
75.879
 21
130.626513588
 31
0.0
  0
ARC
  8
0
  6
LTYPE3
 62
     2
 10
79.179
 20
117.021
 30
0.0
 40
4.1
 50
127.57186932
 51
228.748359415
  0
LINE
  8
0
  6
LTYPE3
 62
     2
 10
75.479
 20
113.021
 30
0.0
 11
73.779
 21
113.021
 31
0.0
  0
ARC
  8
0
  6
LTYPE3
 62
     2
 10
75.479
 20
114.021
 30
0.0
 40
1.0
 50
270.0
 51
355.269685628
  0
LINE
  8
0
  6
LTYPE3
 62
     2
 10
81.679
 20
122.421
 30
0.0
 11
81.679
 21
120.270615362
 31
0.0
  0
LINE
  8
0
  6
LTYPE3
 62
     2
 10
82.479
 20
122.421
 30
0.0
 11
82.479
 21
130.626513588
 31
0.0
  0
ARC
  8
0
  6
LTYPE3
 62
     2
 10
79.179
 20
117.021
 30
0.0
 40
4.1
 50
311.251640585
 51
52.42813068
  0
LINE
  8
0
  6
LTYPE3
 62
     2
 10
83.579
 20
113.021
 30
0.0
 11
84.579
 21
113.021
 31
0.0
  0
LINE
  8
0
  6
LTYPE3
 62
     2
 10
82.879
 20
113.021
 30
0.0
 11
84.579
 21
113.021
 31
0.0
  0
ARC
  8
0
  6
LTYPE3
 62
     2
 10
82.879
 20
114.021
 30
0.0
 40
1.0
 50
184.730314372
 51
270.0
  0
ARC
  8
0
  6
LTYPE3
 62
     2
 10
34.179
 20
97.021
 30
0.0
 40
7.0
 50
154.667064238
 51
180.0
  0
ARC
  8
0
  6
LTYPE3
 62
     2
 10
34.179
 20
97.021
 30
0.0
 40
7.0
 50
155.83910686
 51
180.0
  0
LINE
  8
0
  6
LTYPE3
 62
     2
 10
27.792200718
 20
99.886099462
 30
0.0
 11
37.774001281
 21
122.137249039
 31
0.0
  0
LINE
  8
0
  6
LTYPE3
 62
     2
 10
27.179
 20
97.021
 30
0.0
 11
27.179
 21
83.021
 31
0.0
  0
LINE
  8
0
  6
LTYPE3
 62
     2
 10
101.179
 20
97.021
 30
0.0
 11
101.179
 21
83.021
 31
0.0
  0
ARC
  8
0
  6
LTYPE3
 62
     2
 10
94.179
 20
97.021
 30
0.0
 40
7.0
 50
0.0
 51
24.16089314
  0
LINE
  8
0
  6
LTYPE3
 62
     2
 10
100.565799282
 20
99.886099462
 30
0.0
 11
90.583998719
 21
122.137249039
 31
0.0
  0
LINE
  8
0
  6
LTYPE3
 62
     2
 10
130.379
 20
129.521
 30
0.0
 11
130.379
 21
113.021
 31
0.0
  0
LINE
  8
0
  6
LTYPE3
 62
     2
 10
139.179
 20
129.521
 30
0.0
 11
126.179
 21
129.521
 31
0.0
  0
LINE
  8
0
  6
LTYPE3
 62
     2
 10
121.679
 20
125.021
 30
0.0
 11
121.679
 21
83.021
 31
0.0
  0
ARC
  8
0
  6
LTYPE3
 62
     2
 10
126.179
 20
125.021
 30
0.0
 40
4.5
 50
90.0
 51
180.0
  0
LINE
  8
0
  6
LTYPE3
 62
     2
 10
126.079
 20
131.021
 30
0.0
 11
126.079
 21
125.021
 31
0.0
  0
LINE
  8
0
  6
LTYPE3
 62
     2
 10
126.079
 20
125.021
 30
0.0
 11
121.679
 21
125.021
 31
0.0
  0
LINE
  8
0
  6
LTYPE3
 62
     2
 10
139.179
 20
120.270615362
 30
0.0
 11
130.379
 21
120.270615362
 31
0.0
  0
LINE
  8
0
  6
LTYPE3
 62
     2
 10
139.179
 20
122.421
 30
0.0
 11
130.379
 21
122.421
 31
0.0
  0
LINE
  8
0
  6
LTYPE3
 62
     2
 10
130.379
 20
113.021
 30
0.0
 11
139.179
 21
113.021
 31
0.0
  0
LINE
  8
0
  6
LTYPE3
 62
     2
 10
130.379
 20
113.938534196
 30
0.0
 11
139.179
 21
113.938534196
 31
0.0
  0
LINE
  8
0
  6
LTYPE1
 62
     5
 10
102.179
 20
97.021
 30
0.0
 11
86.179
 21
97.021
 31
0.0
  0
LINE
  8
0
  6
CONTINUOUS
 62
     5
 10
25.735
 20
97.021
 30
0.0
 11
25.679
 21
97.021
 31
0.0
  0
TEXT
  8
0
  6
CONTINUOUS
 62
     2
 10
58.209
 20
142.021
 30
0.2
 40
3.0
  1
３０
 50
0.0
 41
0.8
 51
0.0
  7
KANJI0
  0
LINE
  8
0
  6
LTYPE1
 62
     5
 10
145.695
 20
107.021
 30
0.0
 11
222.347
 21
107.021
 31
0.0
  0
LINE
  8
0
  6
LTYPE1
 62
     5
 10
25.957
 20
107.021
 30
0.0
 11
104.068
 21
107.021
 31
0.0
  0
LINE
  8
0
  6
CONTINUOUS
 62
     2
 10
52.479
 20
122.421
 30
0.0
 11
51.679
 21
122.421
 31
0.0
  0
LINE
  8
0
  6
CONTINUOUS
 62
     2
 10
75.879
 20
122.421
 30
0.0
 11
76.679
 21
122.421
 31
0.0
  0
LINE
  8
0
  6
CONTINUOUS
 62
     2
 10
82.479
 20
122.421
 30
0.0
 11
81.679
 21
122.421
 31
0.0
  0
LINE
  8
0
  6
LTYPE1
 62
     5
 10
117.756
 20
117.021
 30
0.0
 11
141.118
 21
117.021
 31
0.0
  0
LINE
  8
0
  6
LTYPE1
 62
     5
 10
117.512
 20
97.021
 30
0.0
 11
141.343
 21
97.021
 31
0.0
  0
LINE
  8
0
  6
LTYPE1
 62
     5
 10
141.89
 20
107.021
 30
0.0
 11
116.179
 21
107.021
 31
0.0
  0
LINE
  8
0
  6
LTYPE3
 62
     2
 10
45.879
 20
163.221
 30
0.0
 11
43.779
 21
163.221
 31
0.0
  0
LINE
  8
0
  6
CONTINUOUS
 62
     1
 10
51.679
 20
172.021
 30
0.0
 11
51.679
 21
163.221
 31
0.0
  0
LINE
  8
0
  6
CONTINUOUS
 62
     1
 10
46.679
 20
172.021
 30
0.0
 11
46.679
 21
163.221
 31
0.0
  0
LINE
  8
0
  6
CONTINUOUS
 62
     1
 10
25.679
 20
172.021
 30
0.0
 11
46.679
 21
172.021
 31
0.0
  0
LINE
  8
0
  6
LTYPE3
 62
     2
 10
52.479
 20
163.221
 30
0.0
 11
54.579
 21
163.221
 31
0.0
  0
LINE
  8
0
  6
CONTINUOUS
 62
     1
 10
46.679
 20
163.221
 30
0.0
 11
45.879
 21
163.221
 31
0.0
  0
LINE
  8
0
  6
CONTINUOUS
 62
     1
 10
51.679
 20
163.221
 30
0.0
 11
52.479
 21
163.221
 31
0.0
  0
LINE
  8
0
  6
LTYPE3
 62
     2
 10
75.879
 20
163.221
 30
0.0
 11
73.779
 21
163.221
 31
0.0
  0
LINE
  8
0
  6
CONTINUOUS
 62
     1
 10
51.679
 20
172.021
 30
0.0
 11
76.679
 21
172.021
 31
0.0
  0
LINE
  8
0
  6
CONTINUOUS
 62
     1
 10
76.679
 20
172.021
 30
0.0
 11
76.679
 21
163.221
 31
0.0
  0
LINE
  8
0
  6
CONTINUOUS
 62
     1
 10
81.679
 20
172.021
 30
0.0
 11
81.679
 21
163.221
 31
0.0
  0
LINE
  8
0
  6
CONTINUOUS
 62
     1
 10
81.679
 20
172.021
 30
0.0
 11
102.679
 21
172.021
 31
0.0
  0
LINE
  8
0
  6
CONTINUOUS
 62
     1
 10
75.879
 20
163.221
 30
0.0
 11
76.679
 21
163.221
 31
0.0
  0
LINE
  8
0
  6
CONTINUOUS
 62
     1
 10
81.679
 20
163.221
 30
0.0
 11
82.479
 21
163.221
 31
0.0
  0
LINE
  8
0
  6
CONTINUOUS
 62
     2
 10
45.879
 20
122.421
 30
0.0
 11
46.679
 21
122.421
 31
0.0
  0
ARC
  8
0
  6
CONTINUOUS
 62
     1
 10
79.179
 20
45.025
 30
0.0
 40
3.3
 50
0.000018512
 51
180.0
  0
LINE
  8
0
  6
CONTINUOUS
 62
     1
 10
82.479
 20
35.225
 30
0.0
 11
82.479
 21
45.025
 31
0.0
  0
LINE
  8
0
  6
CONTINUOUS
 62
     1
 10
75.879
 20
35.225
 30
0.0
 11
75.879
 21
45.025
 31
0.0
  0
LINE
  8
0
  6
CONTINUOUS
 62
     1
 10
45.879
 20
35.225
 30
0.0
 11
45.879
 21
45.025
 31
0.0
  0
LINE
  8
0
  6
CONTINUOUS
 62
     1
 10
52.479
 20
35.225
 30
0.0
 11
52.479
 21
45.025
 31
0.0
  0
LINE
  8
0
  6
CONTINUOUS
 62
     1
 10
52.479
 20
35.225
 30
0.0
 11
52.479
 21
45.025
 31
0.0
  0
ARC
  8
0
  6
CONTINUOUS
 62
     1
 10
49.179
 20
45.025
 30
0.0
 40
3.3
 50
0.0
 51
179.999981488
  0
LINE
  8
0
  6
CONTINUOUS
 62
     1
 10
31.679
 20
54.225
 30
0.0
 11
97.179
 21
54.225
 31
0.0
  0
LINE
  8
0
  6
CONTINUOUS
 62
     1
 10
25.679
 20
35.225
 30
0.0
 11
25.679
 21
48.225
 31
0.0
  0
ARC
  8
0
  6
CONTINUOUS
 62
     1
 10
31.679
 20
48.225
 30
0.0
 40
6.0
 50
90.0
 51
180.0
  0
LINE
  8
0
  6
CONTINUOUS
 62
     1
 10
97.179
 20
52.725
 30
0.0
 11
31.679
 21
52.725
 31
0.0
  0
LINE
  8
0
  6
CONTINUOUS
 62
     1
 10
27.179
 20
48.225
 30
0.0
 11
27.179
 21
35.225
 31
0.0
  0
ARC
  8
0
  6
CONTINUOUS
 62
     1
 10
31.679
 20
48.225
 30
0.0
 40
4.5
 50
90.0
 51
180.0
  0
LINE
  8
0
  6
CONTINUOUS
 62
     1
 10
102.679
 20
35.225
 30
0.0
 11
102.679
 21
48.225
 31
0.0
  0
ARC
  8
0
  6
CONTINUOUS
 62
     1
 10
96.679
 20
48.225
 30
0.0
 40
6.0
 50
0.0
 51
90.0
  0
LINE
  8
0
  6
CONTINUOUS
 62
     1
 10
101.179
 20
48.225
 30
0.0
 11
101.179
 21
35.225
 31
0.0
  0
ARC
  8
0
  6
CONTINUOUS
 62
     1
 10
96.679
 20
48.225
 30
0.0
 40
4.5
 50
360.0
 51
90.0
  0
LINE
  8
0
  6
CONTINUOUS
 62
     1
 10
84.579
 20
35.225
 30
0.0
 11
84.579
 21
44.025
 31
0.0
  0
LINE
  8
0
  6
CONTINUOUS
 62
     1
 10
73.779
 20
35.225
 30
0.0
 11
73.779
 21
44.025
 31
0.0
  0
LINE
  8
0
  6
CONTINUOUS
 62
     1
 10
78.178998093
 20
52.725
 30
0.0
 11
78.178998093
 21
48.325
 31
0.0
  0
LINE
  8
0
  6
CONTINUOUS
 62
     1
 10
78.178998093
 20
48.325
 30
0.0
 11
80.178998093
 21
48.325
 31
0.0
  0
LINE
  8
0
  6
CONTINUOUS
 62
     1
 10
80.178998093
 20
48.325
 30
0.0
 11
80.178998093
 21
52.725
 31
0.0
  0
LINE
  8
0
  6
CONTINUOUS
 62
     1
 10
50.179001907
 20
52.725
 30
0.0
 11
50.179001907
 21
48.325
 31
0.0
  0
LINE
  8
0
  6
CONTINUOUS
 62
     1
 10
50.179001907
 20
48.325
 30
0.0
 11
48.179001907
 21
48.325
 31
0.0
  0
LINE
  8
0
  6
CONTINUOUS
 62
     1
 10
48.179001907
 20
48.325
 30
0.0
 11
48.179001907
 21
52.725
 31
0.0
  0
LINE
  8
0
  6
CONTINUOUS
 62
     1
 10
43.779
 20
35.225
 30
0.0
 11
43.779
 21
44.025
 31
0.0
  0
LINE
  8
0
  6
CONTINUOUS
 62
     1
 10
54.579
 20
35.225
 30
0.0
 11
54.579
 21
44.025
 31
0.0
  0
LINE
  8
0
  6
LTYPE1
 62
     5
 10
94.179
 20
32.5
 30
0.0
 11
94.179
 21
56.501
 31
0.0
  0
LINE
  8
0
  6
CONTINUOUS
 62
     5
 10
51.512452378
 20
47.358452378
 30
0.0
 11
53.677515887
 21
48.608452378
 31
0.0
  0
LINE
  8
0
  6
CONTINUOUS
 62
     5
 10
51.512452378
 20
47.358452378
 30
0.0
 11
52.762452378
 21
49.523515887
 31
0.0
  0
LINE
  8
0
  6
CONTINUOUS
 62
     5
 10
51.512452378
 20
47.358452378
 30
0.0
 11
54.179
 21
50.025
 31
0.0
  0
LINE
  8
0
  6
CONTINUOUS
 62
     5
 10
68.779
 20
35.225
 30
0.0
 11
69.426047613
 21
37.639814566
 31
0.0
  0
LINE
  8
0
  6
CONTINUOUS
 62
     5
 10
68.779
 20
35.225
 30
0.0
 11
68.131952387
 21
37.639814566
 31
0.0
  0
LINE
  8
0
  6
CONTINUOUS
 62
     5
 10
68.779
 20
35.225
 30
0.0
 11
68.779
 21
44.025
 31
0.0
  0
LINE
  8
0
  6
CONTINUOUS
 62
     5
 10
68.779
 20
44.025
 30
0.0
 11
68.131952387
 21
41.610185434
 31
0.0
  0
LINE
  8
0
  6
CONTINUOUS
 62
     5
 10
68.779
 20
44.025
 30
0.0
 11
69.426047613
 21
41.610185434
 31
0.0
  0
LINE
  8
0
  6
CONTINUOUS
 62
     5
 10
72.779
 20
44.025
 30
0.0
 11
66.779
 21
44.025
 31
0.0
  0
TEXT
  8
0
  6
CONTINUOUS
 62
     2
 10
67.749
 20
36.309
 30
0.2
 40
3.0
  1
８．８
 50
90.0
 41
0.8
 51
0.0
  7
KANJI0
  0
LINE
  8
0
  6
CONTINUOUS
 62
     5
 10
58.779
 20
35.225
 30
0.0
 11
59.426047613
 21
37.639814566
 31
0.0
  0
LINE
  8
0
  6
CONTINUOUS
 62
     5
 10
58.779
 20
35.225
 30
0.0
 11
58.131952387
 21
37.639814566
 31
0.0
  0
LINE
  8
0
  6
CONTINUOUS
 62
     5
 10
58.779
 20
35.225
 30
0.0
 11
58.779
 21
48.325
 31
0.0
  0
LINE
  8
0
  6
CONTINUOUS
 62
     5
 10
58.779
 20
48.325
 30
0.0
 11
58.131952387
 21
45.910185434
 31
0.0
  0
LINE
  8
0
  6
CONTINUOUS
 62
     5
 10
58.779
 20
48.325
 30
0.0
 11
59.426047613
 21
45.910185434
 31
0.0
  0
TEXT
  8
0
  6
CONTINUOUS
 62
     2
 10
57.779
 20
37.675
 30
0.2
 40
3.0
  1
１３．１
 50
90.0
 41
0.8
 51
0.0
  7
KANJI0
  0
LINE
  8
0
  6
CONTINUOUS
 62
     5
 10
50.179
 20
48.325
 30
0.0
 11
60.762
 21
48.325
 31
0.0
  0
LINE
  8
0
  6
LTYPE1
 62
     5
 10
49.179
 20
31.664
 30
0.0
 11
49.179
 21
56.951
 31
0.0
  0
LINE
  8
0
  6
LTYPE1
 62
     5
 10
79.179
 20
32.08
 30
0.0
 11
79.179
 21
56.576
 31
0.0
  0
LINE
  8
0
  6
LTYPE1
 62
     5
 10
34.179
 20
31.664
 30
0.0
 11
34.179
 21
57.101
 31
0.0
  0
LINE
  8
0
  6
CONTINUOUS
 62
     5
 10
49.179
 20
45.025
 30
0.0
 11
62.193
 21
58.039
 31
0.0
  0
LINE
  8
0
  6
LTYPE1
 62
     5
 10
64.179
 20
31.664
 30
0.0
 11
64.179
 21
57.432
 31
0.0
  0
LINE
  8
0
  6
CONTINUOUS
 62
     1
 10
43.779
 20
44.025
 30
0.0
 11
46.679
 21
44.025
 31
0.0
  0
LINE
  8
0
  6
CONTINUOUS
 62
     1
 10
54.579
 20
44.025
 30
0.0
 11
51.679
 21
44.025
 31
0.0
  0
LINE
  8
0
  6
CONTINUOUS
 62
     1
 10
51.679
 20
44.025
 30
0.0
 11
51.679
 21
35.225
 31
0.0
  0
LINE
  8
0
  6
CONTINUOUS
 62
     1
 10
46.679
 20
44.025
 30
0.0
 11
46.679
 21
35.225
 31
0.0
  0
LINE
  8
0
  6
CONTINUOUS
 62
     1
 10
25.679
 20
35.225
 30
0.0
 11
46.679
 21
35.225
 31
0.0
  0
LINE
  8
0
  6
CONTINUOUS
 62
     1
 10
84.579
 20
44.025
 30
0.0
 11
81.679
 21
44.025
 31
0.0
  0
LINE
  8
0
  6
CONTINUOUS
 62
     1
 10
73.779
 20
44.025
 30
0.0
 11
76.679
 21
44.025
 31
0.0
  0
POLYLINE
  8
0
  6
CONTINUOUS
 62
     1
 66
     1
  0
VERTEX
  8
0
  6
CONTINUOUS
 62
     1
 10
81.679
 20
44.025
 30
0.0
  0
VERTEX
  8
0
  6
CONTINUOUS
 62
     1
 10
81.679
 20
35.225
 30
0.0
  0
VERTEX
  8
0
  6
CONTINUOUS
 62
     1
 10
102.679
 20
35.225
 30
0.0
  0
SEQEND
  0
LINE
  8
0
  6
CONTINUOUS
 62
     1
 10
51.679
 20
35.225
 30
0.0
 11
76.679
 21
35.225
 31
0.0
  0
LINE
  8
0
  6
CONTINUOUS
 62
     1
 10
76.679
 20
44.025
 30
0.0
 11
76.679
 21
35.225
 31
0.0
  0
LINE
  8
0
  6
CONTINUOUS
 62
     2
 10
51.879
 20
44.025
 30
0.0
 11
51.879
 21
35.225
 31
0.0
  0
LINE
  8
0
  6
CONTINUOUS
 62
     2
 10
46.479
 20
44.025
 30
0.0
 11
46.479
 21
35.225
 31
0.0
  0
LINE
  8
0
  6
CONTINUOUS
 62
     2
 10
76.479
 20
44.025
 30
0.0
 11
76.479
 21
35.225
 31
0.0
  0
LINE
  8
0
  6
CONTINUOUS
 62
     2
 10
81.879
 20
44.025
 30
0.0
 11
81.879
 21
35.225
 31
0.0
  0
LINE
  8
0
  6
CONTINUOUS
 62
     5
 10
62.193
 20
58.039
 30
0.0
 11
71.443
 21
58.039
 31
0.0
  0
LINE
  8
0
  6
LTYPE1
 62
     5
 10
161.52
 20
117.021
 30
0.0
 11
177.623
 21
117.021
 31
0.0
  0
TEXT
  8
0
  6
CONTINUOUS
 62
     2
 10
62.193
 20
59.039
 30
0.3
 40
3.0
  1
Ｒ３．３
 50
0.0
 41
0.8
 51
0.0
  7
KANJI1
  0
TEXT
  8
0
  6
CONTINUOUS
 62
     2
 10
63.209
 20
142.021
 30
0.12
 40
1.8
  1
±０．１
 50
0.0
 41
0.8
 51
0.0
  7
KANJI2
  0
TEXT
  8
0
  6
CONTINUOUS
 62
     2
 10
19.249
 20
120.951
 30
0.2
 40
3.0
  1
１４
 50
90.0
 41
0.8
 51
0.0
  7
KANJI0
  0
TEXT
  8
0
  6
CONTINUOUS
 62
     2
 10
19.179
 20
92.521
 30
0.2
 40
3.0
  1
２４
 50
90.0
 41
0.8
 51
0.0
  7
KANJI0
  0
LINE
  8
0
  6
CONTINUOUS
 62
     5
 10
20.179
 20
107.021
 30
0.0
 11
19.531952387
 21
104.606185434
 31
0.0
  0
LINE
  8
0
  6
CONTINUOUS
 62
     5
 10
20.179
 20
107.021
 30
0.0
 11
20.826047613
 21
104.606185434
 31
0.0
  0
LINE
  8
0
  6
CONTINUOUS
 62
     5
 10
20.179
 20
107.021
 30
0.0
 11
20.179
 21
83.021
 31
0.0
  0
LINE
  8
0
  6
CONTINUOUS
 62
     5
 10
20.179
 20
83.021
 30
0.0
 11
20.826047613
 21
85.435814566
 31
0.0
  0
LINE
  8
0
  6
CONTINUOUS
 62
     5
 10
20.179
 20
83.021
 30
0.0
 11
19.531952387
 21
85.435814566
 31
0.0
  0
LINE
  8
0
  6
CONTINUOUS
 62
     5
 10
24.679
 20
107.021
 30
0.0
 11
18.179
 21
107.021
 31
0.0
  0
LINE
  8
0
  6
CONTINUOUS
 62
     5
 10
24.679
 20
83.021
 30
0.0
 11
18.179
 21
83.021
 31
0.0
  0
TEXT
  8
0
  6
CONTINUOUS
 62
     3
 10
235.013
 20
16.884
 30
0.2
 40
5.8
  1
ＭＳ－１２９９９
 50
0.0
 41
0.827586207
 51
0.0
  7
KANJI3
  0
TEXT
  8
0
  6
CONTINUOUS
 62
     1
 10
231.013
 20
43.384
 30
0.4
 40
4.0
  1
□ＶＦ－１１（Ｅ）
 50
0.0
 41
0.9
 51
0.0
  7
KANJI4
  0
TEXT
  8
0
  6
CONTINUOUS
 62
     1
 10
231.013
 20
33.384
 30
0.4
 40
4.0
  1
端子キャップ　外形図
 50
0.0
 41
0.9
 51
0.0
  7
KANJI4
  0
ENDSEC
  0
EOF
