  0
SECTION
  2
HEADER
  9
$ACADVER
  1
AC1009
  9
$DWGCODEPAGE
  3
dos932
  9
$EXTMIN
 10
0.0
 20
0.0
 30
0.0
  9
$EXTMAX
 10
297.0
 20
210.0
 30
0.0
  9
$LIMMIN
 10
0.0
 20
0.0
  9
$LIMMAX
 10
297.0
 20
210.0
  9
$LTSCALE
 40
1.0
  9
$PDMODE
 70
     0
  0
ENDSEC
  0
SECTION
  2
TABLES
  0
TABLE
  2
VPORT
 70
     1
  0
VPORT
  2
*ACTIVE
 70
     0
 10
0.0
 20
0.0
 11
1.0
 21
1.0
 12
148.5
 22
105.0
 13
0.0
 23
0.0
 14
10.0
 24
10.0
 15
10.0
 25
10.0
 16
0.0
 26
0.0
 36
1.0
 17
0.0
 27
0.0
 37
0.0
 40
297.0
 41
1.414285714
 42
50.0
 43
0.0
 44
0.0
 50
0.0
 51
0.0
 71
     0
 72
  1000
 73
     1
 74
     3
 75
     0
 76
     0
 77
     0
 78
     0
  0
ENDTAB
  0
TABLE
  2
LTYPE
 70
     5
  0
LTYPE
  2
CONTINUOUS
 70
    64
  3
Solid line
 72
    65
 73
     0
 40
0.0
  0
LTYPE
  2
LTYPE1
 70
    64
  3
CENTER
 72
    65
 73
     4
 40
8.0
 49
5.6
 49
-0.8
 49
0.8
 49
-0.8
  0
LTYPE
  2
LTYPE2
 70
    64
  3
HIDDEN
 72
    65
 73
     2
 40
2.0
 49
1.2
 49
-0.8
  0
LTYPE
  2
LTYPE3
 70
    64
  3
CENTER
 72
    65
 73
     4
 40
5.0
 49
3.5
 49
-0.5
 49
0.5
 49
-0.5
  0
LTYPE
  2
LTYPE4
 70
    64
  3
HIDDEN
 72
    65
 73
     2
 40
1.5
 49
0.9
 49
-0.6
  0
ENDTAB
  0
TABLE
  2
LAYER
 70
   128
  0
LAYER
  2
0
 70
     0
 62
     7
  6
CONTINUOUS
  0
LAYER
  2
2
 70
     0
 62
     7
  6
CONTINUOUS
  0
LAYER
  2
3
 70
     0
 62
     7
  6
CONTINUOUS
  0
LAYER
  2
4
 70
     0
 62
     7
  6
CONTINUOUS
  0
LAYER
  2
5
 70
     0
 62
     7
  6
CONTINUOUS
  0
LAYER
  2
6
 70
     0
 62
     7
  6
CONTINUOUS
  0
LAYER
  2
7
 70
     0
 62
     7
  6
CONTINUOUS
  0
LAYER
  2
8
 70
     0
 62
     7
  6
CONTINUOUS
  0
LAYER
  2
9
 70
     0
 62
     7
  6
CONTINUOUS
  0
LAYER
  2
10
 70
     0
 62
     7
  6
CONTINUOUS
  0
LAYER
  2
11
 70
     0
 62
     7
  6
CONTINUOUS
  0
LAYER
  2
12
 70
     0
 62
     7
  6
CONTINUOUS
  0
LAYER
  2
13
 70
     0
 62
     7
  6
CONTINUOUS
  0
LAYER
  2
14
 70
     0
 62
     7
  6
CONTINUOUS
  0
LAYER
  2
15
 70
     0
 62
     7
  6
CONTINUOUS
  0
LAYER
  2
16
 70
     0
 62
     7
  6
CONTINUOUS
  0
LAYER
  2
17
 70
     0
 62
     7
  6
CONTINUOUS
  0
LAYER
  2
18
 70
     0
 62
     7
  6
CONTINUOUS
  0
LAYER
  2
19
 70
     0
 62
     7
  6
CONTINUOUS
  0
LAYER
  2
20
 70
     0
 62
     7
  6
CONTINUOUS
  0
LAYER
  2
21
 70
     0
 62
     7
  6
CONTINUOUS
  0
LAYER
  2
22
 70
     0
 62
     7
  6
CONTINUOUS
  0
LAYER
  2
23
 70
     0
 62
     7
  6
CONTINUOUS
  0
LAYER
  2
24
 70
     0
 62
     7
  6
CONTINUOUS
  0
LAYER
  2
25
 70
     0
 62
     7
  6
CONTINUOUS
  0
LAYER
  2
26
 70
     0
 62
     7
  6
CONTINUOUS
  0
LAYER
  2
27
 70
     0
 62
     7
  6
CONTINUOUS
  0
LAYER
  2
28
 70
     0
 62
     7
  6
CONTINUOUS
  0
LAYER
  2
29
 70
     0
 62
     7
  6
CONTINUOUS
  0
LAYER
  2
30
 70
     0
 62
     7
  6
CONTINUOUS
  0
LAYER
  2
31
 70
     0
 62
     7
  6
CONTINUOUS
  0
LAYER
  2
32
 70
     0
 62
     7
  6
CONTINUOUS
  0
LAYER
  2
33
 70
     0
 62
     7
  6
CONTINUOUS
  0
LAYER
  2
34
 70
     0
 62
     7
  6
CONTINUOUS
  0
LAYER
  2
35
 70
     0
 62
     7
  6
CONTINUOUS
  0
LAYER
  2
36
 70
     0
 62
     7
  6
CONTINUOUS
  0
LAYER
  2
37
 70
     0
 62
     7
  6
CONTINUOUS
  0
LAYER
  2
38
 70
     0
 62
     7
  6
CONTINUOUS
  0
LAYER
  2
39
 70
     0
 62
     7
  6
CONTINUOUS
  0
LAYER
  2
40
 70
     0
 62
     7
  6
CONTINUOUS
  0
LAYER
  2
41
 70
     0
 62
     7
  6
CONTINUOUS
  0
LAYER
  2
42
 70
     0
 62
     7
  6
CONTINUOUS
  0
LAYER
  2
43
 70
     0
 62
     7
  6
CONTINUOUS
  0
LAYER
  2
44
 70
     0
 62
     7
  6
CONTINUOUS
  0
LAYER
  2
45
 70
     0
 62
     7
  6
CONTINUOUS
  0
LAYER
  2
46
 70
     0
 62
     7
  6
CONTINUOUS
  0
LAYER
  2
47
 70
     0
 62
     7
  6
CONTINUOUS
  0
LAYER
  2
48
 70
     0
 62
     7
  6
CONTINUOUS
  0
LAYER
  2
49
 70
     0
 62
     7
  6
CONTINUOUS
  0
LAYER
  2
50
 70
     0
 62
     7
  6
CONTINUOUS
  0
LAYER
  2
51
 70
     0
 62
     7
  6
CONTINUOUS
  0
LAYER
  2
52
 70
     0
 62
     7
  6
CONTINUOUS
  0
LAYER
  2
53
 70
     0
 62
     7
  6
CONTINUOUS
  0
LAYER
  2
54
 70
     0
 62
     7
  6
CONTINUOUS
  0
LAYER
  2
55
 70
     0
 62
     7
  6
CONTINUOUS
  0
LAYER
  2
56
 70
     0
 62
     7
  6
CONTINUOUS
  0
LAYER
  2
57
 70
     0
 62
     7
  6
CONTINUOUS
  0
LAYER
  2
58
 70
     0
 62
     7
  6
CONTINUOUS
  0
LAYER
  2
59
 70
     0
 62
     7
  6
CONTINUOUS
  0
LAYER
  2
60
 70
     0
 62
     7
  6
CONTINUOUS
  0
LAYER
  2
61
 70
     0
 62
     7
  6
CONTINUOUS
  0
LAYER
  2
62
 70
     0
 62
     7
  6
CONTINUOUS
  0
LAYER
  2
63
 70
     0
 62
     7
  6
CONTINUOUS
  0
LAYER
  2
64
 70
     0
 62
     7
  6
CONTINUOUS
  0
LAYER
  2
65
 70
     0
 62
     7
  6
CONTINUOUS
  0
LAYER
  2
66
 70
     0
 62
     7
  6
CONTINUOUS
  0
LAYER
  2
67
 70
     0
 62
     7
  6
CONTINUOUS
  0
LAYER
  2
68
 70
     0
 62
     7
  6
CONTINUOUS
  0
LAYER
  2
69
 70
     0
 62
     7
  6
CONTINUOUS
  0
LAYER
  2
70
 70
     0
 62
     7
  6
CONTINUOUS
  0
LAYER
  2
71
 70
     0
 62
     7
  6
CONTINUOUS
  0
LAYER
  2
72
 70
     0
 62
     7
  6
CONTINUOUS
  0
LAYER
  2
73
 70
     0
 62
     7
  6
CONTINUOUS
  0
LAYER
  2
74
 70
     0
 62
     7
  6
CONTINUOUS
  0
LAYER
  2
75
 70
     0
 62
     7
  6
CONTINUOUS
  0
LAYER
  2
76
 70
     0
 62
     7
  6
CONTINUOUS
  0
LAYER
  2
77
 70
     0
 62
     7
  6
CONTINUOUS
  0
LAYER
  2
78
 70
     0
 62
     7
  6
CONTINUOUS
  0
LAYER
  2
79
 70
     0
 62
     7
  6
CONTINUOUS
  0
LAYER
  2
80
 70
     0
 62
     7
  6
CONTINUOUS
  0
LAYER
  2
81
 70
     0
 62
     7
  6
CONTINUOUS
  0
LAYER
  2
82
 70
     0
 62
     7
  6
CONTINUOUS
  0
LAYER
  2
83
 70
     0
 62
     7
  6
CONTINUOUS
  0
LAYER
  2
84
 70
     0
 62
     7
  6
CONTINUOUS
  0
LAYER
  2
85
 70
     0
 62
     7
  6
CONTINUOUS
  0
LAYER
  2
86
 70
     0
 62
     7
  6
CONTINUOUS
  0
LAYER
  2
87
 70
     0
 62
     7
  6
CONTINUOUS
  0
LAYER
  2
88
 70
     0
 62
     7
  6
CONTINUOUS
  0
LAYER
  2
89
 70
     0
 62
     7
  6
CONTINUOUS
  0
LAYER
  2
90
 70
     0
 62
     7
  6
CONTINUOUS
  0
LAYER
  2
91
 70
     0
 62
     7
  6
CONTINUOUS
  0
LAYER
  2
92
 70
     0
 62
     7
  6
CONTINUOUS
  0
LAYER
  2
93
 70
     0
 62
     7
  6
CONTINUOUS
  0
LAYER
  2
94
 70
     0
 62
     7
  6
CONTINUOUS
  0
LAYER
  2
95
 70
     0
 62
     7
  6
CONTINUOUS
  0
LAYER
  2
96
 70
     0
 62
     7
  6
CONTINUOUS
  0
LAYER
  2
97
 70
     0
 62
     7
  6
CONTINUOUS
  0
LAYER
  2
98
 70
     0
 62
     7
  6
CONTINUOUS
  0
LAYER
  2
99
 70
     0
 62
     7
  6
CONTINUOUS
  0
LAYER
  2
100
 70
     0
 62
     7
  6
CONTINUOUS
  0
LAYER
  2
101
 70
     0
 62
     7
  6
CONTINUOUS
  0
LAYER
  2
102
 70
     0
 62
     7
  6
CONTINUOUS
  0
LAYER
  2
103
 70
     0
 62
     7
  6
CONTINUOUS
  0
LAYER
  2
104
 70
     0
 62
     7
  6
CONTINUOUS
  0
LAYER
  2
105
 70
     0
 62
     7
  6
CONTINUOUS
  0
LAYER
  2
106
 70
     0
 62
     7
  6
CONTINUOUS
  0
LAYER
  2
107
 70
     0
 62
     7
  6
CONTINUOUS
  0
LAYER
  2
108
 70
     0
 62
     7
  6
CONTINUOUS
  0
LAYER
  2
109
 70
     0
 62
     7
  6
CONTINUOUS
  0
LAYER
  2
110
 70
     0
 62
     7
  6
CONTINUOUS
  0
LAYER
  2
111
 70
     0
 62
     7
  6
CONTINUOUS
  0
LAYER
  2
112
 70
     0
 62
     7
  6
CONTINUOUS
  0
LAYER
  2
113
 70
     0
 62
     7
  6
CONTINUOUS
  0
LAYER
  2
114
 70
     0
 62
     7
  6
CONTINUOUS
  0
LAYER
  2
115
 70
     0
 62
     7
  6
CONTINUOUS
  0
LAYER
  2
116
 70
     0
 62
     7
  6
CONTINUOUS
  0
LAYER
  2
117
 70
     0
 62
     7
  6
CONTINUOUS
  0
LAYER
  2
118
 70
     0
 62
     7
  6
CONTINUOUS
  0
LAYER
  2
119
 70
     0
 62
     7
  6
CONTINUOUS
  0
LAYER
  2
120
 70
     0
 62
     7
  6
CONTINUOUS
  0
LAYER
  2
121
 70
     0
 62
     7
  6
CONTINUOUS
  0
LAYER
  2
122
 70
     0
 62
     7
  6
CONTINUOUS
  0
LAYER
  2
123
 70
     0
 62
     7
  6
CONTINUOUS
  0
LAYER
  2
124
 70
     0
 62
     7
  6
CONTINUOUS
  0
LAYER
  2
125
 70
     0
 62
     7
  6
CONTINUOUS
  0
LAYER
  2
126
 70
     0
 62
     7
  6
CONTINUOUS
  0
LAYER
  2
127
 70
     0
 62
     7
  6
CONTINUOUS
  0
LAYER
  2
128
 70
     0
 62
     7
  6
CONTINUOUS
  0
ENDTAB
  0
TABLE
  2
STYLE
 70
     6
  0
STYLE
  2
STANDARD
 70
     0
 40
0.0
 41
1.0
 50
0.0
 71
     0
 42
0.2
  3
txt.shx
  4
extfont.shx
  0
STYLE
  2
KANJI0
 70
     0
 40
6.0
 41
0.9
 50
0.0
 71
     0
 42
6.0
  3
txt.shx
  4
extfont.shx
  0
STYLE
  2
KANJI1
 70
     0
 40
3.0
 41
0.9
 50
0.0
 71
     0
 42
3.0
  3
txt.shx
  4
extfont.shx
  0
STYLE
  2
KANJI2
 70
     0
 40
3.0
 41
0.6
 50
0.0
 71
     0
 42
3.0
  3
txt.shx
  4
extfont.shx
  0
STYLE
  2
KANJI3
 70
     0
 40
1.8
 41
0.6
 50
0.0
 71
     0
 42
1.8
  3
txt.shx
  4
extfont.shx
  0
STYLE
  2
KANJI4
 70
     0
 40
4.0
 41
0.9
 50
0.0
 71
     0
 42
4.0
  3
txt.shx
  4
extfont.shx
  0
ENDTAB
  0
TABLE
  2
VIEW
 70
     0
  0
ENDTAB
  0
ENDSEC
  0
SECTION
  2
BLOCKS
  0
ENDSEC
  0
SECTION
  2
ENTITIES
  0
TEXT
  8
0
  6
CONTINUOUS
 62
     3
 10
235.0
 20
12.0
 30
0.6
 40
6.0
  1
ＭＳ－１２７９０
 50
0.0
 41
0.9
 51
0.0
  7
KANJI0
  0
TEXT
  8
0
  6
CONTINUOUS
 62
     2
 10
36.0
 20
25.0
 30
0.3
 40
3.0
  1
振れ角度２３５゜
 50
0.0
 41
0.9
 51
0.0
  7
KANJI1
  0
CIRCLE
  8
0
  6
CONTINUOUS
 62
     1
 10
184.0
 20
48.0
 30
0.0
 40
14.0
  0
CIRCLE
  8
0
  6
CONTINUOUS
 62
     1
 10
204.0
 20
28.0
 30
0.0
 40
1.0
  0
CIRCLE
  8
0
  6
CONTINUOUS
 62
     1
 10
164.0
 20
28.0
 30
0.0
 40
1.0
  0
CIRCLE
  8
0
  6
CONTINUOUS
 62
     1
 10
164.0
 20
68.0
 30
0.0
 40
1.0
  0
CIRCLE
  8
0
  6
CONTINUOUS
 62
     1
 10
204.0
 20
68.0
 30
0.0
 40
1.0
  0
LINE
  8
4
  6
LTYPE1
 62
     2
 10
160.6
 20
68.0
 30
0.0
 11
167.4
 21
68.0
 31
0.0
  0
LINE
  8
4
  6
LTYPE1
 62
     2
 10
164.0
 20
71.8
 30
0.0
 11
164.0
 21
64.2
 31
0.0
  0
LINE
  8
4
  6
LTYPE1
 62
     2
 10
202.0
 20
68.0
 30
0.0
 11
206.0
 21
68.0
 31
0.0
  0
LINE
  8
4
  6
LTYPE1
 62
     2
 10
204.0
 20
70.2
 30
0.0
 11
204.0
 21
65.8
 31
0.0
  0
LINE
  8
4
  6
LTYPE1
 62
     2
 10
161.8
 20
28.0
 30
0.0
 11
166.2
 21
28.0
 31
0.0
  0
LINE
  8
4
  6
LTYPE1
 62
     2
 10
164.0
 20
30.1
 30
0.0
 11
164.0
 21
25.9
 31
0.0
  0
LINE
  8
4
  6
LTYPE1
 62
     2
 10
201.9
 20
28.0
 30
0.0
 11
206.1
 21
28.0
 31
0.0
  0
LINE
  8
4
  6
LTYPE1
 62
     2
 10
204.0
 20
30.3
 30
0.0
 11
204.0
 21
25.7
 31
0.0
  0
LINE
  8
4
  6
CONTINUOUS
 62
     5
 10
164.0
 20
71.8
 30
0.0
 11
164.0
 21
78.0
 31
0.0
  0
LINE
  8
4
  6
CONTINUOUS
 62
     5
 10
184.0
 20
66.7
 30
0.0
 11
184.0
 21
78.0
 31
0.0
  0
LINE
  8
4
  6
CONTINUOUS
 62
     5
 10
204.0
 20
70.2
 30
0.0
 11
204.0
 21
78.0
 31
0.0
  0
LINE
  8
4
  6
CONTINUOUS
 62
     5
 10
161.8
 20
28.0
 30
0.0
 11
154.0
 21
28.0
 31
0.0
  0
LINE
  8
4
  6
CONTINUOUS
 62
     5
 10
156.0
 20
28.0
 30
0.0
 11
156.647047613
 21
30.414814566
 31
0.0
  0
LINE
  8
4
  6
CONTINUOUS
 62
     5
 10
156.0
 20
28.0
 30
0.0
 11
155.352952387
 21
30.414814566
 31
0.0
  0
LINE
  8
4
  6
CONTINUOUS
 62
     5
 10
156.0
 20
28.0
 30
0.0
 11
156.0
 21
48.0
 31
0.0
  0
LINE
  8
4
  6
CONTINUOUS
 62
     5
 10
156.0
 20
48.0
 30
0.0
 11
155.352952387
 21
45.585185434
 31
0.0
  0
LINE
  8
4
  6
CONTINUOUS
 62
     5
 10
156.0
 20
48.0
 30
0.0
 11
156.647047613
 21
45.585185434
 31
0.0
  0
LINE
  8
4
  6
CONTINUOUS
 62
     5
 10
164.6
 20
48.0
 30
0.0
 11
154.0
 21
48.0
 31
0.0
  0
TEXT
  8
4
  6
CONTINUOUS
 62
     2
 10
155.0
 20
32.57
 30
0.3
 40
3.0
  1
１００
 50
90.0
 41
0.6
 51
0.0
  7
KANJI2
  0
TEXT
  8
4
  6
CONTINUOUS
 62
     2
 10
155.0
 20
39.02
 30
0.18
 40
1.8
  1
±０．５
 50
90.0
 41
0.6
 51
0.0
  7
KANJI3
  0
LINE
  8
4
  6
CONTINUOUS
 62
     5
 10
156.0
 20
48.0
 30
0.0
 11
156.647047613
 21
50.414814566
 31
0.0
  0
LINE
  8
4
  6
CONTINUOUS
 62
     5
 10
156.0
 20
48.0
 30
0.0
 11
155.352952387
 21
50.414814566
 31
0.0
  0
LINE
  8
4
  6
CONTINUOUS
 62
     5
 10
156.0
 20
48.0
 30
0.0
 11
156.0
 21
68.0
 31
0.0
  0
LINE
  8
4
  6
CONTINUOUS
 62
     5
 10
156.0
 20
68.0
 30
0.0
 11
155.352952387
 21
65.585185434
 31
0.0
  0
LINE
  8
4
  6
CONTINUOUS
 62
     5
 10
156.0
 20
68.0
 30
0.0
 11
156.647047613
 21
65.585185434
 31
0.0
  0
LINE
  8
4
  6
CONTINUOUS
 62
     5
 10
160.6
 20
68.0
 30
0.0
 11
154.0
 21
68.0
 31
0.0
  0
TEXT
  8
4
  6
CONTINUOUS
 62
     2
 10
155.0
 20
52.57
 30
0.3
 40
3.0
  1
１００
 50
90.0
 41
0.6
 51
0.0
  7
KANJI2
  0
TEXT
  8
4
  6
CONTINUOUS
 62
     2
 10
155.0
 20
59.02
 30
0.18
 40
1.8
  1
±０．５
 50
90.0
 41
0.6
 51
0.0
  7
KANJI3
  0
LINE
  8
4
  6
CONTINUOUS
 62
     5
 10
174.392914023
 20
37.816488865
 30
0.0
 11
176.520667432
 21
39.128992363
 31
0.0
  0
LINE
  8
4
  6
CONTINUOUS
 62
     5
 10
174.392914023
 20
37.816488865
 30
0.0
 11
175.579350779
 21
40.017026941
 31
0.0
  0
LINE
  8
4
  6
CONTINUOUS
 62
     5
 10
174.392914023
 20
37.816488865
 30
0.0
 11
193.607085977
 21
58.183511135
 31
0.0
  0
LINE
  8
4
  6
CONTINUOUS
 62
     5
 10
193.607085977
 20
58.183511135
 30
0.0
 11
191.479332568
 21
56.871007637
 31
0.0
  0
LINE
  8
4
  6
CONTINUOUS
 62
     5
 10
193.607085977
 20
58.183511135
 30
0.0
 11
192.420649221
 21
55.982973059
 31
0.0
  0
TEXT
  8
4
  6
CONTINUOUS
 62
     2
 10
178.272606347
 20
43.386220427
 30
0.3
 40
3.0
  1
φ１４０
 50
46.668337448
 41
0.6
 51
0.0
  7
KANJI2
  0
TEXT
  8
4
  6
CONTINUOUS
 62
     2
 10
184.139790997
 20
49.605436156
 30
0.18
 40
1.8
  1
－０
 50
46.668337448
 41
0.6
 51
0.0
  7
KANJI3
  0
TEXT
  8
4
  6
CONTINUOUS
 62
     2
 10
182.830482423
 20
50.840632924
 30
0.18
 40
1.8
  1
＋２
 50
46.668337448
 41
0.6
 51
0.0
  7
KANJI3
  0
TEXT
  8
0
  6
CONTINUOUS
 62
     1
 10
176.0
 20
19.3
 30
0.3
 40
3.0
  1
パネルカット
 50
0.0
 41
0.9
 51
0.0
  7
KANJI1
  0
LINE
  8
0
  6
CONTINUOUS
 62
     1
 10
175.0
 20
18.3
 30
0.0
 11
195.0
 21
18.3
 31
0.0
  0
LINE
  8
4
  6
LTYPE1
 62
     2
 10
183.3
 20
48.0
 30
0.0
 11
203.4
 21
48.0
 31
0.0
  0
LINE
  8
4
  6
LTYPE1
 62
     2
 10
164.6
 20
48.0
 30
0.0
 11
179.0
 21
48.0
 31
0.0
  0
LINE
  8
4
  6
LTYPE1
 62
     2
 10
184.0
 20
53.4
 30
0.0
 11
184.0
 21
66.7
 31
0.0
  0
LINE
  8
4
  6
LTYPE1
 62
     2
 10
184.0
 20
29.3
 30
0.0
 11
184.0
 21
49.7
 31
0.0
  0
LINE
  8
4
  6
CONTINUOUS
 62
     5
 10
167.2
 20
31.2
 30
0.0
 11
156.0
 21
20.0
 31
0.0
  0
LINE
  8
4
  6
CONTINUOUS
 62
     5
 10
164.707106781
 20
28.707106781
 30
0.0
 11
165.957106781
 21
30.872170291
 31
0.0
  0
LINE
  8
4
  6
CONTINUOUS
 62
     5
 10
164.707106781
 20
28.707106781
 30
0.0
 11
166.872170291
 21
29.957106781
 31
0.0
  0
LINE
  8
4
  6
CONTINUOUS
 62
     5
 10
156.0
 20
20.0
 30
0.0
 11
145.8
 21
20.0
 31
0.0
  0
TEXT
  8
4
  6
CONTINUOUS
 62
     2
 10
145.8
 20
21.0
 30
0.3
 40
3.0
  1
４－φ１０
 50
0.0
 41
0.6
 51
0.0
  7
KANJI2
  0
LINE
  8
4
  6
CONTINUOUS
 62
     5
 10
163.292893219
 20
27.292893219
 30
0.0
 11
162.042893219
 21
25.127829709
 31
0.0
  0
LINE
  8
4
  6
CONTINUOUS
 62
     5
 10
163.292893219
 20
27.292893219
 30
0.0
 11
161.127829709
 21
26.042893219
 31
0.0
  0
CIRCLE
  8
0
  6
CONTINUOUS
 62
     1
 10
60.0
 20
125.0
 30
0.0
 40
8.0
  0
ARC
  8
0
  6
CONTINUOUS
 62
     1
 10
35.0
 20
150.0
 30
0.0
 40
5.0
 50
90.0
 51
180.0
  0
LINE
  8
0
  6
CONTINUOUS
 62
     1
 10
30.0
 20
150.0
 30
0.0
 11
30.0
 21
100.0
 31
0.0
  0
ARC
  8
0
  6
CONTINUOUS
 62
     1
 10
35.0
 20
100.0
 30
0.0
 40
5.0
 50
180.0
 51
270.0
  0
LINE
  8
0
  6
CONTINUOUS
 62
     1
 10
35.0
 20
95.0
 30
0.0
 11
85.0
 21
95.0
 31
0.0
  0
ARC
  8
0
  6
CONTINUOUS
 62
     1
 10
85.0
 20
100.0
 30
0.0
 40
5.0
 50
270.0
 51
0.0
  0
LINE
  8
0
  6
CONTINUOUS
 62
     1
 10
85.0
 20
155.0
 30
0.0
 11
35.0
 21
155.0
 31
0.0
  0
LINE
  8
0
  6
CONTINUOUS
 62
     1
 10
90.0
 20
100.0
 30
0.0
 11
90.0
 21
150.0
 31
0.0
  0
ARC
  8
0
  6
CONTINUOUS
 62
     1
 10
85.0
 20
150.0
 30
0.0
 40
5.0
 50
0.0
 51
90.0
  0
CIRCLE
  8
0
  6
CONTINUOUS
 62
     2
 10
60.0
 20
125.0
 30
0.0
 40
25.0
  0
CIRCLE
  8
0
  6
CONTINUOUS
 62
     2
 10
60.0
 20
125.0
 30
0.0
 40
24.4226
  0
CIRCLE
  8
0
  6
CONTINUOUS
 62
     2
 10
60.0
 20
125.0
 30
0.0
 40
1.9
  0
LINE
  8
0
  6
CONTINUOUS
 62
     2
 10
41.394142965
 20
115.466790467
 30
0.0
 11
39.787206409
 21
114.025348514
 31
0.0
  0
LINE
  8
0
  6
CONTINUOUS
 62
     2
 10
39.787206409
 20
114.025348514
 30
0.0
 11
41.871301725
 21
114.587973354
 31
0.0
  0
LINE
  8
0
  6
CONTINUOUS
 62
     2
 10
41.394142965
 20
115.466790467
 30
0.0
 11
52.704136854
 21
121.718174144
 31
0.0
  0
LINE
  8
0
  6
CONTINUOUS
 62
     2
 10
52.969463099
 20
121.182729918
 30
0.0
 11
39.787206409
 21
114.025348514
 31
0.0
  0
LINE
  8
0
  6
CONTINUOUS
 62
     2
 10
41.871301725
 20
114.587973354
 30
0.0
 11
53.274017382
 21
120.668584779
 31
0.0
  0
CIRCLE
  8
0
  6
CONTINUOUS
 62
     5
 10
60.0
 20
125.0
 30
0.0
 40
1.8
  0
LINE
  8
4
  6
CONTINUOUS
 62
     5
 10
30.0
 20
151.0
 30
0.0
 11
30.0
 21
167.0
 31
0.0
  0
LINE
  8
4
  6
CONTINUOUS
 62
     5
 10
30.0
 20
165.0
 30
0.0
 11
32.414814566
 21
164.352952387
 31
0.0
  0
LINE
  8
4
  6
CONTINUOUS
 62
     5
 10
30.0
 20
165.0
 30
0.0
 11
32.414814566
 21
165.647047613
 31
0.0
  0
LINE
  8
4
  6
CONTINUOUS
 62
     5
 10
30.0
 20
165.0
 30
0.0
 11
90.0
 21
165.0
 31
0.0
  0
LINE
  8
4
  6
CONTINUOUS
 62
     5
 10
90.0
 20
165.0
 30
0.0
 11
87.585185434
 21
165.647047613
 31
0.0
  0
LINE
  8
4
  6
CONTINUOUS
 62
     5
 10
90.0
 20
165.0
 30
0.0
 11
87.585185434
 21
164.352952387
 31
0.0
  0
LINE
  8
4
  6
CONTINUOUS
 62
     5
 10
90.0
 20
151.0
 30
0.0
 11
90.0
 21
167.0
 31
0.0
  0
TEXT
  8
4
  6
CONTINUOUS
 62
     2
 10
57.0
 20
166.0
 30
0.3
 40
3.0
  1
３００
 50
0.0
 41
0.6
 51
0.0
  7
KANJI2
  0
LINE
  8
4
  6
CONTINUOUS
 62
     5
 10
34.0
 20
155.0
 30
0.0
 11
18.0
 21
155.0
 31
0.0
  0
LINE
  8
4
  6
CONTINUOUS
 62
     5
 10
20.0
 20
155.0
 30
0.0
 11
19.352952387
 21
152.585185434
 31
0.0
  0
LINE
  8
4
  6
CONTINUOUS
 62
     5
 10
20.0
 20
155.0
 30
0.0
 11
20.647047613
 21
152.585185434
 31
0.0
  0
LINE
  8
4
  6
CONTINUOUS
 62
     5
 10
20.0
 20
155.0
 30
0.0
 11
20.0
 21
95.0
 31
0.0
  0
LINE
  8
4
  6
CONTINUOUS
 62
     5
 10
20.0
 20
95.0
 30
0.0
 11
20.647047613
 21
97.414814566
 31
0.0
  0
LINE
  8
4
  6
CONTINUOUS
 62
     5
 10
20.0
 20
95.0
 30
0.0
 11
19.352952387
 21
97.414814566
 31
0.0
  0
LINE
  8
4
  6
CONTINUOUS
 62
     5
 10
34.0
 20
95.0
 30
0.0
 11
18.0
 21
95.0
 31
0.0
  0
TEXT
  8
4
  6
CONTINUOUS
 62
     2
 10
19.0
 20
122.0
 30
0.3
 40
3.0
  1
３００
 50
90.0
 41
0.6
 51
0.0
  7
KANJI2
  0
LINE
  8
4
  6
LTYPE1
 62
     2
 10
25.7
 20
125.0
 30
0.0
 11
94.3
 21
125.0
 31
0.0
  0
LINE
  8
4
  6
LTYPE1
 62
     2
 10
60.0
 20
160.1
 30
0.0
 11
60.0
 21
89.9
 31
0.0
  0
LINE
  8
4
  6
CONTINUOUS
 62
     5
 10
66.314817739
 20
129.911524908
 30
0.0
 11
64.011429699
 21
128.93972064
 31
0.0
  0
LINE
  8
4
  6
CONTINUOUS
 62
     5
 10
66.314817739
 20
129.911524908
 30
0.0
 11
64.805927315
 21
127.918223704
 31
0.0
  0
LINE
  8
4
  6
CONTINUOUS
 62
     5
 10
66.314817739
 20
129.911524908
 30
0.0
 11
53.685182261
 21
120.088475092
 31
0.0
  0
LINE
  8
4
  6
CONTINUOUS
 62
     5
 10
53.685182261
 20
120.088475092
 30
0.0
 11
55.988570301
 21
121.06027936
 31
0.0
  0
LINE
  8
4
  6
CONTINUOUS
 62
     5
 10
53.685182261
 20
120.088475092
 30
0.0
 11
55.194072685
 21
122.081776296
 31
0.0
  0
TEXT
  8
4
  6
CONTINUOUS
 62
     2
 10
60.372495866
 20
126.601025293
 30
0.3
 40
3.0
  1
φ８０
 50
37.874983651
 41
0.6
 51
0.0
  7
KANJI2
  0
LINE
  8
4
  6
CONTINUOUS
 62
     5
 10
79.773134149
 20
110.665197711
 30
0.0
 11
78.197824692
 21
112.606434459
 31
0.0
  0
LINE
  8
4
  6
CONTINUOUS
 62
     5
 10
79.773134149
 20
110.665197711
 30
0.0
 11
77.438257766
 21
111.558703321
 31
0.0
  0
LINE
  8
4
  6
CONTINUOUS
 62
     5
 10
79.773134149
 20
110.665197711
 30
0.0
 11
40.226865851
 21
139.334802289
 31
0.0
  0
LINE
  8
4
  6
CONTINUOUS
 62
     5
 10
40.226865851
 20
139.334802289
 30
0.0
 11
41.802175308
 21
137.393565541
 31
0.0
  0
LINE
  8
4
  6
CONTINUOUS
 62
     5
 10
40.226865851
 20
139.334802289
 30
0.0
 11
42.561742234
 21
138.441296679
 31
0.0
  0
TEXT
  8
4
  6
CONTINUOUS
 62
     2
 10
70.325644155
 20
118.74942452
 30
0.3
 40
3.0
  1
φ２５０
 50
324.059255608
 41
0.6
 51
0.0
  7
KANJI2
  0
LINE
  8
4
  6
CONTINUOUS
 62
     5
 10
42.743454905
 20
115.846364532
 30
0.0
 11
41.522917215
 21
113.664556166
 31
0.0
  0
LINE
  8
4
  6
CONTINUOUS
 62
     5
 10
42.743454905
 20
115.846364532
 30
0.0
 11
42.777342442
 21
113.346594216
 31
0.0
  0
LINE
  8
4
  6
CONTINUOUS
 62
     5
 10
42.743454905
 20
115.846364532
 30
0.0
 11
35.443454905
 21
87.046364532
 31
0.0
  0
LINE
  8
4
  6
CONTINUOUS
 62
     5
 10
35.443454905
 20
87.046364532
 30
0.0
 11
31.543454905
 21
87.046364532
 31
0.0
  0
TEXT
  8
4
  6
CONTINUOUS
 62
     2
 10
31.543454905
 20
88.046364532
 30
0.3
 40
3.0
  1
指針
 50
0.0
 41
0.6
 51
0.0
  7
KANJI2
  0
LINE
  8
4
  6
CONTINUOUS
 62
     5
 10
60.043454905
 20
124.046364532
 30
0.0
 11
58.948990483
 21
121.798666236
 31
0.0
  0
LINE
  8
4
  6
CONTINUOUS
 62
     5
 10
60.043454905
 20
124.046364532
 30
0.0
 11
60.21947006
 21
121.552568497
 31
0.0
  0
LINE
  8
4
  6
CONTINUOUS
 62
     5
 10
60.043454905
 20
124.046364532
 30
0.0
 11
52.043454905
 21
82.746364532
 31
0.0
  0
LINE
  8
4
  6
CONTINUOUS
 62
     5
 10
52.043454905
 20
82.746364532
 30
0.0
 11
35.543454905
 21
82.746364532
 31
0.0
  0
TEXT
  8
4
  6
CONTINUOUS
 62
     2
 10
35.543454905
 20
83.746364532
 30
0.3
 40
3.0
  1
機械的零位調整器
 50
0.0
 41
0.6
 51
0.0
  7
KANJI2
  0
LINE
  8
0
  6
CONTINUOUS
 62
     1
 10
111.0
 20
95.0
 30
0.0
 11
111.0
 21
155.0
 31
0.0
  0
LINE
  8
0
  6
CONTINUOUS
 62
     1
 10
111.0
 20
155.0
 30
0.0
 11
105.0
 21
155.0
 31
0.0
  0
ARC
  8
0
  6
CONTINUOUS
 62
     1
 10
105.0
 20
154.0
 30
0.0
 40
1.0
 50
90.0
 51
180.0
  0
LINE
  8
0
  6
CONTINUOUS
 62
     1
 10
105.0
 20
95.0
 30
0.0
 11
111.0
 21
95.0
 31
0.0
  0
LINE
  8
0
  6
CONTINUOUS
 62
     1
 10
104.0
 20
154.0
 30
0.0
 11
104.0
 21
96.0
 31
0.0
  0
ARC
  8
0
  6
CONTINUOUS
 62
     1
 10
105.0
 20
96.0
 30
0.0
 40
1.0
 50
180.0
 51
270.0
  0
LINE
  8
0
  6
CONTINUOUS
 62
     1
 10
121.2
 20
138.5
 30
0.0
 11
111.0
 21
138.5
 31
0.0
  0
ARC
  8
0
  6
CONTINUOUS
 62
     1
 10
121.2
 20
137.7
 30
0.0
 40
0.8
 50
0.0
 51
90.0
  0
LINE
  8
0
  6
CONTINUOUS
 62
     1
 10
121.2
 20
111.5
 30
0.0
 11
111.0
 21
111.5
 31
0.0
  0
LINE
  8
0
  6
CONTINUOUS
 62
     1
 10
122.0
 20
137.7
 30
0.0
 11
122.0
 21
112.3
 31
0.0
  0
ARC
  8
0
  6
CONTINUOUS
 62
     1
 10
121.2
 20
112.3
 30
0.0
 40
0.8
 50
270.0
 51
0.0
  0
LINE
  8
0
  6
CONTINUOUS
 62
     1
 10
124.1
 20
132.8
 30
0.0
 11
124.1
 21
131.2
 31
0.0
  0
LINE
  8
0
  6
CONTINUOUS
 62
     1
 10
122.0
 20
133.55
 30
0.0
 11
122.0
 21
130.45
 31
0.0
  0
LINE
  8
0
  6
CONTINUOUS
 62
     1
 10
124.1
 20
132.8
 30
0.0
 11
124.0
 21
132.9
 31
0.0
  0
LINE
  8
0
  6
CONTINUOUS
 62
     1
 10
124.1
 20
131.2
 30
0.0
 11
124.0
 21
131.1
 31
0.0
  0
LINE
  8
0
  6
CONTINUOUS
 62
     1
 10
123.824806947
 20
133.321899132
 30
0.0
 11
122.0
 21
133.55
 31
0.0
  0
ARC
  8
0
  6
CONTINUOUS
 62
     1
 10
123.8
 20
133.123443556
 30
0.0
 40
0.2
 50
0.0
 51
82.874983651
  0
LINE
  8
0
  6
CONTINUOUS
 62
     1
 10
122.0
 20
130.45
 30
0.0
 11
123.824806947
 21
130.678100868
 31
0.0
  0
LINE
  8
0
  6
CONTINUOUS
 62
     1
 10
124.0
 20
130.876556444
 30
0.0
 11
124.0
 21
133.123443556
 31
0.0
  0
ARC
  8
0
  6
CONTINUOUS
 62
     1
 10
123.8
 20
130.876556444
 30
0.0
 40
0.2
 50
277.125016349
 51
0.0
  0
LINE
  8
0
  6
CONTINUOUS
 62
     2
 10
124.1
 20
132.9625
 30
0.0
 11
124.35
 21
132.9625
 31
0.0
  0
LINE
  8
0
  6
CONTINUOUS
 62
     2
 10
124.35
 20
132.8125
 30
0.0
 11
125.0375
 21
132.8125
 31
0.0
  0
ARC
  8
0
  6
CONTINUOUS
 62
     2
 10
124.225
 20
132.40625
 30
0.0
 40
0.8125
 50
330.0
 51
30.0
  0
LINE
  8
0
  6
CONTINUOUS
 62
     2
 10
124.35
 20
131.0375
 30
0.0
 11
124.1
 21
131.0375
 31
0.0
  0
LINE
  8
0
  6
CONTINUOUS
 62
     2
 10
125.0375
 20
131.1875
 30
0.0
 11
124.35
 21
131.1875
 31
0.0
  0
ARC
  8
0
  6
CONTINUOUS
 62
     2
 10
124.225
 20
131.59375
 30
0.0
 40
0.8125
 50
330.0
 51
30.0
  0
LINE
  8
0
  6
CONTINUOUS
 62
     2
 10
124.35
 20
132.9625
 30
0.0
 11
124.35
 21
131.0375
 31
0.0
  0
LINE
  8
0
  6
CONTINUOUS
 62
     2
 10
125.0375
 20
132.8125
 30
0.0
 11
125.0375
 21
131.1875
 31
0.0
  0
LINE
  8
0
  6
CONTINUOUS
 62
     2
 10
124.928645641
 20
132.0
 30
0.0
 11
124.35
 21
132.0
 31
0.0
  0
LINE
  8
0
  6
CONTINUOUS
 62
     2
 10
125.9
 20
132.5
 30
0.0
 11
126.0
 21
132.4
 31
0.0
  0
LINE
  8
0
  6
CONTINUOUS
 62
     2
 10
126.0
 20
131.6
 30
0.0
 11
125.9
 21
131.5
 31
0.0
  0
LINE
  8
0
  6
CONTINUOUS
 62
     2
 10
126.0
 20
132.4
 30
0.0
 11
126.0
 21
131.6
 31
0.0
  0
LINE
  8
0
  6
CONTINUOUS
 62
     2
 10
125.0375
 20
132.5
 30
0.0
 11
125.9
 21
132.5
 31
0.0
  0
LINE
  8
0
  6
CONTINUOUS
 62
     2
 10
125.9
 20
131.5
 30
0.0
 11
125.0375
 21
131.5
 31
0.0
  0
LINE
  8
0
  6
CONTINUOUS
 62
     2
 10
124.1
 20
132.9625
 30
0.0
 11
124.1
 21
131.0375
 31
0.0
  0
ARC
  8
2
  6
LTYPE2
 62
     2
 10
125.3
 20
132.0
 30
0.0
 40
1.5
 50
288.946940915
 51
90.0
  0
ARC
  8
2
  6
LTYPE2
 62
     2
 10
125.9
 20
129.992
 30
0.0
 40
0.6
 50
100.851780463
 51
180.000079263
  0
LINE
  8
2
  6
LTYPE2
 62
     2
 10
125.3
 20
129.99199917
 30
0.0
 11
125.3
 21
126.5
 31
0.0
  0
LINE
  8
2
  6
LTYPE2
 62
     2
 10
125.3
 20
126.5
 30
0.0
 11
123.1
 21
126.5
 31
0.0
  0
LINE
  8
2
  6
LTYPE2
 62
     2
 10
122.0
 20
130.5
 30
0.0
 11
122.0
 21
133.5
 31
0.0
  0
ARC
  8
2
  6
LTYPE2
 62
     2
 10
125.3
 20
132.0
 30
0.0
 40
1.2
 50
289.802312412
 51
90.000014534
  0
LINE
  8
2
  6
LTYPE2
 62
     2
 10
125.1
 20
129.991999627
 30
0.0
 11
125.1
 21
126.5
 31
0.0
  0
ARC
  8
2
  6
LTYPE2
 62
     2
 10
126.042707268
 20
129.99022928
 30
0.0
 40
0.94270893
 50
110.891939386
 51
179.892402096
  0
LINE
  8
2
  6
LTYPE2
 62
     2
 10
123.3
 20
126.5
 30
0.0
 11
123.3
 21
129.89999976
 31
0.0
  0
LINE
  8
0
  6
CONTINUOUS
 62
     2
 10
116.0
 20
145.64
 30
0.0
 11
116.0
 21
144.36
 31
0.0
  0
LINE
  8
0
  6
CONTINUOUS
 62
     2
 10
116.0
 20
144.36
 30
0.0
 11
115.84
 21
144.2
 31
0.0
  0
LINE
  8
0
  6
CONTINUOUS
 62
     2
 10
111.2
 20
144.2
 30
0.0
 11
115.84
 21
144.2
 31
0.0
  0
LINE
  8
0
  6
CONTINUOUS
 62
     2
 10
116.0
 20
145.64
 30
0.0
 11
115.84
 21
145.8
 31
0.0
  0
LINE
  8
0
  6
CONTINUOUS
 62
     2
 10
111.2
 20
145.8
 30
0.0
 11
115.84
 21
145.8
 31
0.0
  0
LINE
  8
0
  6
CONTINUOUS
 62
     2
 10
116.0
 20
104.36
 30
0.0
 11
116.0
 21
105.64
 31
0.0
  0
LINE
  8
0
  6
CONTINUOUS
 62
     2
 10
116.0
 20
105.64
 30
0.0
 11
115.84
 21
105.8
 31
0.0
  0
LINE
  8
0
  6
CONTINUOUS
 62
     2
 10
111.2
 20
105.8
 30
0.0
 11
115.84
 21
105.8
 31
0.0
  0
LINE
  8
0
  6
CONTINUOUS
 62
     2
 10
116.0
 20
104.36
 30
0.0
 11
115.84
 21
104.2
 31
0.0
  0
LINE
  8
0
  6
CONTINUOUS
 62
     2
 10
111.2
 20
104.2
 30
0.0
 11
115.84
 21
104.2
 31
0.0
  0
LINE
  8
4
  6
CONTINUOUS
 62
     5
 10
111.0
 20
156.0
 30
0.0
 11
111.0
 21
167.0
 31
0.0
  0
LINE
  8
4
  6
CONTINUOUS
 62
     5
 10
111.0
 20
165.0
 30
0.0
 11
108.585185434
 21
165.647047613
 31
0.0
  0
LINE
  8
4
  6
CONTINUOUS
 62
     5
 10
111.0
 20
165.0
 30
0.0
 11
108.585185434
 21
164.352952387
 31
0.0
  0
LINE
  8
4
  6
CONTINUOUS
 62
     5
 10
111.0
 20
165.0
 30
0.0
 11
104.0
 21
165.0
 31
0.0
  0
LINE
  8
4
  6
CONTINUOUS
 62
     5
 10
104.0
 20
165.0
 30
0.0
 11
106.414814566
 21
164.352952387
 31
0.0
  0
LINE
  8
4
  6
CONTINUOUS
 62
     5
 10
104.0
 20
165.0
 30
0.0
 11
106.414814566
 21
165.647047613
 31
0.0
  0
LINE
  8
4
  6
CONTINUOUS
 62
     5
 10
104.0
 20
155.0
 30
0.0
 11
104.0
 21
167.0
 31
0.0
  0
TEXT
  8
4
  6
CONTINUOUS
 62
     2
 10
105.55
 20
166.0
 30
0.3
 40
3.0
  1
３５
 50
0.0
 41
0.6
 51
0.0
  7
KANJI2
  0
LINE
  8
4
  6
CONTINUOUS
 62
     5
 10
111.0
 20
165.0
 30
0.0
 11
113.414814566
 21
164.352952387
 31
0.0
  0
LINE
  8
4
  6
CONTINUOUS
 62
     5
 10
111.0
 20
165.0
 30
0.0
 11
113.414814566
 21
165.647047613
 31
0.0
  0
LINE
  8
4
  6
CONTINUOUS
 62
     5
 10
111.0
 20
165.0
 30
0.0
 11
122.0
 21
165.0
 31
0.0
  0
LINE
  8
4
  6
CONTINUOUS
 62
     5
 10
122.0
 20
165.0
 30
0.0
 11
119.585185434
 21
165.647047613
 31
0.0
  0
LINE
  8
4
  6
CONTINUOUS
 62
     5
 10
122.0
 20
165.0
 30
0.0
 11
119.585185434
 21
164.352952387
 31
0.0
  0
LINE
  8
4
  6
CONTINUOUS
 62
     5
 10
122.0
 20
138.7
 30
0.0
 11
122.0
 21
167.0
 31
0.0
  0
TEXT
  8
4
  6
CONTINUOUS
 62
     2
 10
114.55
 20
166.0
 30
0.3
 40
3.0
  1
５５
 50
0.0
 41
0.6
 51
0.0
  7
KANJI2
  0
LINE
  8
4
  6
CONTINUOUS
 62
     5
 10
122.0
 20
165.0
 30
0.0
 11
126.0
 21
165.0
 31
0.0
  0
LINE
  8
4
  6
CONTINUOUS
 62
     5
 10
126.0
 20
133.4
 30
0.0
 11
126.0
 21
167.0
 31
0.0
  0
TEXT
  8
4
  6
CONTINUOUS
 62
     2
 10
122.05
 20
166.0
 30
0.3
 40
3.0
  1
２０
 50
0.0
 41
0.6
 51
0.0
  7
KANJI2
  0
LINE
  8
4
  6
CONTINUOUS
 62
     5
 10
126.0
 20
165.0
 30
0.0
 11
128.414814566
 21
165.647047613
 31
0.0
  0
LINE
  8
4
  6
CONTINUOUS
 62
     5
 10
126.0
 20
165.0
 30
0.0
 11
128.414814566
 21
164.352952387
 31
0.0
  0
LINE
  8
4
  6
CONTINUOUS
 62
     5
 10
126.0
 20
165.0
 30
0.0
 11
131.0
 21
165.0
 31
0.0
  0
LINE
  8
4
  6
CONTINUOUS
 62
     5
 10
111.0
 20
94.0
 30
0.0
 11
111.0
 21
85.0
 31
0.0
  0
LINE
  8
4
  6
CONTINUOUS
 62
     5
 10
111.0
 20
87.0
 30
0.0
 11
108.585185434
 21
87.647047613
 31
0.0
  0
LINE
  8
4
  6
CONTINUOUS
 62
     5
 10
111.0
 20
87.0
 30
0.0
 11
108.585185434
 21
86.352952387
 31
0.0
  0
LINE
  8
4
  6
CONTINUOUS
 62
     5
 10
107.25
 20
87.0
 30
0.0
 11
111.0
 21
87.0
 31
0.0
  0
LINE
  8
4
  6
CONTINUOUS
 62
     5
 10
111.0
 20
87.0
 30
0.0
 11
116.0
 21
87.0
 31
0.0
  0
LINE
  8
4
  6
CONTINUOUS
 62
     5
 10
116.0
 20
87.0
 30
0.0
 11
119.75
 21
87.0
 31
0.0
  0
LINE
  8
4
  6
CONTINUOUS
 62
     5
 10
116.0
 20
87.0
 30
0.0
 11
118.414814566
 21
86.352952387
 31
0.0
  0
LINE
  8
4
  6
CONTINUOUS
 62
     5
 10
116.0
 20
87.0
 30
0.0
 11
118.414814566
 21
87.647047613
 31
0.0
  0
LINE
  8
4
  6
CONTINUOUS
 62
     5
 10
116.0
 20
103.36
 30
0.0
 11
116.0
 21
85.0
 31
0.0
  0
TEXT
  8
4
  6
CONTINUOUS
 62
     2
 10
111.55
 20
88.0
 30
0.3
 40
3.0
  1
２５
 50
0.0
 41
0.6
 51
0.0
  7
KANJI2
  0
LINE
  8
0
  6
LTYPE3
 62
     2
 10
126.3
 20
132.0
 30
0.0
 11
121.2
 21
132.0
 31
0.0
  0
LINE
  8
4
  6
CONTINUOUS
 62
     5
 10
118.0
 20
138.5
 30
0.0
 11
117.352952387
 21
136.085185434
 31
0.0
  0
LINE
  8
4
  6
CONTINUOUS
 62
     5
 10
118.0
 20
138.5
 30
0.0
 11
118.647047613
 21
136.085185434
 31
0.0
  0
LINE
  8
4
  6
CONTINUOUS
 62
     5
 10
118.0
 20
138.5
 30
0.0
 11
118.0
 21
111.5
 31
0.0
  0
LINE
  8
4
  6
CONTINUOUS
 62
     5
 10
118.0
 20
111.5
 30
0.0
 11
118.647047613
 21
113.914814566
 31
0.0
  0
LINE
  8
4
  6
CONTINUOUS
 62
     5
 10
118.0
 20
111.5
 30
0.0
 11
117.352952387
 21
113.914814566
 31
0.0
  0
TEXT
  8
4
  6
CONTINUOUS
 62
     2
 10
117.0
 20
120.95
 30
0.3
 40
3.0
  1
φ１３５
 50
90.0
 41
0.6
 51
0.0
  7
KANJI2
  0
LINE
  8
4
  6
CONTINUOUS
 62
     5
 10
124.7
 20
132.4
 30
0.0
 11
125.971486944
 21
134.55251503
 31
0.0
  0
LINE
  8
4
  6
CONTINUOUS
 62
     5
 10
124.7
 20
132.4
 30
0.0
 11
124.724882479
 21
134.899876169
 31
0.0
  0
LINE
  8
4
  6
CONTINUOUS
 62
     5
 10
124.7
 20
132.4
 30
0.0
 11
135.4
 21
170.8
 31
0.0
  0
LINE
  8
4
  6
CONTINUOUS
 62
     5
 10
113.6
 20
104.6
 30
0.0
 11
113.995219424
 21
102.13143734
 31
0.0
  0
LINE
  8
4
  6
CONTINUOUS
 62
     5
 10
113.6
 20
104.6
 30
0.0
 11
115.176551391
 21
102.659771737
 31
0.0
  0
LINE
  8
4
  6
CONTINUOUS
 62
     5
 10
113.6
 20
104.6
 30
0.0
 11
122.5
 21
84.7
 31
0.0
  0
LINE
  8
4
  6
CONTINUOUS
 62
     5
 10
122.5
 20
84.7
 30
0.0
 11
136.0
 21
84.7
 31
0.0
  0
TEXT
  8
4
  6
CONTINUOUS
 62
     2
 10
122.5
 20
85.7
 30
0.3
 40
3.0
  1
４－Ｍ８　ネジ
 50
0.0
 41
0.6
 51
0.0
  7
KANJI2
  0
LINE
  8
4
  6
LTYPE1
 62
     2
 10
117.3
 20
125.0
 30
0.0
 11
129.0
 21
125.0
 31
0.0
  0
LINE
  8
4
  6
LTYPE1
 62
     2
 10
99.0
 20
125.0
 30
0.0
 11
113.6
 21
125.0
 31
0.0
  0
LINE
  8
0
  6
CONTINUOUS
 62
     1
 10
122.0
 20
121.6
 30
0.0
 11
122.8
 21
121.6
 31
0.0
  0
LINE
  8
0
  6
CONTINUOUS
 62
     1
 10
122.0
 20
112.9
 30
0.0
 11
122.0
 21
121.6
 31
0.0
  0
LINE
  8
0
  6
CONTINUOUS
 62
     1
 10
122.8
 20
119.712876483
 30
0.0
 11
122.0
 21
119.712876483
 31
0.0
  0
LINE
  8
0
  6
CONTINUOUS
 62
     1
 10
122.0
 20
116.6
 30
0.0
 11
122.8
 21
116.6
 31
0.0
  0
LINE
  8
0
  6
CONTINUOUS
 62
     1
 10
122.8
 20
116.6
 30
0.0
 11
122.8
 21
113.311510951
 31
0.0
  0
LINE
  8
0
  6
CONTINUOUS
 62
     1
 10
122.8
 20
113.311510951
 30
0.0
 11
122.0
 21
113.311510951
 31
0.0
  0
ARC
  8
0
  6
CONTINUOUS
 62
     1
 10
128.0
 20
119.9
 30
0.0
 40
0.4
 50
0.0
 51
90.0
  0
LINE
  8
0
  6
CONTINUOUS
 62
     1
 10
128.0
 20
112.9
 30
0.0
 11
122.0
 21
112.9
 31
0.0
  0
LINE
  8
0
  6
CONTINUOUS
 62
     1
 10
128.4
 20
119.9
 30
0.0
 11
128.4
 21
113.3
 31
0.0
  0
ARC
  8
0
  6
CONTINUOUS
 62
     1
 10
128.0
 20
113.3
 30
0.0
 40
0.4
 50
270.0
 51
0.0
  0
LINE
  8
0
  6
CONTINUOUS
 62
     1
 10
128.0
 20
120.3
 30
0.0
 11
123.0
 21
120.3
 31
0.0
  0
ARC
  8
0
  6
CONTINUOUS
 62
     1
 10
123.0
 20
120.5
 30
0.0
 40
0.2
 50
180.0
 51
270.0
  0
LINE
  8
0
  6
CONTINUOUS
 62
     1
 10
122.8
 20
121.6
 30
0.0
 11
122.8
 21
119.712876483
 31
0.0
  0
LINE
  8
0
  6
CONTINUOUS
 62
     5
 10
128.8
 20
118.0
 30
0.0
 11
128.8
 21
115.2
 31
0.0
  0
LINE
  8
0
  6
CONTINUOUS
 62
     5
 10
128.8
 20
115.2
 30
0.0
 11
128.6
 21
115.2
 31
0.0
  0
LINE
  8
0
  6
CONTINUOUS
 62
     5
 10
128.6
 20
118.0
 30
0.0
 11
128.8
 21
118.0
 31
0.0
  0
LINE
  8
0
  6
CONTINUOUS
 62
     5
 10
128.4
 20
117.8
 30
0.0
 11
128.4
 21
115.4
 31
0.0
  0
ARC
  8
0
  6
CONTINUOUS
 62
     5
 10
124.0
 20
116.6
 30
0.0
 40
5.0
 50
343.739795292
 51
16.260204708
  0
LINE
  8
0
  6
CONTINUOUS
 62
     5
 10
128.6
 20
117.8
 30
0.0
 11
128.8
 21
117.8
 31
0.0
  0
LINE
  8
0
  6
CONTINUOUS
 62
     5
 10
128.6
 20
117.6
 30
0.0
 11
128.8
 21
117.6
 31
0.0
  0
LINE
  8
0
  6
CONTINUOUS
 62
     5
 10
128.6
 20
117.4
 30
0.0
 11
128.8
 21
117.4
 31
0.0
  0
LINE
  8
0
  6
CONTINUOUS
 62
     5
 10
128.6
 20
117.2
 30
0.0
 11
128.8
 21
117.2
 31
0.0
  0
LINE
  8
0
  6
CONTINUOUS
 62
     5
 10
128.6
 20
117.0
 30
0.0
 11
128.8
 21
117.0
 31
0.0
  0
LINE
  8
0
  6
CONTINUOUS
 62
     5
 10
128.6
 20
116.8
 30
0.0
 11
128.8
 21
116.8
 31
0.0
  0
LINE
  8
0
  6
CONTINUOUS
 62
     5
 10
128.6
 20
116.6
 30
0.0
 11
128.8
 21
116.6
 31
0.0
  0
LINE
  8
0
  6
CONTINUOUS
 62
     5
 10
128.6
 20
116.4
 30
0.0
 11
128.8
 21
116.4
 31
0.0
  0
LINE
  8
0
  6
CONTINUOUS
 62
     5
 10
128.6
 20
116.2
 30
0.0
 11
128.8
 21
116.2
 31
0.0
  0
LINE
  8
0
  6
CONTINUOUS
 62
     5
 10
128.6
 20
116.0
 30
0.0
 11
128.8
 21
116.0
 31
0.0
  0
LINE
  8
0
  6
CONTINUOUS
 62
     5
 10
128.6
 20
115.8
 30
0.0
 11
128.8
 21
115.8
 31
0.0
  0
LINE
  8
0
  6
CONTINUOUS
 62
     5
 10
128.6
 20
115.6
 30
0.0
 11
128.8
 21
115.6
 31
0.0
  0
LINE
  8
0
  6
CONTINUOUS
 62
     5
 10
128.6
 20
115.4
 30
0.0
 11
128.8
 21
115.4
 31
0.0
  0
LINE
  8
0
  6
CONTINUOUS
 62
     5
 10
128.5
 20
117.8
 30
0.0
 11
128.4
 21
117.8
 31
0.0
  0
ARC
  8
0
  6
CONTINUOUS
 62
     5
 10
128.5
 20
117.9
 30
0.0
 40
0.1
 50
270.0
 51
0.0
  0
LINE
  8
0
  6
CONTINUOUS
 62
     5
 10
128.6
 20
115.2
 30
0.0
 11
128.6
 21
118.0
 31
0.0
  0
ARC
  8
0
  6
CONTINUOUS
 62
     5
 10
128.5
 20
115.3
 30
0.0
 40
0.1
 50
0.0
 51
90.0
  0
LINE
  8
0
  6
CONTINUOUS
 62
     5
 10
128.4
 20
115.4
 30
0.0
 11
128.5
 21
115.4
 31
0.0
  0
LINE
  8
0
  6
CONTINUOUS
 62
     5
 10
122.8
 20
120.475
 30
0.0
 11
123.0
 21
120.475
 31
0.0
  0
ARC
  8
0
  6
CONTINUOUS
 62
     5
 10
123.0
 20
120.665
 30
0.0
 40
0.19
 50
270.0
 51
0.0
  0
LINE
  8
0
  6
CONTINUOUS
 62
     5
 10
123.19
 20
120.665
 30
0.0
 11
123.19
 21
120.94
 31
0.0
  0
LINE
  8
0
  6
CONTINUOUS
 62
     5
 10
123.19
 20
120.94
 30
0.0
 11
122.98
 21
120.94
 31
0.0
  0
LINE
  8
0
  6
CONTINUOUS
 62
     5
 10
122.98
 20
120.94
 30
0.0
 11
122.98
 21
121.06
 31
0.0
  0
LINE
  8
0
  6
CONTINUOUS
 62
     5
 10
122.98
 20
121.06
 30
0.0
 11
123.19
 21
121.06
 31
0.0
  0
LINE
  8
0
  6
CONTINUOUS
 62
     5
 10
123.19
 20
121.06
 30
0.0
 11
123.19
 21
121.335
 31
0.0
  0
ARC
  8
0
  6
CONTINUOUS
 62
     5
 10
123.0
 20
121.335
 30
0.0
 40
0.19
 50
0.0
 51
90.0
  0
LINE
  8
0
  6
CONTINUOUS
 62
     5
 10
123.0
 20
121.525
 30
0.0
 11
122.8
 21
121.525
 31
0.0
  0
LINE
  8
0
  6
CONTINUOUS
 62
     5
 10
122.8
 20
113.875
 30
0.0
 11
123.0
 21
113.875
 31
0.0
  0
ARC
  8
0
  6
CONTINUOUS
 62
     5
 10
123.0
 20
114.065
 30
0.0
 40
0.19
 50
270.0
 51
0.0
  0
LINE
  8
0
  6
CONTINUOUS
 62
     5
 10
123.19
 20
114.065
 30
0.0
 11
123.19
 21
114.34
 31
0.0
  0
LINE
  8
0
  6
CONTINUOUS
 62
     5
 10
123.19
 20
114.34
 30
0.0
 11
122.98
 21
114.34
 31
0.0
  0
LINE
  8
0
  6
CONTINUOUS
 62
     5
 10
122.98
 20
114.34
 30
0.0
 11
122.98
 21
114.46
 31
0.0
  0
LINE
  8
0
  6
CONTINUOUS
 62
     5
 10
122.98
 20
114.46
 30
0.0
 11
123.19
 21
114.46
 31
0.0
  0
LINE
  8
0
  6
CONTINUOUS
 62
     5
 10
123.19
 20
114.46
 30
0.0
 11
123.19
 21
114.735
 31
0.0
  0
ARC
  8
0
  6
CONTINUOUS
 62
     5
 10
123.0
 20
114.735
 30
0.0
 40
0.19
 50
0.0
 51
90.0
  0
LINE
  8
0
  6
CONTINUOUS
 62
     5
 10
123.0
 20
114.925
 30
0.0
 11
122.8
 21
114.925
 31
0.0
  0
LINE
  8
4
  6
CONTINUOUS
 62
     5
 10
128.4
 20
112.300001907
 30
0.0
 11
128.4
 21
100.9
 31
0.0
  0
LINE
  8
4
  6
CONTINUOUS
 62
     5
 10
128.4
 20
102.9
 30
0.0
 11
130.814814566
 21
102.252952387
 31
0.0
  0
LINE
  8
4
  6
CONTINUOUS
 62
     5
 10
128.4
 20
102.9
 30
0.0
 11
130.814814566
 21
103.547047613
 31
0.0
  0
LINE
  8
4
  6
CONTINUOUS
 62
     5
 10
132.15
 20
102.9
 30
0.0
 11
128.4
 21
102.9
 31
0.0
  0
LINE
  8
4
  6
CONTINUOUS
 62
     5
 10
128.4
 20
102.9
 30
0.0
 11
122.0
 21
102.9
 31
0.0
  0
LINE
  8
4
  6
CONTINUOUS
 62
     5
 10
122.0
 20
102.9
 30
0.0
 11
118.25
 21
102.9
 31
0.0
  0
LINE
  8
4
  6
CONTINUOUS
 62
     5
 10
122.0
 20
102.9
 30
0.0
 11
119.585185434
 21
103.547047613
 31
0.0
  0
LINE
  8
4
  6
CONTINUOUS
 62
     5
 10
122.0
 20
102.9
 30
0.0
 11
119.585185434
 21
102.252952387
 31
0.0
  0
LINE
  8
4
  6
CONTINUOUS
 62
     5
 10
122.0
 20
111.3
 30
0.0
 11
122.0
 21
100.9
 31
0.0
  0
TEXT
  8
4
  6
CONTINUOUS
 62
     2
 10
123.25
 20
103.9
 30
0.3
 40
3.0
  1
３２
 50
0.0
 41
0.6
 51
0.0
  7
KANJI2
  0
CIRCLE
  8
0
  6
CONTINUOUS
 62
     1
 10
184.0
 20
125.0
 30
0.0
 40
13.5
  0
ARC
  8
0
  6
CONTINUOUS
 62
     1
 10
159.0
 20
150.0
 30
0.0
 40
4.2
 50
90.0
 51
180.0
  0
LINE
  8
0
  6
CONTINUOUS
 62
     1
 10
154.8
 20
150.0
 30
0.0
 11
154.8
 21
100.0
 31
0.0
  0
ARC
  8
0
  6
CONTINUOUS
 62
     1
 10
159.0
 20
100.0
 30
0.0
 40
4.2
 50
180.0
 51
270.0
  0
LINE
  8
0
  6
CONTINUOUS
 62
     1
 10
159.0
 20
95.8
 30
0.0
 11
209.0
 21
95.8
 31
0.0
  0
ARC
  8
0
  6
CONTINUOUS
 62
     1
 10
209.0
 20
100.0
 30
0.0
 40
4.2
 50
270.0
 51
0.0
  0
LINE
  8
0
  6
CONTINUOUS
 62
     1
 10
209.0
 20
154.2
 30
0.0
 11
159.0
 21
154.2
 31
0.0
  0
LINE
  8
0
  6
CONTINUOUS
 62
     1
 10
213.2
 20
100.0
 30
0.0
 11
213.2
 21
150.0
 31
0.0
  0
ARC
  8
0
  6
CONTINUOUS
 62
     1
 10
209.0
 20
150.0
 30
0.0
 40
4.2
 50
0.0
 51
90.0
  0
ARC
  8
0
  6
CONTINUOUS
 62
     1
 10
159.0
 20
150.0
 30
0.0
 40
5.0
 50
90.0
 51
180.0
  0
LINE
  8
0
  6
CONTINUOUS
 62
     1
 10
154.0
 20
150.0
 30
0.0
 11
154.0
 21
100.0
 31
0.0
  0
ARC
  8
0
  6
CONTINUOUS
 62
     1
 10
159.0
 20
100.0
 30
0.0
 40
5.0
 50
180.0
 51
270.0
  0
LINE
  8
0
  6
CONTINUOUS
 62
     1
 10
159.0
 20
95.0
 30
0.0
 11
209.0
 21
95.0
 31
0.0
  0
ARC
  8
0
  6
CONTINUOUS
 62
     1
 10
209.0
 20
100.0
 30
0.0
 40
5.0
 50
270.0
 51
0.0
  0
LINE
  8
0
  6
CONTINUOUS
 62
     1
 10
209.0
 20
155.0
 30
0.0
 11
159.0
 21
155.0
 31
0.0
  0
LINE
  8
0
  6
CONTINUOUS
 62
     1
 10
214.0
 20
100.0
 30
0.0
 11
214.0
 21
150.0
 31
0.0
  0
ARC
  8
0
  6
CONTINUOUS
 62
     1
 10
209.0
 20
150.0
 30
0.0
 40
5.0
 50
0.0
 51
90.0
  0
CIRCLE
  8
0
  6
CONTINUOUS
 62
     1
 10
164.0
 20
105.0
 30
0.0
 40
2.2
  0
CIRCLE
  8
0
  6
CONTINUOUS
 62
     1
 10
204.0
 20
105.0
 30
0.0
 40
2.2
  0
CIRCLE
  8
0
  6
CONTINUOUS
 62
     1
 10
164.0
 20
145.0
 30
0.0
 40
2.2
  0
CIRCLE
  8
0
  6
CONTINUOUS
 62
     1
 10
204.0
 20
145.0
 30
0.0
 40
2.2
  0
LINE
  8
2
  6
LTYPE2
 62
     2
 10
179.1
 20
126.5
 30
0.0
 11
176.9
 21
126.5
 31
0.0
  0
LINE
  8
4
  6
LTYPE1
 62
     2
 10
184.0
 20
160.0
 30
0.0
 11
184.0
 21
90.0
 31
0.0
  0
LINE
  8
4
  6
LTYPE1
 62
     2
 10
159.9
 20
145.0
 30
0.0
 11
168.1
 21
145.0
 31
0.0
  0
LINE
  8
4
  6
LTYPE1
 62
     2
 10
164.0
 20
149.0
 30
0.0
 11
164.0
 21
141.0
 31
0.0
  0
LINE
  8
4
  6
LTYPE1
 62
     2
 10
201.0
 20
145.0
 30
0.0
 11
207.0
 21
145.0
 31
0.0
  0
LINE
  8
4
  6
LTYPE1
 62
     2
 10
204.0
 20
148.3
 30
0.0
 11
204.0
 21
141.7
 31
0.0
  0
LINE
  8
4
  6
LTYPE1
 62
     2
 10
159.9
 20
105.0
 30
0.0
 11
168.1
 21
105.0
 31
0.0
  0
LINE
  8
4
  6
LTYPE1
 62
     2
 10
164.0
 20
108.8
 30
0.0
 11
164.0
 21
101.2
 31
0.0
  0
LINE
  8
4
  6
LTYPE1
 62
     2
 10
200.3
 20
105.0
 30
0.0
 11
207.7
 21
105.0
 31
0.0
  0
LINE
  8
4
  6
LTYPE1
 62
     2
 10
204.0
 20
108.8
 30
0.0
 11
204.0
 21
101.2
 31
0.0
  0
LINE
  8
4
  6
CONTINUOUS
 62
     5
 10
164.0
 20
150.0
 30
0.0
 11
164.0
 21
167.0
 31
0.0
  0
LINE
  8
4
  6
CONTINUOUS
 62
     5
 10
164.0
 20
165.0
 30
0.0
 11
166.414814566
 21
164.352952387
 31
0.0
  0
LINE
  8
4
  6
CONTINUOUS
 62
     5
 10
164.0
 20
165.0
 30
0.0
 11
166.414814566
 21
165.647047613
 31
0.0
  0
LINE
  8
4
  6
CONTINUOUS
 62
     5
 10
164.0
 20
165.0
 30
0.0
 11
184.0
 21
165.0
 31
0.0
  0
LINE
  8
4
  6
CONTINUOUS
 62
     5
 10
184.0
 20
165.0
 30
0.0
 11
181.585185434
 21
165.647047613
 31
0.0
  0
LINE
  8
4
  6
CONTINUOUS
 62
     5
 10
184.0
 20
165.0
 30
0.0
 11
181.585185434
 21
164.352952387
 31
0.0
  0
LINE
  8
4
  6
CONTINUOUS
 62
     5
 10
184.0
 20
156.0
 30
0.0
 11
184.0
 21
167.0
 31
0.0
  0
TEXT
  8
4
  6
CONTINUOUS
 62
     2
 10
168.57
 20
166.0
 30
0.3
 40
3.0
  1
１００
 50
0.0
 41
0.6
 51
0.0
  7
KANJI2
  0
TEXT
  8
4
  6
CONTINUOUS
 62
     2
 10
175.02
 20
166.0
 30
0.18
 40
1.8
  1
±０．５
 50
0.0
 41
0.6
 51
0.0
  7
KANJI3
  0
LINE
  8
4
  6
CONTINUOUS
 62
     5
 10
184.0
 20
165.0
 30
0.0
 11
186.414814566
 21
164.352952387
 31
0.0
  0
LINE
  8
4
  6
CONTINUOUS
 62
     5
 10
184.0
 20
165.0
 30
0.0
 11
186.414814566
 21
165.647047613
 31
0.0
  0
LINE
  8
4
  6
CONTINUOUS
 62
     5
 10
184.0
 20
165.0
 30
0.0
 11
204.0
 21
165.0
 31
0.0
  0
LINE
  8
4
  6
CONTINUOUS
 62
     5
 10
204.0
 20
165.0
 30
0.0
 11
201.585185434
 21
165.647047613
 31
0.0
  0
LINE
  8
4
  6
CONTINUOUS
 62
     5
 10
204.0
 20
165.0
 30
0.0
 11
201.585185434
 21
164.352952387
 31
0.0
  0
LINE
  8
4
  6
CONTINUOUS
 62
     5
 10
204.0
 20
149.3
 30
0.0
 11
204.0
 21
167.0
 31
0.0
  0
TEXT
  8
4
  6
CONTINUOUS
 62
     2
 10
188.57
 20
166.0
 30
0.3
 40
3.0
  1
１００
 50
0.0
 41
0.6
 51
0.0
  7
KANJI2
  0
TEXT
  8
4
  6
CONTINUOUS
 62
     2
 10
195.02
 20
166.0
 30
0.18
 40
1.8
  1
±０．５
 50
0.0
 41
0.6
 51
0.0
  7
KANJI3
  0
LINE
  8
4
  6
CONTINUOUS
 62
     5
 10
153.0
 20
125.0
 30
0.0
 11
142.0
 21
125.0
 31
0.0
  0
LINE
  8
4
  6
CONTINUOUS
 62
     5
 10
144.0
 20
125.0
 30
0.0
 11
144.647047613
 21
127.414814566
 31
0.0
  0
LINE
  8
4
  6
CONTINUOUS
 62
     5
 10
144.0
 20
125.0
 30
0.0
 11
143.352952387
 21
127.414814566
 31
0.0
  0
LINE
  8
4
  6
CONTINUOUS
 62
     5
 10
144.0
 20
125.0
 30
0.0
 11
144.0
 21
145.0
 31
0.0
  0
LINE
  8
4
  6
CONTINUOUS
 62
     5
 10
144.0
 20
145.0
 30
0.0
 11
143.352952387
 21
142.585185434
 31
0.0
  0
LINE
  8
4
  6
CONTINUOUS
 62
     5
 10
144.0
 20
145.0
 30
0.0
 11
144.647047613
 21
142.585185434
 31
0.0
  0
LINE
  8
4
  6
CONTINUOUS
 62
     5
 10
158.9
 20
145.0
 30
0.0
 11
142.0
 21
145.0
 31
0.0
  0
TEXT
  8
4
  6
CONTINUOUS
 62
     2
 10
143.0
 20
129.57
 30
0.3
 40
3.0
  1
１００
 50
90.0
 41
0.6
 51
0.0
  7
KANJI2
  0
TEXT
  8
4
  6
CONTINUOUS
 62
     2
 10
143.0
 20
136.02
 30
0.18
 40
1.8
  1
±０．５
 50
90.0
 41
0.6
 51
0.0
  7
KANJI3
  0
LINE
  8
4
  6
CONTINUOUS
 62
     5
 10
144.0
 20
125.0
 30
0.0
 11
143.352952387
 21
122.585185434
 31
0.0
  0
LINE
  8
4
  6
CONTINUOUS
 62
     5
 10
144.0
 20
125.0
 30
0.0
 11
144.647047613
 21
122.585185434
 31
0.0
  0
LINE
  8
4
  6
CONTINUOUS
 62
     5
 10
144.0
 20
125.0
 30
0.0
 11
144.0
 21
105.0
 31
0.0
  0
LINE
  8
4
  6
CONTINUOUS
 62
     5
 10
144.0
 20
105.0
 30
0.0
 11
144.647047613
 21
107.414814566
 31
0.0
  0
LINE
  8
4
  6
CONTINUOUS
 62
     5
 10
144.0
 20
105.0
 30
0.0
 11
143.352952387
 21
107.414814566
 31
0.0
  0
LINE
  8
4
  6
CONTINUOUS
 62
     5
 10
158.9
 20
105.0
 30
0.0
 11
142.0
 21
105.0
 31
0.0
  0
TEXT
  8
4
  6
CONTINUOUS
 62
     2
 10
143.0
 20
109.57
 30
0.3
 40
3.0
  1
１００
 50
90.0
 41
0.6
 51
0.0
  7
KANJI2
  0
TEXT
  8
4
  6
CONTINUOUS
 62
     2
 10
143.0
 20
116.02
 30
0.18
 40
1.8
  1
±０．５
 50
90.0
 41
0.6
 51
0.0
  7
KANJI3
  0
CIRCLE
  8
0
  6
CONTINUOUS
 62
     1
 10
178.0
 20
132.0
 30
0.0
 40
1.55
  0
CIRCLE
  8
0
  6
CONTINUOUS
 62
     1
 10
190.0
 20
132.0
 30
0.0
 40
1.55
  0
CIRCLE
  8
0
  6
CONTINUOUS
 62
     1
 10
184.0
 20
116.6
 30
0.0
 40
3.7
  0
LINE
  8
0
  6
CONTINUOUS
 62
     1
 10
182.0
 20
119.712876483
 30
0.0
 11
183.558513178
 21
121.406311932
 31
0.0
  0
LINE
  8
0
  6
CONTINUOUS
 62
     1
 10
186.0
 20
119.712876483
 30
0.0
 11
184.441486822
 21
121.406311932
 31
0.0
  0
ARC
  8
0
  6
CONTINUOUS
 62
     1
 10
184.0
 20
121.0
 30
0.0
 40
0.6
 50
42.624179714
 51
137.375820286
  0
LINE
  8
0
  6
CONTINUOUS
 62
     1
 10
182.304169887
 20
113.311510951
 30
0.0
 11
180.058355179
 21
113.814505231
 31
0.0
  0
LINE
  8
0
  6
CONTINUOUS
 62
     1
 10
180.304169887
 20
116.775612566
 30
0.0
 11
179.616868357
 21
114.579182837
 31
0.0
  0
LINE
  8
0
  6
CONTINUOUS
 62
     1
 10
187.695830113
 20
116.775612566
 30
0.0
 11
188.383131643
 21
114.579182837
 31
0.0
  0
LINE
  8
0
  6
CONTINUOUS
 62
     1
 10
185.695830113
 20
113.311510951
 30
0.0
 11
187.941644821
 21
113.814505231
 31
0.0
  0
ARC
  8
0
  6
CONTINUOUS
 62
     1
 10
187.810511777
 20
114.4
 30
0.0
 40
0.6
 50
282.624179714
 51
17.375820286
  0
ARC
  8
0
  6
CONTINUOUS
 62
     1
 10
180.189488223
 20
114.4
 30
0.0
 40
0.6
 50
162.624179714
 51
257.375820286
  0
CIRCLE
  8
0
  6
CONTINUOUS
 62
     2
 10
184.0
 20
116.6
 30
0.0
 40
1.4
  0
CIRCLE
  8
0
  6
CONTINUOUS
 62
     5
 10
180.189488223
 20
114.4
 30
0.0
 40
0.525
  0
ARC
  8
0
  6
CONTINUOUS
 62
     5
 10
180.309488223
 20
114.28
 30
0.0
 40
0.06
 50
90.0
 51
180.0
  0
LINE
  8
0
  6
CONTINUOUS
 62
     5
 10
180.309488223
 20
114.34
 30
0.0
 11
180.499488223
 21
114.34
 31
0.0
  0
LINE
  8
0
  6
CONTINUOUS
 62
     5
 10
180.499488223
 20
114.34
 30
0.0
 11
180.499488223
 21
114.46
 31
0.0
  0
LINE
  8
0
  6
CONTINUOUS
 62
     5
 10
180.499488223
 20
114.46
 30
0.0
 11
180.309488223
 21
114.46
 31
0.0
  0
ARC
  8
0
  6
CONTINUOUS
 62
     5
 10
180.309488223
 20
114.52
 30
0.0
 40
0.06
 50
180.0
 51
270.0
  0
ARC
  8
0
  6
CONTINUOUS
 62
     5
 10
180.069488223
 20
114.52
 30
0.0
 40
0.06
 50
270.0
 51
0.0
  0
LINE
  8
0
  6
CONTINUOUS
 62
     5
 10
180.069488223
 20
114.46
 30
0.0
 11
179.879488223
 21
114.46
 31
0.0
  0
LINE
  8
0
  6
CONTINUOUS
 62
     5
 10
179.879488223
 20
114.46
 30
0.0
 11
179.879488223
 21
114.34
 31
0.0
  0
LINE
  8
0
  6
CONTINUOUS
 62
     5
 10
179.879488223
 20
114.34
 30
0.0
 11
180.069488223
 21
114.34
 31
0.0
  0
ARC
  8
0
  6
CONTINUOUS
 62
     5
 10
180.069488223
 20
114.28
 30
0.0
 40
0.06
 50
0.0
 51
90.0
  0
LINE
  8
0
  6
CONTINUOUS
 62
     5
 10
180.129488223
 20
114.28
 30
0.0
 11
180.129488223
 21
114.09
 31
0.0
  0
LINE
  8
0
  6
CONTINUOUS
 62
     5
 10
180.129488223
 20
114.09
 30
0.0
 11
180.249488223
 21
114.09
 31
0.0
  0
LINE
  8
0
  6
CONTINUOUS
 62
     5
 10
180.249488223
 20
114.09
 30
0.0
 11
180.249488223
 21
114.28
 31
0.0
  0
LINE
  8
0
  6
CONTINUOUS
 62
     5
 10
180.249488223
 20
114.52
 30
0.0
 11
180.249488223
 21
114.71
 31
0.0
  0
LINE
  8
0
  6
CONTINUOUS
 62
     5
 10
180.249488223
 20
114.71
 30
0.0
 11
180.129488223
 21
114.71
 31
0.0
  0
LINE
  8
0
  6
CONTINUOUS
 62
     5
 10
180.129488223
 20
114.71
 30
0.0
 11
180.129488223
 21
114.52
 31
0.0
  0
CIRCLE
  8
0
  6
CONTINUOUS
 62
     5
 10
184.0
 20
121.0
 30
0.0
 40
0.525
  0
LINE
  8
0
  6
CONTINUOUS
 62
     5
 10
183.94
 20
121.12
 30
0.0
 11
183.94
 21
121.31
 31
0.0
  0
LINE
  8
0
  6
CONTINUOUS
 62
     5
 10
183.94
 20
121.31
 30
0.0
 11
184.06
 21
121.31
 31
0.0
  0
LINE
  8
0
  6
CONTINUOUS
 62
     5
 10
184.06
 20
121.31
 30
0.0
 11
184.06
 21
121.12
 31
0.0
  0
ARC
  8
0
  6
CONTINUOUS
 62
     5
 10
183.88
 20
120.88
 30
0.0
 40
0.06
 50
0.0
 51
90.0
  0
LINE
  8
0
  6
CONTINUOUS
 62
     5
 10
183.88
 20
120.94
 30
0.0
 11
183.69
 21
120.94
 31
0.0
  0
LINE
  8
0
  6
CONTINUOUS
 62
     5
 10
183.69
 20
120.94
 30
0.0
 11
183.69
 21
121.06
 31
0.0
  0
LINE
  8
0
  6
CONTINUOUS
 62
     5
 10
183.69
 20
121.06
 30
0.0
 11
183.88
 21
121.06
 31
0.0
  0
ARC
  8
0
  6
CONTINUOUS
 62
     5
 10
183.88
 20
121.12
 30
0.0
 40
0.06
 50
270.0
 51
0.0
  0
ARC
  8
0
  6
CONTINUOUS
 62
     5
 10
184.12
 20
121.12
 30
0.0
 40
0.06
 50
180.0
 51
270.0
  0
LINE
  8
0
  6
CONTINUOUS
 62
     5
 10
184.12
 20
121.06
 30
0.0
 11
184.31
 21
121.06
 31
0.0
  0
LINE
  8
0
  6
CONTINUOUS
 62
     5
 10
184.31
 20
121.06
 30
0.0
 11
184.31
 21
120.94
 31
0.0
  0
LINE
  8
0
  6
CONTINUOUS
 62
     5
 10
184.31
 20
120.94
 30
0.0
 11
184.12
 21
120.94
 31
0.0
  0
ARC
  8
0
  6
CONTINUOUS
 62
     5
 10
184.12
 20
120.88
 30
0.0
 40
0.06
 50
90.0
 51
180.0
  0
LINE
  8
0
  6
CONTINUOUS
 62
     5
 10
184.06
 20
120.88
 30
0.0
 11
184.06
 21
120.69
 31
0.0
  0
LINE
  8
0
  6
CONTINUOUS
 62
     5
 10
184.06
 20
120.69
 30
0.0
 11
183.94
 21
120.69
 31
0.0
  0
LINE
  8
0
  6
CONTINUOUS
 62
     5
 10
183.94
 20
120.69
 30
0.0
 11
183.94
 21
120.88
 31
0.0
  0
CIRCLE
  8
0
  6
CONTINUOUS
 62
     5
 10
187.810511777
 20
114.4
 30
0.0
 40
0.525
  0
ARC
  8
0
  6
CONTINUOUS
 62
     5
 10
187.690511777
 20
114.28
 30
0.0
 40
0.06
 50
0.0
 51
90.0
  0
LINE
  8
0
  6
CONTINUOUS
 62
     5
 10
187.690511777
 20
114.34
 30
0.0
 11
187.500511777
 21
114.34
 31
0.0
  0
LINE
  8
0
  6
CONTINUOUS
 62
     5
 10
187.500511777
 20
114.34
 30
0.0
 11
187.500511777
 21
114.46
 31
0.0
  0
LINE
  8
0
  6
CONTINUOUS
 62
     5
 10
187.500511777
 20
114.46
 30
0.0
 11
187.690511777
 21
114.46
 31
0.0
  0
ARC
  8
0
  6
CONTINUOUS
 62
     5
 10
187.690511777
 20
114.52
 30
0.0
 40
0.06
 50
270.0
 51
0.0
  0
ARC
  8
0
  6
CONTINUOUS
 62
     5
 10
187.930511777
 20
114.52
 30
0.0
 40
0.06
 50
180.0
 51
270.0
  0
LINE
  8
0
  6
CONTINUOUS
 62
     5
 10
187.930511777
 20
114.46
 30
0.0
 11
188.120511777
 21
114.46
 31
0.0
  0
LINE
  8
0
  6
CONTINUOUS
 62
     5
 10
188.120511777
 20
114.46
 30
0.0
 11
188.120511777
 21
114.34
 31
0.0
  0
LINE
  8
0
  6
CONTINUOUS
 62
     5
 10
188.120511777
 20
114.34
 30
0.0
 11
187.930511777
 21
114.34
 31
0.0
  0
ARC
  8
0
  6
CONTINUOUS
 62
     5
 10
187.930511777
 20
114.28
 30
0.0
 40
0.06
 50
90.0
 51
180.0
  0
LINE
  8
0
  6
CONTINUOUS
 62
     5
 10
187.870511777
 20
114.28
 30
0.0
 11
187.870511777
 21
114.09
 31
0.0
  0
LINE
  8
0
  6
CONTINUOUS
 62
     5
 10
187.870511777
 20
114.09
 30
0.0
 11
187.750511777
 21
114.09
 31
0.0
  0
LINE
  8
0
  6
CONTINUOUS
 62
     5
 10
187.750511777
 20
114.09
 30
0.0
 11
187.750511777
 21
114.28
 31
0.0
  0
LINE
  8
0
  6
CONTINUOUS
 62
     5
 10
187.750511777
 20
114.52
 30
0.0
 11
187.750511777
 21
114.71
 31
0.0
  0
LINE
  8
0
  6
CONTINUOUS
 62
     5
 10
187.750511777
 20
114.71
 30
0.0
 11
187.870511777
 21
114.71
 31
0.0
  0
LINE
  8
0
  6
CONTINUOUS
 62
     5
 10
187.870511777
 20
114.71
 30
0.0
 11
187.870511777
 21
114.52
 31
0.0
  0
TEXT
  8
4
  6
CONTINUOUS
 62
     2
 10
135.4
 20
171.8
 30
0.3
 40
3.0
  1
２－Ｍ５　ターミナル
 50
0.0
 41
0.6
 51
0.0
  7
KANJI2
  0
LINE
  8
4
  6
CONTINUOUS
 62
     5
 10
135.4
 20
170.8
 30
0.0
 11
156.2
 21
170.8
 31
0.0
  0
CIRCLE
  8
0
  6
CONTINUOUS
 62
     5
 10
164.0
 20
145.0
 30
0.0
 40
0.8
  0
CIRCLE
  8
0
  6
CONTINUOUS
 62
     5
 10
164.0
 20
145.0
 30
0.0
 40
0.64
  0
CIRCLE
  8
0
  6
CONTINUOUS
 62
     5
 10
204.0
 20
145.0
 30
0.0
 40
0.8
  0
CIRCLE
  8
0
  6
CONTINUOUS
 62
     5
 10
204.0
 20
145.0
 30
0.0
 40
0.64
  0
ARC
  8
0
  6
CONTINUOUS
 62
     5
 10
178.0
 20
132.0
 30
0.0
 40
0.98
 50
90.0
 51
167.698720344
  0
LINE
  8
0
  6
CONTINUOUS
 62
     5
 10
177.0625
 20
132.0
 30
0.0
 11
177.53125
 21
131.188101184
 31
0.0
  0
LINE
  8
0
  6
CONTINUOUS
 62
     5
 10
177.53125
 20
131.188101184
 30
0.0
 11
178.46875
 21
131.188101184
 31
0.0
  0
LINE
  8
0
  6
CONTINUOUS
 62
     5
 10
178.46875
 20
131.188101184
 30
0.0
 11
178.9375
 21
132.0
 31
0.0
  0
ARC
  8
0
  6
CONTINUOUS
 62
     5
 10
178.0
 20
132.0
 30
0.0
 40
0.8875
 50
186.179548741
 51
234.19072803
  0
ARC
  8
0
  6
CONTINUOUS
 62
     5
 10
178.0
 20
132.0
 30
0.0
 40
0.8875
 50
306.179548741
 51
353.820451259
  0
ARC
  8
0
  6
CONTINUOUS
 62
     5
 10
178.0
 20
132.0
 30
0.0
 40
0.8875
 50
246.179548741
 51
293.820451259
  0
LINE
  8
0
  6
CONTINUOUS
 62
     5
 10
178.9375
 20
132.0
 30
0.0
 11
178.46875
 21
132.811898816
 31
0.0
  0
LINE
  8
0
  6
CONTINUOUS
 62
     5
 10
178.46875
 20
132.811898816
 30
0.0
 11
177.53125
 21
132.811898816
 31
0.0
  0
LINE
  8
0
  6
CONTINUOUS
 62
     5
 10
177.53125
 20
132.811898816
 30
0.0
 11
177.0625
 21
132.0
 31
0.0
  0
ARC
  8
0
  6
CONTINUOUS
 62
     5
 10
178.0
 20
132.0
 30
0.0
 40
0.8875
 50
126.179548741
 51
173.820451259
  0
ARC
  8
0
  6
CONTINUOUS
 62
     5
 10
178.0
 20
132.0
 30
0.0
 40
0.8875
 50
66.179548741
 51
113.820451259
  0
ARC
  8
0
  6
CONTINUOUS
 62
     5
 10
178.0
 20
132.0
 30
0.0
 40
0.8875
 50
6.179548741
 51
54.19072803
  0
CIRCLE
  8
0
  6
CONTINUOUS
 62
     5
 10
178.0
 20
132.0
 30
0.0
 40
0.811875
  0
CIRCLE
  8
0
  6
CONTINUOUS
 62
     5
 10
178.0
 20
132.0
 30
0.0
 40
0.5
  0
CIRCLE
  8
0
  6
CONTINUOUS
 62
     5
 10
178.0
 20
132.0
 30
0.0
 40
0.4
  0
CIRCLE
  8
0
  6
CONTINUOUS
 62
     5
 10
178.0
 20
132.0
 30
0.0
 40
1.0625
  0
ARC
  8
0
  6
CONTINUOUS
 62
     5
 10
190.0
 20
132.0
 30
0.0
 40
0.98
 50
12.301279656
 51
90.0
  0
LINE
  8
0
  6
CONTINUOUS
 62
     5
 10
190.9375
 20
132.0
 30
0.0
 11
190.46875
 21
131.188101184
 31
0.0
  0
LINE
  8
0
  6
CONTINUOUS
 62
     5
 10
190.46875
 20
131.188101184
 30
0.0
 11
189.53125
 21
131.188101184
 31
0.0
  0
LINE
  8
0
  6
CONTINUOUS
 62
     5
 10
189.53125
 20
131.188101184
 30
0.0
 11
189.0625
 21
132.0
 31
0.0
  0
ARC
  8
0
  6
CONTINUOUS
 62
     5
 10
190.0
 20
132.0
 30
0.0
 40
0.8875
 50
305.80927197
 51
353.820451259
  0
ARC
  8
0
  6
CONTINUOUS
 62
     5
 10
190.0
 20
132.0
 30
0.0
 40
0.8875
 50
186.179548741
 51
233.820451259
  0
ARC
  8
0
  6
CONTINUOUS
 62
     5
 10
190.0
 20
132.0
 30
0.0
 40
0.8875
 50
246.179548741
 51
293.820451259
  0
LINE
  8
0
  6
CONTINUOUS
 62
     5
 10
189.0625
 20
132.0
 30
0.0
 11
189.53125
 21
132.811898816
 31
0.0
  0
LINE
  8
0
  6
CONTINUOUS
 62
     5
 10
189.53125
 20
132.811898816
 30
0.0
 11
190.46875
 21
132.811898816
 31
0.0
  0
LINE
  8
0
  6
CONTINUOUS
 62
     5
 10
190.46875
 20
132.811898816
 30
0.0
 11
190.9375
 21
132.0
 31
0.0
  0
ARC
  8
0
  6
CONTINUOUS
 62
     5
 10
190.0
 20
132.0
 30
0.0
 40
0.8875
 50
6.179548741
 51
53.820451259
  0
ARC
  8
0
  6
CONTINUOUS
 62
     5
 10
190.0
 20
132.0
 30
0.0
 40
0.8875
 50
66.179548741
 51
113.820451259
  0
ARC
  8
0
  6
CONTINUOUS
 62
     5
 10
190.0
 20
132.0
 30
0.0
 40
0.8875
 50
125.80927197
 51
173.820451259
  0
CIRCLE
  8
0
  6
CONTINUOUS
 62
     5
 10
190.0
 20
132.0
 30
0.0
 40
0.811875
  0
CIRCLE
  8
0
  6
CONTINUOUS
 62
     5
 10
190.0
 20
132.0
 30
0.0
 40
0.5
  0
CIRCLE
  8
0
  6
CONTINUOUS
 62
     5
 10
190.0
 20
132.0
 30
0.0
 40
0.4
  0
CIRCLE
  8
0
  6
CONTINUOUS
 62
     5
 10
190.0
 20
132.0
 30
0.0
 40
1.0625
  0
CIRCLE
  8
0
  6
CONTINUOUS
 62
     5
 10
204.0
 20
105.0
 30
0.0
 40
0.8
  0
CIRCLE
  8
0
  6
CONTINUOUS
 62
     5
 10
204.0
 20
105.0
 30
0.0
 40
0.64
  0
CIRCLE
  8
0
  6
CONTINUOUS
 62
     5
 10
164.0
 20
105.0
 30
0.0
 40
0.8
  0
CIRCLE
  8
0
  6
CONTINUOUS
 62
     5
 10
164.0
 20
105.0
 30
0.0
 40
0.64
  0
LINE
  8
0
  6
CONTINUOUS
 62
     5
 10
111.2
 20
105.64
 30
0.0
 11
116.0
 21
105.64
 31
0.0
  0
LINE
  8
0
  6
CONTINUOUS
 62
     5
 10
115.84
 20
104.2
 30
0.0
 11
115.84
 21
105.8
 31
0.0
  0
LINE
  8
0
  6
CONTINUOUS
 62
     5
 10
116.0
 20
104.36
 30
0.0
 11
111.2
 21
104.36
 31
0.0
  0
LINE
  8
0
  6
CONTINUOUS
 62
     5
 10
111.2
 20
107.2
 30
0.0
 11
111.2
 21
102.8
 31
0.0
  0
LINE
  8
0
  6
CONTINUOUS
 62
     5
 10
111.2
 20
102.8
 30
0.0
 11
111.0
 21
102.8
 31
0.0
  0
LINE
  8
0
  6
CONTINUOUS
 62
     5
 10
111.0
 20
107.2
 30
0.0
 11
111.2
 21
107.2
 31
0.0
  0
LINE
  8
0
  6
CONTINUOUS
 62
     5
 10
111.2
 20
142.8
 30
0.0
 11
111.2
 21
147.2
 31
0.0
  0
LINE
  8
0
  6
CONTINUOUS
 62
     5
 10
111.2
 20
147.2
 30
0.0
 11
111.0
 21
147.2
 31
0.0
  0
LINE
  8
0
  6
CONTINUOUS
 62
     5
 10
111.0
 20
142.8
 30
0.0
 11
111.2
 21
142.8
 31
0.0
  0
LINE
  8
0
  6
CONTINUOUS
 62
     5
 10
116.0
 20
145.64
 30
0.0
 11
111.2
 21
145.64
 31
0.0
  0
LINE
  8
0
  6
CONTINUOUS
 62
     5
 10
115.84
 20
145.8
 30
0.0
 11
115.84
 21
144.2
 31
0.0
  0
LINE
  8
0
  6
CONTINUOUS
 62
     5
 10
111.2
 20
144.36
 30
0.0
 11
116.0
 21
144.36
 31
0.0
  0
LINE
  8
0
  6
CONTINUOUS
 62
     5
 10
125.9
 20
132.5
 30
0.0
 11
125.9
 21
131.5
 31
0.0
  0
LINE
  8
0
  6
CONTINUOUS
 62
     5
 10
125.0375
 20
132.4
 30
0.0
 11
126.0
 21
132.4
 31
0.0
  0
LINE
  8
0
  6
CONTINUOUS
 62
     5
 10
126.0
 20
131.6
 30
0.0
 11
125.0375
 21
131.6
 31
0.0
  0
LINE
  8
0
  6
CONTINUOUS
 62
     5
 10
124.35
 20
132.0
 30
0.0
 11
124.1
 21
132.144337567
 31
0.0
  0
LINE
  8
0
  6
CONTINUOUS
 62
     5
 10
124.1
 20
132.0
 30
0.0
 11
124.35
 21
131.855662433
 31
0.0
  0
LINE
  8
4
  6
LTYPE1
 62
     2
 10
149.0
 20
125.0
 30
0.0
 11
219.0
 21
125.0
 31
0.0
  0
LINE
  8
4
  6
CONTINUOUS
 62
     5
 10
129.0
 20
120.3
 30
0.0
 11
138.4
 21
120.3
 31
0.0
  0
LINE
  8
4
  6
CONTINUOUS
 62
     5
 10
136.4
 20
120.3
 30
0.0
 11
135.752952387
 21
117.885185434
 31
0.0
  0
LINE
  8
4
  6
CONTINUOUS
 62
     5
 10
136.4
 20
120.3
 30
0.0
 11
137.047047613
 21
117.885185434
 31
0.0
  0
LINE
  8
4
  6
CONTINUOUS
 62
     5
 10
136.4
 20
120.3
 30
0.0
 11
136.4
 21
112.9
 31
0.0
  0
LINE
  8
4
  6
CONTINUOUS
 62
     5
 10
136.4
 20
112.9
 30
0.0
 11
137.047047613
 21
115.314814566
 31
0.0
  0
LINE
  8
4
  6
CONTINUOUS
 62
     5
 10
136.4
 20
112.9
 30
0.0
 11
135.752952387
 21
115.314814566
 31
0.0
  0
LINE
  8
4
  6
CONTINUOUS
 62
     5
 10
129.0
 20
112.9
 30
0.0
 11
138.4
 21
112.9
 31
0.0
  0
TEXT
  8
4
  6
CONTINUOUS
 62
     2
 10
135.4
 20
114.65
 30
0.3
 40
3.0
  1
３７
 50
90.0
 41
0.6
 51
0.0
  7
KANJI2
  0
LINE
  8
4
  6
LTYPE1
 62
     2
 10
123.98
 20
114.4
 30
0.0
 11
121.98
 21
114.4
 31
0.0
  0
LINE
  8
4
  6
LTYPE1
 62
     2
 10
121.98
 20
121.0
 30
0.0
 11
123.98
 21
121.0
 31
0.0
  0
LINE
  8
4
  6
LTYPE1
 62
     2
 10
110.0
 20
105.0
 30
0.0
 11
117.0
 21
105.0
 31
0.0
  0
LINE
  8
4
  6
LTYPE1
 62
     2
 10
109.2
 20
145.0
 30
0.0
 11
117.2
 21
145.0
 31
0.0
  0
LINE
  8
4
  6
LTYPE1
 62
     2
 10
176.0
 20
132.0
 30
0.0
 11
180.0
 21
132.0
 31
0.0
  0
LINE
  8
4
  6
LTYPE1
 62
     2
 10
188.0
 20
132.0
 30
0.0
 11
192.0
 21
132.0
 31
0.0
  0
LINE
  8
4
  6
LTYPE3
 62
     2
 10
190.0
 20
129.7
 30
0.0
 11
190.0
 21
134.0
 31
0.0
  0
LINE
  8
4
  6
LTYPE3
 62
     2
 10
178.0
 20
130.1
 30
0.0
 11
178.0
 21
133.8
 31
0.0
  0
LINE
  8
4
  6
CONTINUOUS
 62
     5
 10
164.0
 20
76.0
 30
0.0
 11
166.414814566
 21
75.352952387
 31
0.0
  0
LINE
  8
4
  6
CONTINUOUS
 62
     5
 10
164.0
 20
76.0
 30
0.0
 11
166.414814566
 21
76.647047613
 31
0.0
  0
LINE
  8
4
  6
CONTINUOUS
 62
     5
 10
164.0
 20
76.0
 30
0.0
 11
184.0
 21
76.0
 31
0.0
  0
LINE
  8
4
  6
CONTINUOUS
 62
     5
 10
184.0
 20
76.0
 30
0.0
 11
181.585185434
 21
76.647047613
 31
0.0
  0
LINE
  8
4
  6
CONTINUOUS
 62
     5
 10
184.0
 20
76.0
 30
0.0
 11
181.585185434
 21
75.352952387
 31
0.0
  0
TEXT
  8
4
  6
CONTINUOUS
 62
     2
 10
168.57
 20
77.0
 30
0.3
 40
3.0
  1
１００
 50
0.0
 41
0.6
 51
0.0
  7
KANJI2
  0
TEXT
  8
4
  6
CONTINUOUS
 62
     2
 10
175.02
 20
77.0
 30
0.18
 40
1.8
  1
±０．５
 50
0.0
 41
0.6
 51
0.0
  7
KANJI3
  0
LINE
  8
4
  6
CONTINUOUS
 62
     5
 10
184.0
 20
76.0
 30
0.0
 11
186.414814566
 21
75.352952387
 31
0.0
  0
LINE
  8
4
  6
CONTINUOUS
 62
     5
 10
184.0
 20
76.0
 30
0.0
 11
186.414814566
 21
76.647047613
 31
0.0
  0
LINE
  8
4
  6
CONTINUOUS
 62
     5
 10
184.0
 20
76.0
 30
0.0
 11
204.0
 21
76.0
 31
0.0
  0
LINE
  8
4
  6
CONTINUOUS
 62
     5
 10
204.0
 20
76.0
 30
0.0
 11
201.585185434
 21
76.647047613
 31
0.0
  0
LINE
  8
4
  6
CONTINUOUS
 62
     5
 10
204.0
 20
76.0
 30
0.0
 11
201.585185434
 21
75.352952387
 31
0.0
  0
TEXT
  8
4
  6
CONTINUOUS
 62
     2
 10
188.57
 20
77.0
 30
0.3
 40
3.0
  1
１００
 50
0.0
 41
0.6
 51
0.0
  7
KANJI2
  0
TEXT
  8
4
  6
CONTINUOUS
 62
     2
 10
195.02
 20
77.0
 30
0.18
 40
1.8
  1
±０．５
 50
0.0
 41
0.6
 51
0.0
  7
KANJI3
  0
LINE
  8
4
  6
CONTINUOUS
 62
     5
 10
177.4
 20
126.8
 30
0.0
 11
176.319371395
 21
124.545617198
 31
0.0
  0
LINE
  8
4
  6
CONTINUOUS
 62
     5
 10
177.4
 20
126.8
 30
0.0
 11
177.591339577
 21
124.307332921
 31
0.0
  0
LINE
  8
4
  6
CONTINUOUS
 62
     5
 10
177.4
 20
126.8
 30
0.0
 11
170.3
 21
88.9
 31
0.0
  0
LINE
  8
4
  6
CONTINUOUS
 62
     5
 10
170.3
 20
88.9
 30
0.0
 11
151.4
 21
88.9
 31
0.0
  0
TEXT
  8
4
  6
CONTINUOUS
 62
     2
 10
151.4
 20
89.9
 30
0.3
 40
3.0
  1
端子キャップ（赤色）
 50
0.0
 41
0.6
 51
0.0
  7
KANJI2
  0
LINE
  8
4
  6
CONTINUOUS
 62
     5
 10
183.4
 20
114.6
 30
0.0
 11
183.382486883
 21
112.100061343
 31
0.0
  0
LINE
  8
4
  6
CONTINUOUS
 62
     5
 10
183.4
 20
114.6
 30
0.0
 11
182.134863867
 21
112.443746173
 31
0.0
  0
LINE
  8
4
  6
CONTINUOUS
 62
     5
 10
183.4
 20
114.6
 30
0.0
 11
174.722641509
 21
83.1
 31
0.0
  0
LINE
  8
4
  6
CONTINUOUS
 62
     5
 10
190.6
 20
126.8
 30
0.0
 11
191.680628605
 21
124.545617198
 31
0.0
  0
LINE
  8
4
  6
CONTINUOUS
 62
     5
 10
190.6
 20
126.8
 30
0.0
 11
190.408660423
 21
124.307332921
 31
0.0
  0
LINE
  8
4
  6
CONTINUOUS
 62
     5
 10
190.6
 20
126.8
 30
0.0
 11
197.7
 21
88.9
 31
0.0
  0
LINE
  8
4
  6
CONTINUOUS
 62
     5
 10
197.7
 20
88.9
 30
0.0
 11
217.6
 21
88.9
 31
0.0
  0
TEXT
  8
4
  6
CONTINUOUS
 62
     2
 10
198.7
 20
89.9
 30
0.3
 40
3.0
  1
端子キャップ（黒色）
 50
0.0
 41
0.6
 51
0.0
  7
KANJI2
  0
ARC
  8
2
  6
LTYPE4
 62
     2
 10
124.466652706
 20
134.412897956
 30
0.0
 40
0.916017096
 50
241.330089682
 51
274.729624
  0
ARC
  8
2
  6
LTYPE4
 62
     2
 10
122.329562306
 20
127.983552294
 30
0.0
 40
5.876195063
 50
73.208023035
 51
93.388249352
  0
LINE
  8
2
  6
LTYPE2
 62
     2
 10
124.542181792
 20
133.5
 30
0.0
 11
125.3
 21
133.5
 31
0.0
  0
ARC
  8
2
  6
LTYPE4
 62
     2
 10
124.466652706
 20
134.412897956
 30
0.0
 40
1.216017096
 50
241.330089682
 51
274.729624
  0
ARC
  8
2
  6
LTYPE4
 62
     2
 10
122.329562306
 20
127.983552294
 30
0.0
 40
5.576195063
 50
73.841734002
 51
93.388249352
  0
LINE
  8
2
  6
LTYPE2
 62
     2
 10
124.566917931
 20
133.2
 30
0.0
 11
125.299999696
 21
133.2
 31
0.0
  0
ARC
  8
2
  6
LTYPE4
 62
     2
 10
122.411122647
 20
129.661384902
 30
0.0
 40
0.986108707
 50
27.668167734
 51
52.652914273
  0
ARC
  8
2
  6
LTYPE4
 62
     2
 10
122.49637678
 20
128.660515185
 30
0.0
 40
1.85705299
 50
73.965089917
 51
105.503232331
  0
ARC
  8
2
  6
LTYPE2
 62
     2
 10
122.450000012
 20
129.949999984
 30
0.0
 40
0.851469319
 50
356.633524267
 51
11.467650812
  0
ARC
  8
2
  6
LTYPE4
 62
     2
 10
122.748113043
 20
129.840292179
 30
0.0
 40
0.352241627
 50
2.571378149
 51
71.895677584
  0
LINE
  8
2
  6
LTYPE2
 62
     2
 10
123.1
 20
126.5
 30
0.0
 11
123.1
 21
129.85609513
 31
0.0
  0
ARC
  8
2
  6
LTYPE4
 62
     2
 10
122.49637678
 20
128.660515185
 30
0.0
 40
1.55705299
 50
76.586725011
 51
108.58991473
  0
ARC
  8
2
  6
LTYPE4
 62
     2
 10
173.753545441
 20
128.872024207
 30
0.0
 40
3.390964601
 50
21.891179771
 51
39.793762172
  0
ARC
  8
2
  6
LTYPE4
 62
     2
 10
182.246454559
 20
128.872024207
 30
0.0
 40
3.390964601
 50
140.206237828
 51
158.108820229
  0
ARC
  8
2
  6
LTYPE4
 62
     2
 10
178.0
 20
132.0
 30
0.0
 40
1.9
 50
329.73255965
 51
210.267440349
  0
LINE
  8
2
  6
LTYPE2
 62
     2
 10
176.9
 20
126.5
 30
0.0
 11
176.9
 21
130.136328218
 31
0.0
  0
LINE
  8
2
  6
LTYPE2
 62
     2
 10
179.1
 20
130.136328218
 30
0.0
 11
179.1
 21
126.5
 31
0.0
  0
LINE
  8
2
  6
LTYPE2
 62
     2
 10
188.9
 20
126.5
 30
0.0
 11
191.1
 21
126.5
 31
0.0
  0
ARC
  8
2
  6
LTYPE4
 62
     2
 10
194.246454559
 20
128.872024207
 30
0.0
 40
3.390964601
 50
140.206237828
 51
158.108820229
  0
ARC
  8
2
  6
LTYPE4
 62
     2
 10
185.753545441
 20
128.872024207
 30
0.0
 40
3.390964601
 50
21.891179771
 51
39.793762172
  0
ARC
  8
2
  6
LTYPE4
 62
     2
 10
190.0
 20
132.0
 30
0.0
 40
1.9
 50
329.732559651
 51
210.26744035
  0
LINE
  8
2
  6
LTYPE2
 62
     2
 10
191.1
 20
126.5
 30
0.0
 11
191.1
 21
130.136328218
 31
0.0
  0
LINE
  8
2
  6
LTYPE2
 62
     2
 10
188.9
 20
130.136328218
 30
0.0
 11
188.9
 21
126.5
 31
0.0
  0
TEXT
  8
4
  6
CONTINUOUS
 62
     2
 10
157.422641509
 20
84.1
 30
0.3
 40
3.0
  1
感度調整用抵抗器
 50
0.0
 41
0.6
 51
0.0
  7
KANJI2
  0
LINE
  8
4
  6
CONTINUOUS
 62
     5
 10
157.422641509
 20
83.1
 30
0.0
 11
174.722641509
 21
83.1
 31
0.0
  0
TEXT
  8
0
  6
CONTINUOUS
 62
     2
 10
30.0
 20
30.0
 30
0.3
 40
3.0
  1
注）感度調整用抵抗器は□ＶＦ－３０Ｖ形に限り付きます。
 50
0.0
 41
0.9
 51
0.0
  7
KANJI1
  0
LINE
  8
0
  6
CONTINUOUS
 62
     2
 10
29.0
 20
29.0
 30
0.0
 11
111.0
 21
29.0
 31
0.0
  0
LINE
  8
0
  6
CONTINUOUS
 62
     2
 10
29.0
 20
24.0
 30
0.0
 11
111.0
 21
24.0
 31
0.0
  0
TEXT
  8
0
  6
CONTINUOUS
 62
     1
 10
234.7
 20
33.8
 30
0.4
 40
4.0
  1
□ＶＦ－３０
 50
0.0
 41
0.9
 51
0.0
  7
KANJI4
  0
TEXT
  8
0
  6
CONTINUOUS
 62
     2
 10
234.7
 20
27.8
 30
0.3
 40
3.0
  1
端子キャップ付（オプション）
 50
0.0
 41
0.9
 51
0.0
  7
KANJI1
  0
TEXT
  8
0
  6
CONTINUOUS
 62
     1
 10
234.7
 20
22.8
 30
0.4
 40
4.0
  1
広角度計器　外形図
 50
0.0
 41
0.9
 51
0.0
  7
KANJI4
  0
ENDSEC
  0
EOF
