  0
SECTION
  2
HEADER
  9
$ACADVER
  1
AC1009
  9
$DWGCODEPAGE
  3
dos932
  9
$EXTMIN
 10
0.0
 20
0.0
 30
0.0
  9
$EXTMAX
 10
297.0
 20
210.0
 30
0.0
  9
$LIMMIN
 10
0.0
 20
0.0
  9
$LIMMAX
 10
297.0
 20
210.0
  9
$LTSCALE
 40
1.0
  9
$PDMODE
 70
     0
  0
ENDSEC
  0
SECTION
  2
TABLES
  0
TABLE
  2
VPORT
 70
     1
  0
VPORT
  2
*ACTIVE
 70
     0
 10
0.0
 20
0.0
 11
1.0
 21
1.0
 12
148.5
 22
105.0
 13
0.0
 23
0.0
 14
10.0
 24
10.0
 15
10.0
 25
10.0
 16
0.0
 26
0.0
 36
1.0
 17
0.0
 27
0.0
 37
0.0
 40
297.0
 41
1.414285714
 42
50.0
 43
0.0
 44
0.0
 50
0.0
 51
0.0
 71
     0
 72
  1000
 73
     1
 74
     3
 75
     0
 76
     0
 77
     0
 78
     0
  0
ENDTAB
  0
TABLE
  2
LTYPE
 70
     4
  0
LTYPE
  2
CONTINUOUS
 70
    64
  3
Solid line
 72
    65
 73
     0
 40
0.0
  0
LTYPE
  2
LTYPE1
 70
    64
  3
HIDDEN
 72
    65
 73
     2
 40
3.0
 49
1.8
 49
-1.2
  0
LTYPE
  2
LTYPE2
 70
    64
  3
CENTER
 72
    65
 73
     4
 40
15.0
 49
10.5
 49
-1.5
 49
1.5
 49
-1.5
  0
LTYPE
  2
LTYPE3
 70
    64
  3
HIDDEN
 72
    65
 73
     2
 40
2.0
 49
1.2
 49
-0.8
  0
ENDTAB
  0
TABLE
  2
LAYER
 70
   128
  0
LAYER
  2
0
 70
     0
 62
     7
  6
CONTINUOUS
  0
LAYER
  2
2
 70
     0
 62
     7
  6
CONTINUOUS
  0
LAYER
  2
3
 70
     0
 62
     7
  6
CONTINUOUS
  0
LAYER
  2
4
 70
     0
 62
     7
  6
CONTINUOUS
  0
LAYER
  2
5
 70
     0
 62
     7
  6
CONTINUOUS
  0
LAYER
  2
6
 70
     0
 62
     7
  6
CONTINUOUS
  0
LAYER
  2
7
 70
     0
 62
     7
  6
CONTINUOUS
  0
LAYER
  2
8
 70
     0
 62
     7
  6
CONTINUOUS
  0
LAYER
  2
9
 70
     0
 62
     7
  6
CONTINUOUS
  0
LAYER
  2
10
 70
     0
 62
     7
  6
CONTINUOUS
  0
LAYER
  2
11
 70
     0
 62
     7
  6
CONTINUOUS
  0
LAYER
  2
12
 70
     0
 62
     7
  6
CONTINUOUS
  0
LAYER
  2
13
 70
     0
 62
     7
  6
CONTINUOUS
  0
LAYER
  2
14
 70
     0
 62
     7
  6
CONTINUOUS
  0
LAYER
  2
15
 70
     0
 62
     7
  6
CONTINUOUS
  0
LAYER
  2
16
 70
     0
 62
     7
  6
CONTINUOUS
  0
LAYER
  2
17
 70
     0
 62
     7
  6
CONTINUOUS
  0
LAYER
  2
18
 70
     0
 62
     7
  6
CONTINUOUS
  0
LAYER
  2
19
 70
     0
 62
     7
  6
CONTINUOUS
  0
LAYER
  2
20
 70
     0
 62
     7
  6
CONTINUOUS
  0
LAYER
  2
21
 70
     0
 62
     7
  6
CONTINUOUS
  0
LAYER
  2
22
 70
     0
 62
     7
  6
CONTINUOUS
  0
LAYER
  2
23
 70
     0
 62
     7
  6
CONTINUOUS
  0
LAYER
  2
24
 70
     0
 62
     7
  6
CONTINUOUS
  0
LAYER
  2
25
 70
     0
 62
     7
  6
CONTINUOUS
  0
LAYER
  2
26
 70
     0
 62
     7
  6
CONTINUOUS
  0
LAYER
  2
27
 70
     0
 62
     7
  6
CONTINUOUS
  0
LAYER
  2
28
 70
     0
 62
     7
  6
CONTINUOUS
  0
LAYER
  2
29
 70
     0
 62
     7
  6
CONTINUOUS
  0
LAYER
  2
30
 70
     0
 62
     7
  6
CONTINUOUS
  0
LAYER
  2
31
 70
     0
 62
     7
  6
CONTINUOUS
  0
LAYER
  2
32
 70
     0
 62
     7
  6
CONTINUOUS
  0
LAYER
  2
33
 70
     0
 62
     7
  6
CONTINUOUS
  0
LAYER
  2
34
 70
     0
 62
     7
  6
CONTINUOUS
  0
LAYER
  2
35
 70
     0
 62
     7
  6
CONTINUOUS
  0
LAYER
  2
36
 70
     0
 62
     7
  6
CONTINUOUS
  0
LAYER
  2
37
 70
     0
 62
     7
  6
CONTINUOUS
  0
LAYER
  2
38
 70
     0
 62
     7
  6
CONTINUOUS
  0
LAYER
  2
39
 70
     0
 62
     7
  6
CONTINUOUS
  0
LAYER
  2
40
 70
     0
 62
     7
  6
CONTINUOUS
  0
LAYER
  2
41
 70
     0
 62
     7
  6
CONTINUOUS
  0
LAYER
  2
42
 70
     0
 62
     7
  6
CONTINUOUS
  0
LAYER
  2
43
 70
     0
 62
     7
  6
CONTINUOUS
  0
LAYER
  2
44
 70
     0
 62
     7
  6
CONTINUOUS
  0
LAYER
  2
45
 70
     0
 62
     7
  6
CONTINUOUS
  0
LAYER
  2
46
 70
     0
 62
     7
  6
CONTINUOUS
  0
LAYER
  2
47
 70
     0
 62
     7
  6
CONTINUOUS
  0
LAYER
  2
48
 70
     0
 62
     7
  6
CONTINUOUS
  0
LAYER
  2
49
 70
     0
 62
     7
  6
CONTINUOUS
  0
LAYER
  2
50
 70
     0
 62
     7
  6
CONTINUOUS
  0
LAYER
  2
51
 70
     0
 62
     7
  6
CONTINUOUS
  0
LAYER
  2
52
 70
     0
 62
     7
  6
CONTINUOUS
  0
LAYER
  2
53
 70
     0
 62
     7
  6
CONTINUOUS
  0
LAYER
  2
54
 70
     0
 62
     7
  6
CONTINUOUS
  0
LAYER
  2
55
 70
     0
 62
     7
  6
CONTINUOUS
  0
LAYER
  2
56
 70
     0
 62
     7
  6
CONTINUOUS
  0
LAYER
  2
57
 70
     0
 62
     7
  6
CONTINUOUS
  0
LAYER
  2
58
 70
     0
 62
     7
  6
CONTINUOUS
  0
LAYER
  2
59
 70
     0
 62
     7
  6
CONTINUOUS
  0
LAYER
  2
60
 70
     0
 62
     7
  6
CONTINUOUS
  0
LAYER
  2
61
 70
     0
 62
     7
  6
CONTINUOUS
  0
LAYER
  2
62
 70
     0
 62
     7
  6
CONTINUOUS
  0
LAYER
  2
63
 70
     0
 62
     7
  6
CONTINUOUS
  0
LAYER
  2
64
 70
     0
 62
     7
  6
CONTINUOUS
  0
LAYER
  2
65
 70
     0
 62
     7
  6
CONTINUOUS
  0
LAYER
  2
66
 70
     0
 62
     7
  6
CONTINUOUS
  0
LAYER
  2
67
 70
     0
 62
     7
  6
CONTINUOUS
  0
LAYER
  2
68
 70
     0
 62
     7
  6
CONTINUOUS
  0
LAYER
  2
69
 70
     0
 62
     7
  6
CONTINUOUS
  0
LAYER
  2
70
 70
     0
 62
     7
  6
CONTINUOUS
  0
LAYER
  2
71
 70
     0
 62
     7
  6
CONTINUOUS
  0
LAYER
  2
72
 70
     0
 62
     7
  6
CONTINUOUS
  0
LAYER
  2
73
 70
     0
 62
     7
  6
CONTINUOUS
  0
LAYER
  2
74
 70
     0
 62
     7
  6
CONTINUOUS
  0
LAYER
  2
75
 70
     0
 62
     7
  6
CONTINUOUS
  0
LAYER
  2
76
 70
     0
 62
     7
  6
CONTINUOUS
  0
LAYER
  2
77
 70
     0
 62
     7
  6
CONTINUOUS
  0
LAYER
  2
78
 70
     0
 62
     7
  6
CONTINUOUS
  0
LAYER
  2
79
 70
     0
 62
     7
  6
CONTINUOUS
  0
LAYER
  2
80
 70
     0
 62
     7
  6
CONTINUOUS
  0
LAYER
  2
81
 70
     0
 62
     7
  6
CONTINUOUS
  0
LAYER
  2
82
 70
     0
 62
     7
  6
CONTINUOUS
  0
LAYER
  2
83
 70
     0
 62
     7
  6
CONTINUOUS
  0
LAYER
  2
84
 70
     0
 62
     7
  6
CONTINUOUS
  0
LAYER
  2
85
 70
     0
 62
     7
  6
CONTINUOUS
  0
LAYER
  2
86
 70
     0
 62
     7
  6
CONTINUOUS
  0
LAYER
  2
87
 70
     0
 62
     7
  6
CONTINUOUS
  0
LAYER
  2
88
 70
     0
 62
     7
  6
CONTINUOUS
  0
LAYER
  2
89
 70
     0
 62
     7
  6
CONTINUOUS
  0
LAYER
  2
90
 70
     0
 62
     7
  6
CONTINUOUS
  0
LAYER
  2
91
 70
     0
 62
     7
  6
CONTINUOUS
  0
LAYER
  2
92
 70
     0
 62
     7
  6
CONTINUOUS
  0
LAYER
  2
93
 70
     0
 62
     7
  6
CONTINUOUS
  0
LAYER
  2
94
 70
     0
 62
     7
  6
CONTINUOUS
  0
LAYER
  2
95
 70
     0
 62
     7
  6
CONTINUOUS
  0
LAYER
  2
96
 70
     0
 62
     7
  6
CONTINUOUS
  0
LAYER
  2
97
 70
     0
 62
     7
  6
CONTINUOUS
  0
LAYER
  2
98
 70
     0
 62
     7
  6
CONTINUOUS
  0
LAYER
  2
99
 70
     0
 62
     7
  6
CONTINUOUS
  0
LAYER
  2
100
 70
     0
 62
     7
  6
CONTINUOUS
  0
LAYER
  2
101
 70
     0
 62
     7
  6
CONTINUOUS
  0
LAYER
  2
102
 70
     0
 62
     7
  6
CONTINUOUS
  0
LAYER
  2
103
 70
     0
 62
     7
  6
CONTINUOUS
  0
LAYER
  2
104
 70
     0
 62
     7
  6
CONTINUOUS
  0
LAYER
  2
105
 70
     0
 62
     7
  6
CONTINUOUS
  0
LAYER
  2
106
 70
     0
 62
     7
  6
CONTINUOUS
  0
LAYER
  2
107
 70
     0
 62
     7
  6
CONTINUOUS
  0
LAYER
  2
108
 70
     0
 62
     7
  6
CONTINUOUS
  0
LAYER
  2
109
 70
     0
 62
     7
  6
CONTINUOUS
  0
LAYER
  2
110
 70
     0
 62
     7
  6
CONTINUOUS
  0
LAYER
  2
111
 70
     0
 62
     7
  6
CONTINUOUS
  0
LAYER
  2
112
 70
     0
 62
     7
  6
CONTINUOUS
  0
LAYER
  2
113
 70
     0
 62
     7
  6
CONTINUOUS
  0
LAYER
  2
114
 70
     0
 62
     7
  6
CONTINUOUS
  0
LAYER
  2
115
 70
     0
 62
     7
  6
CONTINUOUS
  0
LAYER
  2
116
 70
     0
 62
     7
  6
CONTINUOUS
  0
LAYER
  2
117
 70
     0
 62
     7
  6
CONTINUOUS
  0
LAYER
  2
118
 70
     0
 62
     7
  6
CONTINUOUS
  0
LAYER
  2
119
 70
     0
 62
     7
  6
CONTINUOUS
  0
LAYER
  2
120
 70
     0
 62
     7
  6
CONTINUOUS
  0
LAYER
  2
121
 70
     0
 62
     7
  6
CONTINUOUS
  0
LAYER
  2
122
 70
     0
 62
     7
  6
CONTINUOUS
  0
LAYER
  2
123
 70
     0
 62
     7
  6
CONTINUOUS
  0
LAYER
  2
124
 70
     0
 62
     7
  6
CONTINUOUS
  0
LAYER
  2
125
 70
     0
 62
     7
  6
CONTINUOUS
  0
LAYER
  2
126
 70
     0
 62
     7
  6
CONTINUOUS
  0
LAYER
  2
127
 70
     0
 62
     7
  6
CONTINUOUS
  0
LAYER
  2
128
 70
     0
 62
     7
  6
CONTINUOUS
  0
ENDTAB
  0
TABLE
  2
STYLE
 70
    27
  0
STYLE
  2
STANDARD
 70
     0
 40
0.0
 41
1.0
 50
0.0
 71
     0
 42
0.2
  3
txt.shx
  4
extfont.shx
  0
STYLE
  2
KANJI0
 70
     0
 40
2.5
 41
0.6
 50
0.0
 71
     0
 42
2.5
  3
txt.shx
  4
extfont.shx
  0
STYLE
  2
KANJI1
 70
     0
 40
2.0
 41
0.5
 50
0.0
 71
     0
 42
2.0
  3
txt.shx
  4
extfont.shx
  0
STYLE
  2
KANJI2
 70
     0
 40
1.5
 41
0.666666667
 50
0.0
 71
     0
 42
1.5
  3
txt.shx
  4
extfont.shx
  0
STYLE
  2
KANJI3
 70
     0
 40
3.0
 41
0.9
 50
0.0
 71
     0
 42
3.0
  3
txt.shx
  4
extfont.shx
  0
STYLE
  2
KANJI4
 70
     0
 40
3.0
 41
0.6
 50
0.0
 71
     0
 42
3.0
  3
txt.shx
  4
extfont.shx
  0
STYLE
  2
KANJI5
 70
     0
 40
1.8
 41
0.6
 50
0.0
 71
     0
 42
1.8
  3
txt.shx
  4
extfont.shx
  0
STYLE
  2
KANJI6
 70
     0
 40
3.0
 41
0.6
 50
0.0
 71
     0
 42
3.0
  3
txt.shx
  4
extfont.shx
  0
STYLE
  2
KANJI7
 70
     0
 40
2.4
 41
0.8
 50
0.0
 71
     0
 42
2.4
  3
txt.shx
  4
extfont.shx
  0
STYLE
  2
KANJI8
 70
     0
 40
3.0
 41
0.8
 50
0.0
 71
     0
 42
3.0
  3
txt.shx
  4
extfont.shx
  0
STYLE
  2
KANJI9
 70
     0
 40
3.0
 41
0.8
 50
0.0
 71
     0
 42
3.0
  3
txt.shx
  4
extfont.shx
  0
STYLE
  2
KANJI10
 70
     0
 40
3.0
 41
0.9
 50
0.0
 71
     0
 42
3.0
  3
txt.shx
  4
extfont.shx
  0
STYLE
  2
KANJI11
 70
     0
 40
3.0
 41
0.666666667
 50
0.0
 71
     0
 42
3.0
  3
txt.shx
  4
extfont.shx
  0
STYLE
  2
KANJI12
 70
     0
 40
2.5
 41
0.666666667
 50
0.0
 71
     0
 42
2.5
  3
txt.shx
  4
extfont.shx
  0
STYLE
  2
KANJI13
 70
     0
 40
2.375
 41
0.666666667
 50
0.0
 71
     0
 42
2.375
  3
txt.shx
  4
extfont.shx
  0
STYLE
  2
KANJI14
 70
     0
 40
3.0
 41
0.9
 50
0.0
 71
     0
 42
3.0
  3
txt.shx
  4
extfont.shx
  0
STYLE
  2
KANJI15
 70
     0
 40
3.0
 41
0.9
 50
0.0
 71
     0
 42
3.0
  3
txt.shx
  4
extfont.shx
  0
STYLE
  2
KANJI16
 70
     0
 40
3.0
 41
0.9
 50
0.0
 71
     0
 42
3.0
  3
txt.shx
  4
extfont.shx
  0
STYLE
  2
KANJI17
 70
     0
 40
2.0
 41
0.8
 50
0.0
 71
     0
 42
2.0
  3
txt.shx
  4
extfont.shx
  0
STYLE
  2
KANJI18
 70
     0
 40
2.7
 41
0.666666667
 50
0.0
 71
     0
 42
2.7
  3
txt.shx
  4
extfont.shx
  0
STYLE
  2
KANJI19
 70
     0
 40
3.0
 41
0.666666667
 50
0.0
 71
     0
 42
3.0
  3
txt.shx
  4
extfont.shx
  0
STYLE
  2
KANJI20
 70
     0
 40
3.0
 41
0.733333333
 50
0.0
 71
     0
 42
3.0
  3
txt.shx
  4
extfont.shx
  0
STYLE
  2
KANJI21
 70
     0
 40
2.5
 41
0.8
 50
0.0
 71
     0
 42
2.5
  3
txt.shx
  4
extfont.shx
  0
STYLE
  2
KANJI22
 70
     0
 40
6.0
 41
0.833333333
 50
0.0
 71
     0
 42
6.0
  3
txt.shx
  4
extfont.shx
  0
STYLE
  2
KANJI23
 70
     0
 40
4.0
 41
0.9
 50
0.0
 71
     0
 42
4.0
  3
txt.shx
  4
extfont.shx
  0
STYLE
  2
KANJI24
 70
     0
 40
3.5
 41
1.0
 50
0.0
 71
     0
 42
3.5
  3
txt.shx
  4
extfont.shx
  0
STYLE
  2
KANJI25
 70
     0
 40
5.0
 41
0.9
 50
0.0
 71
     0
 42
5.0
  3
txt.shx
  4
extfont.shx
  0
ENDTAB
  0
TABLE
  2
VIEW
 70
     0
  0
ENDTAB
  0
ENDSEC
  0
SECTION
  2
BLOCKS
  0
ENDSEC
  0
SECTION
  2
ENTITIES
  0
ARC
  8
0
  6
CONTINUOUS
 62
     1
 10
246.7
 20
223.3
 30
0.0
 40
1.7
 50
90.0
 51
180.0
  0
LINE
  8
0
  6
CONTINUOUS
 62
     1
 10
246.7
 20
225.0
 30
0.0
 11
293.3
 21
225.0
 31
0.0
  0
ARC
  8
0
  6
CONTINUOUS
 62
     1
 10
293.3
 20
223.3
 30
0.0
 40
1.7
 50
0.0
 51
90.0
  0
ARC
  8
0
  6
CONTINUOUS
 62
     1
 10
246.7
 20
223.3
 30
0.0
 40
0.9
 50
90.0
 51
180.0
  0
LINE
  8
0
  6
CONTINUOUS
 62
     1
 10
246.7
 20
224.2
 30
0.0
 11
293.3
 21
224.2
 31
0.0
  0
ARC
  8
0
  6
CONTINUOUS
 62
     1
 10
293.3
 20
223.3
 30
0.0
 40
0.9
 50
0.0
 51
90.0
  0
TEXT
  8
0
  6
CONTINUOUS
 62
     1
 10
247.5
 20
220.5
 30
0.3
 40
2.5
  1
ＣＯＮＮＥＣＴＩＯＮＳ　ＯＦ　ＴＡＣＨＯ－ＭＥＴＥＲ
 50
0.0
 41
0.6
 51
0.0
  7
KANJI0
  0
CIRCLE
  8
0
  6
CONTINUOUS
 62
     1
 10
273.3
 20
214.0
 30
0.0
 40
1.5
  0
CIRCLE
  8
0
  6
CONTINUOUS
 62
     1
 10
269.9
 20
214.0
 30
0.0
 40
1.5
  0
CIRCLE
  8
0
  6
CONTINUOUS
 62
     1
 10
276.7
 20
214.0
 30
0.0
 40
1.5
  0
CIRCLE
  8
0
  6
CONTINUOUS
 62
     1
 10
280.1
 20
214.0
 30
0.0
 40
1.5
  0
LINE
  8
0
  6
CONTINUOUS
 62
     1
 10
255.0
 20
214.0
 30
0.0
 11
255.0
 21
217.6
 31
0.0
  0
LINE
  8
0
  6
CONTINUOUS
 62
     1
 10
255.0
 20
217.6
 30
0.0
 11
256.5
 21
217.6
 31
0.0
  0
LINE
  8
0
  6
CONTINUOUS
 62
     1
 10
256.5
 20
217.6
 30
0.0
 11
256.5
 21
214.0
 31
0.0
  0
LINE
  8
0
  6
CONTINUOUS
 62
     1
 10
256.5
 20
214.0
 30
0.0
 11
255.0
 21
214.0
 31
0.0
  0
LINE
  8
0
  6
CONTINUOUS
 62
     1
 10
255.0
 20
217.0
 30
0.0
 11
252.0
 21
217.0
 31
0.0
  0
LINE
  8
0
  6
CONTINUOUS
 62
     1
 10
252.0
 20
217.0
 30
0.0
 11
252.0
 21
214.6
 31
0.0
  0
LINE
  8
0
  6
CONTINUOUS
 62
     1
 10
252.0
 20
214.6
 30
0.0
 11
255.0
 21
214.6
 31
0.0
  0
LINE
  8
0
  6
CONTINUOUS
 62
     1
 10
256.5
 20
214.6
 30
0.0
 11
259.5
 21
214.6
 31
0.0
  0
LINE
  8
0
  6
CONTINUOUS
 62
     1
 10
259.5
 20
214.6
 30
0.0
 11
259.5
 21
217.0
 31
0.0
  0
LINE
  8
0
  6
CONTINUOUS
 62
     1
 10
259.5
 20
217.0
 30
0.0
 11
256.5
 21
217.0
 31
0.0
  0
LINE
  8
0
  6
CONTINUOUS
 62
     1
 10
259.5
 20
217.0
 30
0.0
 11
259.8
 21
216.7
 31
0.0
  0
LINE
  8
0
  6
CONTINUOUS
 62
     1
 10
259.8
 20
216.7
 30
0.0
 11
259.8
 21
214.9
 31
0.0
  0
LINE
  8
0
  6
CONTINUOUS
 62
     1
 10
259.8
 20
214.9
 30
0.0
 11
259.5
 21
214.6
 31
0.0
  0
LINE
  8
0
  6
CONTINUOUS
 62
     1
 10
252.0
 20
214.6
 30
0.0
 11
251.7
 21
214.9
 31
0.0
  0
LINE
  8
0
  6
CONTINUOUS
 62
     1
 10
251.7
 20
214.9
 30
0.0
 11
251.7
 21
216.7
 31
0.0
  0
LINE
  8
0
  6
CONTINUOUS
 62
     1
 10
251.7
 20
216.7
 30
0.0
 11
252.0
 21
217.0
 31
0.0
  0
LINE
  8
0
  6
CONTINUOUS
 62
     1
 10
259.8
 20
216.2
 30
0.0
 11
273.3
 21
216.2
 31
0.0
  0
LINE
  8
0
  6
CONTINUOUS
 62
     1
 10
273.3
 20
216.2
 30
0.0
 11
273.3
 21
215.5
 31
0.0
  0
LINE
  8
0
  6
CONTINUOUS
 62
     1
 10
269.9
 20
215.5
 30
0.0
 11
269.9
 21
215.6
 31
0.0
  0
LINE
  8
0
  6
CONTINUOUS
 62
     1
 10
269.9
 20
215.6
 30
0.0
 11
259.8
 21
215.6
 31
0.0
  0
TEXT
  8
0
  6
CONTINUOUS
 62
     1
 10
247.5
 20
212.0
 30
0.2
 40
2.0
  1
ＴＹＰＥ　ＴＮ－１／ＴＮ－２　　　　　　　　　　　　
 50
0.0
 41
0.5
 51
0.0
  7
KANJI1
  0
TEXT
  8
0
  6
CONTINUOUS
 62
     1
 10
269.5
 20
213.2
 30
0.2
 40
2.0
  1
１　　　　　　　　　　　　　　　　　　　　　　　　　
 50
0.0
 41
0.5
 51
0.0
  7
KANJI1
  0
TEXT
  8
0
  6
CONTINUOUS
 62
     1
 10
272.9
 20
213.2
 30
0.2
 40
2.0
  1
２　　　　　　　　　　　　　　　　　　　　　　　　　
 50
0.0
 41
0.5
 51
0.0
  7
KANJI1
  0
TEXT
  8
0
  6
CONTINUOUS
 62
     1
 10
276.2
 20
213.2
 30
0.2
 40
2.0
  1
３　　　　　　　　　　　　　　　　　　　　　　　　　
 50
0.0
 41
0.5
 51
0.0
  7
KANJI1
  0
TEXT
  8
0
  6
CONTINUOUS
 62
     1
 10
279.6
 20
213.2
 30
0.2
 40
2.0
  1
４　　　　　　　　　　　　　　　　　　　　　　　　　
 50
0.0
 41
0.5
 51
0.0
  7
KANJI1
  0
TEXT
  8
0
  6
CONTINUOUS
 62
     1
 10
271.1
 20
210.2
 30
0.2
 40
2.0
  1
５　　　　　　　　　　　　　　　　　　　　　　　　　
 50
0.0
 41
0.5
 51
0.0
  7
KANJI1
  0
TEXT
  8
0
  6
CONTINUOUS
 62
     1
 10
274.5
 20
210.2
 30
0.2
 40
2.0
  1
６　　　　　　　　　　　　　　　　　　　　　　　　　
 50
0.0
 41
0.5
 51
0.0
  7
KANJI1
  0
TEXT
  8
0
  6
CONTINUOUS
 62
     1
 10
277.9
 20
210.2
 30
0.2
 40
2.0
  1
７　　　　　　　　　　　　　　　　　　　　　　　　　
 50
0.0
 41
0.5
 51
0.0
  7
KANJI1
  0
TEXT
  8
0
  6
CONTINUOUS
 62
     1
 10
284.5
 20
210.8
 30
0.15
 40
1.5
  1
ＳＯＵＲＣＥ　　　
 50
0.0
 41
0.666666667
 51
0.0
  7
KANJI2
  0
ARC
  8
0
  6
CONTINUOUS
 62
     1
 10
246.7
 20
223.3
 30
0.0
 40
1.7
 50
90.0
 51
180.0
  0
LINE
  8
0
  6
CONTINUOUS
 62
     1
 10
246.7
 20
225.0
 30
0.0
 11
293.3
 21
225.0
 31
0.0
  0
ARC
  8
0
  6
CONTINUOUS
 62
     1
 10
293.3
 20
223.3
 30
0.0
 40
1.7
 50
0.0
 51
90.0
  0
ARC
  8
0
  6
CONTINUOUS
 62
     1
 10
246.7
 20
223.3
 30
0.0
 40
0.9
 50
90.0
 51
180.0
  0
LINE
  8
0
  6
CONTINUOUS
 62
     1
 10
246.7
 20
224.2
 30
0.0
 11
293.3
 21
224.2
 31
0.0
  0
ARC
  8
0
  6
CONTINUOUS
 62
     1
 10
293.3
 20
223.3
 30
0.0
 40
0.9
 50
0.0
 51
90.0
  0
TEXT
  8
0
  6
CONTINUOUS
 62
     1
 10
247.5
 20
220.5
 30
0.3
 40
2.5
  1
ＣＯＮＮＥＣＴＩＯＮＳ　ＯＦ　ＴＡＣＨＯ－ＭＥＴＥＲ
 50
0.0
 41
0.6
 51
0.0
  7
KANJI0
  0
CIRCLE
  8
0
  6
CONTINUOUS
 62
     1
 10
273.3
 20
214.0
 30
0.0
 40
1.5
  0
CIRCLE
  8
0
  6
CONTINUOUS
 62
     1
 10
269.9
 20
214.0
 30
0.0
 40
1.5
  0
CIRCLE
  8
0
  6
CONTINUOUS
 62
     1
 10
276.7
 20
214.0
 30
0.0
 40
1.5
  0
CIRCLE
  8
0
  6
CONTINUOUS
 62
     1
 10
280.1
 20
214.0
 30
0.0
 40
1.5
  0
LINE
  8
0
  6
CONTINUOUS
 62
     1
 10
255.0
 20
214.0
 30
0.0
 11
255.0
 21
217.6
 31
0.0
  0
LINE
  8
0
  6
CONTINUOUS
 62
     1
 10
255.0
 20
217.6
 30
0.0
 11
256.5
 21
217.6
 31
0.0
  0
LINE
  8
0
  6
CONTINUOUS
 62
     1
 10
256.5
 20
217.6
 30
0.0
 11
256.5
 21
214.0
 31
0.0
  0
LINE
  8
0
  6
CONTINUOUS
 62
     1
 10
256.5
 20
214.0
 30
0.0
 11
255.0
 21
214.0
 31
0.0
  0
LINE
  8
0
  6
CONTINUOUS
 62
     1
 10
255.0
 20
217.0
 30
0.0
 11
252.0
 21
217.0
 31
0.0
  0
LINE
  8
0
  6
CONTINUOUS
 62
     1
 10
252.0
 20
217.0
 30
0.0
 11
252.0
 21
214.6
 31
0.0
  0
LINE
  8
0
  6
CONTINUOUS
 62
     1
 10
252.0
 20
214.6
 30
0.0
 11
255.0
 21
214.6
 31
0.0
  0
LINE
  8
0
  6
CONTINUOUS
 62
     1
 10
256.5
 20
214.6
 30
0.0
 11
259.5
 21
214.6
 31
0.0
  0
LINE
  8
0
  6
CONTINUOUS
 62
     1
 10
259.5
 20
214.6
 30
0.0
 11
259.5
 21
217.0
 31
0.0
  0
LINE
  8
0
  6
CONTINUOUS
 62
     1
 10
259.5
 20
217.0
 30
0.0
 11
256.5
 21
217.0
 31
0.0
  0
LINE
  8
0
  6
CONTINUOUS
 62
     1
 10
259.5
 20
217.0
 30
0.0
 11
259.8
 21
216.7
 31
0.0
  0
LINE
  8
0
  6
CONTINUOUS
 62
     1
 10
259.8
 20
216.7
 30
0.0
 11
259.8
 21
214.9
 31
0.0
  0
LINE
  8
0
  6
CONTINUOUS
 62
     1
 10
259.8
 20
214.9
 30
0.0
 11
259.5
 21
214.6
 31
0.0
  0
LINE
  8
0
  6
CONTINUOUS
 62
     1
 10
252.0
 20
214.6
 30
0.0
 11
251.7
 21
214.9
 31
0.0
  0
LINE
  8
0
  6
CONTINUOUS
 62
     1
 10
251.7
 20
214.9
 30
0.0
 11
251.7
 21
216.7
 31
0.0
  0
LINE
  8
0
  6
CONTINUOUS
 62
     1
 10
251.7
 20
216.7
 30
0.0
 11
252.0
 21
217.0
 31
0.0
  0
LINE
  8
0
  6
CONTINUOUS
 62
     1
 10
259.8
 20
216.2
 30
0.0
 11
273.3
 21
216.2
 31
0.0
  0
LINE
  8
0
  6
CONTINUOUS
 62
     1
 10
273.3
 20
216.2
 30
0.0
 11
273.3
 21
215.5
 31
0.0
  0
LINE
  8
0
  6
CONTINUOUS
 62
     1
 10
269.9
 20
215.5
 30
0.0
 11
269.9
 21
215.6
 31
0.0
  0
LINE
  8
0
  6
CONTINUOUS
 62
     1
 10
269.9
 20
215.6
 30
0.0
 11
259.8
 21
215.6
 31
0.0
  0
TEXT
  8
0
  6
CONTINUOUS
 62
     1
 10
247.5
 20
212.0
 30
0.2
 40
2.0
  1
ＴＹＰＥ　ＴＮ－１／ＴＮ－２　　　　　　　　　　　　
 50
0.0
 41
0.5
 51
0.0
  7
KANJI1
  0
TEXT
  8
0
  6
CONTINUOUS
 62
     1
 10
269.5
 20
213.2
 30
0.2
 40
2.0
  1
１　　　　　　　　　　　　　　　　　　　　　　　　　
 50
0.0
 41
0.5
 51
0.0
  7
KANJI1
  0
TEXT
  8
0
  6
CONTINUOUS
 62
     1
 10
272.9
 20
213.2
 30
0.2
 40
2.0
  1
２　　　　　　　　　　　　　　　　　　　　　　　　　
 50
0.0
 41
0.5
 51
0.0
  7
KANJI1
  0
TEXT
  8
0
  6
CONTINUOUS
 62
     1
 10
276.2
 20
213.2
 30
0.2
 40
2.0
  1
３　　　　　　　　　　　　　　　　　　　　　　　　　
 50
0.0
 41
0.5
 51
0.0
  7
KANJI1
  0
TEXT
  8
0
  6
CONTINUOUS
 62
     1
 10
279.6
 20
213.2
 30
0.2
 40
2.0
  1
４　　　　　　　　　　　　　　　　　　　　　　　　　
 50
0.0
 41
0.5
 51
0.0
  7
KANJI1
  0
TEXT
  8
0
  6
CONTINUOUS
 62
     1
 10
271.1
 20
210.2
 30
0.2
 40
2.0
  1
５　　　　　　　　　　　　　　　　　　　　　　　　　
 50
0.0
 41
0.5
 51
0.0
  7
KANJI1
  0
TEXT
  8
0
  6
CONTINUOUS
 62
     1
 10
274.5
 20
210.2
 30
0.2
 40
2.0
  1
６　　　　　　　　　　　　　　　　　　　　　　　　　
 50
0.0
 41
0.5
 51
0.0
  7
KANJI1
  0
TEXT
  8
0
  6
CONTINUOUS
 62
     1
 10
277.9
 20
210.2
 30
0.2
 40
2.0
  1
７　　　　　　　　　　　　　　　　　　　　　　　　　
 50
0.0
 41
0.5
 51
0.0
  7
KANJI1
  0
TEXT
  8
0
  6
CONTINUOUS
 62
     1
 10
284.5
 20
210.8
 30
0.15
 40
1.5
  1
ＳＯＵＲＣＥ　　　
 50
0.0
 41
0.666666667
 51
0.0
  7
KANJI2
  0
ARC
  8
0
  6
CONTINUOUS
 62
     1
 10
246.7
 20
223.3
 30
0.0
 40
1.7
 50
90.0
 51
180.0
  0
LINE
  8
0
  6
CONTINUOUS
 62
     1
 10
246.7
 20
225.0
 30
0.0
 11
293.3
 21
225.0
 31
0.0
  0
ARC
  8
0
  6
CONTINUOUS
 62
     1
 10
293.3
 20
223.3
 30
0.0
 40
1.7
 50
0.0
 51
90.0
  0
ARC
  8
0
  6
CONTINUOUS
 62
     1
 10
246.7
 20
223.3
 30
0.0
 40
0.9
 50
90.0
 51
180.0
  0
LINE
  8
0
  6
CONTINUOUS
 62
     1
 10
246.7
 20
224.2
 30
0.0
 11
293.3
 21
224.2
 31
0.0
  0
ARC
  8
0
  6
CONTINUOUS
 62
     1
 10
293.3
 20
223.3
 30
0.0
 40
0.9
 50
0.0
 51
90.0
  0
TEXT
  8
0
  6
CONTINUOUS
 62
     1
 10
247.5
 20
220.5
 30
0.3
 40
2.5
  1
ＣＯＮＮＥＣＴＩＯＮＳ　ＯＦ　ＴＡＣＨＯ－ＭＥＴＥＲ
 50
0.0
 41
0.6
 51
0.0
  7
KANJI0
  0
CIRCLE
  8
0
  6
CONTINUOUS
 62
     1
 10
273.3
 20
214.0
 30
0.0
 40
1.5
  0
CIRCLE
  8
0
  6
CONTINUOUS
 62
     1
 10
269.9
 20
214.0
 30
0.0
 40
1.5
  0
CIRCLE
  8
0
  6
CONTINUOUS
 62
     1
 10
276.7
 20
214.0
 30
0.0
 40
1.5
  0
CIRCLE
  8
0
  6
CONTINUOUS
 62
     1
 10
280.1
 20
214.0
 30
0.0
 40
1.5
  0
LINE
  8
0
  6
CONTINUOUS
 62
     1
 10
255.0
 20
214.0
 30
0.0
 11
255.0
 21
217.6
 31
0.0
  0
LINE
  8
0
  6
CONTINUOUS
 62
     1
 10
255.0
 20
217.6
 30
0.0
 11
256.5
 21
217.6
 31
0.0
  0
LINE
  8
0
  6
CONTINUOUS
 62
     1
 10
256.5
 20
217.6
 30
0.0
 11
256.5
 21
214.0
 31
0.0
  0
LINE
  8
0
  6
CONTINUOUS
 62
     1
 10
256.5
 20
214.0
 30
0.0
 11
255.0
 21
214.0
 31
0.0
  0
LINE
  8
0
  6
CONTINUOUS
 62
     1
 10
255.0
 20
217.0
 30
0.0
 11
252.0
 21
217.0
 31
0.0
  0
LINE
  8
0
  6
CONTINUOUS
 62
     1
 10
252.0
 20
217.0
 30
0.0
 11
252.0
 21
214.6
 31
0.0
  0
LINE
  8
0
  6
CONTINUOUS
 62
     1
 10
252.0
 20
214.6
 30
0.0
 11
255.0
 21
214.6
 31
0.0
  0
LINE
  8
0
  6
CONTINUOUS
 62
     1
 10
256.5
 20
214.6
 30
0.0
 11
259.5
 21
214.6
 31
0.0
  0
LINE
  8
0
  6
CONTINUOUS
 62
     1
 10
259.5
 20
214.6
 30
0.0
 11
259.5
 21
217.0
 31
0.0
  0
LINE
  8
0
  6
CONTINUOUS
 62
     1
 10
259.5
 20
217.0
 30
0.0
 11
256.5
 21
217.0
 31
0.0
  0
LINE
  8
0
  6
CONTINUOUS
 62
     1
 10
259.5
 20
217.0
 30
0.0
 11
259.8
 21
216.7
 31
0.0
  0
LINE
  8
0
  6
CONTINUOUS
 62
     1
 10
259.8
 20
216.7
 30
0.0
 11
259.8
 21
214.9
 31
0.0
  0
LINE
  8
0
  6
CONTINUOUS
 62
     1
 10
259.8
 20
214.9
 30
0.0
 11
259.5
 21
214.6
 31
0.0
  0
LINE
  8
0
  6
CONTINUOUS
 62
     1
 10
252.0
 20
214.6
 30
0.0
 11
251.7
 21
214.9
 31
0.0
  0
LINE
  8
0
  6
CONTINUOUS
 62
     1
 10
251.7
 20
214.9
 30
0.0
 11
251.7
 21
216.7
 31
0.0
  0
LINE
  8
0
  6
CONTINUOUS
 62
     1
 10
251.7
 20
216.7
 30
0.0
 11
252.0
 21
217.0
 31
0.0
  0
LINE
  8
0
  6
CONTINUOUS
 62
     1
 10
259.8
 20
216.2
 30
0.0
 11
273.3
 21
216.2
 31
0.0
  0
LINE
  8
0
  6
CONTINUOUS
 62
     1
 10
273.3
 20
216.2
 30
0.0
 11
273.3
 21
215.5
 31
0.0
  0
LINE
  8
0
  6
CONTINUOUS
 62
     1
 10
269.9
 20
215.5
 30
0.0
 11
269.9
 21
215.6
 31
0.0
  0
LINE
  8
0
  6
CONTINUOUS
 62
     1
 10
269.9
 20
215.6
 30
0.0
 11
259.8
 21
215.6
 31
0.0
  0
TEXT
  8
0
  6
CONTINUOUS
 62
     1
 10
247.5
 20
212.0
 30
0.2
 40
2.0
  1
ＴＹＰＥ　ＴＮ－１／ＴＮ－２　　　　　　　　　　　　
 50
0.0
 41
0.5
 51
0.0
  7
KANJI1
  0
TEXT
  8
0
  6
CONTINUOUS
 62
     1
 10
269.5
 20
213.2
 30
0.2
 40
2.0
  1
１　　　　　　　　　　　　　　　　　　　　　　　　　
 50
0.0
 41
0.5
 51
0.0
  7
KANJI1
  0
TEXT
  8
0
  6
CONTINUOUS
 62
     1
 10
272.9
 20
213.2
 30
0.2
 40
2.0
  1
２　　　　　　　　　　　　　　　　　　　　　　　　　
 50
0.0
 41
0.5
 51
0.0
  7
KANJI1
  0
TEXT
  8
0
  6
CONTINUOUS
 62
     1
 10
276.2
 20
213.2
 30
0.2
 40
2.0
  1
３　　　　　　　　　　　　　　　　　　　　　　　　　
 50
0.0
 41
0.5
 51
0.0
  7
KANJI1
  0
TEXT
  8
0
  6
CONTINUOUS
 62
     1
 10
279.6
 20
213.2
 30
0.2
 40
2.0
  1
４　　　　　　　　　　　　　　　　　　　　　　　　　
 50
0.0
 41
0.5
 51
0.0
  7
KANJI1
  0
TEXT
  8
0
  6
CONTINUOUS
 62
     1
 10
271.1
 20
210.2
 30
0.2
 40
2.0
  1
５　　　　　　　　　　　　　　　　　　　　　　　　　
 50
0.0
 41
0.5
 51
0.0
  7
KANJI1
  0
TEXT
  8
0
  6
CONTINUOUS
 62
     1
 10
274.5
 20
210.2
 30
0.2
 40
2.0
  1
６　　　　　　　　　　　　　　　　　　　　　　　　　
 50
0.0
 41
0.5
 51
0.0
  7
KANJI1
  0
TEXT
  8
0
  6
CONTINUOUS
 62
     1
 10
277.9
 20
210.2
 30
0.2
 40
2.0
  1
７　　　　　　　　　　　　　　　　　　　　　　　　　
 50
0.0
 41
0.5
 51
0.0
  7
KANJI1
  0
TEXT
  8
0
  6
CONTINUOUS
 62
     1
 10
284.5
 20
210.8
 30
0.15
 40
1.5
  1
ＳＯＵＲＣＥ　　　
 50
0.0
 41
0.666666667
 51
0.0
  7
KANJI2
  0
ARC
  8
0
  6
CONTINUOUS
 62
     1
 10
212.3
 20
100.5
 30
0.0
 40
3.0
 50
270.0
 51
0.0
  0
LINE
  8
0
  6
CONTINUOUS
 62
     1
 10
163.3
 20
97.5
 30
0.0
 11
212.3
 21
97.5
 31
0.0
  0
ARC
  8
0
  6
CONTINUOUS
 62
     1
 10
163.3
 20
100.5
 30
0.0
 40
3.0
 50
180.0
 51
270.0
  0
ARC
  8
0
  6
CONTINUOUS
 62
     1
 10
163.3
 20
149.5
 30
0.0
 40
3.0
 50
90.0
 51
180.0
  0
LINE
  8
0
  6
CONTINUOUS
 62
     1
 10
215.3
 20
100.5
 30
0.0
 11
215.3
 21
149.5
 31
0.0
  0
LINE
  8
0
  6
CONTINUOUS
 62
     1
 10
212.3
 20
152.5
 30
0.0
 11
163.3
 21
152.5
 31
0.0
  0
ARC
  8
0
  6
CONTINUOUS
 62
     1
 10
212.3
 20
149.5
 30
0.0
 40
3.0
 50
360.0
 51
90.0
  0
TEXT
  8
0
  6
CONTINUOUS
 62
     1
 10
178.65
 20
19.9
 30
0.5
 40
3.0
  1
パネルカット
 50
0.0
 41
0.9
 51
0.0
  7
KANJI3
  0
LINE
  8
0
  6
CONTINUOUS
 62
     1
 10
177.4
 20
19.05
 30
0.0
 11
198.3
 21
19.05
 31
0.0
  0
CIRCLE
  8
0
  6
CONTINUOUS
 62
     1
 10
165.3
 20
31.65
 30
0.0
 40
1.5
  0
CIRCLE
  8
0
  6
CONTINUOUS
 62
     1
 10
210.3
 20
31.65
 30
0.0
 40
1.5
  0
CIRCLE
  8
0
  6
CONTINUOUS
 62
     1
 10
210.3
 20
76.65
 30
0.0
 40
1.5
  0
CIRCLE
  8
0
  6
CONTINUOUS
 62
     1
 10
165.3
 20
76.65
 30
0.0
 40
1.5
  0
CIRCLE
  8
0
  6
CONTINUOUS
 62
     1
 10
187.8
 20
54.15
 30
0.0
 40
25.25
  0
ARC
  8
0
  6
CONTINUOUS
 62
     1
 10
187.8
 20
125.0
 30
0.0
 40
24.75
 50
335.92324158
 51
0.0
  0
ARC
  8
0
  6
CONTINUOUS
 62
     1
 10
187.8
 20
125.0
 30
0.0
 40
24.75
 50
324.036955888
 51
335.92324158
  0
ARC
  8
0
  6
CONTINUOUS
 62
     1
 10
73.9
 20
100.5
 30
0.0
 40
3.0
 50
270.0
 51
0.0
  0
LINE
  8
0
  6
CONTINUOUS
 62
     1
 10
76.9
 20
100.5
 30
0.0
 11
76.9
 21
149.5
 31
0.0
  0
ARC
  8
0
  6
CONTINUOUS
 62
     1
 10
73.9
 20
149.5
 30
0.0
 40
3.0
 50
0.0
 51
90.0
  0
LINE
  8
0
  6
CONTINUOUS
 62
     1
 10
73.9
 20
152.5
 30
0.0
 11
24.9
 21
152.5
 31
0.0
  0
ARC
  8
0
  6
CONTINUOUS
 62
     1
 10
24.9
 20
149.5
 30
0.0
 40
3.0
 50
90.0
 51
180.0
  0
LINE
  8
0
  6
CONTINUOUS
 62
     1
 10
24.9
 20
97.5
 30
0.0
 11
73.9
 21
97.5
 31
0.0
  0
LINE
  8
0
  6
CONTINUOUS
 62
     1
 10
21.9
 20
149.5
 30
0.0
 11
21.9
 21
100.5
 31
0.0
  0
ARC
  8
0
  6
CONTINUOUS
 62
     1
 10
24.9
 20
100.5
 30
0.0
 40
3.0
 50
180.0
 51
270.0
  0
CIRCLE
  8
0
  6
CONTINUOUS
 62
     1
 10
49.4
 20
125.0
 30
0.0
 40
25.5
  0
LINE
  8
0
  6
CONTINUOUS
 62
     1
 10
99.0
 20
152.475
 30
0.0
 11
93.75
 21
152.475
 31
0.0
  0
ARC
  8
0
  6
CONTINUOUS
 62
     1
 10
93.75
 20
151.975
 30
0.0
 40
0.5
 50
90.0
 51
180.0
  0
LINE
  8
0
  6
CONTINUOUS
 62
     1
 10
93.25
 20
150.475
 30
0.0
 11
89.75
 21
150.475
 31
0.0
  0
ARC
  8
0
  6
CONTINUOUS
 62
     1
 10
89.75
 20
150.225
 30
0.0
 40
0.25
 50
90.0
 51
180.0
  0
LINE
  8
0
  6
CONTINUOUS
 62
     1
 10
88.5
 20
122.725
 30
0.0
 11
88.7
 21
122.725
 31
0.0
  0
LINE
  8
0
  6
CONTINUOUS
 62
     1
 10
99.0
 20
97.475
 30
0.0
 11
93.75
 21
97.475
 31
0.0
  0
ARC
  8
0
  6
CONTINUOUS
 62
     1
 10
93.75
 20
97.975
 30
0.0
 40
0.5
 50
180.0
 51
270.0
  0
LINE
  8
0
  6
CONTINUOUS
 62
     1
 10
93.25
 20
99.475
 30
0.0
 11
89.75
 21
99.475
 31
0.0
  0
ARC
  8
0
  6
CONTINUOUS
 62
     1
 10
89.75
 20
99.725
 30
0.0
 40
0.25
 50
180.0
 51
270.0
  0
LINE
  8
0
  6
CONTINUOUS
 62
     1
 10
88.7
 20
122.725
 30
0.0
 11
89.5
 21
99.725
 31
0.0
  0
LINE
  8
0
  6
CONTINUOUS
 62
     1
 10
93.25
 20
97.975
 30
0.0
 11
93.25
 21
124.975
 31
0.0
  0
LINE
  8
0
  6
CONTINUOUS
 62
     1
 10
88.677077922
 20
126.565990258
 30
0.0
 11
89.5
 21
150.225
 31
0.0
  0
LINE
  8
0
  6
CONTINUOUS
 62
     1
 10
93.25
 20
151.975
 30
0.0
 11
93.25
 21
150.625
 31
0.0
  0
LINE
  8
0
  6
CONTINUOUS
 62
     1
 10
99.0
 20
152.475
 30
0.0
 11
99.0
 21
151.825
 31
0.0
  0
LINE
  8
0
  6
CONTINUOUS
 62
     1
 10
93.25
 20
150.625
 30
0.0
 11
93.25
 21
150.475
 31
0.0
  0
LINE
  8
0
  6
CONTINUOUS
 62
     1
 10
99.0
 20
125.225
 30
0.0
 11
99.0
 21
97.475
 31
0.0
  0
LINE
  8
0
  6
CONTINUOUS
 62
     1
 10
88.5
 20
126.565990258
 30
0.0
 11
88.5
 21
122.725
 31
0.0
  0
LINE
  8
0
  6
CONTINUOUS
 62
     1
 10
93.25
 20
125.0
 30
0.0
 11
93.25
 21
150.475
 31
0.0
  0
LINE
  8
0
  6
CONTINUOUS
 62
     1
 10
93.25
 20
142.975
 30
0.0
 11
93.25
 21
151.975001907
 31
0.0
  0
LINE
  8
0
  6
CONTINUOUS
 62
     1
 10
133.75
 20
149.75
 30
0.0
 11
133.75
 21
100.25
 31
0.0
  0
ARC
  8
0
  6
CONTINUOUS
 62
     1
 10
136.675
 20
149.25
 30
0.0
 40
0.5
 50
360.0
 51
90.0
  0
LINE
  8
0
  6
CONTINUOUS
 62
     1
 10
134.5
 20
149.75
 30
0.0
 11
133.75
 21
149.75
 31
0.0
  0
LINE
  8
0
  6
CONTINUOUS
 62
     1
 10
136.675
 20
149.75
 30
0.0
 11
134.5
 21
149.75
 31
0.0
  0
LINE
  8
0
  6
CONTINUOUS
 62
     1
 10
137.175
 20
149.25
 30
0.0
 11
137.175
 21
107.0
 31
0.0
  0
LINE
  8
0
  6
CONTINUOUS
 62
     1
 10
142.825
 20
106.0
 30
0.0
 11
143.225
 21
106.15
 31
0.0
  0
LINE
  8
0
  6
CONTINUOUS
 62
     1
 10
143.225
 20
106.15
 30
0.0
 11
144.225
 21
106.15
 31
0.0
  0
LINE
  8
0
  6
CONTINUOUS
 62
     1
 10
144.25
 20
113.7
 30
0.0
 11
144.25
 21
106.15
 31
0.0
  0
ARC
  8
0
  6
CONTINUOUS
 62
     1
 10
143.95
 20
113.7
 30
0.0
 40
0.3
 50
360.0
 51
90.0
  0
LINE
  8
0
  6
CONTINUOUS
 62
     1
 10
136.5
 20
106.0
 30
0.0
 11
142.825
 21
106.0
 31
0.0
  0
ARC
  8
0
  6
CONTINUOUS
 62
     1
 10
136.5
 20
105.5
 30
0.0
 40
0.5
 50
90.0
 51
180.0
  0
LINE
  8
0
  6
CONTINUOUS
 62
     1
 10
135.7
 20
100.25
 30
0.0
 11
133.75
 21
100.25
 31
0.0
  0
LINE
  8
0
  6
CONTINUOUS
 62
     1
 10
136.0
 20
100.55
 30
0.0
 11
136.0
 21
105.5
 31
0.0
  0
ARC
  8
0
  6
CONTINUOUS
 62
     1
 10
135.7
 20
100.55
 30
0.0
 40
0.3
 50
270.0
 51
0.0
  0
LINE
  8
0
  6
CONTINUOUS
 62
     1
 10
137.175
 20
107.0
 30
0.0
 11
144.225
 21
106.75
 31
0.0
  0
CIRCLE
  8
0
  6
CONTINUOUS
 62
     1
 10
175.8
 20
110.0
 30
0.0
 40
2.25
  0
CIRCLE
  8
0
  6
CONTINUOUS
 62
     1
 10
181.8
 20
110.0
 30
0.0
 40
2.25
  0
CIRCLE
  8
0
  6
CONTINUOUS
 62
     1
 10
187.8
 20
110.0
 30
0.0
 40
2.25
  0
CIRCLE
  8
0
  6
CONTINUOUS
 62
     1
 10
193.8
 20
110.0
 30
0.0
 40
2.25
  0
CIRCLE
  8
0
  6
CONTINUOUS
 62
     1
 10
199.8
 20
110.0
 30
0.0
 40
2.25
  0
LINE
  8
0
  6
CONTINUOUS
 62
     1
 10
197.1
 20
108.25
 30
0.0
 11
197.1
 21
111.75
 31
0.0
  0
LINE
  8
0
  6
CONTINUOUS
 62
     1
 10
197.1
 20
111.75
 30
0.0
 11
197.3
 21
112.0
 31
0.0
  0
LINE
  8
0
  6
CONTINUOUS
 62
     1
 10
196.3
 20
112.0
 30
0.0
 11
196.5
 21
111.75
 31
0.0
  0
LINE
  8
0
  6
CONTINUOUS
 62
     1
 10
196.5
 20
111.75
 30
0.0
 11
196.5
 21
108.25
 31
0.0
  0
LINE
  8
0
  6
CONTINUOUS
 62
     1
 10
197.3
 20
108.0
 30
0.0
 11
197.1
 21
108.25
 31
0.0
  0
LINE
  8
0
  6
CONTINUOUS
 62
     1
 10
196.5
 20
108.25
 30
0.0
 11
196.3
 21
108.0
 31
0.0
  0
ARC
  8
0
  6
CONTINUOUS
 62
     1
 10
196.5
 20
113.8
 30
0.0
 40
0.2
 50
90.0
 51
180.0
  0
LINE
  8
0
  6
CONTINUOUS
 62
     1
 10
197.1
 20
114.0
 30
0.0
 11
196.5
 21
114.0
 31
0.0
  0
ARC
  8
0
  6
CONTINUOUS
 62
     1
 10
197.1
 20
113.8
 30
0.0
 40
0.2
 50
0.0
 51
90.0
  0
LINE
  8
0
  6
CONTINUOUS
 62
     1
 10
196.3
 20
113.8
 30
0.0
 11
196.3
 21
112.0
 31
0.0
  0
LINE
  8
0
  6
CONTINUOUS
 62
     1
 10
197.3
 20
112.0
 30
0.0
 11
197.3
 21
113.8
 31
0.0
  0
LINE
  8
0
  6
CONTINUOUS
 62
     1
 10
190.3
 20
113.8
 30
0.0
 11
190.3
 21
112.0
 31
0.0
  0
ARC
  8
0
  6
CONTINUOUS
 62
     1
 10
190.5
 20
113.8
 30
0.0
 40
0.2
 50
90.0
 51
180.0
  0
LINE
  8
0
  6
CONTINUOUS
 62
     1
 10
191.3
 20
112.0
 30
0.0
 11
191.3
 21
113.8
 31
0.0
  0
LINE
  8
0
  6
CONTINUOUS
 62
     1
 10
191.1
 20
114.0
 30
0.0
 11
190.5
 21
114.0
 31
0.0
  0
ARC
  8
0
  6
CONTINUOUS
 62
     1
 10
191.1
 20
113.8
 30
0.0
 40
0.2
 50
0.0
 51
90.0
  0
LINE
  8
0
  6
CONTINUOUS
 62
     1
 10
191.1
 20
108.25
 30
0.0
 11
191.1
 21
111.75
 31
0.0
  0
LINE
  8
0
  6
CONTINUOUS
 62
     1
 10
191.1
 20
111.75
 30
0.0
 11
191.3
 21
112.0
 31
0.0
  0
LINE
  8
0
  6
CONTINUOUS
 62
     1
 10
190.3
 20
112.0
 30
0.0
 11
190.5
 21
111.75
 31
0.0
  0
LINE
  8
0
  6
CONTINUOUS
 62
     1
 10
190.5
 20
111.75
 30
0.0
 11
190.5
 21
108.25
 31
0.0
  0
LINE
  8
0
  6
CONTINUOUS
 62
     1
 10
191.3
 20
108.0
 30
0.0
 11
191.1
 21
108.25
 31
0.0
  0
LINE
  8
0
  6
CONTINUOUS
 62
     1
 10
190.5
 20
108.25
 30
0.0
 11
190.3
 21
108.0
 31
0.0
  0
ARC
  8
0
  6
CONTINUOUS
 62
     1
 10
190.5
 20
106.2
 30
0.0
 40
0.2
 50
180.0
 51
270.0
  0
LINE
  8
0
  6
CONTINUOUS
 62
     1
 10
190.5
 20
106.0
 30
0.0
 11
191.1
 21
106.0
 31
0.0
  0
ARC
  8
0
  6
CONTINUOUS
 62
     1
 10
191.1
 20
106.2
 30
0.0
 40
0.2
 50
270.0
 51
0.0
  0
LINE
  8
0
  6
CONTINUOUS
 62
     1
 10
190.3
 20
108.0
 30
0.0
 11
190.3
 21
106.2
 31
0.0
  0
LINE
  8
0
  6
CONTINUOUS
 62
     1
 10
191.3
 20
106.2
 30
0.0
 11
191.3
 21
108.0
 31
0.0
  0
ARC
  8
0
  6
CONTINUOUS
 62
     1
 10
196.5
 20
106.2
 30
0.0
 40
0.2
 50
180.0
 51
270.0
  0
LINE
  8
0
  6
CONTINUOUS
 62
     1
 10
196.5
 20
106.0
 30
0.0
 11
197.1
 21
106.0
 31
0.0
  0
ARC
  8
0
  6
CONTINUOUS
 62
     1
 10
197.1
 20
106.2
 30
0.0
 40
0.2
 50
270.0
 51
0.0
  0
LINE
  8
0
  6
CONTINUOUS
 62
     1
 10
196.3
 20
108.0
 30
0.0
 11
196.3
 21
106.2
 31
0.0
  0
LINE
  8
0
  6
CONTINUOUS
 62
     1
 10
197.3
 20
106.2
 30
0.0
 11
197.3
 21
108.0
 31
0.0
  0
ARC
  8
0
  6
CONTINUOUS
 62
     1
 10
184.5
 20
106.2
 30
0.0
 40
0.2
 50
180.0
 51
270.0
  0
LINE
  8
0
  6
CONTINUOUS
 62
     1
 10
184.5
 20
106.0
 30
0.0
 11
185.1
 21
106.0
 31
0.0
  0
ARC
  8
0
  6
CONTINUOUS
 62
     1
 10
185.1
 20
106.2
 30
0.0
 40
0.2
 50
270.0
 51
0.0
  0
LINE
  8
0
  6
CONTINUOUS
 62
     1
 10
185.3
 20
108.0
 30
0.0
 11
185.1
 21
108.25
 31
0.0
  0
LINE
  8
0
  6
CONTINUOUS
 62
     1
 10
184.5
 20
108.25
 30
0.0
 11
184.3
 21
108.0
 31
0.0
  0
LINE
  8
0
  6
CONTINUOUS
 62
     1
 10
184.3
 20
108.0
 30
0.0
 11
184.3
 21
106.2
 31
0.0
  0
LINE
  8
0
  6
CONTINUOUS
 62
     1
 10
185.3
 20
106.2
 30
0.0
 11
185.3
 21
108.0
 31
0.0
  0
LINE
  8
0
  6
CONTINUOUS
 62
     1
 10
179.1
 20
111.75
 30
0.0
 11
179.3
 21
112.0
 31
0.0
  0
LINE
  8
0
  6
CONTINUOUS
 62
     1
 10
178.3
 20
112.0
 30
0.0
 11
178.5
 21
111.75
 31
0.0
  0
ARC
  8
0
  6
CONTINUOUS
 62
     1
 10
178.5
 20
113.8
 30
0.0
 40
0.2
 50
90.0
 51
180.0
  0
LINE
  8
0
  6
CONTINUOUS
 62
     1
 10
179.1
 20
114.0
 30
0.0
 11
178.5
 21
114.0
 31
0.0
  0
ARC
  8
0
  6
CONTINUOUS
 62
     1
 10
179.1
 20
113.8
 30
0.0
 40
0.2
 50
0.0
 51
90.0
  0
LINE
  8
0
  6
CONTINUOUS
 62
     1
 10
178.3
 20
113.8
 30
0.0
 11
178.3
 21
112.0
 31
0.0
  0
LINE
  8
0
  6
CONTINUOUS
 62
     1
 10
179.3
 20
112.0
 30
0.0
 11
179.3
 21
113.8
 31
0.0
  0
ARC
  8
0
  6
CONTINUOUS
 62
     1
 10
184.5
 20
113.8
 30
0.0
 40
0.2
 50
90.0
 51
180.0
  0
LINE
  8
0
  6
CONTINUOUS
 62
     1
 10
185.1
 20
114.0
 30
0.0
 11
184.5
 21
114.0
 31
0.0
  0
ARC
  8
0
  6
CONTINUOUS
 62
     1
 10
185.1
 20
113.8
 30
0.0
 40
0.2
 50
0.0
 51
90.0
  0
LINE
  8
0
  6
CONTINUOUS
 62
     1
 10
185.1
 20
111.75
 30
0.0
 11
185.3
 21
112.0
 31
0.0
  0
LINE
  8
0
  6
CONTINUOUS
 62
     1
 10
184.3
 20
112.0
 30
0.0
 11
184.5
 21
111.75
 31
0.0
  0
LINE
  8
0
  6
CONTINUOUS
 62
     1
 10
185.1
 20
108.25
 30
0.0
 11
185.1
 21
111.75
 31
0.0
  0
LINE
  8
0
  6
CONTINUOUS
 62
     1
 10
184.5
 20
111.75
 30
0.0
 11
184.5
 21
108.25
 31
0.0
  0
LINE
  8
0
  6
CONTINUOUS
 62
     1
 10
184.3
 20
113.8
 30
0.0
 11
184.3
 21
112.0
 31
0.0
  0
LINE
  8
0
  6
CONTINUOUS
 62
     1
 10
185.3
 20
112.0
 30
0.0
 11
185.3
 21
113.8
 31
0.0
  0
LINE
  8
0
  6
CONTINUOUS
 62
     1
 10
179.3
 20
108.0
 30
0.0
 11
179.1
 21
108.25
 31
0.0
  0
LINE
  8
0
  6
CONTINUOUS
 62
     1
 10
178.5
 20
108.25
 30
0.0
 11
178.3
 21
108.0
 31
0.0
  0
LINE
  8
0
  6
CONTINUOUS
 62
     1
 10
179.1
 20
108.25
 30
0.0
 11
179.1
 21
111.75
 31
0.0
  0
LINE
  8
0
  6
CONTINUOUS
 62
     1
 10
178.5
 20
111.75
 30
0.0
 11
178.5
 21
108.25
 31
0.0
  0
ARC
  8
0
  6
CONTINUOUS
 62
     1
 10
178.5
 20
106.2
 30
0.0
 40
0.2
 50
180.0
 51
270.0
  0
LINE
  8
0
  6
CONTINUOUS
 62
     1
 10
178.5
 20
106.0
 30
0.0
 11
179.1
 21
106.0
 31
0.0
  0
ARC
  8
0
  6
CONTINUOUS
 62
     1
 10
179.1
 20
106.2
 30
0.0
 40
0.2
 50
270.0
 51
0.0
  0
LINE
  8
0
  6
CONTINUOUS
 62
     1
 10
178.3
 20
108.0
 30
0.0
 11
178.3
 21
106.2
 31
0.0
  0
LINE
  8
0
  6
CONTINUOUS
 62
     1
 10
179.3
 20
106.2
 30
0.0
 11
179.3
 21
108.0
 31
0.0
  0
LINE
  8
0
  6
CONTINUOUS
 62
     1
 10
179.3
 20
106.75
 30
0.0
 11
184.3
 21
106.75
 31
0.0
  0
LINE
  8
0
  6
CONTINUOUS
 62
     1
 10
185.3
 20
106.75
 30
0.0
 11
190.3
 21
106.75
 31
0.0
  0
LINE
  8
0
  6
CONTINUOUS
 62
     1
 10
191.3
 20
106.75
 30
0.0
 11
196.3
 21
106.75
 31
0.0
  0
LINE
  8
0
  6
CONTINUOUS
 62
     1
 10
197.3
 20
106.75
 30
0.0
 11
202.3
 21
106.75
 31
0.0
  0
LINE
  8
0
  6
CONTINUOUS
 62
     1
 10
202.3
 20
106.75
 30
0.0
 11
200.8
 21
106.0
 31
0.0
  0
LINE
  8
0
  6
CONTINUOUS
 62
     1
 10
200.8
 20
106.0
 30
0.0
 11
174.8
 21
106.0
 31
0.0
  0
LINE
  8
0
  6
CONTINUOUS
 62
     1
 10
202.5
 20
111.75
 30
0.0
 11
202.5
 21
108.25
 31
0.0
  0
LINE
  8
0
  6
CONTINUOUS
 62
     1
 10
202.5
 20
108.25
 30
0.0
 11
202.3
 21
108.0
 31
0.0
  0
ARC
  8
0
  6
CONTINUOUS
 62
     1
 10
202.5
 20
106.2
 30
0.0
 40
0.2
 50
180.0
 51
270.0
  0
LINE
  8
0
  6
CONTINUOUS
 62
     1
 10
202.5
 20
106.0
 30
0.0
 11
203.660721926
 21
106.0
 31
0.0
  0
LINE
  8
0
  6
CONTINUOUS
 62
     1
 10
202.3
 20
108.0
 30
0.0
 11
202.3
 21
106.2
 31
0.0
  0
LINE
  8
0
  6
CONTINUOUS
 62
     1
 10
184.3
 20
113.25
 30
0.0
 11
179.3
 21
113.25
 31
0.0
  0
LINE
  8
0
  6
CONTINUOUS
 62
     1
 10
174.8
 20
114.0
 30
0.0
 11
200.8
 21
114.0
 31
0.0
  0
LINE
  8
0
  6
CONTINUOUS
 62
     1
 10
190.3
 20
113.25
 30
0.0
 11
185.3
 21
113.25
 31
0.0
  0
LINE
  8
0
  6
CONTINUOUS
 62
     1
 10
196.3
 20
113.25
 30
0.0
 11
191.3
 21
113.25
 31
0.0
  0
LINE
  8
0
  6
CONTINUOUS
 62
     1
 10
202.3
 20
113.25
 30
0.0
 11
197.3
 21
113.25
 31
0.0
  0
LINE
  8
0
  6
CONTINUOUS
 62
     1
 10
202.3
 20
113.25
 30
0.0
 11
200.8
 21
114.0
 31
0.0
  0
ARC
  8
0
  6
CONTINUOUS
 62
     1
 10
202.5
 20
113.8
 30
0.0
 40
0.2
 50
90.0
 51
180.0
  0
LINE
  8
0
  6
CONTINUOUS
 62
     1
 10
202.3
 20
112.0
 30
0.0
 11
202.5
 21
111.75
 31
0.0
  0
LINE
  8
0
  6
CONTINUOUS
 62
     1
 10
202.3
 20
113.8
 30
0.0
 11
202.3
 21
112.0
 31
0.0
  0
LINE
  8
0
  6
CONTINUOUS
 62
     1
 10
202.8
 20
114.0
 30
0.0
 11
202.8
 21
106.0
 31
0.0
  0
ARC
  8
0
  6
CONTINUOUS
 62
     1
 10
203.6
 20
113.8
 30
0.0
 40
0.2
 50
0.0
 51
90.0
  0
LINE
  8
0
  6
CONTINUOUS
 62
     1
 10
203.6
 20
114.0
 30
0.0
 11
202.5
 21
114.0
 31
0.0
  0
LINE
  8
0
  6
CONTINUOUS
 62
     1
 10
203.8
 20
109.0
 30
0.0
 11
204.6
 21
109.0
 31
0.0
  0
LINE
  8
0
  6
CONTINUOUS
 62
     1
 10
204.6
 20
109.0
 30
0.0
 11
204.6
 21
108.0
 31
0.0
  0
LINE
  8
0
  6
CONTINUOUS
 62
     1
 10
204.6
 20
108.0
 30
0.0
 11
203.8
 21
108.0
 31
0.0
  0
LINE
  8
0
  6
CONTINUOUS
 62
     1
 10
203.8
 20
106.117137399
 30
0.0
 11
203.8
 21
108.0
 31
0.0
  0
LINE
  8
0
  6
CONTINUOUS
 62
     1
 10
203.8
 20
112.0
 30
0.0
 11
204.6
 21
112.0
 31
0.0
  0
LINE
  8
0
  6
CONTINUOUS
 62
     1
 10
204.6
 20
112.0
 30
0.0
 11
204.6
 21
111.0
 31
0.0
  0
LINE
  8
0
  6
CONTINUOUS
 62
     1
 10
204.6
 20
111.0
 30
0.0
 11
203.8
 21
111.0
 31
0.0
  0
LINE
  8
0
  6
CONTINUOUS
 62
     1
 10
203.8
 20
112.0
 30
0.0
 11
203.8
 21
113.8
 31
0.0
  0
LINE
  8
0
  6
CONTINUOUS
 62
     1
 10
203.8
 20
109.0
 30
0.0
 11
203.8
 21
111.0
 31
0.0
  0
LINE
  8
0
  6
CONTINUOUS
 62
     1
 10
204.6
 20
111.0
 30
0.0
 11
204.6
 21
109.0
 31
0.0
  0
LINE
  8
0
  6
CONTINUOUS
 62
     1
 10
173.1
 20
108.25
 30
0.0
 11
173.1
 21
111.75
 31
0.0
  0
LINE
  8
0
  6
CONTINUOUS
 62
     1
 10
173.1
 20
111.75
 30
0.0
 11
173.3
 21
112.0
 31
0.0
  0
LINE
  8
0
  6
CONTINUOUS
 62
     1
 10
171.8
 20
112.0
 30
0.0
 11
171.0
 21
112.0
 31
0.0
  0
LINE
  8
0
  6
CONTINUOUS
 62
     1
 10
171.0
 20
112.0
 30
0.0
 11
171.0
 21
111.0
 31
0.0
  0
LINE
  8
0
  6
CONTINUOUS
 62
     1
 10
171.0
 20
111.0
 30
0.0
 11
171.8
 21
111.0
 31
0.0
  0
LINE
  8
0
  6
CONTINUOUS
 62
     1
 10
171.8
 20
111.0
 30
0.0
 11
171.8
 21
109.0
 31
0.0
  0
LINE
  8
0
  6
CONTINUOUS
 62
     1
 10
171.8
 20
109.0
 30
0.0
 11
171.0
 21
109.0
 31
0.0
  0
LINE
  8
0
  6
CONTINUOUS
 62
     1
 10
171.0
 20
109.0
 30
0.0
 11
171.0
 21
108.0
 31
0.0
  0
LINE
  8
0
  6
CONTINUOUS
 62
     1
 10
171.0
 20
111.0
 30
0.0
 11
171.0
 21
109.0
 31
0.0
  0
ARC
  8
0
  6
CONTINUOUS
 62
     1
 10
173.1
 20
113.8
 30
0.0
 40
0.2
 50
0.0
 51
90.0
  0
LINE
  8
0
  6
CONTINUOUS
 62
     1
 10
173.1
 20
114.0
 30
0.0
 11
172.8
 21
114.0
 31
0.0
  0
LINE
  8
0
  6
CONTINUOUS
 62
     1
 10
172.8
 20
114.0
 30
0.0
 11
172.0
 21
114.0
 31
0.0
  0
ARC
  8
0
  6
CONTINUOUS
 62
     1
 10
172.0
 20
113.8
 30
0.0
 40
0.2
 50
90.0
 51
180.0
  0
LINE
  8
0
  6
CONTINUOUS
 62
     1
 10
173.3
 20
113.25
 30
0.0
 11
174.8
 21
114.0
 31
0.0
  0
LINE
  8
0
  6
CONTINUOUS
 62
     1
 10
178.3
 20
113.25
 30
0.0
 11
173.3
 21
113.25
 31
0.0
  0
LINE
  8
0
  6
CONTINUOUS
 62
     1
 10
173.3
 20
112.0
 30
0.0
 11
173.3
 21
113.8
 31
0.0
  0
LINE
  8
0
  6
CONTINUOUS
 62
     1
 10
171.8
 20
113.8
 30
0.0
 11
171.8
 21
112.0
 31
0.0
  0
LINE
  8
0
  6
CONTINUOUS
 62
     1
 10
173.3
 20
108.0
 30
0.0
 11
173.1
 21
108.25
 31
0.0
  0
LINE
  8
0
  6
CONTINUOUS
 62
     1
 10
173.3
 20
106.2
 30
0.0
 11
173.3
 21
108.0
 31
0.0
  0
ARC
  8
0
  6
CONTINUOUS
 62
     1
 10
173.1
 20
106.2
 30
0.0
 40
0.2
 50
270.0
 51
0.0
  0
LINE
  8
0
  6
CONTINUOUS
 62
     1
 10
171.0
 20
108.0
 30
0.0
 11
171.8
 21
108.0
 31
0.0
  0
LINE
  8
0
  6
CONTINUOUS
 62
     1
 10
171.8
 20
108.0
 30
0.0
 11
171.8
 21
106.2
 31
0.0
  0
LINE
  8
0
  6
CONTINUOUS
 62
     1
 10
172.025
 20
106.0
 30
0.0
 11
173.1
 21
106.0
 31
0.0
  0
LINE
  8
0
  6
CONTINUOUS
 62
     1
 10
173.3
 20
106.75
 30
0.0
 11
178.3
 21
106.75
 31
0.0
  0
LINE
  8
0
  6
CONTINUOUS
 62
     1
 10
173.3
 20
106.75
 30
0.0
 11
174.8
 21
106.0
 31
0.0
  0
LINE
  8
0
  6
CONTINUOUS
 62
     1
 10
172.8
 20
114.0
 30
0.0
 11
172.8
 21
106.0
 31
0.0
  0
LINE
  8
0
  6
CONTINUOUS
 62
     1
 10
144.25
 20
111.0
 30
0.0
 11
143.05
 21
111.0
 31
0.0
  0
LINE
  8
0
  6
CONTINUOUS
 62
     1
 10
143.05
 20
111.0
 30
0.0
 11
143.05
 21
109.0
 31
0.0
  0
LINE
  8
0
  6
CONTINUOUS
 62
     1
 10
143.05
 20
109.0
 30
0.0
 11
144.25
 21
109.0
 31
0.0
  0
LINE
  8
0
  6
CONTINUOUS
 62
     1
 10
143.55
 20
111.0
 30
0.0
 11
143.55
 21
109.0
 31
0.0
  0
LINE
  8
0
  6
CONTINUOUS
 62
     1
 10
137.2
 20
114.0
 30
0.0
 11
143.95
 21
114.0
 31
0.0
  0
LINE
  8
0
  6
CONTINUOUS
 62
     1
 10
144.25
 20
112.0
 30
0.0
 11
137.2
 21
112.0
 31
0.0
  0
LINE
  8
0
  6
CONTINUOUS
 62
     1
 10
144.25
 20
108.0
 30
0.0
 11
137.2
 21
108.0
 31
0.0
  0
ARC
  8
0
  6
CONTINUOUS
 62
     1
 10
63.398796456
 20
139.144053435
 30
0.0
 40
0.1
 50
45.0
 51
133.424763074
  0
LINE
  8
0
  6
CONTINUOUS
 62
     1
 10
63.469507134
 20
139.214764113
 30
0.0
 11
63.614764113
 21
139.069507134
 31
0.0
  0
ARC
  8
0
  6
CONTINUOUS
 62
     1
 10
63.544053435
 20
138.998796456
 30
0.0
 40
0.1
 50
316.575236926
 51
45.0
  0
LINE
  8
0
  6
CONTINUOUS
 62
     1
 10
63.6166812
 20
138.930056309
 30
0.0
 11
55.779839583
 21
130.65
 31
0.0
  0
LINE
  8
0
  6
CONTINUOUS
 62
     1
 10
55.033943748
 20
131.36464279
 30
0.0
 11
63.330056309
 21
139.2166812
 31
0.0
  0
LINE
  8
0
  6
CONTINUOUS
 62
     1
 10
88.5
 20
122.725
 30
0.0
 11
88.7
 21
122.725
 31
0.0
  0
LINE
  8
0
  6
CONTINUOUS
 62
     1
 10
88.5
 20
127.3
 30
0.0
 11
88.7
 21
127.3
 31
0.0
  0
LINE
  8
0
  6
CONTINUOUS
 62
     1
 10
86.5
 20
122.0
 30
0.0
 11
88.25
 21
122.0
 31
0.0
  0
LINE
  8
0
  6
CONTINUOUS
 62
     1
 10
88.25
 20
122.0
 30
0.0
 11
88.25
 21
128.0
 31
0.0
  0
LINE
  8
0
  6
CONTINUOUS
 62
     1
 10
88.25
 20
128.0
 30
0.0
 11
86.5
 21
128.0
 31
0.0
  0
LINE
  8
0
  6
CONTINUOUS
 62
     1
 10
86.5
 20
128.0
 30
0.0
 11
86.5
 21
122.0
 31
0.0
  0
LINE
  8
0
  6
CONTINUOUS
 62
     1
 10
88.25
 20
128.0
 30
0.0
 11
88.55
 21
127.3
 31
0.0
  0
LINE
  8
0
  6
CONTINUOUS
 62
     1
 10
88.25
 20
122.0
 30
0.0
 11
88.5
 21
122.725
 31
0.0
  0
LINE
  8
0
  6
CONTINUOUS
 62
     1
 10
88.5
 20
127.3
 30
0.0
 11
88.5
 21
122.725
 31
0.0
  0
CIRCLE
  8
0
  6
CONTINUOUS
 62
     1
 10
49.4
 20
125.0
 30
0.0
 40
3.05
  0
CIRCLE
  8
0
  6
CONTINUOUS
 62
     1
 10
49.4
 20
125.0
 30
0.0
 40
1.5
  0
CIRCLE
  8
0
  6
LTYPE1
 62
     1
 10
187.8
 20
140.5
 30
0.0
 40
3.0
  0
LINE
  8
0
  6
CONTINUOUS
 62
     1
 10
160.3
 20
130.65
 30
0.0
 11
160.3
 21
100.5
 31
0.0
  0
LINE
  8
0
  6
CONTINUOUS
 62
     1
 10
160.3
 20
149.5
 30
0.0
 11
160.3
 21
135.75
 31
0.0
  0
ARC
  8
0
  6
CONTINUOUS
 62
     1
 10
187.8
 20
125.0
 30
0.0
 40
24.75
 50
167.257403061
 51
324.036955888
  0
ARC
  8
0
  6
CONTINUOUS
 62
     1
 10
187.8
 20
125.0
 30
0.0
 40
24.75
 50
0.0
 51
154.48133073
  0
LINE
  8
0
  6
CONTINUOUS
 62
     1
 10
99.0
 20
151.825
 30
0.0
 11
99.0
 21
125.225
 31
0.0
  0
POINT
  8
0
  6
LTYPE2
 62
     2
 10
187.8
 20
24.5
 30
0.0
  0
POINT
  8
0
  6
LTYPE2
 62
     2
 10
187.8
 20
156.0
 30
0.0
  0
LINE
  8
0
  6
LTYPE2
 62
     2
 10
158.5
 20
54.15
 30
0.0
 11
217.2
 21
54.15
 31
0.0
  0
LINE
  8
0
  6
LTYPE2
 62
     2
 10
161.2
 20
31.65
 30
0.0
 11
168.35
 21
31.65
 31
0.0
  0
LINE
  8
0
  6
LTYPE2
 62
     2
 10
205.9
 20
31.65
 30
0.0
 11
215.2
 21
31.65
 31
0.0
  0
LINE
  8
0
  6
LTYPE2
 62
     2
 10
210.3
 20
27.3
 30
0.0
 11
210.3
 21
36.65
 31
0.0
  0
LINE
  8
0
  6
LTYPE2
 62
     2
 10
165.3
 20
83.0
 30
0.0
 11
165.3
 21
72.25
 31
0.0
  0
LINE
  8
0
  6
LTYPE2
 62
     2
 10
165.3
 20
36.85
 30
0.0
 11
165.3
 21
26.55
 31
0.0
  0
LINE
  8
0
  6
LTYPE2
 62
     2
 10
161.25
 20
76.65
 30
0.0
 11
171.9
 21
76.65
 31
0.0
  0
LINE
  8
0
  6
LTYPE2
 62
     2
 10
204.5
 20
76.65
 30
0.0
 11
217.55
 21
76.65
 31
0.0
  0
LINE
  8
0
  6
CONTINUOUS
 62
     2
 10
215.35
 20
31.65
 30
0.0
 11
223.8
 21
31.65
 31
0.0
  0
LINE
  8
0
  6
CONTINUOUS
 62
     2
 10
221.8
 20
31.65
 30
0.0
 11
222.447047613
 21
34.064814566
 31
0.0
  0
LINE
  8
0
  6
CONTINUOUS
 62
     2
 10
221.8
 20
31.65
 30
0.0
 11
221.152952387
 21
34.064814566
 31
0.0
  0
LINE
  8
0
  6
CONTINUOUS
 62
     2
 10
221.8
 20
54.15
 30
0.0
 11
221.152952387
 21
51.735185434
 31
0.0
  0
LINE
  8
0
  6
CONTINUOUS
 62
     2
 10
221.8
 20
54.15
 30
0.0
 11
222.447047613
 21
51.735185434
 31
0.0
  0
LINE
  8
0
  6
CONTINUOUS
 62
     2
 10
217.2
 20
54.15
 30
0.0
 11
223.8
 21
54.15
 31
0.0
  0
LINE
  8
0
  6
CONTINUOUS
 62
     2
 10
221.8
 20
54.15
 30
0.0
 11
222.447047613
 21
56.564814566
 31
0.0
  0
LINE
  8
0
  6
CONTINUOUS
 62
     2
 10
221.8
 20
54.15
 30
0.0
 11
221.152952387
 21
56.564814566
 31
0.0
  0
LINE
  8
0
  6
CONTINUOUS
 62
     2
 10
221.8
 20
54.15
 30
0.0
 11
221.8
 21
76.65
 31
0.0
  0
LINE
  8
0
  6
CONTINUOUS
 62
     2
 10
221.8
 20
76.65
 30
0.0
 11
221.152952387
 21
74.235185434
 31
0.0
  0
LINE
  8
0
  6
CONTINUOUS
 62
     2
 10
221.8
 20
76.65
 30
0.0
 11
222.447047613
 21
74.235185434
 31
0.0
  0
LINE
  8
0
  6
CONTINUOUS
 62
     2
 10
217.55
 20
76.65
 30
0.0
 11
223.8
 21
76.65
 31
0.0
  0
TEXT
  8
0
  6
CONTINUOUS
 62
     2
 10
220.8
 20
61.02
 30
0.3
 40
3.0
  1
４５
 50
90.0
 41
0.6
 51
0.0
  7
KANJI4
  0
LINE
  8
0
  6
CONTINUOUS
 62
     2
 10
221.8
 20
31.65
 30
0.0
 11
221.8
 21
54.15
 31
0.0
  0
TEXT
  8
0
  6
CONTINUOUS
 62
     2
 10
220.8
 20
38.52
 30
0.3
 40
3.0
  1
４５
 50
90.0
 41
0.6
 51
0.0
  7
KANJI4
  0
LINE
  8
0
  6
CONTINUOUS
 62
     2
 10
165.3
 20
83.0
 30
0.0
 11
165.3
 21
85.65
 31
0.0
  0
LINE
  8
0
  6
CONTINUOUS
 62
     2
 10
165.3
 20
83.65
 30
0.0
 11
167.714814566
 21
83.002952387
 31
0.0
  0
LINE
  8
0
  6
CONTINUOUS
 62
     2
 10
165.3
 20
83.65
 30
0.0
 11
167.714814566
 21
84.297047613
 31
0.0
  0
LINE
  8
0
  6
CONTINUOUS
 62
     2
 10
165.3
 20
83.65
 30
0.0
 11
187.8
 21
83.65
 31
0.0
  0
LINE
  8
0
  6
CONTINUOUS
 62
     2
 10
187.8
 20
83.65
 30
0.0
 11
185.385185434
 21
84.297047613
 31
0.0
  0
LINE
  8
0
  6
CONTINUOUS
 62
     2
 10
187.8
 20
83.65
 30
0.0
 11
185.385185434
 21
83.002952387
 31
0.0
  0
LINE
  8
0
  6
CONTINUOUS
 62
     2
 10
187.8
 20
83.0
 30
0.0
 11
187.8
 21
85.65
 31
0.0
  0
TEXT
  8
0
  6
CONTINUOUS
 62
     2
 10
172.17
 20
84.65
 30
0.3
 40
3.0
  1
４５
 50
0.0
 41
0.6
 51
0.0
  7
KANJI4
  0
LINE
  8
0
  6
CONTINUOUS
 62
     2
 10
187.8
 20
83.65
 30
0.0
 11
190.214814566
 21
83.002952387
 31
0.0
  0
LINE
  8
0
  6
CONTINUOUS
 62
     2
 10
187.8
 20
83.65
 30
0.0
 11
190.214814566
 21
84.297047613
 31
0.0
  0
LINE
  8
0
  6
CONTINUOUS
 62
     2
 10
187.8
 20
83.65
 30
0.0
 11
210.3
 21
83.65
 31
0.0
  0
LINE
  8
0
  6
CONTINUOUS
 62
     2
 10
210.3
 20
83.65
 30
0.0
 11
207.885185434
 21
84.297047613
 31
0.0
  0
LINE
  8
0
  6
CONTINUOUS
 62
     2
 10
210.3
 20
83.65
 30
0.0
 11
207.885185434
 21
83.002952387
 31
0.0
  0
TEXT
  8
0
  6
CONTINUOUS
 62
     2
 10
194.67
 20
84.65
 30
0.3
 40
3.0
  1
４５
 50
0.0
 41
0.6
 51
0.0
  7
KANJI4
  0
LINE
  8
0
  6
CONTINUOUS
 62
     2
 10
164.4
 20
30.1
 30
0.0
 11
162.952635312
 21
28.061585062
 31
0.0
  0
LINE
  8
0
  6
CONTINUOUS
 62
     2
 10
164.4
 20
30.1
 30
0.0
 11
164.165752881
 21
27.610998536
 31
0.0
  0
LINE
  8
0
  6
CONTINUOUS
 62
     2
 10
164.4
 20
30.1
 30
0.0
 11
161.15
 21
21.35
 31
0.0
  0
LINE
  8
0
  6
CONTINUOUS
 62
     2
 10
161.15
 20
21.35
 30
0.0
 11
152.45
 21
21.35
 31
0.0
  0
TEXT
  8
0
  6
CONTINUOUS
 62
     2
 10
220.8
 20
42.42
 30
0.18
 40
1.8
  1
±０．３
 50
90.0
 41
0.6
 51
0.0
  7
KANJI5
  0
TEXT
  8
0
  6
CONTINUOUS
 62
     2
 10
220.8
 20
64.92
 30
0.18
 40
1.8
  1
±０．３
 50
90.0
 41
0.6
 51
0.0
  7
KANJI5
  0
TEXT
  8
0
  6
CONTINUOUS
 62
     2
 10
198.57
 20
84.65
 30
0.18
 40
1.8
  1
±０．３
 50
0.0
 41
0.6
 51
0.0
  7
KANJI5
  0
TEXT
  8
0
  6
CONTINUOUS
 62
     2
 10
176.07
 20
84.65
 30
0.18
 40
1.8
  1
±０．３
 50
0.0
 41
0.6
 51
0.0
  7
KANJI5
  0
TEXT
  8
0
  6
CONTINUOUS
 62
     2
 10
173.576470351
 20
40.690293305
 30
0.3
 40
3.0
  1
φ１０１
 50
46.346669025
 41
0.6
 51
0.0
  7
KANJI4
  0
TEXT
  8
0
  6
CONTINUOUS
 62
     2
 10
152.45
 20
22.35
 30
0.5
 40
3.0
  1
４－φ６
 50
0.0
 41
0.6
 51
0.0
  7
KANJI6
  0
LINE
  8
0
  6
CONTINUOUS
 62
     2
 10
167.312643038
 20
103.662
 30
0.0
 11
165.3
 21
104.824
 31
0.0
  0
LINE
  8
0
  6
CONTINUOUS
 62
     2
 10
165.3
 20
104.824
 30
0.0
 11
163.287356962
 21
103.662
 31
0.0
  0
LINE
  8
0
  6
CONTINUOUS
 62
     2
 10
163.287356962
 20
103.662
 30
0.0
 11
163.287356962
 21
101.338
 31
0.0
  0
LINE
  8
0
  6
CONTINUOUS
 62
     2
 10
163.287356962
 20
101.338
 30
0.0
 11
165.3
 21
100.176
 31
0.0
  0
LINE
  8
0
  6
CONTINUOUS
 62
     2
 10
165.3
 20
100.176
 30
0.0
 11
167.312643038
 21
101.338
 31
0.0
  0
LINE
  8
0
  6
CONTINUOUS
 62
     2
 10
167.312643038
 20
101.338
 30
0.0
 11
167.312643038
 21
103.662
 31
0.0
  0
CIRCLE
  8
0
  6
CONTINUOUS
 62
     2
 10
165.3
 20
102.5
 30
0.0
 40
1.245
  0
CIRCLE
  8
0
  6
CONTINUOUS
 62
     2
 10
165.3
 20
102.5
 30
0.0
 40
1.162
  0
CIRCLE
  8
0
  6
CONTINUOUS
 62
     2
 10
165.3
 20
102.5
 30
0.0
 40
2.49
  0
CIRCLE
  8
0
  6
CONTINUOUS
 62
     2
 10
165.3
 20
102.5
 30
0.0
 40
2.075
  0
LINE
  8
0
  6
LTYPE2
 62
     2
 10
162.08375
 20
102.5
 30
0.0
 11
168.703
 21
102.5
 31
0.0
  0
LINE
  8
0
  6
LTYPE2
 62
     2
 10
165.3
 20
105.737
 30
0.0
 11
165.3
 21
99.32525
 31
0.0
  0
LINE
  8
0
  6
CONTINUOUS
 62
     2
 10
167.312643038
 20
148.662
 30
0.0
 11
165.3
 21
149.824
 31
0.0
  0
LINE
  8
0
  6
CONTINUOUS
 62
     2
 10
165.3
 20
149.824
 30
0.0
 11
163.287356962
 21
148.662
 31
0.0
  0
LINE
  8
0
  6
CONTINUOUS
 62
     2
 10
163.287356962
 20
148.662
 30
0.0
 11
163.287356962
 21
146.338
 31
0.0
  0
LINE
  8
0
  6
CONTINUOUS
 62
     2
 10
163.287356962
 20
146.338
 30
0.0
 11
165.3
 21
145.176
 31
0.0
  0
LINE
  8
0
  6
CONTINUOUS
 62
     2
 10
165.3
 20
145.176
 30
0.0
 11
167.312643038
 21
146.338
 31
0.0
  0
LINE
  8
0
  6
CONTINUOUS
 62
     2
 10
167.312643038
 20
146.338
 30
0.0
 11
167.312643038
 21
148.662
 31
0.0
  0
CIRCLE
  8
0
  6
CONTINUOUS
 62
     2
 10
165.3
 20
147.5
 30
0.0
 40
1.245
  0
CIRCLE
  8
0
  6
CONTINUOUS
 62
     2
 10
165.3
 20
147.5
 30
0.0
 40
1.162
  0
CIRCLE
  8
0
  6
CONTINUOUS
 62
     2
 10
165.3
 20
147.5
 30
0.0
 40
2.49
  0
CIRCLE
  8
0
  6
CONTINUOUS
 62
     2
 10
165.3
 20
147.5
 30
0.0
 40
2.075
  0
LINE
  8
0
  6
LTYPE2
 62
     2
 10
162.08375
 20
147.5
 30
0.0
 11
168.703
 21
147.5
 31
0.0
  0
LINE
  8
0
  6
LTYPE2
 62
     2
 10
165.3
 20
150.737
 30
0.0
 11
165.3
 21
144.32525
 31
0.0
  0
LINE
  8
0
  6
CONTINUOUS
 62
     2
 10
212.312643038
 20
148.662
 30
0.0
 11
210.3
 21
149.824
 31
0.0
  0
LINE
  8
0
  6
CONTINUOUS
 62
     2
 10
210.3
 20
149.824
 30
0.0
 11
208.287356962
 21
148.662
 31
0.0
  0
LINE
  8
0
  6
CONTINUOUS
 62
     2
 10
208.287356962
 20
148.662
 30
0.0
 11
208.287356962
 21
146.338
 31
0.0
  0
LINE
  8
0
  6
CONTINUOUS
 62
     2
 10
208.287356962
 20
146.338
 30
0.0
 11
210.3
 21
145.176
 31
0.0
  0
LINE
  8
0
  6
CONTINUOUS
 62
     2
 10
210.3
 20
145.176
 30
0.0
 11
212.312643038
 21
146.338
 31
0.0
  0
LINE
  8
0
  6
CONTINUOUS
 62
     2
 10
212.312643038
 20
146.338
 30
0.0
 11
212.312643038
 21
148.662
 31
0.0
  0
CIRCLE
  8
0
  6
CONTINUOUS
 62
     2
 10
210.3
 20
147.5
 30
0.0
 40
1.245
  0
CIRCLE
  8
0
  6
CONTINUOUS
 62
     2
 10
210.3
 20
147.5
 30
0.0
 40
1.162
  0
CIRCLE
  8
0
  6
CONTINUOUS
 62
     2
 10
210.3
 20
147.5
 30
0.0
 40
2.49
  0
CIRCLE
  8
0
  6
CONTINUOUS
 62
     2
 10
210.3
 20
147.5
 30
0.0
 40
2.075
  0
LINE
  8
0
  6
LTYPE2
 62
     2
 10
207.08375
 20
147.5
 30
0.0
 11
213.703
 21
147.5
 31
0.0
  0
LINE
  8
0
  6
LTYPE2
 62
     2
 10
210.3
 20
150.737
 30
0.0
 11
210.3
 21
144.32525
 31
0.0
  0
LINE
  8
0
  6
CONTINUOUS
 62
     2
 10
212.312643038
 20
103.662
 30
0.0
 11
210.3
 21
104.824
 31
0.0
  0
LINE
  8
0
  6
CONTINUOUS
 62
     2
 10
210.3
 20
104.824
 30
0.0
 11
208.287356962
 21
103.662
 31
0.0
  0
LINE
  8
0
  6
CONTINUOUS
 62
     2
 10
208.287356962
 20
103.662
 30
0.0
 11
208.287356962
 21
101.338
 31
0.0
  0
LINE
  8
0
  6
CONTINUOUS
 62
     2
 10
208.287356962
 20
101.338
 30
0.0
 11
210.3
 21
100.176
 31
0.0
  0
LINE
  8
0
  6
CONTINUOUS
 62
     2
 10
210.3
 20
100.176
 30
0.0
 11
212.312643038
 21
101.338
 31
0.0
  0
LINE
  8
0
  6
CONTINUOUS
 62
     2
 10
212.312643038
 20
101.338
 30
0.0
 11
212.312643038
 21
103.662
 31
0.0
  0
CIRCLE
  8
0
  6
CONTINUOUS
 62
     2
 10
210.3
 20
102.5
 30
0.0
 40
1.245
  0
CIRCLE
  8
0
  6
CONTINUOUS
 62
     2
 10
210.3
 20
102.5
 30
0.0
 40
1.162
  0
CIRCLE
  8
0
  6
CONTINUOUS
 62
     2
 10
210.3
 20
102.5
 30
0.0
 40
2.49
  0
CIRCLE
  8
0
  6
CONTINUOUS
 62
     2
 10
210.3
 20
102.5
 30
0.0
 40
2.075
  0
LINE
  8
0
  6
LTYPE2
 62
     2
 10
207.08375
 20
102.5
 30
0.0
 11
213.703
 21
102.5
 31
0.0
  0
LINE
  8
0
  6
LTYPE2
 62
     2
 10
210.3
 20
105.737
 30
0.0
 11
210.3
 21
99.32525
 31
0.0
  0
CIRCLE
  8
0
  6
CONTINUOUS
 62
     2
 10
187.804392537
 20
147.0
 30
0.0
 40
1.572025
  0
CIRCLE
  8
0
  6
CONTINUOUS
 62
     2
 10
187.804392537
 20
147.0
 30
0.0
 40
1.34745
  0
LINE
  8
0
  6
CONTINUOUS
 62
     2
 10
187.018380037
 20
147.17966
 30
0.0
 11
187.445072537
 21
147.17966
 31
0.0
  0
ARC
  8
0
  6
CONTINUOUS
 62
     2
 10
187.445072537
 20
147.35932
 30
0.0
 40
0.17966
 50
270.0
 51
0.0
  0
LINE
  8
0
  6
CONTINUOUS
 62
     2
 10
187.624732537
 20
147.35932
 30
0.0
 11
187.624732537
 21
147.7860125
 31
0.0
  0
LINE
  8
0
  6
CONTINUOUS
 62
     2
 10
187.624732537
 20
147.7860125
 30
0.0
 11
187.984052537
 21
147.7860125
 31
0.0
  0
LINE
  8
0
  6
CONTINUOUS
 62
     2
 10
187.984052537
 20
147.7860125
 30
0.0
 11
187.984052537
 21
147.35932
 31
0.0
  0
ARC
  8
0
  6
CONTINUOUS
 62
     2
 10
188.163712537
 20
147.35932
 30
0.0
 40
0.17966
 50
180.0
 51
270.0
  0
LINE
  8
0
  6
CONTINUOUS
 62
     2
 10
188.163712537
 20
147.17966
 30
0.0
 11
188.590405037
 21
147.17966
 31
0.0
  0
LINE
  8
0
  6
CONTINUOUS
 62
     2
 10
188.590405037
 20
147.17966
 30
0.0
 11
188.590405037
 21
146.82034
 31
0.0
  0
LINE
  8
0
  6
CONTINUOUS
 62
     2
 10
188.590405037
 20
146.82034
 30
0.0
 11
188.163712537
 21
146.82034
 31
0.0
  0
ARC
  8
0
  6
CONTINUOUS
 62
     2
 10
188.163712537
 20
146.64068
 30
0.0
 40
0.17966
 50
90.0
 51
180.0
  0
LINE
  8
0
  6
CONTINUOUS
 62
     2
 10
187.984052537
 20
146.64068
 30
0.0
 11
187.984052537
 21
146.2139875
 31
0.0
  0
LINE
  8
0
  6
CONTINUOUS
 62
     2
 10
187.984052537
 20
146.2139875
 30
0.0
 11
187.624732537
 21
146.2139875
 31
0.0
  0
LINE
  8
0
  6
CONTINUOUS
 62
     2
 10
187.624732537
 20
146.2139875
 30
0.0
 11
187.624732537
 21
146.64068
 31
0.0
  0
ARC
  8
0
  6
CONTINUOUS
 62
     2
 10
187.445072537
 20
146.64068
 30
0.0
 40
0.17966
 50
0.0
 51
90.0
  0
LINE
  8
0
  6
CONTINUOUS
 62
     2
 10
187.445072537
 20
146.82034
 30
0.0
 11
187.018380037
 21
146.82034
 31
0.0
  0
LINE
  8
0
  6
CONTINUOUS
 62
     2
 10
187.018380037
 20
146.82034
 30
0.0
 11
187.018380037
 21
147.17966
 31
0.0
  0
LINE
  8
0
  6
LTYPE2
 62
     2
 10
186.007792537
 20
147.0
 30
0.0
 11
189.600992537
 21
147.0
 31
0.0
  0
LINE
  8
0
  6
LTYPE2
 62
     2
 10
187.8
 20
148.975001907
 30
0.0
 11
187.8
 21
144.975001907
 31
0.0
  0
CIRCLE
  8
0
  6
CONTINUOUS
 62
     2
 10
206.852558883
 20
114.0
 30
0.0
 40
1.572025
  0
CIRCLE
  8
0
  6
CONTINUOUS
 62
     2
 10
206.852558883
 20
114.0
 30
0.0
 40
1.34745
  0
LINE
  8
0
  6
CONTINUOUS
 62
     2
 10
206.066546383
 20
114.17966
 30
0.0
 11
206.493238883
 21
114.17966
 31
0.0
  0
ARC
  8
0
  6
CONTINUOUS
 62
     2
 10
206.493238883
 20
114.35932
 30
0.0
 40
0.17966
 50
270.0
 51
0.0
  0
LINE
  8
0
  6
CONTINUOUS
 62
     2
 10
206.672898883
 20
114.35932
 30
0.0
 11
206.672898883
 21
114.7860125
 31
0.0
  0
LINE
  8
0
  6
CONTINUOUS
 62
     2
 10
206.672898883
 20
114.7860125
 30
0.0
 11
207.032218883
 21
114.7860125
 31
0.0
  0
LINE
  8
0
  6
CONTINUOUS
 62
     2
 10
207.032218883
 20
114.7860125
 30
0.0
 11
207.032218883
 21
114.35932
 31
0.0
  0
ARC
  8
0
  6
CONTINUOUS
 62
     2
 10
207.211878883
 20
114.35932
 30
0.0
 40
0.17966
 50
180.0
 51
270.0
  0
LINE
  8
0
  6
CONTINUOUS
 62
     2
 10
207.211878883
 20
114.17966
 30
0.0
 11
207.638571383
 21
114.17966
 31
0.0
  0
LINE
  8
0
  6
CONTINUOUS
 62
     2
 10
207.638571383
 20
114.17966
 30
0.0
 11
207.638571383
 21
113.82034
 31
0.0
  0
LINE
  8
0
  6
CONTINUOUS
 62
     2
 10
207.638571383
 20
113.82034
 30
0.0
 11
207.211878883
 21
113.82034
 31
0.0
  0
ARC
  8
0
  6
CONTINUOUS
 62
     2
 10
207.211878883
 20
113.64068
 30
0.0
 40
0.17966
 50
90.0
 51
180.0
  0
LINE
  8
0
  6
CONTINUOUS
 62
     2
 10
207.032218883
 20
113.64068
 30
0.0
 11
207.032218883
 21
113.2139875
 31
0.0
  0
LINE
  8
0
  6
CONTINUOUS
 62
     2
 10
207.032218883
 20
113.2139875
 30
0.0
 11
206.672898883
 21
113.2139875
 31
0.0
  0
LINE
  8
0
  6
CONTINUOUS
 62
     2
 10
206.672898883
 20
113.2139875
 30
0.0
 11
206.672898883
 21
113.64068
 31
0.0
  0
ARC
  8
0
  6
CONTINUOUS
 62
     2
 10
206.493238883
 20
113.64068
 30
0.0
 40
0.17966
 50
0.0
 51
90.0
  0
LINE
  8
0
  6
CONTINUOUS
 62
     2
 10
206.493238883
 20
113.82034
 30
0.0
 11
206.066546383
 21
113.82034
 31
0.0
  0
LINE
  8
0
  6
CONTINUOUS
 62
     2
 10
206.066546383
 20
113.82034
 30
0.0
 11
206.066546383
 21
114.17966
 31
0.0
  0
LINE
  8
0
  6
LTYPE2
 62
     2
 10
205.055958883
 20
114.0
 30
0.0
 11
208.649158883
 21
114.0
 31
0.0
  0
LINE
  8
0
  6
LTYPE2
 62
     2
 10
206.852558883
 20
115.7966
 30
0.0
 11
206.852558883
 21
112.2034
 31
0.0
  0
CIRCLE
  8
0
  6
CONTINUOUS
 62
     2
 10
168.747441117
 20
114.0
 30
0.0
 40
1.572025
  0
CIRCLE
  8
0
  6
CONTINUOUS
 62
     2
 10
168.747441117
 20
114.0
 30
0.0
 40
1.34745
  0
LINE
  8
0
  6
CONTINUOUS
 62
     2
 10
167.961428617
 20
114.17966
 30
0.0
 11
168.388121117
 21
114.17966
 31
0.0
  0
ARC
  8
0
  6
CONTINUOUS
 62
     2
 10
168.388121117
 20
114.35932
 30
0.0
 40
0.17966
 50
270.0
 51
0.0
  0
LINE
  8
0
  6
CONTINUOUS
 62
     2
 10
168.567781117
 20
114.35932
 30
0.0
 11
168.567781117
 21
114.7860125
 31
0.0
  0
LINE
  8
0
  6
CONTINUOUS
 62
     2
 10
168.567781117
 20
114.7860125
 30
0.0
 11
168.927101117
 21
114.7860125
 31
0.0
  0
LINE
  8
0
  6
CONTINUOUS
 62
     2
 10
168.927101117
 20
114.7860125
 30
0.0
 11
168.927101117
 21
114.35932
 31
0.0
  0
ARC
  8
0
  6
CONTINUOUS
 62
     2
 10
169.106761117
 20
114.35932
 30
0.0
 40
0.17966
 50
180.0
 51
270.0
  0
LINE
  8
0
  6
CONTINUOUS
 62
     2
 10
169.106761117
 20
114.17966
 30
0.0
 11
169.533453617
 21
114.17966
 31
0.0
  0
LINE
  8
0
  6
CONTINUOUS
 62
     2
 10
169.533453617
 20
114.17966
 30
0.0
 11
169.533453617
 21
113.82034
 31
0.0
  0
LINE
  8
0
  6
CONTINUOUS
 62
     2
 10
169.533453617
 20
113.82034
 30
0.0
 11
169.106761117
 21
113.82034
 31
0.0
  0
ARC
  8
0
  6
CONTINUOUS
 62
     2
 10
169.106761117
 20
113.64068
 30
0.0
 40
0.17966
 50
90.0
 51
180.0
  0
LINE
  8
0
  6
CONTINUOUS
 62
     2
 10
168.927101117
 20
113.64068
 30
0.0
 11
168.927101117
 21
113.2139875
 31
0.0
  0
LINE
  8
0
  6
CONTINUOUS
 62
     2
 10
168.927101117
 20
113.2139875
 30
0.0
 11
168.567781117
 21
113.2139875
 31
0.0
  0
LINE
  8
0
  6
CONTINUOUS
 62
     2
 10
168.567781117
 20
113.2139875
 30
0.0
 11
168.567781117
 21
113.64068
 31
0.0
  0
ARC
  8
0
  6
CONTINUOUS
 62
     2
 10
168.388121117
 20
113.64068
 30
0.0
 40
0.17966
 50
0.0
 51
90.0
  0
LINE
  8
0
  6
CONTINUOUS
 62
     2
 10
168.388121117
 20
113.82034
 30
0.0
 11
167.961428617
 21
113.82034
 31
0.0
  0
LINE
  8
0
  6
CONTINUOUS
 62
     2
 10
167.961428617
 20
113.82034
 30
0.0
 11
167.961428617
 21
114.17966
 31
0.0
  0
LINE
  8
0
  6
LTYPE2
 62
     2
 10
166.950841117
 20
114.0
 30
0.0
 11
170.544041117
 21
114.0
 31
0.0
  0
LINE
  8
0
  6
LTYPE2
 62
     2
 10
168.747441117
 20
115.7966
 30
0.0
 11
168.747441117
 21
112.2034
 31
0.0
  0
LINE
  8
0
  6
CONTINUOUS
 62
     2
 10
170.370094052
 20
35.880876358
 30
0.0
 11
172.505182511
 21
37.181413659
 31
0.0
  0
LINE
  8
0
  6
CONTINUOUS
 62
     2
 10
170.370094052
 20
35.880876358
 30
0.0
 11
171.568866247
 21
38.074718929
 31
0.0
  0
LINE
  8
0
  6
CONTINUOUS
 62
     2
 10
170.370094052
 20
35.880876358
 30
0.0
 11
205.229905948
 21
72.419123642
 31
0.0
  0
LINE
  8
0
  6
CONTINUOUS
 62
     2
 10
205.229905948
 20
72.419123642
 30
0.0
 11
204.01462817
 21
69.919123642
 31
0.0
  0
LINE
  8
0
  6
CONTINUOUS
 62
     2
 10
205.229905948
 20
72.419123642
 30
0.0
 11
202.779905948
 21
71.019123642
 31
0.0
  0
LINE
  8
0
  6
LTYPE2
 62
     2
 10
210.3
 20
71.25
 30
0.0
 11
210.3
 21
85.169123642
 31
0.0
  0
TEXT
  8
0
  6
CONTINUOUS
 62
     2
 10
219.4
 20
131.87
 30
0.3
 40
3.0
  1
４５
 50
90.0
 41
0.6
 51
0.0
  7
KANJI4
  0
TEXT
  8
0
  6
CONTINUOUS
 62
     2
 10
219.4
 20
135.77
 30
0.18
 40
1.8
  1
±０．３
 50
90.0
 41
0.6
 51
0.0
  7
KANJI5
  0
TEXT
  8
0
  6
CONTINUOUS
 62
     2
 10
219.4
 20
109.37
 30
0.3
 40
3.0
  1
４５
 50
90.0
 41
0.6
 51
0.0
  7
KANJI4
  0
TEXT
  8
0
  6
CONTINUOUS
 62
     2
 10
219.4
 20
113.27
 30
0.18
 40
1.8
  1
±０．３
 50
90.0
 41
0.6
 51
0.0
  7
KANJI5
  0
LINE
  8
0
  6
CONTINUOUS
 62
     2
 10
220.4
 20
102.5
 30
0.0
 11
221.047047613
 21
104.914814566
 31
0.0
  0
LINE
  8
0
  6
CONTINUOUS
 62
     2
 10
220.4
 20
102.5
 30
0.0
 11
219.752952387
 21
104.914814566
 31
0.0
  0
LINE
  8
0
  6
CONTINUOUS
 62
     2
 10
220.4
 20
102.5
 30
0.0
 11
220.4
 21
125.0
 31
0.0
  0
LINE
  8
0
  6
CONTINUOUS
 62
     2
 10
220.4
 20
125.0
 30
0.0
 11
219.752952387
 21
122.585185434
 31
0.0
  0
LINE
  8
0
  6
CONTINUOUS
 62
     2
 10
220.4
 20
125.0
 30
0.0
 11
221.047047613
 21
122.585185434
 31
0.0
  0
LINE
  8
0
  6
CONTINUOUS
 62
     2
 10
220.4
 20
125.0
 30
0.0
 11
221.047047613
 21
127.414814566
 31
0.0
  0
LINE
  8
0
  6
CONTINUOUS
 62
     2
 10
220.4
 20
125.0
 30
0.0
 11
219.752952387
 21
127.414814566
 31
0.0
  0
LINE
  8
0
  6
CONTINUOUS
 62
     2
 10
220.4
 20
125.0
 30
0.0
 11
220.4
 21
147.5
 31
0.0
  0
LINE
  8
0
  6
CONTINUOUS
 62
     2
 10
220.4
 20
147.5
 30
0.0
 11
219.752952387
 21
145.085185434
 31
0.0
  0
LINE
  8
0
  6
CONTINUOUS
 62
     2
 10
220.4
 20
147.5
 30
0.0
 11
221.047047613
 21
145.085185434
 31
0.0
  0
LINE
  8
0
  6
CONTINUOUS
 62
     2
 10
214.5
 20
147.5
 30
0.0
 11
221.9
 21
147.5
 31
0.0
  0
LINE
  8
0
  6
CONTINUOUS
 62
     2
 10
210.0
 20
125.0
 30
0.0
 11
221.9
 21
125.0
 31
0.0
  0
LINE
  8
0
  6
CONTINUOUS
 62
     2
 10
214.55
 20
102.5
 30
0.0
 11
221.9
 21
102.5
 31
0.0
  0
LINE
  8
0
  6
LTYPE2
 62
     2
 10
49.4
 20
156.5
 30
0.0
 11
49.4
 21
90.0
 31
0.0
  0
CIRCLE
  8
0
  6
CONTINUOUS
 62
     2
 10
71.9
 20
147.5
 30
0.0
 40
1.5
  0
LINE
  8
0
  6
CONTINUOUS
 62
     2
 10
71.025
 20
147.7
 30
0.0
 11
71.5
 21
147.7
 31
0.0
  0
ARC
  8
0
  6
CONTINUOUS
 62
     2
 10
71.5
 20
147.9
 30
0.0
 40
0.2
 50
270.0
 51
0.0
  0
LINE
  8
0
  6
CONTINUOUS
 62
     2
 10
71.7
 20
147.9
 30
0.0
 11
71.7
 21
148.375
 31
0.0
  0
LINE
  8
0
  6
CONTINUOUS
 62
     2
 10
71.7
 20
148.375
 30
0.0
 11
72.1
 21
148.375
 31
0.0
  0
LINE
  8
0
  6
CONTINUOUS
 62
     2
 10
72.1
 20
148.375
 30
0.0
 11
72.1
 21
147.9
 31
0.0
  0
ARC
  8
0
  6
CONTINUOUS
 62
     2
 10
72.3
 20
147.9
 30
0.0
 40
0.2
 50
180.0
 51
270.0
  0
LINE
  8
0
  6
CONTINUOUS
 62
     2
 10
72.3
 20
147.7
 30
0.0
 11
72.775
 21
147.7
 31
0.0
  0
LINE
  8
0
  6
CONTINUOUS
 62
     2
 10
72.775
 20
147.7
 30
0.0
 11
72.775
 21
147.3
 31
0.0
  0
LINE
  8
0
  6
CONTINUOUS
 62
     2
 10
72.775
 20
147.3
 30
0.0
 11
72.3
 21
147.3
 31
0.0
  0
ARC
  8
0
  6
CONTINUOUS
 62
     2
 10
72.3
 20
147.1
 30
0.0
 40
0.2
 50
90.0
 51
180.0
  0
LINE
  8
0
  6
CONTINUOUS
 62
     2
 10
72.1
 20
147.1
 30
0.0
 11
72.1
 21
146.625
 31
0.0
  0
LINE
  8
0
  6
CONTINUOUS
 62
     2
 10
72.1
 20
146.625
 30
0.0
 11
71.7
 21
146.625
 31
0.0
  0
LINE
  8
0
  6
CONTINUOUS
 62
     2
 10
71.7
 20
146.625
 30
0.0
 11
71.7
 21
147.1
 31
0.0
  0
ARC
  8
0
  6
CONTINUOUS
 62
     2
 10
71.5
 20
147.1
 30
0.0
 40
0.2
 50
0.0
 51
90.0
  0
LINE
  8
0
  6
CONTINUOUS
 62
     2
 10
71.5
 20
147.3
 30
0.0
 11
71.025
 21
147.3
 31
0.0
  0
LINE
  8
0
  6
CONTINUOUS
 62
     2
 10
71.025
 20
147.3
 30
0.0
 11
71.025
 21
147.7
 31
0.0
  0
LINE
  8
0
  6
LTYPE2
 62
     2
 10
69.9
 20
147.5
 30
0.0
 11
73.9
 21
147.5
 31
0.0
  0
LINE
  8
0
  6
LTYPE2
 62
     2
 10
71.9
 20
149.5
 30
0.0
 11
71.9
 21
145.5
 31
0.0
  0
CIRCLE
  8
0
  6
CONTINUOUS
 62
     2
 10
26.9
 20
147.5
 30
0.0
 40
1.5
  0
LINE
  8
0
  6
CONTINUOUS
 62
     2
 10
26.025
 20
147.7
 30
0.0
 11
26.5
 21
147.7
 31
0.0
  0
ARC
  8
0
  6
CONTINUOUS
 62
     2
 10
26.5
 20
147.9
 30
0.0
 40
0.2
 50
270.0
 51
0.0
  0
LINE
  8
0
  6
CONTINUOUS
 62
     2
 10
26.7
 20
147.9
 30
0.0
 11
26.7
 21
148.375
 31
0.0
  0
LINE
  8
0
  6
CONTINUOUS
 62
     2
 10
26.7
 20
148.375
 30
0.0
 11
27.1
 21
148.375
 31
0.0
  0
LINE
  8
0
  6
CONTINUOUS
 62
     2
 10
27.1
 20
148.375
 30
0.0
 11
27.1
 21
147.9
 31
0.0
  0
ARC
  8
0
  6
CONTINUOUS
 62
     2
 10
27.3
 20
147.9
 30
0.0
 40
0.2
 50
180.0
 51
270.0
  0
LINE
  8
0
  6
CONTINUOUS
 62
     2
 10
27.3
 20
147.7
 30
0.0
 11
27.775
 21
147.7
 31
0.0
  0
LINE
  8
0
  6
CONTINUOUS
 62
     2
 10
27.775
 20
147.7
 30
0.0
 11
27.775
 21
147.3
 31
0.0
  0
LINE
  8
0
  6
CONTINUOUS
 62
     2
 10
27.775
 20
147.3
 30
0.0
 11
27.3
 21
147.3
 31
0.0
  0
ARC
  8
0
  6
CONTINUOUS
 62
     2
 10
27.3
 20
147.1
 30
0.0
 40
0.2
 50
90.0
 51
180.0
  0
LINE
  8
0
  6
CONTINUOUS
 62
     2
 10
27.1
 20
147.1
 30
0.0
 11
27.1
 21
146.625
 31
0.0
  0
LINE
  8
0
  6
CONTINUOUS
 62
     2
 10
27.1
 20
146.625
 30
0.0
 11
26.7
 21
146.625
 31
0.0
  0
LINE
  8
0
  6
CONTINUOUS
 62
     2
 10
26.7
 20
146.625
 30
0.0
 11
26.7
 21
147.1
 31
0.0
  0
ARC
  8
0
  6
CONTINUOUS
 62
     2
 10
26.5
 20
147.1
 30
0.0
 40
0.2
 50
0.0
 51
90.0
  0
LINE
  8
0
  6
CONTINUOUS
 62
     2
 10
26.5
 20
147.3
 30
0.0
 11
26.025
 21
147.3
 31
0.0
  0
LINE
  8
0
  6
CONTINUOUS
 62
     2
 10
26.025
 20
147.3
 30
0.0
 11
26.025
 21
147.7
 31
0.0
  0
LINE
  8
0
  6
LTYPE2
 62
     2
 10
24.9
 20
147.5
 30
0.0
 11
28.9
 21
147.5
 31
0.0
  0
LINE
  8
0
  6
LTYPE2
 62
     2
 10
26.9
 20
149.5
 30
0.0
 11
26.9
 21
145.5
 31
0.0
  0
CIRCLE
  8
0
  6
CONTINUOUS
 62
     2
 10
26.9
 20
102.5
 30
0.0
 40
1.5
  0
LINE
  8
0
  6
CONTINUOUS
 62
     2
 10
26.025
 20
102.7
 30
0.0
 11
26.5
 21
102.7
 31
0.0
  0
ARC
  8
0
  6
CONTINUOUS
 62
     2
 10
26.5
 20
102.9
 30
0.0
 40
0.2
 50
270.0
 51
0.0
  0
LINE
  8
0
  6
CONTINUOUS
 62
     2
 10
26.7
 20
102.9
 30
0.0
 11
26.7
 21
103.375
 31
0.0
  0
LINE
  8
0
  6
CONTINUOUS
 62
     2
 10
26.7
 20
103.375
 30
0.0
 11
27.1
 21
103.375
 31
0.0
  0
LINE
  8
0
  6
CONTINUOUS
 62
     2
 10
27.1
 20
103.375
 30
0.0
 11
27.1
 21
102.9
 31
0.0
  0
ARC
  8
0
  6
CONTINUOUS
 62
     2
 10
27.3
 20
102.9
 30
0.0
 40
0.2
 50
180.0
 51
270.0
  0
LINE
  8
0
  6
CONTINUOUS
 62
     2
 10
27.3
 20
102.7
 30
0.0
 11
27.775
 21
102.7
 31
0.0
  0
LINE
  8
0
  6
CONTINUOUS
 62
     2
 10
27.775
 20
102.7
 30
0.0
 11
27.775
 21
102.3
 31
0.0
  0
LINE
  8
0
  6
CONTINUOUS
 62
     2
 10
27.775
 20
102.3
 30
0.0
 11
27.3
 21
102.3
 31
0.0
  0
ARC
  8
0
  6
CONTINUOUS
 62
     2
 10
27.3
 20
102.1
 30
0.0
 40
0.2
 50
90.0
 51
180.0
  0
LINE
  8
0
  6
CONTINUOUS
 62
     2
 10
27.1
 20
102.1
 30
0.0
 11
27.1
 21
101.625
 31
0.0
  0
LINE
  8
0
  6
CONTINUOUS
 62
     2
 10
27.1
 20
101.625
 30
0.0
 11
26.7
 21
101.625
 31
0.0
  0
LINE
  8
0
  6
CONTINUOUS
 62
     2
 10
26.7
 20
101.625
 30
0.0
 11
26.7
 21
102.1
 31
0.0
  0
ARC
  8
0
  6
CONTINUOUS
 62
     2
 10
26.5
 20
102.1
 30
0.0
 40
0.2
 50
0.0
 51
90.0
  0
LINE
  8
0
  6
CONTINUOUS
 62
     2
 10
26.5
 20
102.3
 30
0.0
 11
26.025
 21
102.3
 31
0.0
  0
LINE
  8
0
  6
CONTINUOUS
 62
     2
 10
26.025
 20
102.3
 30
0.0
 11
26.025
 21
102.7
 31
0.0
  0
LINE
  8
0
  6
LTYPE2
 62
     2
 10
24.9
 20
102.5
 30
0.0
 11
28.9
 21
102.5
 31
0.0
  0
LINE
  8
0
  6
LTYPE2
 62
     2
 10
26.9
 20
104.5
 30
0.0
 11
26.9
 21
100.5
 31
0.0
  0
CIRCLE
  8
0
  6
CONTINUOUS
 62
     2
 10
71.9
 20
102.5
 30
0.0
 40
1.5
  0
LINE
  8
0
  6
CONTINUOUS
 62
     2
 10
71.025
 20
102.7
 30
0.0
 11
71.5
 21
102.7
 31
0.0
  0
ARC
  8
0
  6
CONTINUOUS
 62
     2
 10
71.5
 20
102.9
 30
0.0
 40
0.2
 50
270.0
 51
0.0
  0
LINE
  8
0
  6
CONTINUOUS
 62
     2
 10
71.7
 20
102.9
 30
0.0
 11
71.7
 21
103.375
 31
0.0
  0
LINE
  8
0
  6
CONTINUOUS
 62
     2
 10
71.7
 20
103.375
 30
0.0
 11
72.1
 21
103.375
 31
0.0
  0
LINE
  8
0
  6
CONTINUOUS
 62
     2
 10
72.1
 20
103.375
 30
0.0
 11
72.1
 21
102.9
 31
0.0
  0
ARC
  8
0
  6
CONTINUOUS
 62
     2
 10
72.3
 20
102.9
 30
0.0
 40
0.2
 50
180.0
 51
270.0
  0
LINE
  8
0
  6
CONTINUOUS
 62
     2
 10
72.3
 20
102.7
 30
0.0
 11
72.775
 21
102.7
 31
0.0
  0
LINE
  8
0
  6
CONTINUOUS
 62
     2
 10
72.775
 20
102.7
 30
0.0
 11
72.775
 21
102.3
 31
0.0
  0
LINE
  8
0
  6
CONTINUOUS
 62
     2
 10
72.775
 20
102.3
 30
0.0
 11
72.3
 21
102.3
 31
0.0
  0
ARC
  8
0
  6
CONTINUOUS
 62
     2
 10
72.3
 20
102.1
 30
0.0
 40
0.2
 50
90.0
 51
180.0
  0
LINE
  8
0
  6
CONTINUOUS
 62
     2
 10
72.1
 20
102.1
 30
0.0
 11
72.1
 21
101.625
 31
0.0
  0
LINE
  8
0
  6
CONTINUOUS
 62
     2
 10
72.1
 20
101.625
 30
0.0
 11
71.7
 21
101.625
 31
0.0
  0
LINE
  8
0
  6
CONTINUOUS
 62
     2
 10
71.7
 20
101.625
 30
0.0
 11
71.7
 21
102.1
 31
0.0
  0
ARC
  8
0
  6
CONTINUOUS
 62
     2
 10
71.5
 20
102.1
 30
0.0
 40
0.2
 50
0.0
 51
90.0
  0
LINE
  8
0
  6
CONTINUOUS
 62
     2
 10
71.5
 20
102.3
 30
0.0
 11
71.025
 21
102.3
 31
0.0
  0
LINE
  8
0
  6
CONTINUOUS
 62
     2
 10
71.025
 20
102.3
 30
0.0
 11
71.025
 21
102.7
 31
0.0
  0
LINE
  8
0
  6
LTYPE2
 62
     2
 10
69.9
 20
102.5
 30
0.0
 11
73.9
 21
102.5
 31
0.0
  0
LINE
  8
0
  6
LTYPE2
 62
     2
 10
71.9
 20
104.5
 30
0.0
 11
71.9
 21
100.5
 31
0.0
  0
CIRCLE
  8
0
  6
CONTINUOUS
 62
     2
 10
49.4
 20
125.0
 30
0.0
 40
8.5
  0
CIRCLE
  8
0
  6
CONTINUOUS
 62
     2
 10
49.4
 20
125.0
 30
0.0
 40
7.8
  0
CIRCLE
  8
0
  6
CONTINUOUS
 62
     2
 10
49.4
 20
125.0
 30
0.0
 40
7.1
  0
CIRCLE
  8
0
  6
CONTINUOUS
 62
     2
 10
49.4
 20
125.0
 30
0.0
 40
6.4
  0
CIRCLE
  8
0
  6
CONTINUOUS
 62
     2
 10
49.4
 20
125.0
 30
0.0
 40
5.7
  0
CIRCLE
  8
0
  6
CONTINUOUS
 62
     2
 10
49.4
 20
125.0
 30
0.0
 40
5.0
  0
CIRCLE
  8
0
  6
CONTINUOUS
 62
     2
 10
49.4
 20
125.0
 30
0.0
 40
4.3
  0
CIRCLE
  8
0
  6
CONTINUOUS
 62
     2
 10
49.4
 20
125.0
 30
0.0
 40
3.6
  0
CIRCLE
  8
0
  6
CONTINUOUS
 62
     2
 10
49.4
 20
125.0
 30
0.0
 40
24.25
  0
CIRCLE
  8
0
  6
CONTINUOUS
 62
     2
 10
49.4
 20
125.0
 30
0.0
 40
21.0
  0
LINE
  8
0
  6
CONTINUOUS
 62
     2
 10
34.102240015
 20
117.54741391
 30
0.0
 11
31.38424919
 21
115.218245415
 31
0.0
  0
LINE
  8
0
  6
CONTINUOUS
 62
     2
 10
31.38424919
 20
115.218245415
 30
0.0
 11
34.817978155
 21
116.229188241
 31
0.0
  0
LINE
  8
0
  6
CONTINUOUS
 62
     2
 10
34.817978155
 20
116.229188241
 30
0.0
 11
42.317058939
 21
120.300856895
 31
0.0
  0
LINE
  8
0
  6
CONTINUOUS
 62
     2
 10
33.581291972
 20
116.411142315
 30
0.0
 11
42.101656687
 21
120.642915552
 31
0.0
  0
LINE
  8
0
  6
CONTINUOUS
 62
     2
 10
41.770878852
 20
121.252132538
 30
0.0
 11
33.581291972
 21
116.411142315
 31
0.0
  0
LINE
  8
0
  6
CONTINUOUS
 62
     2
 10
41.601320798
 20
121.619082564
 30
0.0
 11
34.102240015
 21
117.54741391
 31
0.0
  0
LINE
  8
0
  6
CONTINUOUS
 62
     2
 10
35.4
 20
116.6
 30
0.0
 11
34.36730914
 21
114.323258999
 31
0.0
  0
LINE
  8
0
  6
CONTINUOUS
 62
     2
 10
35.4
 20
116.6
 30
0.0
 11
35.644033981
 21
114.111939025
 31
0.0
  0
LINE
  8
0
  6
CONTINUOUS
 62
     2
 10
21.913820798
 20
161.218245415
 30
0.0
 11
24.328635364
 21
160.571197802
 31
0.0
  0
LINE
  8
0
  6
CONTINUOUS
 62
     2
 10
21.913820798
 20
161.218245415
 30
0.0
 11
24.328635364
 21
161.865293027
 31
0.0
  0
LINE
  8
0
  6
CONTINUOUS
 62
     2
 10
21.913820798
 20
161.218245415
 30
0.0
 11
76.913820798
 21
161.218245415
 31
0.0
  0
LINE
  8
0
  6
CONTINUOUS
 62
     2
 10
76.913820798
 20
161.218245415
 30
0.0
 11
74.499006233
 21
161.865293027
 31
0.0
  0
LINE
  8
0
  6
CONTINUOUS
 62
     2
 10
76.913820798
 20
161.218245415
 30
0.0
 11
74.499006233
 21
160.571197802
 31
0.0
  0
TEXT
  8
0
  6
CONTINUOUS
 62
     2
 10
43.983820798
 20
162.218245415
 30
0.3
 40
3.0
  1
１１０
 50
0.0
 41
0.6
 51
0.0
  7
KANJI4
  0
TEXT
  8
0
  6
CONTINUOUS
 62
     2
 10
49.983820798
 20
162.218245415
 30
0.18
 40
1.8
  1
±１．５
 50
0.0
 41
0.6
 51
0.0
  7
KANJI5
  0
LINE
  8
0
  6
CONTINUOUS
 62
     2
 10
21.913820798
 20
151.018245415
 30
0.0
 11
21.913820798
 21
163.218245415
 31
0.0
  0
LINE
  8
0
  6
CONTINUOUS
 62
     2
 10
76.913820798
 20
151.018245415
 30
0.0
 11
76.913820798
 21
163.218245415
 31
0.0
  0
LINE
  8
0
  6
CONTINUOUS
 62
     2
 10
17.663820798
 20
152.518245415
 30
0.0
 11
17.663820798
 21
97.518245415
 31
0.0
  0
TEXT
  8
0
  6
CONTINUOUS
 62
     2
 10
16.663820798
 20
119.588245415
 30
0.3
 40
3.0
  1
１１０
 50
90.0
 41
0.6
 51
0.0
  7
KANJI4
  0
TEXT
  8
0
  6
CONTINUOUS
 62
     2
 10
16.663820798
 20
125.588245415
 30
0.18
 40
1.8
  1
±１．５
 50
90.0
 41
0.6
 51
0.0
  7
KANJI5
  0
LINE
  8
0
  6
CONTINUOUS
 62
     2
 10
17.663820798
 20
152.518245415
 30
0.0
 11
17.016773186
 21
150.103430849
 31
0.0
  0
LINE
  8
0
  6
CONTINUOUS
 62
     2
 10
17.663820798
 20
152.518245415
 30
0.0
 11
18.310868411
 21
150.103430849
 31
0.0
  0
LINE
  8
0
  6
CONTINUOUS
 62
     2
 10
17.663820798
 20
97.518245415
 30
0.0
 11
18.310868411
 21
99.93305998
 31
0.0
  0
LINE
  8
0
  6
CONTINUOUS
 62
     2
 10
17.663820798
 20
97.518245415
 30
0.0
 11
17.016773186
 21
99.93305998
 31
0.0
  0
LINE
  8
0
  6
CONTINUOUS
 62
     2
 10
23.5
 20
97.518245415
 30
0.0
 11
16.163820798
 21
97.518245415
 31
0.0
  0
LINE
  8
0
  6
CONTINUOUS
 62
     2
 10
23.5
 20
152.518245415
 30
0.0
 11
16.163820798
 21
152.518245415
 31
0.0
  0
LINE
  8
0
  6
CONTINUOUS
 62
     2
 10
165.3
 20
161.35
 30
0.0
 11
167.714814566
 21
160.702952387
 31
0.0
  0
LINE
  8
0
  6
CONTINUOUS
 62
     2
 10
165.3
 20
161.35
 30
0.0
 11
167.714814566
 21
161.997047613
 31
0.0
  0
LINE
  8
0
  6
CONTINUOUS
 62
     2
 10
165.3
 20
161.35
 30
0.0
 11
187.8
 21
161.35
 31
0.0
  0
LINE
  8
0
  6
CONTINUOUS
 62
     2
 10
187.8
 20
161.35
 30
0.0
 11
185.385185434
 21
161.997047613
 31
0.0
  0
LINE
  8
0
  6
CONTINUOUS
 62
     2
 10
187.8
 20
161.35
 30
0.0
 11
185.385185434
 21
160.702952387
 31
0.0
  0
TEXT
  8
0
  6
CONTINUOUS
 62
     2
 10
172.17
 20
162.35
 30
0.3
 40
3.0
  1
４５
 50
0.0
 41
0.6
 51
0.0
  7
KANJI4
  0
LINE
  8
0
  6
CONTINUOUS
 62
     2
 10
187.8
 20
161.35
 30
0.0
 11
190.214814566
 21
160.702952387
 31
0.0
  0
LINE
  8
0
  6
CONTINUOUS
 62
     2
 10
187.8
 20
161.35
 30
0.0
 11
190.214814566
 21
161.997047613
 31
0.0
  0
LINE
  8
0
  6
CONTINUOUS
 62
     2
 10
187.8
 20
161.35
 30
0.0
 11
210.3
 21
161.35
 31
0.0
  0
LINE
  8
0
  6
CONTINUOUS
 62
     2
 10
210.3
 20
161.35
 30
0.0
 11
207.885185434
 21
161.997047613
 31
0.0
  0
LINE
  8
0
  6
CONTINUOUS
 62
     2
 10
210.3
 20
161.35
 30
0.0
 11
207.885185434
 21
160.702952387
 31
0.0
  0
TEXT
  8
0
  6
CONTINUOUS
 62
     2
 10
194.67
 20
162.35
 30
0.3
 40
3.0
  1
４５
 50
0.0
 41
0.6
 51
0.0
  7
KANJI4
  0
TEXT
  8
0
  6
CONTINUOUS
 62
     2
 10
198.57
 20
162.35
 30
0.18
 40
1.8
  1
±０．３
 50
0.0
 41
0.6
 51
0.0
  7
KANJI5
  0
TEXT
  8
0
  6
CONTINUOUS
 62
     2
 10
176.07
 20
162.35
 30
0.18
 40
1.8
  1
±０．３
 50
0.0
 41
0.6
 51
0.0
  7
KANJI5
  0
LINE
  8
0
  6
CONTINUOUS
 62
     2
 10
165.3
 20
151.6
 30
0.0
 11
165.3
 21
162.85
 31
0.0
  0
LINE
  8
0
  6
CONTINUOUS
 62
     2
 10
187.8
 20
156.2
 30
0.0
 11
187.8
 21
162.85
 31
0.0
  0
LINE
  8
0
  6
CONTINUOUS
 62
     2
 10
210.3
 20
151.5
 30
0.0
 11
210.3
 21
162.85
 31
0.0
  0
LINE
  8
0
  6
CONTINUOUS
 62
     2
 10
93.25
 20
148.725
 30
0.0
 11
93.15
 21
148.725
 31
0.0
  0
LINE
  8
0
  6
CONTINUOUS
 62
     2
 10
93.15
 20
148.725
 30
0.0
 11
93.15
 21
146.225
 31
0.0
  0
LINE
  8
0
  6
CONTINUOUS
 62
     2
 10
93.15
 20
146.225
 30
0.0
 11
93.25
 21
146.225
 31
0.0
  0
LINE
  8
0
  6
CONTINUOUS
 62
     2
 10
93.15
 20
149.0
 30
0.0
 11
93.15
 21
146.0
 31
0.0
  0
LINE
  8
0
  6
CONTINUOUS
 62
     2
 10
92.8
 20
146.0
 30
0.0
 11
93.15
 21
146.0
 31
0.0
  0
ARC
  8
0
  6
CONTINUOUS
 62
     2
 10
92.8
 20
146.4
 30
0.0
 40
0.4
 50
180.0
 51
270.0
  0
LINE
  8
0
  6
CONTINUOUS
 62
     2
 10
92.8
 20
149.0
 30
0.0
 11
93.25
 21
149.0
 31
0.0
  0
LINE
  8
0
  6
CONTINUOUS
 62
     2
 10
92.4
 20
146.4
 30
0.0
 11
92.4
 21
148.6
 31
0.0
  0
ARC
  8
0
  6
CONTINUOUS
 62
     2
 10
92.8
 20
148.6
 30
0.0
 40
0.4
 50
90.0
 51
180.0
  0
LINE
  8
0
  6
CONTINUOUS
 62
     2
 10
92.4
 20
147.6
 30
0.0
 11
92.5
 21
147.6
 31
0.0
  0
LINE
  8
0
  6
CONTINUOUS
 62
     2
 10
92.5
 20
147.6
 30
0.0
 11
92.5
 21
147.4
 31
0.0
  0
LINE
  8
0
  6
CONTINUOUS
 62
     2
 10
92.5
 20
147.4
 30
0.0
 11
92.4
 21
147.4
 31
0.0
  0
LINE
  8
0
  6
CONTINUOUS
 62
     2
 10
88.5
 20
128.15
 30
0.0
 11
88.5
 21
128.15
 31
0.0
  0
LINE
  8
0
  6
CONTINUOUS
 62
     2
 10
89.55
 20
99.475
 30
0.0
 11
82.125
 21
99.475
 31
0.0
  0
LINE
  8
0
  6
CONTINUOUS
 62
     2
 10
84.125
 20
99.475
 30
0.0
 11
84.772047613
 21
101.889814566
 31
0.0
  0
LINE
  8
0
  6
CONTINUOUS
 62
     2
 10
84.125
 20
99.475
 30
0.0
 11
83.477952387
 21
101.889814566
 31
0.0
  0
LINE
  8
0
  6
CONTINUOUS
 62
     2
 10
84.125
 20
99.475
 30
0.0
 11
84.125
 21
150.475
 31
0.0
  0
LINE
  8
0
  6
CONTINUOUS
 62
     2
 10
84.125
 20
150.475
 30
0.0
 11
83.477952387
 21
148.060185434
 31
0.0
  0
LINE
  8
0
  6
CONTINUOUS
 62
     2
 10
84.125
 20
150.475
 30
0.0
 11
84.772047613
 21
148.060185434
 31
0.0
  0
LINE
  8
0
  6
CONTINUOUS
 62
     2
 10
89.55
 20
150.475
 30
0.0
 11
82.125
 21
150.475
 31
0.0
  0
LINE
  8
0
  6
CONTINUOUS
 62
     2
 10
99.25
 20
160.875001907
 30
0.0
 11
106.75
 21
160.875001907
 31
0.0
  0
LINE
  8
0
  6
CONTINUOUS
 62
     2
 10
106.75
 20
160.875001907
 30
0.0
 11
104.335185434
 21
161.52204952
 31
0.0
  0
LINE
  8
0
  6
CONTINUOUS
 62
     2
 10
106.75
 20
160.875001907
 30
0.0
 11
104.335185434
 21
160.227954295
 31
0.0
  0
TEXT
  8
0
  6
CONTINUOUS
 62
     2
 10
101.05
 20
161.875001907
 30
0.3
 40
3.0
  1
１５
 50
0.0
 41
0.6
 51
0.0
  7
KANJI4
  0
LINE
  8
0
  6
CONTINUOUS
 62
     2
 10
99.0
 20
160.875001907
 30
0.0
 11
96.585185434
 21
161.52204952
 31
0.0
  0
LINE
  8
0
  6
CONTINUOUS
 62
     2
 10
99.0
 20
160.875001907
 30
0.0
 11
96.585185434
 21
160.227954295
 31
0.0
  0
LINE
  8
0
  6
CONTINUOUS
 62
     2
 10
99.25
 20
160.875001907
 30
0.0
 11
101.664814566
 21
160.227954295
 31
0.0
  0
LINE
  8
0
  6
CONTINUOUS
 62
     2
 10
99.25
 20
160.875001907
 30
0.0
 11
101.664814566
 21
161.52204952
 31
0.0
  0
TEXT
  8
0
  6
CONTINUOUS
 62
     2
 10
89.15
 20
161.875001907
 30
0.3
 40
3.0
  1
０．５
 50
0.0
 41
0.6
 51
0.0
  7
KANJI4
  0
LINE
  8
0
  6
LTYPE2
 62
     2
 10
97.54235
 20
147.5
 30
0.0
 11
107.4134
 21
147.5
 31
0.0
  0
LINE
  8
0
  6
CONTINUOUS
 62
     2
 10
106.75
 20
162.9005
 30
0.0
 11
106.75
 21
148.9005
 31
0.0
  0
LINE
  8
0
  6
LTYPE2
 62
     2
 10
97.54235
 20
102.5
 30
0.0
 11
107.4134
 21
102.5
 31
0.0
  0
LINE
  8
0
  6
CONTINUOUS
 62
     2
 10
99.0
 20
152.7
 30
0.0
 11
99.0
 21
162.9
 31
0.0
  0
TEXT
  8
0
  6
CONTINUOUS
 62
     2
 10
83.125
 20
120.925
 30
0.3
 40
3.0
  1
φ１０３
 50
90.0
 41
0.6
 51
0.0
  7
KANJI4
  0
LINE
  8
0
  6
CONTINUOUS
 62
     2
 10
99.25
 20
166.525001907
 30
0.0
 11
101.664814566
 21
165.877954295
 31
0.0
  0
LINE
  8
0
  6
CONTINUOUS
 62
     2
 10
99.25
 20
166.525001907
 30
0.0
 11
101.664814566
 21
167.17204952
 31
0.0
  0
LINE
  8
0
  6
CONTINUOUS
 62
     2
 10
99.25
 20
166.525001907
 30
0.0
 11
96.835185434
 21
167.17204952
 31
0.0
  0
LINE
  8
0
  6
CONTINUOUS
 62
     2
 10
99.25
 20
166.525001907
 30
0.0
 11
96.835185434
 21
165.877954295
 31
0.0
  0
LINE
  8
0
  6
CONTINUOUS
 62
     2
 10
99.25
 20
150.75
 30
0.0
 11
99.25
 21
168.025001907
 31
0.0
  0
LINE
  8
0
  6
CONTINUOUS
 62
     2
 10
91.93998604
 20
160.875001907
 30
0.0
 11
99.25
 21
160.875001907
 31
0.0
  0
LINE
  8
0
  6
CONTINUOUS
 62
     2
 10
144.25
 20
166.525001907
 30
0.0
 11
141.835185434
 21
167.17204952
 31
0.0
  0
LINE
  8
0
  6
CONTINUOUS
 62
     2
 10
144.25
 20
166.525001907
 30
0.0
 11
141.835185434
 21
165.877954295
 31
0.0
  0
LINE
  8
0
  6
CONTINUOUS
 62
     2
 10
144.25
 20
166.525001907
 30
0.0
 11
99.25
 21
166.525001907
 31
0.0
  0
TEXT
  8
0
  6
CONTINUOUS
 62
     2
 10
119.774499685
 20
167.525001907
 30
0.3
 40
3.0
  1
９０
 50
0.0
 41
0.6
 51
0.0
  7
KANJI4
  0
LINE
  8
0
  6
LTYPE2
 62
     2
 10
187.8
 20
25.15
 30
0.0
 11
187.8
 21
82.65
 31
0.0
  0
LINE
  8
0
  6
CONTINUOUS
 62
     2
 10
144.25
 20
114.200002697
 30
0.0
 11
144.25
 21
167.8
 31
0.0
  0
LINE
  8
0
  6
CONTINUOUS
 62
     2
 10
137.175
 20
160.925001907
 30
0.0
 11
139.589814566
 21
160.277954295
 31
0.0
  0
LINE
  8
0
  6
CONTINUOUS
 62
     2
 10
137.175
 20
160.925001907
 30
0.0
 11
139.589814566
 21
161.57204952
 31
0.0
  0
LINE
  8
0
  6
CONTINUOUS
 62
     2
 10
137.175
 20
160.925001907
 30
0.0
 11
144.25
 21
160.925001907
 31
0.0
  0
LINE
  8
0
  6
CONTINUOUS
 62
     2
 10
144.25
 20
160.925001907
 30
0.0
 11
141.835185434
 21
161.57204952
 31
0.0
  0
LINE
  8
0
  6
CONTINUOUS
 62
     2
 10
144.25
 20
160.925001907
 30
0.0
 11
141.835185434
 21
160.277954295
 31
0.0
  0
TEXT
  8
0
  6
CONTINUOUS
 62
     2
 10
136.52
 20
162.685001907
 30
0.16
 40
2.4
  1
１３．５
 50
0.0
 41
0.8
 51
0.0
  7
KANJI7
  0
LINE
  8
0
  6
CONTINUOUS
 62
     2
 10
137.175
 20
150.250001907
 30
0.0
 11
137.175
 21
162.025001907
 31
0.0
  0
LINE
  8
0
  6
CONTINUOUS
 62
     2
 10
127.675
 20
145.550001907
 30
0.0
 11
127.675
 21
149.75
 31
0.0
  0
ARC
  8
0
  6
CONTINUOUS
 62
     2
 10
127.375
 20
145.550001907
 30
0.0
 40
0.3
 50
270.0
 51
0.0
  0
LINE
  8
0
  6
CONTINUOUS
 62
     2
 10
120.175
 20
149.75
 30
0.0
 11
120.175
 21
145.550001907
 31
0.0
  0
LINE
  8
0
  6
CONTINUOUS
 62
     2
 10
120.475
 20
145.250001907
 30
0.0
 11
127.375
 21
145.250001907
 31
0.0
  0
ARC
  8
0
  6
CONTINUOUS
 62
     2
 10
120.475
 20
145.550001907
 30
0.0
 40
0.3
 50
180.0
 51
270.0
  0
LINE
  8
0
  6
CONTINUOUS
 62
     2
 10
185.3
 20
105.200003815
 30
0.0
 11
185.3
 21
89.9
 31
0.0
  0
LINE
  8
0
  6
CONTINUOUS
 62
     2
 10
185.3
 20
91.9
 30
0.0
 11
190.3
 21
91.9
 31
0.0
  0
LINE
  8
0
  6
CONTINUOUS
 62
     2
 10
190.3
 20
105.2
 30
0.0
 11
190.3
 21
89.9
 31
0.0
  0
TEXT
  8
0
  6
CONTINUOUS
 62
     2
 10
185.3
 20
92.9
 30
0.2
 40
3.0
  1
１０
 50
0.0
 41
0.8
 51
0.0
  7
KANJI8
  0
LINE
  8
0
  6
CONTINUOUS
 62
     2
 10
190.3
 20
91.9
 30
0.0
 11
188.6
 21
91.444486373
 31
0.0
  0
LINE
  8
0
  6
CONTINUOUS
 62
     2
 10
185.3
 20
91.9
 30
0.0
 11
187.0
 21
91.444486373
 31
0.0
  0
LINE
  8
0
  6
CONTINUOUS
 62
     2
 10
185.3
 20
91.9
 30
0.0
 11
187.0
 21
92.355513627
 31
0.0
  0
LINE
  8
0
  6
CONTINUOUS
 62
     2
 10
190.3
 20
91.9
 30
0.0
 11
188.6
 21
92.355513627
 31
0.0
  0
LINE
  8
0
  6
CONTINUOUS
 62
     2
 10
181.8
 20
91.9
 30
0.0
 11
175.8
 21
91.9
 31
0.0
  0
TEXT
  8
0
  6
CONTINUOUS
 62
     2
 10
176.3
 20
92.9
 30
0.2
 40
3.0
  1
１２
 50
0.0
 41
0.8
 51
0.0
  7
KANJI8
  0
LINE
  8
0
  6
CONTINUOUS
 62
     2
 10
181.8
 20
91.9
 30
0.0
 11
180.1
 21
91.444486373
 31
0.0
  0
LINE
  8
0
  6
CONTINUOUS
 62
     2
 10
175.8
 20
91.9
 30
0.0
 11
177.5
 21
91.444486373
 31
0.0
  0
LINE
  8
0
  6
CONTINUOUS
 62
     2
 10
175.8
 20
91.9
 30
0.0
 11
177.5
 21
92.355513627
 31
0.0
  0
LINE
  8
0
  6
CONTINUOUS
 62
     2
 10
181.8
 20
91.9
 30
0.0
 11
180.1
 21
92.355513627
 31
0.0
  0
LINE
  8
0
  6
CONTINUOUS
 62
     2
 10
181.425
 20
108.7
 30
0.0
 11
179.244545255
 21
107.477045746
 31
0.0
  0
LINE
  8
0
  6
CONTINUOUS
 62
     2
 10
181.425
 20
108.7
 30
0.0
 11
180.148147926
 21
106.550663176
 31
0.0
  0
LINE
  8
0
  6
CONTINUOUS
 62
     2
 10
181.425
 20
108.7
 30
0.0
 11
157.025
 21
84.9
 31
0.0
  0
LINE
  8
0
  6
CONTINUOUS
 62
     2
 10
157.025
 20
84.9
 30
0.0
 11
133.025
 21
84.9
 31
0.0
  0
TEXT
  8
0
  6
CONTINUOUS
 62
     2
 10
133.025
 20
85.9
 30
0.3
 40
3.0
  1
Ｍ４ターミナルネジ
 50
0.0
 41
0.8
 51
0.0
  7
KANJI9
  0
LINE
  8
0
  6
LTYPE2
 62
     2
 10
146.25
 20
110.0
 30
0.0
 11
131.25
 21
110.0
 31
0.0
  0
LINE
  8
0
  6
LTYPE2
 62
     2
 10
187.8
 20
155.0
 30
0.0
 11
187.8
 21
96.6
 31
0.0
  0
LINE
  8
0
  6
CONTINUOUS
 62
     2
 10
147.25
 20
110.0
 30
0.0
 11
153.9
 21
110.0
 31
0.0
  0
LINE
  8
0
  6
CONTINUOUS
 62
     2
 10
151.9
 20
110.0
 30
0.0
 11
152.547047613
 21
112.414814566
 31
0.0
  0
LINE
  8
0
  6
CONTINUOUS
 62
     2
 10
151.9
 20
110.0
 30
0.0
 11
151.252952387
 21
112.414814566
 31
0.0
  0
LINE
  8
0
  6
CONTINUOUS
 62
     2
 10
151.9
 20
110.0
 30
0.0
 11
151.9
 21
125.0
 31
0.0
  0
LINE
  8
0
  6
CONTINUOUS
 62
     2
 10
151.9
 20
125.0
 30
0.0
 11
151.252952387
 21
122.585185434
 31
0.0
  0
LINE
  8
0
  6
CONTINUOUS
 62
     2
 10
151.9
 20
125.0
 30
0.0
 11
152.547047613
 21
122.585185434
 31
0.0
  0
TEXT
  8
0
  6
CONTINUOUS
 62
     2
 10
150.9
 20
115.0
 30
0.2
 40
3.0
  1
３０
 50
90.0
 41
0.8
 51
0.0
  7
KANJI8
  0
LINE
  8
0
  6
CONTINUOUS
 62
     2
 10
181.8
 20
106.25
 30
0.0
 11
181.8
 21
89.9
 31
0.0
  0
LINE
  8
0
  6
CONTINUOUS
 62
     2
 10
175.8
 20
106.25
 30
0.0
 11
175.8
 21
89.9
 31
0.0
  0
LINE
  8
0
  6
LTYPE2
 62
     2
 10
16.9
 20
125.0
 30
0.0
 11
79.025
 21
125.0
 31
0.0
  0
LINE
  8
0
  6
LTYPE2
 62
     2
 10
158.325
 20
125.0
 30
0.0
 11
209.0
 21
125.0
 31
0.0
  0
ARC
  8
0
  6
CONTINUOUS
 62
     2
 10
170.1
 20
125.5
 30
0.0
 40
1.0
 50
90.0
 51
180.0
  0
LINE
  8
0
  6
CONTINUOUS
 62
     2
 10
169.1
 20
125.5
 30
0.0
 11
169.1
 21
119.0
 31
0.0
  0
ARC
  8
0
  6
CONTINUOUS
 62
     2
 10
170.1
 20
119.0
 30
0.0
 40
1.0
 50
180.0
 51
270.0
  0
LINE
  8
0
  6
CONTINUOUS
 62
     2
 10
170.1
 20
118.0
 30
0.0
 11
205.5
 21
118.0
 31
0.0
  0
ARC
  8
0
  6
CONTINUOUS
 62
     2
 10
205.5
 20
119.0
 30
0.0
 40
1.0
 50
270.0
 51
0.0
  0
LINE
  8
0
  6
CONTINUOUS
 62
     2
 10
205.5
 20
126.5
 30
0.0
 11
170.1
 21
126.5
 31
0.0
  0
LINE
  8
0
  6
CONTINUOUS
 62
     2
 10
206.5
 20
119.0
 30
0.0
 11
206.5
 21
125.5
 31
0.0
  0
ARC
  8
0
  6
CONTINUOUS
 62
     2
 10
205.5
 20
125.5
 30
0.0
 40
1.0
 50
360.0
 51
90.0
  0
TEXT
  8
0
  6
CONTINUOUS
 62
     2
 10
181.7
 20
120.85
 30
2.0
 40
3.0
  1
銘　板
 50
0.0
 41
0.9
 51
0.0
  7
KANJI10
  0
ARC
  8
0
  6
CONTINUOUS
 62
     2
 10
209.3
 20
103.5
 30
0.0
 40
4.75
 50
0.0
 51
0.0
  0
ARC
  8
0
  6
CONTINUOUS
 62
     2
 10
209.3
 20
103.5
 30
0.0
 40
4.75
 50
269.999953944
 51
0.0
  0
LINE
  8
0
  6
CONTINUOUS
 62
     2
 10
166.3
 20
98.75
 30
0.0
 11
209.3
 21
98.75
 31
0.0
  0
ARC
  8
0
  6
CONTINUOUS
 62
     2
 10
166.3
 20
103.5
 30
0.0
 40
4.75
 50
180.0
 51
270.0
  0
ARC
  8
0
  6
CONTINUOUS
 62
     2
 10
166.3
 20
146.5
 30
0.0
 40
4.75
 50
90.0
 51
180.0
  0
ARC
  8
0
  6
CONTINUOUS
 62
     2
 10
209.3
 20
146.5
 30
0.0
 40
4.75
 50
0.0
 51
90.000032567
  0
LINE
  8
0
  6
CONTINUOUS
 62
     2
 10
209.3
 20
151.25
 30
0.0
 11
166.3
 21
151.25
 31
0.0
  0
LINE
  8
0
  6
CONTINUOUS
 62
     2
 10
214.05
 20
103.5
 30
0.0
 11
214.05
 21
146.5
 31
0.0
  0
LINE
  8
0
  6
LTYPE3
 62
     2
 10
171.8
 20
111.0
 30
0.0
 11
172.8
 21
111.0
 31
0.0
  0
LINE
  8
0
  6
LTYPE3
 62
     2
 10
171.8
 20
109.0
 30
0.0
 11
172.8
 21
109.0
 31
0.0
  0
LINE
  8
0
  6
LTYPE3
 62
     2
 10
203.8
 20
111.0
 30
0.0
 11
202.8
 21
111.0
 31
0.0
  0
LINE
  8
0
  6
LTYPE3
 62
     2
 10
203.8
 20
109.0
 30
0.0
 11
202.8
 21
109.0
 31
0.0
  0
LINE
  8
0
  6
CONTINUOUS
 62
     2
 10
124.1
 20
148.1
 30
0.0
 11
125.758674883
 21
149.970507319
 31
0.0
  0
LINE
  8
0
  6
CONTINUOUS
 62
     2
 10
124.1
 20
148.1
 30
0.0
 11
124.601200926
 21
150.549244298
 31
0.0
  0
LINE
  8
0
  6
CONTINUOUS
 62
     2
 10
124.1
 20
148.1
 30
0.0
 11
136.2
 21
172.3
 31
0.0
  0
TEXT
  8
0
  6
CONTINUOUS
 62
     2
 10
136.2
 20
173.3
 30
0.3
 40
3.0
  1
結線図ラベル
 50
0.0
 41
0.8
 51
0.0
  7
KANJI9
  0
LINE
  8
0
  6
CONTINUOUS
 62
     2
 10
88.55
 20
127.3
 30
0.0
 11
88.55
 21
122.725
 31
0.0
  0
LINE
  8
0
  6
CONTINUOUS
 62
     2
 10
86.5
 20
122.5
 30
0.0
 11
88.2
 21
122.5
 31
0.0
  0
LINE
  8
0
  6
CONTINUOUS
 62
     2
 10
86.5
 20
123.0
 30
0.0
 11
88.2
 21
123.0
 31
0.0
  0
LINE
  8
0
  6
CONTINUOUS
 62
     2
 10
86.5
 20
123.5
 30
0.0
 11
88.2
 21
123.5
 31
0.0
  0
LINE
  8
0
  6
CONTINUOUS
 62
     2
 10
86.5
 20
124.0
 30
0.0
 11
88.2
 21
124.0
 31
0.0
  0
LINE
  8
0
  6
CONTINUOUS
 62
     2
 10
86.5
 20
124.5
 30
0.0
 11
88.2
 21
124.5
 31
0.0
  0
LINE
  8
0
  6
CONTINUOUS
 62
     2
 10
86.5
 20
125.0
 30
0.0
 11
88.2
 21
125.0
 31
0.0
  0
LINE
  8
0
  6
CONTINUOUS
 62
     2
 10
86.5
 20
125.5
 30
0.0
 11
88.2
 21
125.5
 31
0.0
  0
LINE
  8
0
  6
CONTINUOUS
 62
     2
 10
86.5
 20
126.0
 30
0.0
 11
88.2
 21
126.0
 31
0.0
  0
LINE
  8
0
  6
CONTINUOUS
 62
     2
 10
86.5
 20
126.5
 30
0.0
 11
88.2
 21
126.5
 31
0.0
  0
LINE
  8
0
  6
CONTINUOUS
 62
     2
 10
86.5
 20
127.0
 30
0.0
 11
88.2
 21
127.0
 31
0.0
  0
LINE
  8
0
  6
CONTINUOUS
 62
     2
 10
86.5
 20
127.5
 30
0.0
 11
88.2
 21
127.5
 31
0.0
  0
LINE
  8
0
  6
CONTINUOUS
 62
     2
 10
86.5
 20
128.1
 30
0.0
 11
86.5
 21
169.025001907
 31
0.0
  0
TEXT
  8
0
  6
CONTINUOUS
 62
     2
 10
89.95
 20
167.425001907
 30
0.3
 40
3.0
  1
２５
 50
0.0
 41
0.6
 51
0.0
  7
KANJI4
  0
LINE
  8
0
  6
CONTINUOUS
 62
     2
 10
86.5
 20
166.525001907
 30
0.0
 11
88.914814566
 21
165.877954295
 31
0.0
  0
LINE
  8
0
  6
CONTINUOUS
 62
     2
 10
86.5
 20
166.525001907
 30
0.0
 11
88.914814566
 21
167.17204952
 31
0.0
  0
LINE
  8
0
  6
CONTINUOUS
 62
     2
 10
99.25
 20
166.525001907
 30
0.0
 11
86.5
 21
166.525001907
 31
0.0
  0
LINE
  8
0
  6
CONTINUOUS
 62
     2
 10
48.95
 20
126.430908802
 30
0.0
 11
48.95
 21
123.569091198
 31
0.0
  0
LINE
  8
0
  6
CONTINUOUS
 62
     2
 10
49.85
 20
123.569091198
 30
0.0
 11
49.85
 21
126.430908802
 31
0.0
  0
LINE
  8
0
  6
CONTINUOUS
 62
     2
 10
49.45
 20
124.25
 30
0.0
 11
49.445726665
 21
121.750003652
 31
0.0
  0
LINE
  8
0
  6
CONTINUOUS
 62
     2
 10
49.45
 20
124.25
 30
0.0
 11
50.696297357
 21
122.082802986
 31
0.0
  0
LINE
  8
0
  6
CONTINUOUS
 62
     2
 10
49.45
 20
124.25
 30
0.0
 11
59.15
 21
87.8
 31
0.0
  0
LINE
  8
0
  6
CONTINUOUS
 62
     2
 10
63.15
 20
139.425
 30
0.0
 11
63.375438916
 21
141.914814711
 31
0.0
  0
LINE
  8
0
  6
CONTINUOUS
 62
     2
 10
63.15
 20
139.425
 30
0.0
 11
62.100328473
 21
141.693962249
 31
0.0
  0
LINE
  8
0
  6
CONTINUOUS
 62
     2
 10
63.15
 20
139.425
 30
0.0
 11
57.85
 21
170.025
 31
0.0
  0
LINE
  8
0
  6
CONTINUOUS
 62
     2
 10
57.85
 20
170.025
 30
0.0
 11
36.55
 21
170.025
 31
0.0
  0
TEXT
  8
0
  6
CONTINUOUS
 62
     2
 10
36.55
 20
171.025
 30
0.3
 40
3.0
  1
予定指針（赤色）
 50
0.0
 41
0.8
 51
0.0
  7
KANJI9
  0
LINE
  8
0
  6
CONTINUOUS
 62
     2
 10
88.05
 20
126.125
 30
0.0
 11
90.343327546
 21
127.120313402
 31
0.0
  0
LINE
  8
0
  6
CONTINUOUS
 62
     2
 10
88.05
 20
126.125
 30
0.0
 11
89.538423213
 21
128.133630464
 31
0.0
  0
LINE
  8
0
  6
CONTINUOUS
 62
     2
 10
88.05
 20
126.125
 30
0.0
 11
102.15
 21
137.325
 31
0.0
  0
LINE
  8
0
  6
CONTINUOUS
 62
     2
 10
102.15
 20
137.325
 30
0.0
 11
120.75
 21
137.325
 31
0.0
  0
TEXT
  8
0
  6
CONTINUOUS
 62
     2
 10
102.15
 20
138.325
 30
0.3
 40
3.0
  1
予定指針ツマミ
 50
0.0
 41
0.8
 51
0.0
  7
KANJI9
  0
LINE
  8
0
  6
CONTINUOUS
 62
     2
 10
130.5
 20
100.25
 30
0.0
 11
131.147047613
 21
102.664814566
 31
0.0
  0
LINE
  8
0
  6
CONTINUOUS
 62
     2
 10
130.5
 20
100.25
 30
0.0
 11
129.852952387
 21
102.664814566
 31
0.0
  0
LINE
  8
0
  6
CONTINUOUS
 62
     2
 10
130.5
 20
100.25
 30
0.0
 11
130.5
 21
149.8
 31
0.0
  0
LINE
  8
0
  6
CONTINUOUS
 62
     2
 10
130.5
 20
149.8
 30
0.0
 11
129.852952387
 21
147.385185434
 31
0.0
  0
LINE
  8
0
  6
CONTINUOUS
 62
     2
 10
130.5
 20
149.8
 30
0.0
 11
131.147047613
 21
147.385185434
 31
0.0
  0
TEXT
  8
0
  6
CONTINUOUS
 62
     2
 10
129.5
 20
122.025
 30
0.3
 40
3.0
  1
φ９９
 50
90.0
 41
0.6
 51
0.0
  7
KANJI4
  0
LINE
  8
0
  6
LTYPE2
 62
     2
 10
131.725
 20
125.0
 30
0.0
 11
153.725
 21
125.0
 31
0.0
  0
LINE
  8
0
  6
LTYPE2
 62
     2
 10
85.225
 20
125.0
 30
0.0
 11
125.925
 21
125.0
 31
0.0
  0
LINE
  8
0
  6
CONTINUOUS
 62
     2
 10
88.609090909
 20
85.05
 30
0.0
 11
104.948484848
 21
101.9
 31
0.0
  0
LINE
  8
0
  6
CONTINUOUS
 62
     2
 10
88.609090909
 20
85.05
 30
0.0
 11
112.155340909
 21
85.05
 31
0.0
  0
TEXT
  8
0
  6
CONTINUOUS
 62
     2
 10
92.955340909
 20
86.05
 30
0.5
 40
3.0
  1
４－Ｍ５取付ボルト
 50
0.0
 41
0.6
 51
0.0
  7
KANJI6
  0
TEXT
  8
0
  6
CONTINUOUS
 62
     2
 10
211.725
 20
173.975
 30
0.0
 40
3.0
  1
※
 50
0.0
 41
0.666666667
 51
0.0
  7
KANJI11
  0
LINE
  8
0
  6
CONTINUOUS
 62
     2
 10
161.55
 20
130.45
 30
0.0
 11
161.55
 21
103.5
 31
0.0
  0
LINE
  8
0
  6
CONTINUOUS
 62
     2
 10
161.55
 20
146.5
 30
0.0
 11
161.55
 21
135.75
 31
0.0
  0
LINE
  8
0
  6
CONTINUOUS
 62
     2
 10
180.625
 20
113.075
 30
0.0
 11
180.46202409
 21
115.068348653
 31
0.0
  0
LINE
  8
0
  6
CONTINUOUS
 62
     2
 10
180.625
 20
113.075
 30
0.0
 11
179.487184395
 21
114.719802617
 31
0.0
  0
LINE
  8
0
  6
CONTINUOUS
 62
     2
 10
180.625
 20
113.075
 30
0.0
 11
174.225
 21
130.975
 31
0.0
  0
LINE
  8
0
  6
CONTINUOUS
 62
     2
 10
190.325
 20
142.075
 30
0.0
 11
191.918101948
 21
143.284142748
 31
0.0
  0
LINE
  8
0
  6
CONTINUOUS
 62
     2
 10
190.325
 20
142.075
 30
0.0
 11
191.100095384
 21
143.91869931
 31
0.0
  0
LINE
  8
0
  6
CONTINUOUS
 62
     2
 10
190.325
 20
142.075
 30
0.0
 11
211.425
 21
169.275
 31
0.0
  0
TEXT
  8
0
  6
CONTINUOUS
 62
     2
 10
194.325
 20
89.775
 30
0.1
 40
2.5
  1
（ＦＶＦ－１１ＦＶのみ）
 50
0.0
 41
0.666666667
 51
0.0
  7
KANJI12
  0
TEXT
  8
0
  6
CONTINUOUS
 62
     2
 10
211.425
 20
170.275
 30
0.0
 40
3.0
  1
Ｆ．Ｓ．　ＡＤＪＵＳＴＥＲ
 50
0.0
 41
0.666666667
 51
0.0
  7
KANJI11
  0
LINE
  8
0
  6
CONTINUOUS
 62
     2
 10
211.425
 20
169.275
 30
0.0
 11
236.4
 21
169.275
 31
0.0
  0
TEXT
  8
0
  6
CONTINUOUS
 62
     2
 10
194.14375
 20
93.58125
 30
0.095
 40
2.375
  1
Ｆ．Ｓ．　ＡＤＪＵＳＴＥＲ
 50
0.0
 41
0.666666667
 51
0.0
  7
KANJI13
  0
LINE
  8
0
  6
CONTINUOUS
 62
     2
 10
193.925
 20
93.075
 30
0.0
 11
215.9
 21
93.075
 31
0.0
  0
TEXT
  8
0
  6
CONTINUOUS
 62
     2
 10
57.8
 20
76.4
 30
1.0
 40
3.0
  1
計器形名
 50
0.0
 41
0.9
 51
0.0
  7
KANJI14
  0
TEXT
  8
0
  6
CONTINUOUS
 62
     2
 10
87.8
 20
76.4
 30
1.0
 40
3.0
  1
動作原理
 50
0.0
 41
0.9
 51
0.0
  7
KANJI14
  0
LINE
  8
0
  6
CONTINUOUS
 62
     2
 10
59.214213562
 20
70.4
 30
0.0
 11
52.8
 21
70.4
 31
0.0
  0
TEXT
  8
0
  6
CONTINUOUS
 62
     2
 10
22.3
 20
76.4
 30
0.3
 40
3.0
  1
項
 50
0.0
 41
0.9
 51
0.0
  7
KANJI15
  0
TEXT
  8
0
  6
CONTINUOUS
 62
     2
 10
22.3
 20
71.4
 30
0.3
 40
3.0
  1
１
 50
0.0
 41
0.9
 51
0.0
  7
KANJI15
  0
TEXT
  8
0
  6
CONTINUOUS
 62
     2
 10
22.3
 20
66.4
 30
0.3
 40
3.0
  1
２
 50
0.0
 41
0.9
 51
0.0
  7
KANJI15
  0
TEXT
  8
0
  6
CONTINUOUS
 62
     2
 10
22.3
 20
61.4
 30
0.3
 40
3.0
  1
３
 50
0.0
 41
0.9
 51
0.0
  7
KANJI15
  0
LINE
  8
0
  6
CONTINUOUS
 62
     2
 10
21.3
 20
80.4
 30
0.0
 11
52.8
 21
80.4
 31
0.0
  0
LINE
  8
0
  6
CONTINUOUS
 62
     2
 10
21.3
 20
75.4
 30
0.0
 11
52.8
 21
75.4
 31
0.0
  0
LINE
  8
0
  6
CONTINUOUS
 62
     2
 10
52.8
 20
70.4
 30
0.0
 11
21.3
 21
70.4
 31
0.0
  0
LINE
  8
0
  6
CONTINUOUS
 62
     2
 10
21.3
 20
65.4
 30
0.0
 11
52.8
 21
65.4
 31
0.0
  0
TEXT
  8
0
  6
CONTINUOUS
 62
     2
 10
31.725
 20
76.65
 30
3.0
 40
3.0
  1
品名
 50
0.0
 41
0.9
 51
0.0
  7
KANJI16
  0
LINE
  8
0
  6
CONTINUOUS
 62
     2
 10
52.8
 20
75.4
 30
0.0
 11
112.8
 21
75.4
 31
0.0
  0
LINE
  8
0
  6
CONTINUOUS
 62
     2
 10
52.8
 20
80.4
 30
0.0
 11
112.8
 21
80.4
 31
0.0
  0
LINE
  8
0
  6
CONTINUOUS
 62
     2
 10
52.8
 20
75.4
 30
0.0
 11
52.8
 21
80.4
 31
0.0
  0
LINE
  8
0
  6
CONTINUOUS
 62
     2
 10
52.8
 20
60.4
 30
0.0
 11
52.8
 21
75.4
 31
0.0
  0
LINE
  8
0
  6
CONTINUOUS
 62
     2
 10
82.8
 20
75.4
 30
0.0
 11
82.8
 21
60.4
 31
0.0
  0
LINE
  8
0
  6
CONTINUOUS
 62
     2
 10
82.8
 20
80.4
 30
0.0
 11
82.8
 21
75.4
 31
0.0
  0
LINE
  8
0
  6
CONTINUOUS
 62
     2
 10
59.214213562
 20
55.4
 30
0.0
 11
52.8
 21
55.4
 31
0.0
  0
LINE
  8
0
  6
CONTINUOUS
 62
     2
 10
21.3
 20
60.4
 30
0.0
 11
52.8
 21
60.4
 31
0.0
  0
LINE
  8
0
  6
CONTINUOUS
 62
     2
 10
52.8
 20
55.4
 30
0.0
 11
21.3
 21
55.4
 31
0.0
  0
LINE
  8
0
  6
CONTINUOUS
 62
     2
 10
21.3
 20
50.4
 30
0.0
 11
52.8
 21
50.4
 31
0.0
  0
LINE
  8
0
  6
CONTINUOUS
 62
     2
 10
52.8
 20
60.4
 30
0.0
 11
112.8
 21
60.4
 31
0.0
  0
LINE
  8
0
  6
CONTINUOUS
 62
     2
 10
52.8
 20
45.4
 30
0.0
 11
112.8
 21
45.4
 31
0.0
  0
TEXT
  8
0
  6
CONTINUOUS
 62
     2
 10
22.3
 20
56.4
 30
0.3
 40
3.0
  1
４
 50
0.0
 41
0.9
 51
0.0
  7
KANJI15
  0
TEXT
  8
0
  6
CONTINUOUS
 62
     2
 10
22.3
 20
51.4
 30
0.3
 40
3.0
  1
５
 50
0.0
 41
0.9
 51
0.0
  7
KANJI15
  0
TEXT
  8
0
  6
CONTINUOUS
 62
     2
 10
22.3
 20
46.4
 30
0.3
 40
3.0
  1
６
 50
0.0
 41
0.9
 51
0.0
  7
KANJI15
  0
TEXT
  8
0
  6
CONTINUOUS
 62
     2
 10
30.725
 20
71.15
 30
1.0
 40
3.0
  1
直流電流計　　
 50
0.0
 41
0.9
 51
0.0
  7
KANJI14
  0
TEXT
  8
0
  6
CONTINUOUS
 62
     2
 10
30.725
 20
66.15
 30
1.0
 40
3.0
  1
直流電圧計
 50
0.0
 41
0.9
 51
0.0
  7
KANJI14
  0
TEXT
  8
0
  6
CONTINUOUS
 62
     2
 10
55.3
 20
71.4
 30
0.5
 40
3.0
  1
ＤＶＦ－１１Ｆ
 50
0.0
 41
0.9
 51
0.0
  7
KANJI3
  0
TEXT
  8
0
  6
CONTINUOUS
 62
     2
 10
55.6
 20
66.4
 30
0.5
 40
3.0
  1
ＤＶＦ－１１Ｆ
 50
0.0
 41
0.9
 51
0.0
  7
KANJI3
  0
TEXT
  8
0
  6
CONTINUOUS
 62
     2
 10
30.725
 20
61.15
 30
1.0
 40
3.0
  1
交流電圧計
 50
0.0
 41
0.9
 51
0.0
  7
KANJI14
  0
TEXT
  8
0
  6
CONTINUOUS
 62
     2
 10
30.725
 20
56.15
 30
1.0
 40
3.0
  1
回転計
 50
0.0
 41
0.9
 51
0.0
  7
KANJI14
  0
TEXT
  8
0
  6
CONTINUOUS
 62
     2
 10
30.725
 20
51.15
 30
1.0
 40
3.0
  1
交流電流計
 50
0.0
 41
0.9
 51
0.0
  7
KANJI14
  0
TEXT
  8
0
  6
CONTINUOUS
 62
     2
 10
30.725
 20
46.15
 30
1.0
 40
3.0
  1
交流電圧計
 50
0.0
 41
0.9
 51
0.0
  7
KANJI14
  0
TEXT
  8
0
  6
CONTINUOUS
 62
     2
 10
55.3
 20
61.4
 30
0.5
 40
3.0
  1
ＳＶＦ－１１Ｆ
 50
0.0
 41
0.9
 51
0.0
  7
KANJI3
  0
TEXT
  8
0
  6
CONTINUOUS
 62
     2
 10
55.6
 20
56.4
 30
0.5
 40
3.0
  1
ＣＶＦ－１１Ｆ
 50
0.0
 41
0.9
 51
0.0
  7
KANJI3
  0
TEXT
  8
0
  6
CONTINUOUS
 62
     2
 10
55.5
 20
51.4
 30
0.5
 40
3.0
  1
ＳｅＶＦ－１１Ｆ
 50
0.0
 41
0.9
 51
0.0
  7
KANJI3
  0
TEXT
  8
0
  6
CONTINUOUS
 62
     2
 10
55.3
 20
46.4
 30
0.5
 40
3.0
  1
ＳｅＶＦ－１１Ｆ
 50
0.0
 41
0.9
 51
0.0
  7
KANJI3
  0
LINE
  8
0
  6
CONTINUOUS
 62
     2
 10
21.3
 20
30.4
 30
0.0
 11
52.8
 21
30.4
 31
0.0
  0
LINE
  8
0
  6
CONTINUOUS
 62
     2
 10
21.3
 20
80.4
 30
0.0
 11
21.3
 21
30.4
 31
0.0
  0
LINE
  8
0
  6
CONTINUOUS
 62
     2
 10
26.3
 20
80.4
 30
0.0
 11
26.3
 21
30.4
 31
0.0
  0
LINE
  8
0
  6
CONTINUOUS
 62
     2
 10
112.8
 20
45.4
 30
0.0
 11
21.3
 21
45.4
 31
0.0
  0
LINE
  8
0
  6
CONTINUOUS
 62
     2
 10
52.8
 20
30.4
 30
0.0
 11
52.8
 21
60.4
 31
0.0
  0
LINE
  8
0
  6
CONTINUOUS
 62
     2
 10
82.8
 20
60.4
 30
0.0
 11
82.8
 21
30.4
 31
0.0
  0
TEXT
  8
0
  6
CONTINUOUS
 62
     2
 10
22.3
 20
41.4
 30
0.3
 40
3.0
  1
７
 50
0.0
 41
0.9
 51
0.0
  7
KANJI15
  0
TEXT
  8
0
  6
CONTINUOUS
 62
     2
 10
30.725
 20
41.15
 30
1.0
 40
3.0
  1
周波数計
 50
0.0
 41
0.9
 51
0.0
  7
KANJI14
  0
TEXT
  8
0
  6
CONTINUOUS
 62
     2
 10
55.6
 20
41.4
 30
0.5
 40
3.0
  1
ＦＶＦ－１１Ｆ
 50
0.0
 41
0.9
 51
0.0
  7
KANJI3
  0
TEXT
  8
0
  6
CONTINUOUS
 62
     2
 10
22.3
 20
36.4
 30
0.3
 40
3.0
  1
８
 50
0.0
 41
0.9
 51
0.0
  7
KANJI15
  0
TEXT
  8
0
  6
CONTINUOUS
 62
     2
 10
30.725
 20
36.15
 30
1.0
 40
3.0
  1
単相力率計
 50
0.0
 41
0.9
 51
0.0
  7
KANJI14
  0
TEXT
  8
0
  6
CONTINUOUS
 62
     2
 10
55.5
 20
36.4
 30
0.5
 40
3.0
  1
ＵＶＦ－１１Ｆ
 50
0.0
 41
0.9
 51
0.0
  7
KANJI3
  0
TEXT
  8
0
  6
CONTINUOUS
 62
     2
 10
55.5
 20
31.4
 30
0.5
 40
3.0
  1
ＵＶＦ－１１Ｆ
 50
0.0
 41
0.9
 51
0.0
  7
KANJI3
  0
TEXT
  8
0
  6
CONTINUOUS
 62
     2
 10
22.3
 20
31.4
 30
0.3
 40
3.0
  1
９
 50
0.0
 41
0.9
 51
0.0
  7
KANJI15
  0
TEXT
  8
0
  6
CONTINUOUS
 62
     2
 10
27.325
 20
31.15
 30
1.0
 40
3.0
  1
三相平衡力率計
 50
0.0
 41
0.9
 51
0.0
  7
KANJI14
  0
TEXT
  8
0
  6
CONTINUOUS
 62
     2
 10
77.5
 20
32.9
 30
0.3
 40
2.0
  1
３Ｐ
 50
0.0
 41
0.8
 51
0.0
  7
KANJI17
  0
TEXT
  8
0
  6
CONTINUOUS
 62
     2
 10
77.5
 20
37.8
 30
0.3
 40
2.0
  1
１Ｐ
 50
0.0
 41
0.8
 51
0.0
  7
KANJI17
  0
LINE
  8
0
  6
CONTINUOUS
 62
     2
 10
107.8
 20
60.4
 30
0.0
 11
107.8
 21
75.4
 31
0.0
  0
LINE
  8
0
  6
CONTINUOUS
 62
     2
 10
107.8
 20
75.4
 30
0.0
 11
107.8
 21
80.4
 31
0.0
  0
LINE
  8
0
  6
CONTINUOUS
 62
     2
 10
107.8
 20
30.4
 30
0.0
 11
107.8
 21
60.4
 31
0.0
  0
TEXT
  8
0
  6
CONTINUOUS
 62
     2
 10
86.0
 20
71.4
 30
0.5
 40
3.0
  1
可動コイル形
 50
0.0
 41
0.9
 51
0.0
  7
KANJI3
  0
TEXT
  8
0
  6
CONTINUOUS
 62
     2
 10
86.0
 20
66.4
 30
0.5
 40
3.0
  1
可動コイル形
 50
0.0
 41
0.9
 51
0.0
  7
KANJI3
  0
TEXT
  8
0
  6
CONTINUOUS
 62
     2
 10
86.1
 20
61.2
 30
0.5
 40
3.0
  1
平均値整流形
 50
0.0
 41
0.9
 51
0.0
  7
KANJI3
  0
TEXT
  8
0
  6
CONTINUOUS
 62
     2
 10
86.1
 20
56.2
 30
0.5
 40
3.0
  1
平均値整流形
 50
0.0
 41
0.9
 51
0.0
  7
KANJI3
  0
TEXT
  8
0
  6
CONTINUOUS
 62
     2
 10
83.1
 20
51.4
 30
0.5
 40
3.0
  1
　実効値整流形
 50
0.0
 41
0.9
 51
0.0
  7
KANJI3
  0
TEXT
  8
0
  6
CONTINUOUS
 62
     2
 10
83.1
 20
46.4
 30
0.5
 40
3.0
  1
　実効値整流形
 50
0.0
 41
0.9
 51
0.0
  7
KANJI3
  0
TEXT
  8
0
  6
CONTINUOUS
 62
     2
 10
86.2
 20
41.4
 30
0.5
 40
3.0
  1
微分方式　　　　
 50
0.0
 41
0.9
 51
0.0
  7
KANJI3
  0
TEXT
  8
0
  6
CONTINUOUS
 62
     2
 10
86.1
 20
36.3
 30
0.5
 40
3.0
  1
位相弁別方式　　
 50
0.0
 41
0.9
 51
0.0
  7
KANJI3
  0
TEXT
  8
0
  6
CONTINUOUS
 62
     2
 10
86.1
 20
31.3
 30
0.5
 40
3.0
  1
位相弁別方式　　
 50
0.0
 41
0.9
 51
0.0
  7
KANJI3
  0
TEXT
  8
0
  6
CONTINUOUS
 62
     2
 10
109.6
 20
76.21
 30
0.18
 40
2.7
  1
Ｆ．Ｓ．　ＡＤＪＵＳＴＥＲ付の
 50
0.0
 41
0.666666667
 51
0.0
  7
KANJI18
  0
TEXT
  8
0
  6
CONTINUOUS
 62
     2
 10
136.6
 20
76.2
 30
0.2
 40
3.0
  1
可否
 50
0.0
 41
0.666666667
 51
0.0
  7
KANJI19
  0
LINE
  8
0
  6
CONTINUOUS
 62
     2
 10
141.5
 20
80.4
 30
0.0
 11
141.5
 21
30.4
 31
0.0
  0
LINE
  8
0
  6
CONTINUOUS
 62
     2
 10
152.9
 20
80.4
 30
0.0
 11
152.9
 21
30.4
 31
0.0
  0
TEXT
  8
0
  6
CONTINUOUS
 62
     2
 10
143.5
 20
76.1
 30
0.2
 40
3.0
  1
端子数
 50
0.0
 41
0.733333333
 51
0.0
  7
KANJI20
  0
LINE
  8
0
  6
CONTINUOUS
 62
     2
 10
112.8
 20
80.4
 30
0.0
 11
152.9
 21
80.4
 31
0.0
  0
LINE
  8
0
  6
CONTINUOUS
 62
     2
 10
112.8
 20
75.4
 30
0.0
 11
152.9
 21
75.4
 31
0.0
  0
LINE
  8
0
  6
CONTINUOUS
 62
     2
 10
52.8
 20
30.4
 30
0.0
 11
152.9
 21
30.4
 31
0.0
  0
LINE
  8
0
  6
CONTINUOUS
 62
     2
 10
152.9
 20
35.4
 30
0.0
 11
21.3
 21
35.4
 31
0.0
  0
LINE
  8
0
  6
CONTINUOUS
 62
     2
 10
152.9
 20
40.4
 30
0.0
 11
21.3
 21
40.4
 31
0.0
  0
LINE
  8
0
  6
CONTINUOUS
 62
     2
 10
152.9
 20
45.4
 30
0.0
 11
52.8
 21
45.4
 31
0.0
  0
LINE
  8
0
  6
CONTINUOUS
 62
     2
 10
52.8
 20
50.4
 30
0.0
 11
152.9
 21
50.4
 31
0.0
  0
LINE
  8
0
  6
CONTINUOUS
 62
     2
 10
152.9
 20
55.4
 30
0.0
 11
59.214213562
 21
55.4
 31
0.0
  0
LINE
  8
0
  6
CONTINUOUS
 62
     2
 10
152.9
 20
60.4
 30
0.0
 11
52.8
 21
60.4
 31
0.0
  0
LINE
  8
0
  6
CONTINUOUS
 62
     2
 10
52.8
 20
65.4
 30
0.0
 11
152.9
 21
65.4
 31
0.0
  0
LINE
  8
0
  6
CONTINUOUS
 62
     2
 10
152.9
 20
70.4
 30
0.0
 11
59.214213562
 21
70.4
 31
0.0
  0
TEXT
  8
0
  6
CONTINUOUS
 62
     2
 10
145.7
 20
71.4
 30
0.2
 40
3.0
  1
２
 50
0.0
 41
0.733333333
 51
0.0
  7
KANJI20
  0
TEXT
  8
0
  6
CONTINUOUS
 62
     2
 10
145.7
 20
66.4
 30
0.2
 40
3.0
  1
２
 50
0.0
 41
0.733333333
 51
0.0
  7
KANJI20
  0
TEXT
  8
0
  6
CONTINUOUS
 62
     2
 10
145.7
 20
61.4
 30
0.2
 40
3.0
  1
２
 50
0.0
 41
0.733333333
 51
0.0
  7
KANJI20
  0
TEXT
  8
0
  6
CONTINUOUS
 62
     2
 10
145.7
 20
56.4
 30
0.2
 40
3.0
  1
２
 50
0.0
 41
0.733333333
 51
0.0
  7
KANJI20
  0
TEXT
  8
0
  6
CONTINUOUS
 62
     2
 10
145.7
 20
51.4
 30
0.2
 40
3.0
  1
２
 50
0.0
 41
0.733333333
 51
0.0
  7
KANJI20
  0
TEXT
  8
0
  6
CONTINUOUS
 62
     2
 10
145.7
 20
46.4
 30
0.2
 40
3.0
  1
２
 50
0.0
 41
0.733333333
 51
0.0
  7
KANJI20
  0
TEXT
  8
0
  6
CONTINUOUS
 62
     2
 10
145.7
 20
41.4
 30
0.2
 40
3.0
  1
２
 50
0.0
 41
0.733333333
 51
0.0
  7
KANJI20
  0
TEXT
  8
0
  6
CONTINUOUS
 62
     2
 10
145.7
 20
36.4
 30
0.2
 40
3.0
  1
４
 50
0.0
 41
0.733333333
 51
0.0
  7
KANJI20
  0
TEXT
  8
0
  6
CONTINUOUS
 62
     2
 10
145.7
 20
31.4
 30
0.2
 40
3.0
  1
４
 50
0.0
 41
0.733333333
 51
0.0
  7
KANJI20
  0
CIRCLE
  8
0
  6
CONTINUOUS
 62
     2
 10
124.8
 20
72.9
 30
0.0
 40
1.5
  0
CIRCLE
  8
0
  6
CONTINUOUS
 62
     2
 10
124.8
 20
67.9
 30
0.0
 40
1.5
  0
CIRCLE
  8
0
  6
CONTINUOUS
 62
     2
 10
124.8
 20
62.9
 30
0.0
 40
1.5
  0
CIRCLE
  8
0
  6
CONTINUOUS
 62
     2
 10
124.8
 20
57.9
 30
0.0
 40
1.5
  0
TEXT
  8
0
  6
CONTINUOUS
 62
     2
 10
123.8
 20
46.5
 30
0.2
 40
3.0
  1
×
 50
0.0
 41
0.666666667
 51
0.0
  7
KANJI19
  0
TEXT
  8
0
  6
CONTINUOUS
 62
     2
 10
123.8
 20
51.5
 30
0.2
 40
3.0
  1
×
 50
0.0
 41
0.666666667
 51
0.0
  7
KANJI19
  0
CIRCLE
  8
0
  6
CONTINUOUS
 62
     2
 10
124.8
 20
42.9
 30
0.0
 40
1.5
  0
TEXT
  8
0
  6
CONTINUOUS
 62
     2
 10
123.8
 20
36.5
 30
0.2
 40
3.0
  1
×
 50
0.0
 41
0.666666667
 51
0.0
  7
KANJI19
  0
TEXT
  8
0
  6
CONTINUOUS
 62
     2
 10
123.8
 20
31.5
 30
0.2
 40
3.0
  1
×
 50
0.0
 41
0.666666667
 51
0.0
  7
KANJI19
  0
TEXT
  8
0
  6
CONTINUOUS
 62
     2
 10
33.55
 20
24.05
 30
0.2
 40
3.0
  1
Ｆ．Ｓ．　ＡＤＪＵＳＴＥＲは，形式末尾にＶ付き仕様となったものに適用します。
 50
0.0
 41
0.666666667
 51
0.0
  7
KANJI19
  0
TEXT
  8
0
  6
CONTINUOUS
 62
     2
 10
21.55
 20
24.05
 30
0.2
 40
3.0
  1
注）１．※　　　　　　　　　　　　　　　　　　
 50
0.0
 41
0.666666667
 51
0.0
  7
KANJI19
  0
TEXT
  8
0
  6
CONTINUOUS
 62
     2
 10
25.95
 20
20.05
 30
0.2
 40
3.0
  1
２．　　　　　　　　　　　　　　　　　　
 50
0.0
 41
0.666666667
 51
0.0
  7
KANJI19
  0
TEXT
  8
0
  6
CONTINUOUS
 62
     2
 10
29.979905948
 20
20.219123642
 30
0.2
 40
3.0
  1
端子記号＋－は，直流入力仕様分にのみ表示します。
 50
0.0
 41
0.666666667
 51
0.0
  7
KANJI19
  0
TEXT
  8
0
  6
CONTINUOUS
 62
     2
 10
25.95
 20
16.05
 30
0.2
 40
3.0
  1
３．　　　　　　　　　　　　　　　　　　
 50
0.0
 41
0.666666667
 51
0.0
  7
KANJI19
  0
TEXT
  8
0
  6
CONTINUOUS
 62
     2
 10
29.979905948
 20
16.219123642
 30
0.2
 40
3.0
  1
単相力率計には、５０Ｈｚまたは６０Ｈｚの周波数指定が必要です。
 50
0.0
 41
0.666666667
 51
0.0
  7
KANJI19
  0
TEXT
  8
0
  6
CONTINUOUS
 62
     2
 10
108.1
 20
23.9
 30
0.2
 40
3.0
  1
　　　一例　ＤＶＦ－１１ＦＶ
 50
0.0
 41
0.666666667
 51
0.0
  7
KANJI19
  0
CIRCLE
  8
0
  6
CONTINUOUS
 62
     2
 10
175.8
 20
110.0
 30
0.0
 40
1.0
  0
CIRCLE
  8
0
  6
CONTINUOUS
 62
     2
 10
199.8
 20
110.0
 30
0.0
 40
1.0
  0
CIRCLE
  8
0
  6
CONTINUOUS
 62
     2
 10
193.8
 20
110.0
 30
0.0
 40
1.6625
  0
LINE
  8
0
  6
CONTINUOUS
 62
     2
 10
193.56725
 20
109.085625
 30
0.0
 11
194.03275
 21
109.085625
 31
0.0
  0
LINE
  8
0
  6
CONTINUOUS
 62
     2
 10
194.03275
 20
110.914375
 30
0.0
 11
193.56725
 21
110.914375
 31
0.0
  0
LINE
  8
0
  6
CONTINUOUS
 62
     2
 10
194.03275
 20
109.085625
 30
0.0
 11
194.03275
 21
109.2685
 31
0.0
  0
LINE
  8
0
  6
CONTINUOUS
 62
     2
 10
194.5315
 20
109.76725
 30
0.0
 11
195.446126875
 21
109.76725
 31
0.0
  0
ARC
  8
0
  6
CONTINUOUS
 62
     2
 10
194.5315
 20
109.2685
 30
0.0
 40
0.49875
 50
90.0
 51
180.0
  0
LINE
  8
0
  6
CONTINUOUS
 62
     2
 10
193.56725
 20
109.2685
 30
0.0
 11
193.56725
 21
109.085625
 31
0.0
  0
LINE
  8
0
  6
CONTINUOUS
 62
     2
 10
192.17075
 20
109.76725
 30
0.0
 11
193.0685
 21
109.76725
 31
0.0
  0
ARC
  8
0
  6
CONTINUOUS
 62
     2
 10
193.0685
 20
109.2685
 30
0.0
 40
0.49875
 50
0.0
 51
90.0
  0
LINE
  8
0
  6
CONTINUOUS
 62
     2
 10
193.56725
 20
110.914375
 30
0.0
 11
193.56725
 21
110.7315
 31
0.0
  0
LINE
  8
0
  6
CONTINUOUS
 62
     2
 10
193.0685
 20
110.23275
 30
0.0
 11
192.153873125
 21
110.23275
 31
0.0
  0
ARC
  8
0
  6
CONTINUOUS
 62
     2
 10
193.0685
 20
110.7315
 30
0.0
 40
0.49875
 50
270.0
 51
0.0
  0
LINE
  8
0
  6
CONTINUOUS
 62
     2
 10
194.03275
 20
110.7315
 30
0.0
 11
194.03275
 21
110.914375
 31
0.0
  0
LINE
  8
0
  6
CONTINUOUS
 62
     2
 10
195.446126875
 20
110.23275
 30
0.0
 11
194.5315
 21
110.23275
 31
0.0
  0
ARC
  8
0
  6
CONTINUOUS
 62
     2
 10
194.5315
 20
110.7315
 30
0.0
 40
0.49875
 50
180.0
 51
270.0
  0
CIRCLE
  8
0
  6
CONTINUOUS
 62
     2
 10
181.8
 20
110.0
 30
0.0
 40
1.6625
  0
LINE
  8
0
  6
CONTINUOUS
 62
     2
 10
181.56725
 20
109.085625
 30
0.0
 11
182.03275
 21
109.085625
 31
0.0
  0
LINE
  8
0
  6
CONTINUOUS
 62
     2
 10
182.03275
 20
110.914375
 30
0.0
 11
181.56725
 21
110.914375
 31
0.0
  0
LINE
  8
0
  6
CONTINUOUS
 62
     2
 10
182.03275
 20
109.085625
 30
0.0
 11
182.03275
 21
109.2685
 31
0.0
  0
LINE
  8
0
  6
CONTINUOUS
 62
     2
 10
182.5315
 20
109.76725
 30
0.0
 11
183.446126875
 21
109.76725
 31
0.0
  0
ARC
  8
0
  6
CONTINUOUS
 62
     2
 10
182.5315
 20
109.2685
 30
0.0
 40
0.49875
 50
90.0
 51
180.0
  0
LINE
  8
0
  6
CONTINUOUS
 62
     2
 10
181.56725
 20
109.2685
 30
0.0
 11
181.56725
 21
109.085625
 31
0.0
  0
LINE
  8
0
  6
CONTINUOUS
 62
     2
 10
180.17075
 20
109.76725
 30
0.0
 11
181.0685
 21
109.76725
 31
0.0
  0
ARC
  8
0
  6
CONTINUOUS
 62
     2
 10
181.0685
 20
109.2685
 30
0.0
 40
0.49875
 50
0.0
 51
90.0
  0
LINE
  8
0
  6
CONTINUOUS
 62
     2
 10
181.56725
 20
110.914375
 30
0.0
 11
181.56725
 21
110.7315
 31
0.0
  0
LINE
  8
0
  6
CONTINUOUS
 62
     2
 10
181.0685
 20
110.23275
 30
0.0
 11
180.153873125
 21
110.23275
 31
0.0
  0
ARC
  8
0
  6
CONTINUOUS
 62
     2
 10
181.0685
 20
110.7315
 30
0.0
 40
0.49875
 50
270.0
 51
0.0
  0
LINE
  8
0
  6
CONTINUOUS
 62
     2
 10
182.03275
 20
110.7315
 30
0.0
 11
182.03275
 21
110.914375
 31
0.0
  0
LINE
  8
0
  6
CONTINUOUS
 62
     2
 10
183.446126875
 20
110.23275
 30
0.0
 11
182.5315
 21
110.23275
 31
0.0
  0
ARC
  8
0
  6
CONTINUOUS
 62
     2
 10
182.5315
 20
110.7315
 30
0.0
 40
0.49875
 50
180.0
 51
270.0
  0
TEXT
  8
0
  6
CONTINUOUS
 62
     2
 10
152.5
 20
173.4
 30
0.2
 40
2.5
  1
（ＵＶＦ－１１Ｆのみ）
 50
0.0
 41
0.8
 51
0.0
  7
KANJI21
  0
LINE
  8
0
  6
CONTINUOUS
 62
     2
 10
136.2
 20
172.3
 30
0.0
 11
175.8
 21
172.3
 31
0.0
  0
CIRCLE
  8
0
  6
CONTINUOUS
 62
     2
 10
187.8
 20
118.0
 30
0.0
 40
4.0
  0
LINE
  8
0
  6
CONTINUOUS
 62
     2
 10
188.8
 20
115.9
 30
0.0
 11
188.69770842
 21
113.40209359
 31
0.0
  0
LINE
  8
0
  6
CONTINUOUS
 62
     2
 10
188.8
 20
115.9
 30
0.0
 11
189.960366098
 21
113.685603803
 31
0.0
  0
LINE
  8
0
  6
CONTINUOUS
 62
     2
 10
188.8
 20
115.9
 30
0.0
 11
193.925
 21
93.075
 31
0.0
  0
LINE
  8
0
  6
LTYPE2
 62
     5
 10
174.8
 20
110.0
 30
0.0
 11
201.8
 21
110.0
 31
0.0
  0
LINE
  8
0
  6
LTYPE2
 62
     5
 10
193.8
 20
112.75
 30
0.0
 11
193.8
 21
107.25
 31
0.0
  0
LINE
  8
0
  6
LTYPE2
 62
     5
 10
199.8
 20
112.75
 30
0.0
 11
199.8
 21
107.25
 31
0.0
  0
LINE
  8
0
  6
LTYPE2
 62
     5
 10
181.8
 20
112.75
 30
0.0
 11
181.8
 21
107.25
 31
0.0
  0
LINE
  8
0
  6
LTYPE2
 62
     5
 10
175.8
 20
112.75
 30
0.0
 11
175.8
 21
107.25
 31
0.0
  0
CIRCLE
  8
0
  6
CONTINUOUS
 62
     5
 10
175.8
 20
110.0
 30
0.0
 40
1.3
  0
CIRCLE
  8
0
  6
CONTINUOUS
 62
     5
 10
199.8
 20
110.0
 30
0.0
 40
1.3
  0
ARC
  8
0
  6
CONTINUOUS
 62
     2
 10
100.0005
 20
147.5
 30
0.0
 40
4.165
 50
343.5
 51
16.5
  0
ARC
  8
0
  6
CONTINUOUS
 62
     2
 10
106.248
 20
147.5
 30
0.0
 40
4.165
 50
163.5
 51
196.3
  0
ARC
  8
0
  6
CONTINUOUS
 62
     2
 10
103.12425
 20
149.270125
 30
0.0
 40
1.04125
 50
325.0
 51
35.0
  0
ARC
  8
0
  6
CONTINUOUS
 62
     2
 10
103.12425
 20
149.270125
 30
0.0
 40
1.04125
 50
145.0
 51
215.0
  0
ARC
  8
0
  6
CONTINUOUS
 62
     2
 10
103.12425
 20
145.729875
 30
0.0
 40
1.04125
 50
145.0
 51
215.0
  0
ARC
  8
0
  6
CONTINUOUS
 62
     2
 10
103.12425
 20
145.729875
 30
0.0
 40
1.04125
 50
325.0
 51
35.0
  0
LINE
  8
0
  6
CONTINUOUS
 62
     2
 10
102.250410959
 20
146.331023157
 30
0.0
 11
103.978885959
 21
146.331023157
 31
0.0
  0
LINE
  8
0
  6
CONTINUOUS
 62
     2
 10
103.993984196
 20
148.682923911
 30
0.0
 11
102.254515804
 21
148.682923911
 31
0.0
  0
LINE
  8
0
  6
CONTINUOUS
 62
     2
 10
104.1655
 20
145.729875
 30
0.0
 11
104.1655
 21
149.270125
 31
0.0
  0
LINE
  8
0
  6
CONTINUOUS
 62
     2
 10
103.982990804
 20
149.87405
 30
0.0
 11
102.083
 21
149.87405
 31
0.0
  0
LINE
  8
0
  6
CONTINUOUS
 62
     2
 10
102.083
 20
145.12595
 30
0.0
 11
103.978075
 21
145.12595
 31
0.0
  0
LINE
  8
0
  6
CONTINUOUS
 62
     2
 10
102.083
 20
149.87405
 30
0.0
 11
102.083
 21
145.12595
 31
0.0
  0
LINE
  8
0
  6
CONTINUOUS
 62
     2
 10
101.25
 20
150.29055
 30
0.0
 11
102.083
 21
149.87405
 31
0.0
  0
LINE
  8
0
  6
CONTINUOUS
 62
     2
 10
101.25
 20
144.70945
 30
0.0
 11
102.083
 21
145.12595
 31
0.0
  0
LINE
  8
0
  6
CONTINUOUS
 62
     2
 10
101.25
 20
150.29055
 30
0.0
 11
101.25
 21
144.70945
 31
0.0
  0
LINE
  8
0
  6
CONTINUOUS
 62
     1
 10
101.25
 20
149.75
 30
0.0
 11
99.25
 21
149.75
 31
0.0
  0
LINE
  8
0
  6
CONTINUOUS
 62
     2
 10
99.25
 20
150.5
 30
0.0
 11
99.0
 21
150.5
 31
0.0
  0
LINE
  8
0
  6
CONTINUOUS
 62
     2
 10
99.25
 20
148.7495
 30
0.0
 11
101.25
 21
148.7495
 31
0.0
  0
LINE
  8
0
  6
CONTINUOUS
 62
     2
 10
101.25
 20
148.653705
 30
0.0
 11
99.25
 21
148.653705
 31
0.0
  0
LINE
  8
0
  6
CONTINUOUS
 62
     2
 10
106.75
 20
148.7495
 30
0.0
 11
106.75
 21
146.2505
 31
0.0
  0
LINE
  8
0
  6
CONTINUOUS
 62
     2
 10
99.25
 20
146.354625
 30
0.0
 11
101.25
 21
146.354625
 31
0.0
  0
LINE
  8
0
  6
CONTINUOUS
 62
     2
 10
101.25
 20
146.2505
 30
0.0
 11
99.25
 21
146.2505
 31
0.0
  0
LINE
  8
0
  6
CONTINUOUS
 62
     2
 10
99.0
 20
144.5
 30
0.0
 11
99.25
 21
144.5
 31
0.0
  0
LINE
  8
0
  6
CONTINUOUS
 62
     2
 10
99.25
 20
144.5
 30
0.0
 11
99.25
 21
150.5
 31
0.0
  0
LINE
  8
0
  6
CONTINUOUS
 62
     2
 10
104.1655
 20
148.7495
 30
0.0
 11
106.75
 21
148.7495
 31
0.0
  0
LINE
  8
0
  6
CONTINUOUS
 62
     2
 10
106.75
 20
148.653705
 30
0.0
 11
104.1655
 21
148.653705
 31
0.0
  0
LINE
  8
0
  6
CONTINUOUS
 62
     2
 10
104.1655
 20
146.354625
 30
0.0
 11
106.75
 21
146.354625
 31
0.0
  0
LINE
  8
0
  6
CONTINUOUS
 62
     2
 10
106.75
 20
146.2505
 30
0.0
 11
104.1655
 21
146.2505
 31
0.0
  0
LINE
  8
2
  6
CONTINUOUS
 62
     2
 10
104.0
 20
101.45
 30
0.0
 11
105.0
 21
101.9
 31
0.0
  0
LINE
  8
2
  6
CONTINUOUS
 62
     2
 10
105.0
 20
101.9
 30
0.0
 11
104.6
 21
100.9
 31
0.0
  0
ARC
  8
0
  6
CONTINUOUS
 62
     2
 10
100.0005
 20
102.5
 30
0.0
 40
4.165
 50
343.5
 51
16.5
  0
ARC
  8
0
  6
CONTINUOUS
 62
     2
 10
106.248
 20
102.5
 30
0.0
 40
4.165
 50
163.7
 51
196.5
  0
ARC
  8
0
  6
CONTINUOUS
 62
     2
 10
103.12425
 20
100.729875
 30
0.0
 40
1.04125
 50
325.0
 51
35.0
  0
ARC
  8
0
  6
CONTINUOUS
 62
     2
 10
103.12425
 20
100.729875
 30
0.0
 40
1.04125
 50
145.0
 51
215.0
  0
ARC
  8
0
  6
CONTINUOUS
 62
     2
 10
103.12425
 20
104.270125
 30
0.0
 40
1.04125
 50
145.0
 51
215.0
  0
ARC
  8
0
  6
CONTINUOUS
 62
     2
 10
103.12425
 20
104.270125
 30
0.0
 40
1.04125
 50
325.0
 51
35.0
  0
LINE
  8
0
  6
CONTINUOUS
 62
     2
 10
102.250410959
 20
103.668976843
 30
0.0
 11
103.978885959
 21
103.668976843
 31
0.0
  0
LINE
  8
0
  6
CONTINUOUS
 62
     2
 10
103.993984196
 20
101.317076089
 30
0.0
 11
102.254515804
 21
101.317076089
 31
0.0
  0
LINE
  8
0
  6
CONTINUOUS
 62
     2
 10
104.1655
 20
104.270125
 30
0.0
 11
104.1655
 21
100.729875
 31
0.0
  0
LINE
  8
0
  6
CONTINUOUS
 62
     2
 10
103.982990804
 20
100.12595
 30
0.0
 11
102.083
 21
100.12595
 31
0.0
  0
LINE
  8
0
  6
CONTINUOUS
 62
     2
 10
102.083
 20
104.87405
 30
0.0
 11
103.978075
 21
104.87405
 31
0.0
  0
LINE
  8
0
  6
CONTINUOUS
 62
     2
 10
102.083
 20
100.12595
 30
0.0
 11
102.083
 21
104.87405
 31
0.0
  0
LINE
  8
0
  6
CONTINUOUS
 62
     2
 10
101.25
 20
99.70945
 30
0.0
 11
102.083
 21
100.12595
 31
0.0
  0
LINE
  8
0
  6
CONTINUOUS
 62
     2
 10
101.25
 20
105.29055
 30
0.0
 11
102.083
 21
104.87405
 31
0.0
  0
LINE
  8
0
  6
CONTINUOUS
 62
     2
 10
101.25
 20
99.70945
 30
0.0
 11
101.25
 21
105.29055
 31
0.0
  0
LINE
  8
0
  6
CONTINUOUS
 62
     1
 10
101.25
 20
100.25
 30
0.0
 11
99.25
 21
100.25
 31
0.0
  0
LINE
  8
0
  6
CONTINUOUS
 62
     2
 10
99.25
 20
105.5
 30
0.0
 11
99.0
 21
105.5
 31
0.0
  0
LINE
  8
0
  6
CONTINUOUS
 62
     2
 10
99.25
 20
103.645375
 30
0.0
 11
101.25
 21
103.645375
 31
0.0
  0
LINE
  8
0
  6
CONTINUOUS
 62
     2
 10
101.25
 20
103.7495
 30
0.0
 11
99.25
 21
103.7495
 31
0.0
  0
LINE
  8
0
  6
CONTINUOUS
 62
     2
 10
99.25
 20
101.2505
 30
0.0
 11
101.25
 21
101.2505
 31
0.0
  0
LINE
  8
0
  6
CONTINUOUS
 62
     2
 10
101.25
 20
101.346295
 30
0.0
 11
99.25
 21
101.346295
 31
0.0
  0
LINE
  8
0
  6
CONTINUOUS
 62
     2
 10
99.0
 20
99.5
 30
0.0
 11
99.25
 21
99.5
 31
0.0
  0
LINE
  8
0
  6
CONTINUOUS
 62
     2
 10
99.25
 20
99.5
 30
0.0
 11
99.25
 21
105.5
 31
0.0
  0
LINE
  8
0
  6
CONTINUOUS
 62
     2
 10
106.75
 20
101.2505
 30
0.0
 11
106.75
 21
103.7495
 31
0.0
  0
LINE
  8
0
  6
CONTINUOUS
 62
     2
 10
104.1655
 20
103.645375
 30
0.0
 11
106.73084
 21
103.645375
 31
0.0
  0
LINE
  8
0
  6
CONTINUOUS
 62
     2
 10
106.6975
 20
103.7495
 30
0.0
 11
104.1655
 21
103.7495
 31
0.0
  0
LINE
  8
0
  6
CONTINUOUS
 62
     2
 10
104.1655
 20
101.2505
 30
0.0
 11
106.7475
 21
101.2505
 31
0.0
  0
LINE
  8
0
  6
CONTINUOUS
 62
     2
 10
106.6975
 20
101.346295
 30
0.0
 11
104.1655
 21
101.346295
 31
0.0
  0
TEXT
  8
0
  6
CONTINUOUS
 62
     2
 10
96.755340909
 20
89.55
 30
0.5
 40
3.0
  1
フランジナット
 50
0.0
 41
0.6
 51
0.0
  7
KANJI6
  0
TEXT
  8
0
  6
CONTINUOUS
 62
     3
 10
235.0
 20
12.0
 30
0.6
 40
6.0
  1
ＭＳ－１２０２０Ａ
 50
0.0
 41
0.833333333
 51
0.0
  7
KANJI22
  0
LINE
  8
0
  6
CONTINUOUS
 62
     1
 10
133.75
 20
149.75
 30
0.0
 11
104.048328756
 21
149.75
 31
0.0
  0
LINE
  8
0
  6
CONTINUOUS
 62
     1
 10
133.75
 20
100.25
 30
0.0
 11
103.948328756
 21
100.25
 31
0.0
  0
TEXT
  8
0
  6
CONTINUOUS
 62
     2
 10
24.5
 20
88.6
 30
0.3
 40
3.0
  1
指針
 50
0.0
 41
0.9
 51
0.0
  7
KANJI15
  0
LINE
  8
0
  6
CONTINUOUS
 62
     2
 10
30.6
 20
87.6
 30
0.0
 11
24.5
 21
87.6
 31
0.0
  0
LINE
  8
0
  6
CONTINUOUS
 62
     2
 10
35.4
 20
116.6
 30
0.0
 11
30.6
 21
87.6
 31
0.0
  0
TEXT
  8
0
  6
CONTINUOUS
 62
     2
 10
59.9
 20
88.8
 30
0.3
 40
3.0
  1
機械的零位調整器
 50
0.0
 41
0.9
 51
0.0
  7
KANJI15
  0
LINE
  8
0
  6
CONTINUOUS
 62
     2
 10
59.15
 20
87.8
 30
0.0
 11
83.6
 21
87.8
 31
0.0
  0
TEXT
  8
0
  6
CONTINUOUS
 62
     2
 10
152.225
 20
131.975
 30
0.2
 40
3.0
  1
端子カバー（透明樹脂）
 50
0.0
 41
0.666666667
 51
0.0
  7
KANJI19
  0
LINE
  8
0
  6
CONTINUOUS
 62
     2
 10
174.225
 20
130.975
 30
0.0
 11
151.3
 21
130.975
 31
0.0
  0
LINE
  8
0
  6
CONTINUOUS
 62
     2
 10
93.25
 20
103.725
 30
0.0
 11
93.15
 21
103.725
 31
0.0
  0
LINE
  8
0
  6
CONTINUOUS
 62
     2
 10
93.15
 20
103.725
 30
0.0
 11
93.15
 21
101.225
 31
0.0
  0
LINE
  8
0
  6
CONTINUOUS
 62
     2
 10
93.15
 20
101.225
 30
0.0
 11
93.25
 21
101.225
 31
0.0
  0
LINE
  8
0
  6
CONTINUOUS
 62
     2
 10
93.15
 20
104.0
 30
0.0
 11
93.15
 21
101.0
 31
0.0
  0
LINE
  8
0
  6
CONTINUOUS
 62
     2
 10
92.8
 20
101.0
 30
0.0
 11
93.15
 21
101.0
 31
0.0
  0
ARC
  8
0
  6
CONTINUOUS
 62
     2
 10
92.8
 20
101.4
 30
0.0
 40
0.4
 50
180.0
 51
270.0
  0
LINE
  8
0
  6
CONTINUOUS
 62
     2
 10
92.8
 20
104.0
 30
0.0
 11
93.25
 21
104.0
 31
0.0
  0
LINE
  8
0
  6
CONTINUOUS
 62
     2
 10
92.4
 20
101.4
 30
0.0
 11
92.4
 21
103.6
 31
0.0
  0
ARC
  8
0
  6
CONTINUOUS
 62
     2
 10
92.8
 20
103.6
 30
0.0
 40
0.4
 50
90.0
 51
180.0
  0
LINE
  8
0
  6
CONTINUOUS
 62
     2
 10
92.4
 20
102.6
 30
0.0
 11
92.5
 21
102.6
 31
0.0
  0
LINE
  8
0
  6
CONTINUOUS
 62
     2
 10
92.5
 20
102.6
 30
0.0
 11
92.5
 21
102.4
 31
0.0
  0
LINE
  8
0
  6
CONTINUOUS
 62
     2
 10
92.5
 20
102.4
 30
0.0
 11
92.4
 21
102.4
 31
0.0
  0
TEXT
  8
0
  6
CONTINUOUS
 62
     1
 10
237.82
 20
22.66
 30
0.4
 40
4.0
  1
広角度計器　外形図
 50
0.0
 41
0.9
 51
0.0
  7
KANJI23
  0
TEXT
  8
0
  6
CONTINUOUS
 62
     1
 10
238.0
 20
27.5
 30
0.3
 40
3.5
  1
予定指針付
 50
0.0
 41
1.0
 51
0.0
  7
KANJI24
  0
TEXT
  8
0
  6
CONTINUOUS
 62
     1
 10
239.7
 20
34.5
 30
1.0
 40
5.0
  1
□ＶＦ－１１Ｆ
 50
0.0
 41
0.9
 51
0.0
  7
KANJI25
  0
ENDSEC
  0
EOF
