  0
SECTION
  2
HEADER
  9
$ACADVER
  1
AC1009
  9
$DWGCODEPAGE
  3
dos932
  9
$EXTMIN
 10
0.0
 20
0.0
 30
0.0
  9
$EXTMAX
 10
297.0
 20
210.0
 30
0.0
  9
$LIMMIN
 10
0.0
 20
0.0
  9
$LIMMAX
 10
297.0
 20
210.0
  9
$LTSCALE
 40
1.0
  9
$PDMODE
 70
     0
  0
ENDSEC
  0
SECTION
  2
TABLES
  0
TABLE
  2
VPORT
 70
     1
  0
VPORT
  2
*ACTIVE
 70
     0
 10
0.0
 20
0.0
 11
1.0
 21
1.0
 12
148.5
 22
105.0
 13
0.0
 23
0.0
 14
10.0
 24
10.0
 15
10.0
 25
10.0
 16
0.0
 26
0.0
 36
1.0
 17
0.0
 27
0.0
 37
0.0
 40
297.0
 41
1.414285714
 42
50.0
 43
0.0
 44
0.0
 50
0.0
 51
0.0
 71
     0
 72
  1000
 73
     1
 74
     3
 75
     0
 76
     0
 77
     0
 78
     0
  0
ENDTAB
  0
TABLE
  2
LTYPE
 70
     2
  0
LTYPE
  2
CONTINUOUS
 70
    64
  3
Solid line
 72
    65
 73
     0
 40
0.0
  0
LTYPE
  2
LTYPE1
 70
    64
  3
CENTER
 72
    65
 73
     4
 40
15.0
 49
10.5
 49
-1.5
 49
1.5
 49
-1.5
  0
ENDTAB
  0
TABLE
  2
LAYER
 70
   128
  0
LAYER
  2
0
 70
     0
 62
     7
  6
CONTINUOUS
  0
LAYER
  2
2
 70
     0
 62
     7
  6
CONTINUOUS
  0
LAYER
  2
3
 70
     0
 62
     7
  6
CONTINUOUS
  0
LAYER
  2
4
 70
     0
 62
     7
  6
CONTINUOUS
  0
LAYER
  2
5
 70
     0
 62
     7
  6
CONTINUOUS
  0
LAYER
  2
6
 70
     0
 62
     7
  6
CONTINUOUS
  0
LAYER
  2
7
 70
     0
 62
     7
  6
CONTINUOUS
  0
LAYER
  2
8
 70
     0
 62
     7
  6
CONTINUOUS
  0
LAYER
  2
9
 70
     0
 62
     7
  6
CONTINUOUS
  0
LAYER
  2
10
 70
     0
 62
     7
  6
CONTINUOUS
  0
LAYER
  2
11
 70
     0
 62
     7
  6
CONTINUOUS
  0
LAYER
  2
12
 70
     0
 62
     7
  6
CONTINUOUS
  0
LAYER
  2
13
 70
     0
 62
     7
  6
CONTINUOUS
  0
LAYER
  2
14
 70
     0
 62
     7
  6
CONTINUOUS
  0
LAYER
  2
15
 70
     0
 62
     7
  6
CONTINUOUS
  0
LAYER
  2
16
 70
     0
 62
     7
  6
CONTINUOUS
  0
LAYER
  2
17
 70
     0
 62
     7
  6
CONTINUOUS
  0
LAYER
  2
18
 70
     0
 62
     7
  6
CONTINUOUS
  0
LAYER
  2
19
 70
     0
 62
     7
  6
CONTINUOUS
  0
LAYER
  2
20
 70
     0
 62
     7
  6
CONTINUOUS
  0
LAYER
  2
21
 70
     0
 62
     7
  6
CONTINUOUS
  0
LAYER
  2
22
 70
     0
 62
     7
  6
CONTINUOUS
  0
LAYER
  2
23
 70
     0
 62
     7
  6
CONTINUOUS
  0
LAYER
  2
24
 70
     0
 62
     7
  6
CONTINUOUS
  0
LAYER
  2
25
 70
     0
 62
     7
  6
CONTINUOUS
  0
LAYER
  2
26
 70
     0
 62
     7
  6
CONTINUOUS
  0
LAYER
  2
27
 70
     0
 62
     7
  6
CONTINUOUS
  0
LAYER
  2
28
 70
     0
 62
     7
  6
CONTINUOUS
  0
LAYER
  2
29
 70
     0
 62
     7
  6
CONTINUOUS
  0
LAYER
  2
30
 70
     0
 62
     7
  6
CONTINUOUS
  0
LAYER
  2
31
 70
     0
 62
     7
  6
CONTINUOUS
  0
LAYER
  2
32
 70
     0
 62
     7
  6
CONTINUOUS
  0
LAYER
  2
33
 70
     0
 62
     7
  6
CONTINUOUS
  0
LAYER
  2
34
 70
     0
 62
     7
  6
CONTINUOUS
  0
LAYER
  2
35
 70
     0
 62
     7
  6
CONTINUOUS
  0
LAYER
  2
36
 70
     0
 62
     7
  6
CONTINUOUS
  0
LAYER
  2
37
 70
     0
 62
     7
  6
CONTINUOUS
  0
LAYER
  2
38
 70
     0
 62
     7
  6
CONTINUOUS
  0
LAYER
  2
39
 70
     0
 62
     7
  6
CONTINUOUS
  0
LAYER
  2
40
 70
     0
 62
     7
  6
CONTINUOUS
  0
LAYER
  2
41
 70
     0
 62
     7
  6
CONTINUOUS
  0
LAYER
  2
42
 70
     0
 62
     7
  6
CONTINUOUS
  0
LAYER
  2
43
 70
     0
 62
     7
  6
CONTINUOUS
  0
LAYER
  2
44
 70
     0
 62
     7
  6
CONTINUOUS
  0
LAYER
  2
45
 70
     0
 62
     7
  6
CONTINUOUS
  0
LAYER
  2
46
 70
     0
 62
     7
  6
CONTINUOUS
  0
LAYER
  2
47
 70
     0
 62
     7
  6
CONTINUOUS
  0
LAYER
  2
48
 70
     0
 62
     7
  6
CONTINUOUS
  0
LAYER
  2
49
 70
     0
 62
     7
  6
CONTINUOUS
  0
LAYER
  2
50
 70
     0
 62
     7
  6
CONTINUOUS
  0
LAYER
  2
51
 70
     0
 62
     7
  6
CONTINUOUS
  0
LAYER
  2
52
 70
     0
 62
     7
  6
CONTINUOUS
  0
LAYER
  2
53
 70
     0
 62
     7
  6
CONTINUOUS
  0
LAYER
  2
54
 70
     0
 62
     7
  6
CONTINUOUS
  0
LAYER
  2
55
 70
     0
 62
     7
  6
CONTINUOUS
  0
LAYER
  2
56
 70
     0
 62
     7
  6
CONTINUOUS
  0
LAYER
  2
57
 70
     0
 62
     7
  6
CONTINUOUS
  0
LAYER
  2
58
 70
     0
 62
     7
  6
CONTINUOUS
  0
LAYER
  2
59
 70
     0
 62
     7
  6
CONTINUOUS
  0
LAYER
  2
60
 70
     0
 62
     7
  6
CONTINUOUS
  0
LAYER
  2
61
 70
     0
 62
     7
  6
CONTINUOUS
  0
LAYER
  2
62
 70
     0
 62
     7
  6
CONTINUOUS
  0
LAYER
  2
63
 70
     0
 62
     7
  6
CONTINUOUS
  0
LAYER
  2
64
 70
     0
 62
     7
  6
CONTINUOUS
  0
LAYER
  2
65
 70
     0
 62
     7
  6
CONTINUOUS
  0
LAYER
  2
66
 70
     0
 62
     7
  6
CONTINUOUS
  0
LAYER
  2
67
 70
     0
 62
     7
  6
CONTINUOUS
  0
LAYER
  2
68
 70
     0
 62
     7
  6
CONTINUOUS
  0
LAYER
  2
69
 70
     0
 62
     7
  6
CONTINUOUS
  0
LAYER
  2
70
 70
     0
 62
     7
  6
CONTINUOUS
  0
LAYER
  2
71
 70
     0
 62
     7
  6
CONTINUOUS
  0
LAYER
  2
72
 70
     0
 62
     7
  6
CONTINUOUS
  0
LAYER
  2
73
 70
     0
 62
     7
  6
CONTINUOUS
  0
LAYER
  2
74
 70
     0
 62
     7
  6
CONTINUOUS
  0
LAYER
  2
75
 70
     0
 62
     7
  6
CONTINUOUS
  0
LAYER
  2
76
 70
     0
 62
     7
  6
CONTINUOUS
  0
LAYER
  2
77
 70
     0
 62
     7
  6
CONTINUOUS
  0
LAYER
  2
78
 70
     0
 62
     7
  6
CONTINUOUS
  0
LAYER
  2
79
 70
     0
 62
     7
  6
CONTINUOUS
  0
LAYER
  2
80
 70
     0
 62
     7
  6
CONTINUOUS
  0
LAYER
  2
81
 70
     0
 62
     7
  6
CONTINUOUS
  0
LAYER
  2
82
 70
     0
 62
     7
  6
CONTINUOUS
  0
LAYER
  2
83
 70
     0
 62
     7
  6
CONTINUOUS
  0
LAYER
  2
84
 70
     0
 62
     7
  6
CONTINUOUS
  0
LAYER
  2
85
 70
     0
 62
     7
  6
CONTINUOUS
  0
LAYER
  2
86
 70
     0
 62
     7
  6
CONTINUOUS
  0
LAYER
  2
87
 70
     0
 62
     7
  6
CONTINUOUS
  0
LAYER
  2
88
 70
     0
 62
     7
  6
CONTINUOUS
  0
LAYER
  2
89
 70
     0
 62
     7
  6
CONTINUOUS
  0
LAYER
  2
90
 70
     0
 62
     7
  6
CONTINUOUS
  0
LAYER
  2
91
 70
     0
 62
     7
  6
CONTINUOUS
  0
LAYER
  2
92
 70
     0
 62
     7
  6
CONTINUOUS
  0
LAYER
  2
93
 70
     0
 62
     7
  6
CONTINUOUS
  0
LAYER
  2
94
 70
     0
 62
     7
  6
CONTINUOUS
  0
LAYER
  2
95
 70
     0
 62
     7
  6
CONTINUOUS
  0
LAYER
  2
96
 70
     0
 62
     7
  6
CONTINUOUS
  0
LAYER
  2
97
 70
     0
 62
     7
  6
CONTINUOUS
  0
LAYER
  2
98
 70
     0
 62
     7
  6
CONTINUOUS
  0
LAYER
  2
99
 70
     0
 62
     7
  6
CONTINUOUS
  0
LAYER
  2
100
 70
     0
 62
     7
  6
CONTINUOUS
  0
LAYER
  2
101
 70
     0
 62
     7
  6
CONTINUOUS
  0
LAYER
  2
102
 70
     0
 62
     7
  6
CONTINUOUS
  0
LAYER
  2
103
 70
     0
 62
     7
  6
CONTINUOUS
  0
LAYER
  2
104
 70
     0
 62
     7
  6
CONTINUOUS
  0
LAYER
  2
105
 70
     0
 62
     7
  6
CONTINUOUS
  0
LAYER
  2
106
 70
     0
 62
     7
  6
CONTINUOUS
  0
LAYER
  2
107
 70
     0
 62
     7
  6
CONTINUOUS
  0
LAYER
  2
108
 70
     0
 62
     7
  6
CONTINUOUS
  0
LAYER
  2
109
 70
     0
 62
     7
  6
CONTINUOUS
  0
LAYER
  2
110
 70
     0
 62
     7
  6
CONTINUOUS
  0
LAYER
  2
111
 70
     0
 62
     7
  6
CONTINUOUS
  0
LAYER
  2
112
 70
     0
 62
     7
  6
CONTINUOUS
  0
LAYER
  2
113
 70
     0
 62
     7
  6
CONTINUOUS
  0
LAYER
  2
114
 70
     0
 62
     7
  6
CONTINUOUS
  0
LAYER
  2
115
 70
     0
 62
     7
  6
CONTINUOUS
  0
LAYER
  2
116
 70
     0
 62
     7
  6
CONTINUOUS
  0
LAYER
  2
117
 70
     0
 62
     7
  6
CONTINUOUS
  0
LAYER
  2
118
 70
     0
 62
     7
  6
CONTINUOUS
  0
LAYER
  2
119
 70
     0
 62
     7
  6
CONTINUOUS
  0
LAYER
  2
120
 70
     0
 62
     7
  6
CONTINUOUS
  0
LAYER
  2
121
 70
     0
 62
     7
  6
CONTINUOUS
  0
LAYER
  2
122
 70
     0
 62
     7
  6
CONTINUOUS
  0
LAYER
  2
123
 70
     0
 62
     7
  6
CONTINUOUS
  0
LAYER
  2
124
 70
     0
 62
     7
  6
CONTINUOUS
  0
LAYER
  2
125
 70
     0
 62
     7
  6
CONTINUOUS
  0
LAYER
  2
126
 70
     0
 62
     7
  6
CONTINUOUS
  0
LAYER
  2
127
 70
     0
 62
     7
  6
CONTINUOUS
  0
LAYER
  2
128
 70
     0
 62
     7
  6
CONTINUOUS
  0
ENDTAB
  0
TABLE
  2
STYLE
 70
    18
  0
STYLE
  2
STANDARD
 70
     0
 40
0.0
 41
1.0
 50
0.0
 71
     0
 42
0.2
  3
txt.shx
  4
extfont.shx
  0
STYLE
  2
KANJI0
 70
     0
 40
3.0
 41
0.9
 50
0.0
 71
     0
 42
3.0
  3
txt.shx
  4
extfont.shx
  0
STYLE
  2
KANJI1
 70
     0
 40
3.0
 41
0.6
 50
0.0
 71
     0
 42
3.0
  3
txt.shx
  4
extfont.shx
  0
STYLE
  2
KANJI2
 70
     0
 40
1.8
 41
0.6
 50
0.0
 71
     0
 42
1.8
  3
txt.shx
  4
extfont.shx
  0
STYLE
  2
KANJI3
 70
     0
 40
3.0
 41
0.6
 50
0.0
 71
     0
 42
3.0
  3
txt.shx
  4
extfont.shx
  0
STYLE
  2
KANJI4
 70
     0
 40
3.0
 41
0.8
 50
0.0
 71
     0
 42
3.0
  3
txt.shx
  4
extfont.shx
  0
STYLE
  2
KANJI5
 70
     0
 40
3.0
 41
0.8
 50
0.0
 71
     0
 42
3.0
  3
txt.shx
  4
extfont.shx
  0
STYLE
  2
KANJI6
 70
     0
 40
3.0
 41
1.0
 50
0.0
 71
     0
 42
3.0
  3
txt.shx
  4
extfont.shx
  0
STYLE
  2
KANJI7
 70
     0
 40
3.0
 41
0.9
 50
0.0
 71
     0
 42
3.0
  3
txt.shx
  4
extfont.shx
  0
STYLE
  2
KANJI8
 70
     0
 40
3.0
 41
0.9
 50
0.0
 71
     0
 42
3.0
  3
txt.shx
  4
extfont.shx
  0
STYLE
  2
KANJI9
 70
     0
 40
3.0
 41
0.9
 50
0.0
 71
     0
 42
3.0
  3
txt.shx
  4
extfont.shx
  0
STYLE
  2
KANJI10
 70
     0
 40
1.8
 41
0.9
 50
0.0
 71
     0
 42
1.8
  3
txt.shx
  4
extfont.shx
  0
STYLE
  2
KANJI11
 70
     0
 40
2.5
 41
0.8
 50
0.0
 71
     0
 42
2.5
  3
txt.shx
  4
extfont.shx
  0
STYLE
  2
KANJI12
 70
     0
 40
1.14
 41
0.8
 50
0.0
 71
     0
 42
1.14
  3
txt.shx
  4
extfont.shx
  0
STYLE
  2
KANJI13
 70
     0
 40
3.01080384
 41
0.733333333
 50
0.0
 71
     0
 42
3.01080384
  3
txt.shx
  4
extfont.shx
  0
STYLE
  2
KANJI14
 70
     0
 40
6.0
 41
0.833333333
 50
0.0
 71
     0
 42
6.0
  3
txt.shx
  4
extfont.shx
  0
STYLE
  2
KANJI15
 70
     0
 40
3.0
 41
0.733333333
 50
0.0
 71
     0
 42
3.0
  3
txt.shx
  4
extfont.shx
  0
STYLE
  2
KANJI16
 70
     0
 40
5.0
 41
0.9
 50
0.0
 71
     0
 42
5.0
  3
txt.shx
  4
extfont.shx
  0
ENDTAB
  0
TABLE
  2
VIEW
 70
     0
  0
ENDTAB
  0
ENDSEC
  0
SECTION
  2
BLOCKS
  0
ENDSEC
  0
SECTION
  2
ENTITIES
  0
ARC
  8
0
  6
CONTINUOUS
 62
     1
 10
212.4
 20
100.5
 30
0.0
 40
3.0
 50
270.0
 51
0.0
  0
LINE
  8
0
  6
CONTINUOUS
 62
     1
 10
163.4
 20
97.5
 30
0.0
 11
212.4
 21
97.5
 31
0.0
  0
ARC
  8
0
  6
CONTINUOUS
 62
     1
 10
163.4
 20
100.5
 30
0.0
 40
3.0
 50
180.0
 51
270.0
  0
LINE
  8
0
  6
CONTINUOUS
 62
     1
 10
160.4
 20
149.5
 30
0.0
 11
160.4
 21
100.5
 31
0.0
  0
ARC
  8
0
  6
CONTINUOUS
 62
     1
 10
163.4
 20
149.5
 30
0.0
 40
3.0
 50
90.0
 51
180.0
  0
LINE
  8
0
  6
CONTINUOUS
 62
     1
 10
215.4
 20
100.5
 30
0.0
 11
215.4
 21
149.5
 31
0.0
  0
LINE
  8
0
  6
CONTINUOUS
 62
     1
 10
212.4
 20
152.5
 30
0.0
 11
163.4
 21
152.5
 31
0.0
  0
ARC
  8
0
  6
CONTINUOUS
 62
     1
 10
212.4
 20
149.5
 30
0.0
 40
3.0
 50
0.0
 51
90.0
  0
TEXT
  8
0
  6
CONTINUOUS
 62
     1
 10
178.75
 20
19.9
 30
0.5
 40
3.0
  1
パネルカット
 50
0.0
 41
0.9
 51
0.0
  7
KANJI0
  0
LINE
  8
0
  6
CONTINUOUS
 62
     1
 10
177.5
 20
19.05
 30
0.0
 11
198.4
 21
19.05
 31
0.0
  0
CIRCLE
  8
0
  6
CONTINUOUS
 62
     1
 10
165.4
 20
31.65
 30
0.0
 40
1.5
  0
CIRCLE
  8
0
  6
CONTINUOUS
 62
     1
 10
210.4
 20
31.65
 30
0.0
 40
1.5
  0
CIRCLE
  8
0
  6
CONTINUOUS
 62
     1
 10
210.4
 20
76.65
 30
0.0
 40
1.5
  0
CIRCLE
  8
0
  6
CONTINUOUS
 62
     1
 10
165.4
 20
76.65
 30
0.0
 40
1.5
  0
CIRCLE
  8
0
  6
CONTINUOUS
 62
     1
 10
187.9
 20
54.15
 30
0.0
 40
25.25
  0
ARC
  8
0
  6
CONTINUOUS
 62
     1
 10
187.9
 20
125.0
 30
0.0
 40
24.75
 50
0.0
 51
324.036955888
  0
ARC
  8
0
  6
CONTINUOUS
 62
     1
 10
187.9
 20
125.0
 30
0.0
 40
24.75
 50
335.92324158
 51
0.0
  0
ARC
  8
0
  6
CONTINUOUS
 62
     1
 10
187.9
 20
125.0
 30
0.0
 40
24.75
 50
324.036955888
 51
335.92324158
  0
CIRCLE
  8
0
  6
CONTINUOUS
 62
     1
 10
175.9
 20
111.0
 30
0.0
 40
2.25
  0
CIRCLE
  8
0
  6
CONTINUOUS
 62
     1
 10
181.9
 20
111.0
 30
0.0
 40
2.25
  0
CIRCLE
  8
0
  6
CONTINUOUS
 62
     1
 10
187.9
 20
111.0
 30
0.0
 40
2.25
  0
CIRCLE
  8
0
  6
CONTINUOUS
 62
     1
 10
193.9
 20
111.0
 30
0.0
 40
2.25
  0
CIRCLE
  8
0
  6
CONTINUOUS
 62
     1
 10
199.9
 20
111.0
 30
0.0
 40
2.25
  0
LINE
  8
0
  6
CONTINUOUS
 62
     1
 10
197.2
 20
109.25
 30
0.0
 11
197.2
 21
112.75
 31
0.0
  0
LINE
  8
0
  6
CONTINUOUS
 62
     1
 10
197.2
 20
112.75
 30
0.0
 11
197.4
 21
113.0
 31
0.0
  0
LINE
  8
0
  6
CONTINUOUS
 62
     1
 10
196.4
 20
113.0
 30
0.0
 11
196.6
 21
112.75
 31
0.0
  0
LINE
  8
0
  6
CONTINUOUS
 62
     1
 10
196.6
 20
112.75
 30
0.0
 11
196.6
 21
109.25
 31
0.0
  0
LINE
  8
0
  6
CONTINUOUS
 62
     1
 10
197.4
 20
109.0
 30
0.0
 11
197.2
 21
109.25
 31
0.0
  0
LINE
  8
0
  6
CONTINUOUS
 62
     1
 10
196.6
 20
109.25
 30
0.0
 11
196.4
 21
109.0
 31
0.0
  0
ARC
  8
0
  6
CONTINUOUS
 62
     1
 10
196.6
 20
114.8
 30
0.0
 40
0.2
 50
90.0
 51
180.0
  0
LINE
  8
0
  6
CONTINUOUS
 62
     1
 10
197.2
 20
115.0
 30
0.0
 11
196.6
 21
115.0
 31
0.0
  0
ARC
  8
0
  6
CONTINUOUS
 62
     1
 10
197.2
 20
114.8
 30
0.0
 40
0.2
 50
0.0
 51
90.0
  0
LINE
  8
0
  6
CONTINUOUS
 62
     1
 10
196.4
 20
114.8
 30
0.0
 11
196.4
 21
113.0
 31
0.0
  0
LINE
  8
0
  6
CONTINUOUS
 62
     1
 10
197.4
 20
113.0
 30
0.0
 11
197.4
 21
114.8
 31
0.0
  0
LINE
  8
0
  6
CONTINUOUS
 62
     1
 10
190.4
 20
114.8
 30
0.0
 11
190.4
 21
113.0
 31
0.0
  0
ARC
  8
0
  6
CONTINUOUS
 62
     1
 10
190.6
 20
114.8
 30
0.0
 40
0.2
 50
90.0
 51
180.0
  0
LINE
  8
0
  6
CONTINUOUS
 62
     1
 10
191.4
 20
113.0
 30
0.0
 11
191.4
 21
114.8
 31
0.0
  0
LINE
  8
0
  6
CONTINUOUS
 62
     1
 10
191.2
 20
115.0
 30
0.0
 11
190.6
 21
115.0
 31
0.0
  0
ARC
  8
0
  6
CONTINUOUS
 62
     1
 10
191.2
 20
114.8
 30
0.0
 40
0.2
 50
0.0
 51
90.0
  0
LINE
  8
0
  6
CONTINUOUS
 62
     1
 10
191.2
 20
109.25
 30
0.0
 11
191.2
 21
112.75
 31
0.0
  0
LINE
  8
0
  6
CONTINUOUS
 62
     1
 10
191.2
 20
112.75
 30
0.0
 11
191.4
 21
113.0
 31
0.0
  0
LINE
  8
0
  6
CONTINUOUS
 62
     1
 10
190.4
 20
113.0
 30
0.0
 11
190.6
 21
112.75
 31
0.0
  0
LINE
  8
0
  6
CONTINUOUS
 62
     1
 10
190.6
 20
112.75
 30
0.0
 11
190.6
 21
109.25
 31
0.0
  0
LINE
  8
0
  6
CONTINUOUS
 62
     1
 10
191.4
 20
109.0
 30
0.0
 11
191.2
 21
109.25
 31
0.0
  0
LINE
  8
0
  6
CONTINUOUS
 62
     1
 10
190.6
 20
109.25
 30
0.0
 11
190.4
 21
109.0
 31
0.0
  0
ARC
  8
0
  6
CONTINUOUS
 62
     1
 10
190.6
 20
107.2
 30
0.0
 40
0.2
 50
180.0
 51
270.0
  0
LINE
  8
0
  6
CONTINUOUS
 62
     1
 10
190.6
 20
107.0
 30
0.0
 11
191.2
 21
107.0
 31
0.0
  0
ARC
  8
0
  6
CONTINUOUS
 62
     1
 10
191.2
 20
107.2
 30
0.0
 40
0.2
 50
270.0
 51
0.0
  0
LINE
  8
0
  6
CONTINUOUS
 62
     1
 10
190.4
 20
109.0
 30
0.0
 11
190.4
 21
107.2
 31
0.0
  0
LINE
  8
0
  6
CONTINUOUS
 62
     1
 10
191.4
 20
107.2
 30
0.0
 11
191.4
 21
109.0
 31
0.0
  0
ARC
  8
0
  6
CONTINUOUS
 62
     1
 10
196.6
 20
107.2
 30
0.0
 40
0.2
 50
180.0
 51
270.0
  0
LINE
  8
0
  6
CONTINUOUS
 62
     1
 10
196.6
 20
107.0
 30
0.0
 11
197.2
 21
107.0
 31
0.0
  0
ARC
  8
0
  6
CONTINUOUS
 62
     1
 10
197.2
 20
107.2
 30
0.0
 40
0.2
 50
270.0
 51
0.0
  0
LINE
  8
0
  6
CONTINUOUS
 62
     1
 10
196.4
 20
109.0
 30
0.0
 11
196.4
 21
107.2
 31
0.0
  0
LINE
  8
0
  6
CONTINUOUS
 62
     1
 10
197.4
 20
107.2
 30
0.0
 11
197.4
 21
109.0
 31
0.0
  0
ARC
  8
0
  6
CONTINUOUS
 62
     1
 10
184.6
 20
107.2
 30
0.0
 40
0.2
 50
180.0
 51
270.0
  0
LINE
  8
0
  6
CONTINUOUS
 62
     1
 10
184.6
 20
107.0
 30
0.0
 11
185.2
 21
107.0
 31
0.0
  0
ARC
  8
0
  6
CONTINUOUS
 62
     1
 10
185.2
 20
107.2
 30
0.0
 40
0.2
 50
270.0
 51
0.0
  0
LINE
  8
0
  6
CONTINUOUS
 62
     1
 10
185.4
 20
109.0
 30
0.0
 11
185.2
 21
109.25
 31
0.0
  0
LINE
  8
0
  6
CONTINUOUS
 62
     1
 10
184.6
 20
109.25
 30
0.0
 11
184.4
 21
109.0
 31
0.0
  0
LINE
  8
0
  6
CONTINUOUS
 62
     1
 10
184.4
 20
109.0
 30
0.0
 11
184.4
 21
107.2
 31
0.0
  0
LINE
  8
0
  6
CONTINUOUS
 62
     1
 10
185.4
 20
107.2
 30
0.0
 11
185.4
 21
109.0
 31
0.0
  0
LINE
  8
0
  6
CONTINUOUS
 62
     1
 10
179.2
 20
112.75
 30
0.0
 11
179.4
 21
113.0
 31
0.0
  0
LINE
  8
0
  6
CONTINUOUS
 62
     1
 10
178.4
 20
113.0
 30
0.0
 11
178.6
 21
112.75
 31
0.0
  0
ARC
  8
0
  6
CONTINUOUS
 62
     1
 10
178.6
 20
114.8
 30
0.0
 40
0.2
 50
90.0
 51
180.0
  0
LINE
  8
0
  6
CONTINUOUS
 62
     1
 10
179.2
 20
115.0
 30
0.0
 11
178.6
 21
115.0
 31
0.0
  0
ARC
  8
0
  6
CONTINUOUS
 62
     1
 10
179.2
 20
114.8
 30
0.0
 40
0.2
 50
0.0
 51
90.0
  0
LINE
  8
0
  6
CONTINUOUS
 62
     1
 10
178.4
 20
114.8
 30
0.0
 11
178.4
 21
113.0
 31
0.0
  0
LINE
  8
0
  6
CONTINUOUS
 62
     1
 10
179.4
 20
113.0
 30
0.0
 11
179.4
 21
114.8
 31
0.0
  0
ARC
  8
0
  6
CONTINUOUS
 62
     1
 10
184.6
 20
114.8
 30
0.0
 40
0.2
 50
90.0
 51
180.0
  0
LINE
  8
0
  6
CONTINUOUS
 62
     1
 10
185.2
 20
115.0
 30
0.0
 11
184.6
 21
115.0
 31
0.0
  0
ARC
  8
0
  6
CONTINUOUS
 62
     1
 10
185.2
 20
114.8
 30
0.0
 40
0.2
 50
0.0
 51
90.0
  0
LINE
  8
0
  6
CONTINUOUS
 62
     1
 10
185.2
 20
112.75
 30
0.0
 11
185.4
 21
113.0
 31
0.0
  0
LINE
  8
0
  6
CONTINUOUS
 62
     1
 10
184.4
 20
113.0
 30
0.0
 11
184.6
 21
112.75
 31
0.0
  0
LINE
  8
0
  6
CONTINUOUS
 62
     1
 10
185.2
 20
109.25
 30
0.0
 11
185.2
 21
112.75
 31
0.0
  0
LINE
  8
0
  6
CONTINUOUS
 62
     1
 10
184.6
 20
112.75
 30
0.0
 11
184.6
 21
109.25
 31
0.0
  0
LINE
  8
0
  6
CONTINUOUS
 62
     1
 10
184.4
 20
114.8
 30
0.0
 11
184.4
 21
113.0
 31
0.0
  0
LINE
  8
0
  6
CONTINUOUS
 62
     1
 10
185.4
 20
113.0
 30
0.0
 11
185.4
 21
114.8
 31
0.0
  0
LINE
  8
0
  6
CONTINUOUS
 62
     1
 10
179.4
 20
109.0
 30
0.0
 11
179.2
 21
109.25
 31
0.0
  0
LINE
  8
0
  6
CONTINUOUS
 62
     1
 10
178.6
 20
109.25
 30
0.0
 11
178.4
 21
109.0
 31
0.0
  0
LINE
  8
0
  6
CONTINUOUS
 62
     1
 10
179.2
 20
109.25
 30
0.0
 11
179.2
 21
112.75
 31
0.0
  0
LINE
  8
0
  6
CONTINUOUS
 62
     1
 10
178.6
 20
112.75
 30
0.0
 11
178.6
 21
109.25
 31
0.0
  0
ARC
  8
0
  6
CONTINUOUS
 62
     1
 10
178.6
 20
107.2
 30
0.0
 40
0.2
 50
180.0
 51
270.0
  0
LINE
  8
0
  6
CONTINUOUS
 62
     1
 10
178.6
 20
107.0
 30
0.0
 11
179.2
 21
107.0
 31
0.0
  0
ARC
  8
0
  6
CONTINUOUS
 62
     1
 10
179.2
 20
107.2
 30
0.0
 40
0.2
 50
270.0
 51
0.0
  0
LINE
  8
0
  6
CONTINUOUS
 62
     1
 10
178.4
 20
109.0
 30
0.0
 11
178.4
 21
107.2
 31
0.0
  0
LINE
  8
0
  6
CONTINUOUS
 62
     1
 10
179.4
 20
107.2
 30
0.0
 11
179.4
 21
109.0
 31
0.0
  0
LINE
  8
0
  6
CONTINUOUS
 62
     1
 10
179.4
 20
107.75
 30
0.0
 11
184.4
 21
107.75
 31
0.0
  0
LINE
  8
0
  6
CONTINUOUS
 62
     1
 10
185.4
 20
107.75
 30
0.0
 11
190.4
 21
107.75
 31
0.0
  0
LINE
  8
0
  6
CONTINUOUS
 62
     1
 10
191.4
 20
107.75
 30
0.0
 11
196.4
 21
107.75
 31
0.0
  0
LINE
  8
0
  6
CONTINUOUS
 62
     1
 10
197.4
 20
107.75
 30
0.0
 11
202.4
 21
107.75
 31
0.0
  0
LINE
  8
0
  6
CONTINUOUS
 62
     1
 10
202.6
 20
112.75
 30
0.0
 11
202.6
 21
109.25
 31
0.0
  0
LINE
  8
0
  6
CONTINUOUS
 62
     1
 10
202.6
 20
109.25
 30
0.0
 11
202.4
 21
109.0
 31
0.0
  0
ARC
  8
0
  6
CONTINUOUS
 62
     1
 10
202.6
 20
107.2
 30
0.0
 40
0.2
 50
180.0
 51
270.0
  0
LINE
  8
0
  6
CONTINUOUS
 62
     1
 10
202.4
 20
109.0
 30
0.0
 11
202.4
 21
107.2
 31
0.0
  0
ARC
  8
0
  6
CONTINUOUS
 62
     1
 10
202.6
 20
114.8
 30
0.0
 40
0.2
 50
90.0
 51
180.0
  0
LINE
  8
0
  6
CONTINUOUS
 62
     1
 10
202.4
 20
113.0
 30
0.0
 11
202.6
 21
112.75
 31
0.0
  0
LINE
  8
0
  6
CONTINUOUS
 62
     1
 10
202.4
 20
114.8
 30
0.0
 11
202.4
 21
113.0
 31
0.0
  0
LINE
  8
0
  6
CONTINUOUS
 62
     1
 10
202.9
 20
115.0
 30
0.0
 11
202.9
 21
107.0
 31
0.0
  0
ARC
  8
0
  6
CONTINUOUS
 62
     1
 10
203.7
 20
114.8
 30
0.0
 40
0.2
 50
0.0
 51
90.0
  0
LINE
  8
0
  6
CONTINUOUS
 62
     1
 10
203.7
 20
115.0
 30
0.0
 11
202.6
 21
115.0
 31
0.0
  0
LINE
  8
0
  6
CONTINUOUS
 62
     1
 10
203.9
 20
110.0
 30
0.0
 11
204.7
 21
110.0
 31
0.0
  0
LINE
  8
0
  6
CONTINUOUS
 62
     1
 10
204.7
 20
110.0
 30
0.0
 11
204.7
 21
109.0
 31
0.0
  0
LINE
  8
0
  6
CONTINUOUS
 62
     1
 10
204.7
 20
109.0
 30
0.0
 11
203.9
 21
109.0
 31
0.0
  0
LINE
  8
0
  6
CONTINUOUS
 62
     1
 10
203.9
 20
113.0
 30
0.0
 11
204.7
 21
113.0
 31
0.0
  0
LINE
  8
0
  6
CONTINUOUS
 62
     1
 10
204.7
 20
113.0
 30
0.0
 11
204.7
 21
112.0
 31
0.0
  0
LINE
  8
0
  6
CONTINUOUS
 62
     1
 10
204.7
 20
112.0
 30
0.0
 11
203.9
 21
112.0
 31
0.0
  0
LINE
  8
0
  6
CONTINUOUS
 62
     1
 10
203.9
 20
113.0
 30
0.0
 11
203.9
 21
114.8
 31
0.0
  0
LINE
  8
0
  6
CONTINUOUS
 62
     1
 10
203.9
 20
110.0
 30
0.0
 11
203.9
 21
112.0
 31
0.0
  0
LINE
  8
0
  6
CONTINUOUS
 62
     1
 10
204.7
 20
112.0
 30
0.0
 11
204.7
 21
110.0
 31
0.0
  0
LINE
  8
0
  6
CONTINUOUS
 62
     1
 10
173.2
 20
109.25
 30
0.0
 11
173.2
 21
112.75
 31
0.0
  0
LINE
  8
0
  6
CONTINUOUS
 62
     1
 10
173.2
 20
112.75
 30
0.0
 11
173.4
 21
113.0
 31
0.0
  0
LINE
  8
0
  6
CONTINUOUS
 62
     1
 10
171.9
 20
113.0
 30
0.0
 11
171.1
 21
113.0
 31
0.0
  0
LINE
  8
0
  6
CONTINUOUS
 62
     1
 10
171.1
 20
113.0
 30
0.0
 11
171.1
 21
112.0
 31
0.0
  0
LINE
  8
0
  6
CONTINUOUS
 62
     1
 10
171.1
 20
112.0
 30
0.0
 11
171.9
 21
112.0
 31
0.0
  0
LINE
  8
0
  6
CONTINUOUS
 62
     1
 10
171.9
 20
112.0
 30
0.0
 11
171.9
 21
110.0
 31
0.0
  0
LINE
  8
0
  6
CONTINUOUS
 62
     1
 10
171.9
 20
110.0
 30
0.0
 11
171.1
 21
110.0
 31
0.0
  0
LINE
  8
0
  6
CONTINUOUS
 62
     1
 10
171.1
 20
110.0
 30
0.0
 11
171.1
 21
109.0
 31
0.0
  0
LINE
  8
0
  6
CONTINUOUS
 62
     1
 10
171.1
 20
112.0
 30
0.0
 11
171.1
 21
110.0
 31
0.0
  0
ARC
  8
0
  6
CONTINUOUS
 62
     1
 10
173.2
 20
114.8
 30
0.0
 40
0.2
 50
0.0
 51
90.0
  0
LINE
  8
0
  6
CONTINUOUS
 62
     1
 10
173.2
 20
115.0
 30
0.0
 11
172.9
 21
115.0
 31
0.0
  0
LINE
  8
0
  6
CONTINUOUS
 62
     1
 10
172.9
 20
115.0
 30
0.0
 11
172.1
 21
115.0
 31
0.0
  0
ARC
  8
0
  6
CONTINUOUS
 62
     1
 10
172.1
 20
114.8
 30
0.0
 40
0.2
 50
90.0
 51
180.0
  0
LINE
  8
0
  6
CONTINUOUS
 62
     1
 10
173.4
 20
113.0
 30
0.0
 11
173.4
 21
114.8
 31
0.0
  0
LINE
  8
0
  6
CONTINUOUS
 62
     1
 10
171.9
 20
114.8
 30
0.0
 11
171.9
 21
113.0
 31
0.0
  0
LINE
  8
0
  6
CONTINUOUS
 62
     1
 10
173.4
 20
109.0
 30
0.0
 11
173.2
 21
109.25
 31
0.0
  0
LINE
  8
0
  6
CONTINUOUS
 62
     1
 10
173.4
 20
107.2
 30
0.0
 11
173.4
 21
109.0
 31
0.0
  0
ARC
  8
0
  6
CONTINUOUS
 62
     1
 10
173.2
 20
107.2
 30
0.0
 40
0.2
 50
270.0
 51
0.0
  0
LINE
  8
0
  6
CONTINUOUS
 62
     1
 10
171.1
 20
109.0
 30
0.0
 11
171.9
 21
109.0
 31
0.0
  0
LINE
  8
0
  6
CONTINUOUS
 62
     1
 10
173.4
 20
107.75
 30
0.0
 11
178.4
 21
107.75
 31
0.0
  0
LINE
  8
0
  6
CONTINUOUS
 62
     1
 10
172.9
 20
115.0
 30
0.0
 11
172.9
 21
107.0
 31
0.0
  0
CIRCLE
  8
0
  6
CONTINUOUS
 62
     1
 10
190.9
 20
137.5
 30
0.0
 40
2.25
  0
CIRCLE
  8
0
  6
CONTINUOUS
 62
     1
 10
184.9
 20
137.5
 30
0.0
 40
2.25
  0
CIRCLE
  8
0
  6
CONTINUOUS
 62
     1
 10
178.9
 20
137.5
 30
0.0
 40
2.25
  0
CIRCLE
  8
0
  6
CONTINUOUS
 62
     1
 10
172.9
 20
137.5
 30
0.0
 40
2.25
  0
LINE
  8
0
  6
CONTINUOUS
 62
     1
 10
175.6
 20
139.25
 30
0.0
 11
175.6
 21
135.75
 31
0.0
  0
LINE
  8
0
  6
CONTINUOUS
 62
     1
 10
175.6
 20
135.75
 30
0.0
 11
175.4
 21
135.5
 31
0.0
  0
LINE
  8
0
  6
CONTINUOUS
 62
     1
 10
176.4
 20
135.5
 30
0.0
 11
176.2
 21
135.75
 31
0.0
  0
LINE
  8
0
  6
CONTINUOUS
 62
     1
 10
176.2
 20
135.75
 30
0.0
 11
176.2
 21
139.25
 31
0.0
  0
LINE
  8
0
  6
CONTINUOUS
 62
     1
 10
175.4
 20
139.5
 30
0.0
 11
175.6
 21
139.25
 31
0.0
  0
LINE
  8
0
  6
CONTINUOUS
 62
     1
 10
176.2
 20
139.25
 30
0.0
 11
176.4
 21
139.5
 31
0.0
  0
ARC
  8
0
  6
CONTINUOUS
 62
     1
 10
176.2
 20
133.7
 30
0.0
 40
0.2
 50
270.0
 51
0.0
  0
LINE
  8
0
  6
CONTINUOUS
 62
     1
 10
175.6
 20
133.5
 30
0.0
 11
176.2
 21
133.5
 31
0.0
  0
ARC
  8
0
  6
CONTINUOUS
 62
     1
 10
175.6
 20
133.7
 30
0.0
 40
0.2
 50
180.0
 51
270.0
  0
LINE
  8
0
  6
CONTINUOUS
 62
     1
 10
176.4
 20
133.7
 30
0.0
 11
176.4
 21
135.5
 31
0.0
  0
LINE
  8
0
  6
CONTINUOUS
 62
     1
 10
175.4
 20
135.5
 30
0.0
 11
175.4
 21
133.7
 31
0.0
  0
LINE
  8
0
  6
CONTINUOUS
 62
     1
 10
182.4
 20
133.7
 30
0.0
 11
182.4
 21
135.5
 31
0.0
  0
ARC
  8
0
  6
CONTINUOUS
 62
     1
 10
182.2
 20
133.7
 30
0.0
 40
0.2
 50
270.0
 51
0.0
  0
LINE
  8
0
  6
CONTINUOUS
 62
     1
 10
181.4
 20
135.5
 30
0.0
 11
181.4
 21
133.7
 31
0.0
  0
LINE
  8
0
  6
CONTINUOUS
 62
     1
 10
181.6
 20
133.5
 30
0.0
 11
182.2
 21
133.5
 31
0.0
  0
ARC
  8
0
  6
CONTINUOUS
 62
     1
 10
181.6
 20
133.7
 30
0.0
 40
0.2
 50
180.0
 51
270.0
  0
LINE
  8
0
  6
CONTINUOUS
 62
     1
 10
181.6
 20
139.25
 30
0.0
 11
181.6
 21
135.75
 31
0.0
  0
LINE
  8
0
  6
CONTINUOUS
 62
     1
 10
181.6
 20
135.75
 30
0.0
 11
181.4
 21
135.5
 31
0.0
  0
LINE
  8
0
  6
CONTINUOUS
 62
     1
 10
182.4
 20
135.5
 30
0.0
 11
182.2
 21
135.75
 31
0.0
  0
LINE
  8
0
  6
CONTINUOUS
 62
     1
 10
182.2
 20
135.75
 30
0.0
 11
182.2
 21
139.25
 31
0.0
  0
LINE
  8
0
  6
CONTINUOUS
 62
     1
 10
181.4
 20
139.5
 30
0.0
 11
181.6
 21
139.25
 31
0.0
  0
LINE
  8
0
  6
CONTINUOUS
 62
     1
 10
182.2
 20
139.25
 30
0.0
 11
182.4
 21
139.5
 31
0.0
  0
ARC
  8
0
  6
CONTINUOUS
 62
     1
 10
182.2
 20
141.3
 30
0.0
 40
0.2
 50
0.0
 51
90.0
  0
LINE
  8
0
  6
CONTINUOUS
 62
     1
 10
182.2
 20
141.5
 30
0.0
 11
181.6
 21
141.5
 31
0.0
  0
ARC
  8
0
  6
CONTINUOUS
 62
     1
 10
181.6
 20
141.3
 30
0.0
 40
0.2
 50
90.0
 51
180.0
  0
LINE
  8
0
  6
CONTINUOUS
 62
     1
 10
182.4
 20
139.5
 30
0.0
 11
182.4
 21
141.3
 31
0.0
  0
LINE
  8
0
  6
CONTINUOUS
 62
     1
 10
181.4
 20
141.3
 30
0.0
 11
181.4
 21
139.5
 31
0.0
  0
ARC
  8
0
  6
CONTINUOUS
 62
     1
 10
176.2
 20
141.3
 30
0.0
 40
0.2
 50
0.0
 51
90.0
  0
LINE
  8
0
  6
CONTINUOUS
 62
     1
 10
176.2
 20
141.5
 30
0.0
 11
175.6
 21
141.5
 31
0.0
  0
ARC
  8
0
  6
CONTINUOUS
 62
     1
 10
175.6
 20
141.3
 30
0.0
 40
0.2
 50
90.0
 51
180.0
  0
LINE
  8
0
  6
CONTINUOUS
 62
     1
 10
176.4
 20
139.5
 30
0.0
 11
176.4
 21
141.3
 31
0.0
  0
LINE
  8
0
  6
CONTINUOUS
 62
     1
 10
175.4
 20
141.3
 30
0.0
 11
175.4
 21
139.5
 31
0.0
  0
ARC
  8
0
  6
CONTINUOUS
 62
     1
 10
188.2
 20
141.3
 30
0.0
 40
0.2
 50
0.0
 51
90.0
  0
LINE
  8
0
  6
CONTINUOUS
 62
     1
 10
188.2
 20
141.5
 30
0.0
 11
187.6
 21
141.5
 31
0.0
  0
ARC
  8
0
  6
CONTINUOUS
 62
     1
 10
187.6
 20
141.3
 30
0.0
 40
0.2
 50
90.0
 51
180.0
  0
LINE
  8
0
  6
CONTINUOUS
 62
     1
 10
187.4
 20
139.5
 30
0.0
 11
187.6
 21
139.25
 31
0.0
  0
LINE
  8
0
  6
CONTINUOUS
 62
     1
 10
188.2
 20
139.25
 30
0.0
 11
188.4
 21
139.5
 31
0.0
  0
LINE
  8
0
  6
CONTINUOUS
 62
     1
 10
188.4
 20
139.5
 30
0.0
 11
188.4
 21
141.3
 31
0.0
  0
LINE
  8
0
  6
CONTINUOUS
 62
     1
 10
187.4
 20
141.3
 30
0.0
 11
187.4
 21
139.5
 31
0.0
  0
LINE
  8
0
  6
CONTINUOUS
 62
     1
 10
193.6
 20
135.75
 30
0.0
 11
193.4
 21
135.5
 31
0.0
  0
LINE
  8
0
  6
CONTINUOUS
 62
     1
 10
194.4
 20
135.5
 30
0.0
 11
194.2
 21
135.75
 31
0.0
  0
ARC
  8
0
  6
CONTINUOUS
 62
     1
 10
194.2
 20
133.7
 30
0.0
 40
0.2
 50
270.0
 51
0.0
  0
LINE
  8
0
  6
CONTINUOUS
 62
     1
 10
193.6
 20
133.5
 30
0.0
 11
194.2
 21
133.5
 31
0.0
  0
ARC
  8
0
  6
CONTINUOUS
 62
     1
 10
193.6
 20
133.7
 30
0.0
 40
0.2
 50
180.0
 51
270.0
  0
LINE
  8
0
  6
CONTINUOUS
 62
     1
 10
194.4
 20
133.7
 30
0.0
 11
194.4
 21
135.5
 31
0.0
  0
LINE
  8
0
  6
CONTINUOUS
 62
     1
 10
193.4
 20
135.5
 30
0.0
 11
193.4
 21
133.7
 31
0.0
  0
ARC
  8
0
  6
CONTINUOUS
 62
     1
 10
188.2
 20
133.7
 30
0.0
 40
0.2
 50
270.0
 51
0.0
  0
LINE
  8
0
  6
CONTINUOUS
 62
     1
 10
187.6
 20
133.5
 30
0.0
 11
188.2
 21
133.5
 31
0.0
  0
ARC
  8
0
  6
CONTINUOUS
 62
     1
 10
187.6
 20
133.7
 30
0.0
 40
0.2
 50
180.0
 51
270.0
  0
LINE
  8
0
  6
CONTINUOUS
 62
     1
 10
187.6
 20
135.75
 30
0.0
 11
187.4
 21
135.5
 31
0.0
  0
LINE
  8
0
  6
CONTINUOUS
 62
     1
 10
188.4
 20
135.5
 30
0.0
 11
188.2
 21
135.75
 31
0.0
  0
LINE
  8
0
  6
CONTINUOUS
 62
     1
 10
187.6
 20
139.25
 30
0.0
 11
187.6
 21
135.75
 31
0.0
  0
LINE
  8
0
  6
CONTINUOUS
 62
     1
 10
188.2
 20
135.75
 30
0.0
 11
188.2
 21
139.25
 31
0.0
  0
LINE
  8
0
  6
CONTINUOUS
 62
     1
 10
188.4
 20
133.7
 30
0.0
 11
188.4
 21
135.5
 31
0.0
  0
LINE
  8
0
  6
CONTINUOUS
 62
     1
 10
187.4
 20
135.5
 30
0.0
 11
187.4
 21
133.7
 31
0.0
  0
LINE
  8
0
  6
CONTINUOUS
 62
     1
 10
193.4
 20
139.5
 30
0.0
 11
193.6
 21
139.25
 31
0.0
  0
LINE
  8
0
  6
CONTINUOUS
 62
     1
 10
194.2
 20
139.25
 30
0.0
 11
194.4
 21
139.5
 31
0.0
  0
LINE
  8
0
  6
CONTINUOUS
 62
     1
 10
193.6
 20
139.25
 30
0.0
 11
193.6
 21
135.75
 31
0.0
  0
LINE
  8
0
  6
CONTINUOUS
 62
     1
 10
194.2
 20
135.75
 30
0.0
 11
194.2
 21
139.25
 31
0.0
  0
ARC
  8
0
  6
CONTINUOUS
 62
     1
 10
194.2
 20
141.3
 30
0.0
 40
0.2
 50
0.0
 51
90.0
  0
LINE
  8
0
  6
CONTINUOUS
 62
     1
 10
194.2
 20
141.5
 30
0.0
 11
193.6
 21
141.5
 31
0.0
  0
ARC
  8
0
  6
CONTINUOUS
 62
     1
 10
193.6
 20
141.3
 30
0.0
 40
0.2
 50
90.0
 51
180.0
  0
LINE
  8
0
  6
CONTINUOUS
 62
     1
 10
194.4
 20
139.5
 30
0.0
 11
194.4
 21
141.3
 31
0.0
  0
LINE
  8
0
  6
CONTINUOUS
 62
     1
 10
193.4
 20
141.3
 30
0.0
 11
193.4
 21
139.5
 31
0.0
  0
LINE
  8
0
  6
CONTINUOUS
 62
     1
 10
193.4
 20
140.75
 30
0.0
 11
188.4
 21
140.75
 31
0.0
  0
LINE
  8
0
  6
CONTINUOUS
 62
     1
 10
187.4
 20
140.75
 30
0.0
 11
182.4
 21
140.75
 31
0.0
  0
LINE
  8
0
  6
CONTINUOUS
 62
     1
 10
181.4
 20
140.75
 30
0.0
 11
176.4
 21
140.75
 31
0.0
  0
LINE
  8
0
  6
CONTINUOUS
 62
     1
 10
175.4
 20
140.75
 30
0.0
 11
170.4
 21
140.75
 31
0.0
  0
LINE
  8
0
  6
CONTINUOUS
 62
     1
 10
170.2
 20
135.75
 30
0.0
 11
170.2
 21
139.25
 31
0.0
  0
LINE
  8
0
  6
CONTINUOUS
 62
     1
 10
170.2
 20
139.25
 30
0.0
 11
170.4
 21
139.5
 31
0.0
  0
ARC
  8
0
  6
CONTINUOUS
 62
     1
 10
170.2
 20
141.3
 30
0.0
 40
0.2
 50
0.0
 51
90.0
  0
LINE
  8
0
  6
CONTINUOUS
 62
     1
 10
170.4
 20
139.5
 30
0.0
 11
170.4
 21
141.3
 31
0.0
  0
ARC
  8
0
  6
CONTINUOUS
 62
     1
 10
170.2
 20
133.7
 30
0.0
 40
0.2
 50
270.0
 51
0.0
  0
LINE
  8
0
  6
CONTINUOUS
 62
     1
 10
170.4
 20
135.5
 30
0.0
 11
170.2
 21
135.75
 31
0.0
  0
LINE
  8
0
  6
CONTINUOUS
 62
     1
 10
170.4
 20
133.7
 30
0.0
 11
170.4
 21
135.5
 31
0.0
  0
LINE
  8
0
  6
CONTINUOUS
 62
     1
 10
169.9
 20
133.5
 30
0.0
 11
169.9
 21
141.5
 31
0.0
  0
ARC
  8
0
  6
CONTINUOUS
 62
     1
 10
169.1
 20
133.7
 30
0.0
 40
0.2
 50
180.0
 51
270.0
  0
LINE
  8
0
  6
CONTINUOUS
 62
     1
 10
169.1
 20
133.5
 30
0.0
 11
170.2
 21
133.5
 31
0.0
  0
LINE
  8
0
  6
CONTINUOUS
 62
     1
 10
168.9
 20
138.5
 30
0.0
 11
168.1
 21
138.5
 31
0.0
  0
LINE
  8
0
  6
CONTINUOUS
 62
     1
 10
168.9
 20
135.5
 30
0.0
 11
168.1
 21
135.5
 31
0.0
  0
LINE
  8
0
  6
CONTINUOUS
 62
     1
 10
168.1
 20
135.5
 30
0.0
 11
168.1
 21
136.5
 31
0.0
  0
LINE
  8
0
  6
CONTINUOUS
 62
     1
 10
168.1
 20
136.5
 30
0.0
 11
168.9
 21
136.5
 31
0.0
  0
LINE
  8
0
  6
CONTINUOUS
 62
     1
 10
168.9
 20
135.5
 30
0.0
 11
168.9
 21
133.7
 31
0.0
  0
LINE
  8
0
  6
CONTINUOUS
 62
     1
 10
168.9
 20
138.5
 30
0.0
 11
168.9
 21
136.5
 31
0.0
  0
LINE
  8
0
  6
CONTINUOUS
 62
     1
 10
168.1
 20
136.5
 30
0.0
 11
168.1
 21
138.5
 31
0.0
  0
CIRCLE
  8
0
  6
CONTINUOUS
 62
     1
 10
202.9
 20
137.5
 30
0.0
 40
2.25
  0
LINE
  8
0
  6
CONTINUOUS
 62
     1
 10
205.6
 20
139.25
 30
0.0
 11
205.6
 21
135.75
 31
0.0
  0
LINE
  8
0
  6
CONTINUOUS
 62
     1
 10
205.6
 20
135.75
 30
0.0
 11
205.4
 21
135.5
 31
0.0
  0
LINE
  8
0
  6
CONTINUOUS
 62
     1
 10
206.9
 20
135.5
 30
0.0
 11
207.7
 21
135.5
 31
0.0
  0
LINE
  8
0
  6
CONTINUOUS
 62
     1
 10
207.7
 20
135.5
 30
0.0
 11
207.7
 21
136.5
 31
0.0
  0
LINE
  8
0
  6
CONTINUOUS
 62
     1
 10
207.7
 20
136.5
 30
0.0
 11
206.9
 21
136.5
 31
0.0
  0
LINE
  8
0
  6
CONTINUOUS
 62
     1
 10
206.9
 20
136.5
 30
0.0
 11
206.9
 21
138.5
 31
0.0
  0
LINE
  8
0
  6
CONTINUOUS
 62
     1
 10
206.9
 20
138.5
 30
0.0
 11
207.7
 21
138.5
 31
0.0
  0
LINE
  8
0
  6
CONTINUOUS
 62
     1
 10
207.7
 20
136.5
 30
0.0
 11
207.7
 21
138.5
 31
0.0
  0
ARC
  8
0
  6
CONTINUOUS
 62
     1
 10
205.6
 20
133.7
 30
0.0
 40
0.2
 50
180.0
 51
270.0
  0
LINE
  8
0
  6
CONTINUOUS
 62
     1
 10
205.6
 20
133.5
 30
0.0
 11
205.9
 21
133.5
 31
0.0
  0
LINE
  8
0
  6
CONTINUOUS
 62
     1
 10
205.9
 20
133.5
 30
0.0
 11
206.7
 21
133.5
 31
0.0
  0
ARC
  8
0
  6
CONTINUOUS
 62
     1
 10
206.7
 20
133.7
 30
0.0
 40
0.2
 50
270.0
 51
0.0
  0
LINE
  8
0
  6
CONTINUOUS
 62
     1
 10
205.4
 20
135.5
 30
0.0
 11
205.4
 21
133.7
 31
0.0
  0
LINE
  8
0
  6
CONTINUOUS
 62
     1
 10
206.9
 20
133.7
 30
0.0
 11
206.9
 21
135.5
 31
0.0
  0
LINE
  8
0
  6
CONTINUOUS
 62
     1
 10
205.4
 20
139.5
 30
0.0
 11
205.6
 21
139.25
 31
0.0
  0
LINE
  8
0
  6
CONTINUOUS
 62
     1
 10
205.4
 20
141.3
 30
0.0
 11
205.4
 21
139.5
 31
0.0
  0
ARC
  8
0
  6
CONTINUOUS
 62
     1
 10
205.6
 20
141.3
 30
0.0
 40
0.2
 50
90.0
 51
180.0
  0
LINE
  8
0
  6
CONTINUOUS
 62
     1
 10
205.4
 20
140.75
 30
0.0
 11
200.4
 21
140.75
 31
0.0
  0
LINE
  8
0
  6
CONTINUOUS
 62
     1
 10
205.9
 20
133.5
 30
0.0
 11
205.9
 21
141.5
 31
0.0
  0
LINE
  8
0
  6
CONTINUOUS
 62
     1
 10
171.9
 20
109.0
 30
0.0
 11
171.9
 21
107.2
 31
0.0
  0
LINE
  8
0
  6
CONTINUOUS
 62
     1
 10
172.1
 20
107.0
 30
0.0
 11
173.2
 21
107.0
 31
0.0
  0
ARC
  8
0
  6
CONTINUOUS
 62
     1
 10
172.1
 20
107.2
 30
0.0
 40
0.2
 50
180.0
 51
270.0
  0
LINE
  8
0
  6
CONTINUOUS
 62
     1
 10
202.6
 20
107.0
 30
0.0
 11
203.7
 21
107.0
 31
0.0
  0
LINE
  8
0
  6
CONTINUOUS
 62
     1
 10
203.9
 20
107.2
 30
0.0
 11
203.9
 21
109.0
 31
0.0
  0
ARC
  8
0
  6
CONTINUOUS
 62
     1
 10
203.7
 20
107.2
 30
0.0
 40
0.2
 50
270.0
 51
0.0
  0
LINE
  8
0
  6
CONTINUOUS
 62
     1
 10
199.6
 20
135.75
 30
0.0
 11
199.4
 21
135.5
 31
0.0
  0
LINE
  8
0
  6
CONTINUOUS
 62
     1
 10
200.4
 20
135.5
 30
0.0
 11
200.2
 21
135.75
 31
0.0
  0
ARC
  8
0
  6
CONTINUOUS
 62
     1
 10
200.2
 20
133.7
 30
0.0
 40
0.2
 50
270.0
 51
0.0
  0
LINE
  8
0
  6
CONTINUOUS
 62
     1
 10
199.6
 20
133.5
 30
0.0
 11
200.2
 21
133.5
 31
0.0
  0
ARC
  8
0
  6
CONTINUOUS
 62
     1
 10
199.6
 20
133.7
 30
0.0
 40
0.2
 50
180.0
 51
270.0
  0
LINE
  8
0
  6
CONTINUOUS
 62
     1
 10
200.4
 20
133.7
 30
0.0
 11
200.4
 21
135.5
 31
0.0
  0
LINE
  8
0
  6
CONTINUOUS
 62
     1
 10
199.4
 20
135.5
 30
0.0
 11
199.4
 21
133.7
 31
0.0
  0
LINE
  8
0
  6
CONTINUOUS
 62
     1
 10
199.4
 20
139.5
 30
0.0
 11
199.6
 21
139.25
 31
0.0
  0
LINE
  8
0
  6
CONTINUOUS
 62
     1
 10
200.2
 20
139.25
 30
0.0
 11
200.4
 21
139.5
 31
0.0
  0
LINE
  8
0
  6
CONTINUOUS
 62
     1
 10
199.6
 20
139.25
 30
0.0
 11
199.6
 21
135.75
 31
0.0
  0
LINE
  8
0
  6
CONTINUOUS
 62
     1
 10
200.2
 20
135.75
 30
0.0
 11
200.2
 21
139.25
 31
0.0
  0
ARC
  8
0
  6
CONTINUOUS
 62
     1
 10
200.2
 20
141.3
 30
0.0
 40
0.2
 50
0.0
 51
90.0
  0
LINE
  8
0
  6
CONTINUOUS
 62
     1
 10
200.2
 20
141.5
 30
0.0
 11
199.6
 21
141.5
 31
0.0
  0
ARC
  8
0
  6
CONTINUOUS
 62
     1
 10
199.6
 20
141.3
 30
0.0
 40
0.2
 50
90.0
 51
180.0
  0
LINE
  8
0
  6
CONTINUOUS
 62
     1
 10
200.4
 20
139.5
 30
0.0
 11
200.4
 21
141.3
 31
0.0
  0
LINE
  8
0
  6
CONTINUOUS
 62
     1
 10
199.4
 20
141.3
 30
0.0
 11
199.4
 21
139.5
 31
0.0
  0
CIRCLE
  8
0
  6
CONTINUOUS
 62
     1
 10
196.9
 20
137.5
 30
0.0
 40
2.25
  0
LINE
  8
0
  6
CONTINUOUS
 62
     1
 10
199.4
 20
140.75
 30
0.0
 11
194.4
 21
140.75
 31
0.0
  0
LINE
  8
0
  6
CONTINUOUS
 62
     1
 10
205.6
 20
133.5
 30
0.0
 11
170.2
 21
133.5
 31
0.0
  0
LINE
  8
0
  6
CONTINUOUS
 62
     1
 10
170.275
 20
141.5
 30
0.0
 11
205.600002697
 21
141.5
 31
0.0
  0
LINE
  8
0
  6
CONTINUOUS
 62
     1
 10
206.347560814
 20
141.5
 30
0.0
 11
205.6
 21
141.5
 31
0.0
  0
LINE
  8
0
  6
CONTINUOUS
 62
     1
 10
170.2
 20
141.5
 30
0.0
 11
169.452439186
 21
141.5
 31
0.0
  0
LINE
  8
0
  6
CONTINUOUS
 62
     1
 10
173.2
 20
115.0
 30
0.0
 11
202.6
 21
115.0
 31
0.0
  0
ARC
  8
0
  6
CONTINUOUS
 62
     1
 10
173.700012626
 20
124.7
 30
0.0
 40
10.0
 50
118.106333783
 51
259.695079724
  0
ARC
  8
0
  6
CONTINUOUS
 62
     1
 10
202.1
 20
124.7
 30
0.0
 40
10.0
 50
280.304846469
 51
0.0
  0
ARC
  8
0
  6
CONTINUOUS
 62
     1
 10
202.1
 20
124.7
 30
0.0
 40
10.0
 50
0.0
 51
62.402690338
  0
ARC
  8
0
  6
CONTINUOUS
 62
     1
 10
74.0
 20
100.5
 30
0.0
 40
3.0
 50
270.0
 51
0.0
  0
LINE
  8
0
  6
CONTINUOUS
 62
     1
 10
77.0
 20
100.5
 30
0.0
 11
77.0
 21
149.5
 31
0.0
  0
ARC
  8
0
  6
CONTINUOUS
 62
     1
 10
74.0
 20
149.5
 30
0.0
 40
3.0
 50
0.0
 51
90.0
  0
LINE
  8
0
  6
CONTINUOUS
 62
     1
 10
74.0
 20
152.5
 30
0.0
 11
25.0
 21
152.5
 31
0.0
  0
ARC
  8
0
  6
CONTINUOUS
 62
     1
 10
25.0
 20
149.5
 30
0.0
 40
3.0
 50
90.0
 51
180.0
  0
LINE
  8
0
  6
CONTINUOUS
 62
     1
 10
25.0
 20
97.5
 30
0.0
 11
74.0
 21
97.5
 31
0.0
  0
LINE
  8
0
  6
CONTINUOUS
 62
     1
 10
22.0
 20
149.5
 30
0.0
 11
22.0
 21
100.5
 31
0.0
  0
ARC
  8
0
  6
CONTINUOUS
 62
     1
 10
25.0
 20
100.5
 30
0.0
 40
3.0
 50
180.0
 51
270.0
  0
CIRCLE
  8
0
  6
CONTINUOUS
 62
     1
 10
49.5
 20
125.0
 30
0.0
 40
25.5
  0
CIRCLE
  8
0
  6
CONTINUOUS
 62
     1
 10
49.5
 20
125.0
 30
0.0
 40
3.05
  0
LINE
  8
0
  6
CONTINUOUS
 62
     1
 10
99.1
 20
152.475
 30
0.0
 11
93.85
 21
152.475
 31
0.0
  0
ARC
  8
0
  6
CONTINUOUS
 62
     1
 10
93.85
 20
151.975
 30
0.0
 40
0.5
 50
90.0
 51
180.0
  0
LINE
  8
0
  6
CONTINUOUS
 62
     1
 10
93.35
 20
150.475
 30
0.0
 11
89.85
 21
150.475
 31
0.0
  0
ARC
  8
0
  6
CONTINUOUS
 62
     1
 10
89.85
 20
150.225
 30
0.0
 40
0.25
 50
90.0
 51
180.0
  0
LINE
  8
0
  6
CONTINUOUS
 62
     1
 10
88.6
 20
122.725
 30
0.0
 11
88.8
 21
122.725
 31
0.0
  0
ARC
  8
0
  6
CONTINUOUS
 62
     1
 10
93.85
 20
97.975
 30
0.0
 40
0.5
 50
180.0
 51
270.0
  0
LINE
  8
0
  6
CONTINUOUS
 62
     1
 10
93.35
 20
99.475
 30
0.0
 11
89.85
 21
99.475
 31
0.0
  0
ARC
  8
0
  6
CONTINUOUS
 62
     1
 10
89.85
 20
99.725
 30
0.0
 40
0.25
 50
180.0
 51
270.0
  0
LINE
  8
0
  6
CONTINUOUS
 62
     1
 10
88.8
 20
122.725
 30
0.0
 11
89.6
 21
99.725
 31
0.0
  0
LINE
  8
0
  6
CONTINUOUS
 62
     1
 10
93.35
 20
97.975
 30
0.0
 11
93.35
 21
124.975
 31
0.0
  0
LINE
  8
0
  6
CONTINUOUS
 62
     1
 10
88.777077922
 20
126.565990258
 30
0.0
 11
89.6
 21
150.225
 31
0.0
  0
LINE
  8
0
  6
CONTINUOUS
 62
     1
 10
93.35
 20
151.975
 30
0.0
 11
93.35
 21
150.625
 31
0.0
  0
LINE
  8
0
  6
CONTINUOUS
 62
     1
 10
99.1
 20
152.475
 30
0.0
 11
99.1
 21
151.825
 31
0.0
  0
LINE
  8
0
  6
CONTINUOUS
 62
     1
 10
93.35
 20
150.625
 30
0.0
 11
93.35
 21
150.475
 31
0.0
  0
LINE
  8
0
  6
CONTINUOUS
 62
     1
 10
88.6
 20
126.565990258
 30
0.0
 11
88.6
 21
122.725
 31
0.0
  0
LINE
  8
0
  6
CONTINUOUS
 62
     1
 10
93.35
 20
125.0
 30
0.0
 11
93.35
 21
150.475
 31
0.0
  0
LINE
  8
0
  6
CONTINUOUS
 62
     1
 10
93.35
 20
142.975
 30
0.0
 11
93.35
 21
151.975001907
 31
0.0
  0
LINE
  8
0
  6
CONTINUOUS
 62
     1
 10
133.65
 20
149.65
 30
0.0
 11
133.65
 21
100.25
 31
0.0
  0
ARC
  8
0
  6
CONTINUOUS
 62
     1
 10
139.15
 20
100.75
 30
0.0
 40
0.5
 50
270.0
 51
0.0
  0
ARC
  8
0
  6
CONTINUOUS
 62
     1
 10
139.15
 20
149.25
 30
0.0
 40
0.5
 50
0.0
 51
90.0
  0
LINE
  8
0
  6
CONTINUOUS
 62
     1
 10
147.85
 20
138.5
 30
0.0
 11
142.15
 21
138.5
 31
0.0
  0
LINE
  8
0
  6
CONTINUOUS
 62
     1
 10
142.15
 20
138.5
 30
0.0
 11
142.15
 21
107.0
 31
0.0
  0
LINE
  8
0
  6
CONTINUOUS
 62
     1
 10
146.85
 20
141.5
 30
0.0
 11
146.85
 21
140.75
 31
0.0
  0
LINE
  8
0
  6
CONTINUOUS
 62
     1
 10
146.85
 20
140.75
 30
0.0
 11
147.85
 21
140.75
 31
0.0
  0
LINE
  8
0
  6
CONTINUOUS
 62
     1
 10
147.85
 20
140.75
 30
0.0
 11
147.85
 21
133.5
 31
0.0
  0
LINE
  8
0
  6
CONTINUOUS
 62
     1
 10
147.85
 20
133.5
 30
0.0
 11
142.15
 21
133.5
 31
0.0
  0
LINE
  8
0
  6
CONTINUOUS
 62
     1
 10
147.85
 20
135.5
 30
0.0
 11
142.15
 21
135.5
 31
0.0
  0
POINT
  8
0
  6
CONTINUOUS
 62
     1
 10
147.85
 20
136.5
 30
0.0
  0
LINE
  8
0
  6
CONTINUOUS
 62
     1
 10
147.85
 20
136.5
 30
0.0
 11
146.85
 21
136.5
 31
0.0
  0
LINE
  8
0
  6
CONTINUOUS
 62
     1
 10
145.15
 20
133.5
 30
0.0
 11
145.15
 21
115.0
 31
0.0
  0
LINE
  8
0
  6
CONTINUOUS
 62
     1
 10
142.15
 20
115.0
 30
0.0
 11
147.85
 21
115.0
 31
0.0
  0
LINE
  8
0
  6
CONTINUOUS
 62
     1
 10
147.85
 20
115.0
 30
0.0
 11
147.85
 21
107.0
 31
0.0
  0
LINE
  8
0
  6
CONTINUOUS
 62
     1
 10
147.85
 20
112.0
 30
0.0
 11
146.85
 21
112.0
 31
0.0
  0
LINE
  8
0
  6
CONTINUOUS
 62
     1
 10
147.85
 20
110.0
 30
0.0
 11
146.85
 21
110.0
 31
0.0
  0
LINE
  8
0
  6
CONTINUOUS
 62
     1
 10
147.85
 20
109.0
 30
0.0
 11
142.15
 21
109.0
 31
0.0
  0
LINE
  8
0
  6
CONTINUOUS
 62
     1
 10
147.85
 20
113.0
 30
0.0
 11
142.15
 21
113.0
 31
0.0
  0
LINE
  8
0
  6
CONTINUOUS
 62
     1
 10
140.15
 20
107.0
 30
0.0
 11
147.85
 21
107.0
 31
0.0
  0
LINE
  8
0
  6
CONTINUOUS
 62
     1
 10
139.65
 20
106.5
 30
0.0
 11
139.65
 21
100.75
 31
0.0
  0
ARC
  8
0
  6
CONTINUOUS
 62
     1
 10
140.15
 20
106.5
 30
0.0
 40
0.5
 50
90.0
 51
180.0
  0
LINE
  8
0
  6
CONTINUOUS
 62
     1
 10
140.15
 20
141.5
 30
0.0
 11
146.85
 21
141.5
 31
0.0
  0
LINE
  8
0
  6
CONTINUOUS
 62
     1
 10
139.65
 20
149.25
 30
0.0
 11
139.65
 21
142.0
 31
0.0
  0
ARC
  8
0
  6
CONTINUOUS
 62
     1
 10
140.15
 20
142.0
 30
0.0
 40
0.5
 50
180.0
 51
270.0
  0
LINE
  8
0
  6
CONTINUOUS
 62
     1
 10
207.7
 20
138.5
 30
0.0
 11
207.7
 21
139.775001907
 31
0.0
  0
LINE
  8
0
  6
CONTINUOUS
 62
     1
 10
168.1
 20
138.5
 30
0.0
 11
168.1
 21
139.775001907
 31
0.0
  0
LINE
  8
0
  6
CONTINUOUS
 62
     1
 10
99.1
 20
151.825
 30
0.0
 11
99.1
 21
125.225
 31
0.0
  0
POINT
  8
0
  6
LTYPE1
 62
     2
 10
187.9
 20
24.5
 30
0.0
  0
POINT
  8
0
  6
LTYPE1
 62
     2
 10
187.9
 20
156.0
 30
0.0
  0
LINE
  8
0
  6
CONTINUOUS
 62
     2
 10
214.65
 20
102.5
 30
0.0
 11
224.5
 21
102.5
 31
0.0
  0
LINE
  8
0
  6
CONTINUOUS
 62
     2
 10
222.5
 20
102.5
 30
0.0
 11
223.147047613
 21
104.914814566
 31
0.0
  0
LINE
  8
0
  6
CONTINUOUS
 62
     2
 10
222.5
 20
102.5
 30
0.0
 11
221.852952387
 21
104.914814566
 31
0.0
  0
LINE
  8
0
  6
CONTINUOUS
 62
     2
 10
222.5
 20
102.5
 30
0.0
 11
222.5
 21
125.0
 31
0.0
  0
LINE
  8
0
  6
CONTINUOUS
 62
     2
 10
222.5
 20
125.0
 30
0.0
 11
221.852952387
 21
122.585185434
 31
0.0
  0
LINE
  8
0
  6
CONTINUOUS
 62
     2
 10
222.5
 20
125.0
 30
0.0
 11
223.147047613
 21
122.585185434
 31
0.0
  0
LINE
  8
0
  6
CONTINUOUS
 62
     2
 10
210.1
 20
125.0
 30
0.0
 11
224.5
 21
125.0
 31
0.0
  0
TEXT
  8
0
  6
CONTINUOUS
 62
     2
 10
221.5
 20
109.37
 30
0.3
 40
3.0
  1
４５
 50
90.0
 41
0.6
 51
0.0
  7
KANJI1
  0
LINE
  8
0
  6
CONTINUOUS
 62
     2
 10
222.5
 20
125.0
 30
0.0
 11
223.147047613
 21
127.414814566
 31
0.0
  0
LINE
  8
0
  6
CONTINUOUS
 62
     2
 10
222.5
 20
125.0
 30
0.0
 11
221.852952387
 21
127.414814566
 31
0.0
  0
LINE
  8
0
  6
CONTINUOUS
 62
     2
 10
222.5
 20
125.0
 30
0.0
 11
222.5
 21
147.5
 31
0.0
  0
LINE
  8
0
  6
CONTINUOUS
 62
     2
 10
222.5
 20
147.5
 30
0.0
 11
221.852952387
 21
145.085185434
 31
0.0
  0
LINE
  8
0
  6
CONTINUOUS
 62
     2
 10
222.5
 20
147.5
 30
0.0
 11
223.147047613
 21
145.085185434
 31
0.0
  0
LINE
  8
0
  6
CONTINUOUS
 62
     2
 10
214.6
 20
147.5
 30
0.0
 11
224.5
 21
147.5
 31
0.0
  0
TEXT
  8
0
  6
CONTINUOUS
 62
     2
 10
221.5
 20
131.87
 30
0.3
 40
3.0
  1
４５
 50
90.0
 41
0.6
 51
0.0
  7
KANJI1
  0
LINE
  8
0
  6
LTYPE1
 62
     2
 10
158.6
 20
54.15
 30
0.0
 11
217.3
 21
54.15
 31
0.0
  0
LINE
  8
0
  6
LTYPE1
 62
     2
 10
161.3
 20
31.65
 30
0.0
 11
168.45
 21
31.65
 31
0.0
  0
LINE
  8
0
  6
LTYPE1
 62
     2
 10
206.0
 20
31.65
 30
0.0
 11
215.3
 21
31.65
 31
0.0
  0
LINE
  8
0
  6
LTYPE1
 62
     2
 10
210.4
 20
27.3
 30
0.0
 11
210.4
 21
36.65
 31
0.0
  0
LINE
  8
0
  6
LTYPE1
 62
     2
 10
165.4
 20
83.0
 30
0.0
 11
165.4
 21
72.25
 31
0.0
  0
LINE
  8
0
  6
LTYPE1
 62
     2
 10
165.4
 20
36.85
 30
0.0
 11
165.4
 21
26.55
 31
0.0
  0
LINE
  8
0
  6
LTYPE1
 62
     2
 10
161.35
 20
76.65
 30
0.0
 11
172.0
 21
76.65
 31
0.0
  0
LINE
  8
0
  6
LTYPE1
 62
     2
 10
204.6
 20
76.65
 30
0.0
 11
217.65
 21
76.65
 31
0.0
  0
LINE
  8
0
  6
CONTINUOUS
 62
     2
 10
215.45
 20
31.65
 30
0.0
 11
223.9
 21
31.65
 31
0.0
  0
LINE
  8
0
  6
CONTINUOUS
 62
     2
 10
221.9
 20
31.65
 30
0.0
 11
222.547047613
 21
34.064814566
 31
0.0
  0
LINE
  8
0
  6
CONTINUOUS
 62
     2
 10
221.9
 20
31.65
 30
0.0
 11
221.252952387
 21
34.064814566
 31
0.0
  0
LINE
  8
0
  6
CONTINUOUS
 62
     2
 10
221.9
 20
54.15
 30
0.0
 11
221.252952387
 21
51.735185434
 31
0.0
  0
LINE
  8
0
  6
CONTINUOUS
 62
     2
 10
221.9
 20
54.15
 30
0.0
 11
222.547047613
 21
51.735185434
 31
0.0
  0
LINE
  8
0
  6
CONTINUOUS
 62
     2
 10
217.3
 20
54.15
 30
0.0
 11
223.9
 21
54.15
 31
0.0
  0
LINE
  8
0
  6
CONTINUOUS
 62
     2
 10
221.9
 20
54.15
 30
0.0
 11
222.547047613
 21
56.564814566
 31
0.0
  0
LINE
  8
0
  6
CONTINUOUS
 62
     2
 10
221.9
 20
54.15
 30
0.0
 11
221.252952387
 21
56.564814566
 31
0.0
  0
LINE
  8
0
  6
CONTINUOUS
 62
     2
 10
221.9
 20
54.15
 30
0.0
 11
221.9
 21
76.65
 31
0.0
  0
LINE
  8
0
  6
CONTINUOUS
 62
     2
 10
221.9
 20
76.65
 30
0.0
 11
221.252952387
 21
74.235185434
 31
0.0
  0
LINE
  8
0
  6
CONTINUOUS
 62
     2
 10
221.9
 20
76.65
 30
0.0
 11
222.547047613
 21
74.235185434
 31
0.0
  0
LINE
  8
0
  6
CONTINUOUS
 62
     2
 10
217.65
 20
76.65
 30
0.0
 11
223.9
 21
76.65
 31
0.0
  0
TEXT
  8
0
  6
CONTINUOUS
 62
     2
 10
220.9
 20
61.02
 30
0.3
 40
3.0
  1
４５
 50
90.0
 41
0.6
 51
0.0
  7
KANJI1
  0
LINE
  8
0
  6
CONTINUOUS
 62
     2
 10
221.9
 20
31.65
 30
0.0
 11
221.9
 21
54.15
 31
0.0
  0
TEXT
  8
0
  6
CONTINUOUS
 62
     2
 10
220.9
 20
38.52
 30
0.3
 40
3.0
  1
４５
 50
90.0
 41
0.6
 51
0.0
  7
KANJI1
  0
LINE
  8
0
  6
CONTINUOUS
 62
     2
 10
165.4
 20
83.0
 30
0.0
 11
165.4
 21
85.65
 31
0.0
  0
LINE
  8
0
  6
CONTINUOUS
 62
     2
 10
165.4
 20
83.65
 30
0.0
 11
167.814814566
 21
83.002952387
 31
0.0
  0
LINE
  8
0
  6
CONTINUOUS
 62
     2
 10
165.4
 20
83.65
 30
0.0
 11
167.814814566
 21
84.297047613
 31
0.0
  0
LINE
  8
0
  6
CONTINUOUS
 62
     2
 10
165.4
 20
83.65
 30
0.0
 11
187.9
 21
83.65
 31
0.0
  0
LINE
  8
0
  6
CONTINUOUS
 62
     2
 10
187.9
 20
83.65
 30
0.0
 11
185.485185434
 21
84.297047613
 31
0.0
  0
LINE
  8
0
  6
CONTINUOUS
 62
     2
 10
187.9
 20
83.65
 30
0.0
 11
185.485185434
 21
83.002952387
 31
0.0
  0
LINE
  8
0
  6
CONTINUOUS
 62
     2
 10
187.9
 20
83.0
 30
0.0
 11
187.9
 21
85.65
 31
0.0
  0
TEXT
  8
0
  6
CONTINUOUS
 62
     2
 10
172.27
 20
84.65
 30
0.3
 40
3.0
  1
４５
 50
0.0
 41
0.6
 51
0.0
  7
KANJI1
  0
LINE
  8
0
  6
CONTINUOUS
 62
     2
 10
187.9
 20
83.65
 30
0.0
 11
190.314814566
 21
83.002952387
 31
0.0
  0
LINE
  8
0
  6
CONTINUOUS
 62
     2
 10
187.9
 20
83.65
 30
0.0
 11
190.314814566
 21
84.297047613
 31
0.0
  0
LINE
  8
0
  6
CONTINUOUS
 62
     2
 10
187.9
 20
83.65
 30
0.0
 11
210.4
 21
83.65
 31
0.0
  0
LINE
  8
0
  6
CONTINUOUS
 62
     2
 10
210.4
 20
83.65
 30
0.0
 11
207.985185434
 21
84.297047613
 31
0.0
  0
LINE
  8
0
  6
CONTINUOUS
 62
     2
 10
210.4
 20
83.65
 30
0.0
 11
207.985185434
 21
83.002952387
 31
0.0
  0
TEXT
  8
0
  6
CONTINUOUS
 62
     2
 10
194.77
 20
84.65
 30
0.3
 40
3.0
  1
４５
 50
0.0
 41
0.6
 51
0.0
  7
KANJI1
  0
LINE
  8
0
  6
CONTINUOUS
 62
     2
 10
164.5
 20
30.1
 30
0.0
 11
163.052635312
 21
28.061585062
 31
0.0
  0
LINE
  8
0
  6
CONTINUOUS
 62
     2
 10
164.5
 20
30.1
 30
0.0
 11
164.265752881
 21
27.610998536
 31
0.0
  0
LINE
  8
0
  6
CONTINUOUS
 62
     2
 10
164.5
 20
30.1
 30
0.0
 11
161.25
 21
21.35
 31
0.0
  0
LINE
  8
0
  6
CONTINUOUS
 62
     2
 10
161.25
 20
21.35
 30
0.0
 11
152.55
 21
21.35
 31
0.0
  0
TEXT
  8
0
  6
CONTINUOUS
 62
     2
 10
220.9
 20
42.42
 30
0.18
 40
1.8
  1
±０．３
 50
90.0
 41
0.6
 51
0.0
  7
KANJI2
  0
TEXT
  8
0
  6
CONTINUOUS
 62
     2
 10
220.9
 20
64.92
 30
0.18
 40
1.8
  1
±０．３
 50
90.0
 41
0.6
 51
0.0
  7
KANJI2
  0
TEXT
  8
0
  6
CONTINUOUS
 62
     2
 10
198.67
 20
84.65
 30
0.18
 40
1.8
  1
±０．３
 50
0.0
 41
0.6
 51
0.0
  7
KANJI2
  0
TEXT
  8
0
  6
CONTINUOUS
 62
     2
 10
176.17
 20
84.65
 30
0.18
 40
1.8
  1
±０．３
 50
0.0
 41
0.6
 51
0.0
  7
KANJI2
  0
TEXT
  8
0
  6
CONTINUOUS
 62
     2
 10
173.676470351
 20
40.690293305
 30
0.3
 40
3.0
  1
φ１０１
 50
46.346669025
 41
0.6
 51
0.0
  7
KANJI1
  0
TEXT
  8
0
  6
CONTINUOUS
 62
     2
 10
152.55
 20
22.35
 30
0.5
 40
3.0
  1
４－φ６
 50
0.0
 41
0.6
 51
0.0
  7
KANJI3
  0
CIRCLE
  8
0
  6
CONTINUOUS
 62
     2
 10
207.169065234
 20
113.875
 30
0.0
 40
1.572025
  0
CIRCLE
  8
0
  6
CONTINUOUS
 62
     2
 10
207.169065234
 20
113.875
 30
0.0
 40
1.34745
  0
LINE
  8
0
  6
CONTINUOUS
 62
     2
 10
206.383052734
 20
114.05466
 30
0.0
 11
206.809745234
 21
114.05466
 31
0.0
  0
ARC
  8
0
  6
CONTINUOUS
 62
     2
 10
206.809745234
 20
114.23432
 30
0.0
 40
0.17966
 50
270.0
 51
0.0
  0
LINE
  8
0
  6
CONTINUOUS
 62
     2
 10
206.989405234
 20
114.23432
 30
0.0
 11
206.989405234
 21
114.6610125
 31
0.0
  0
LINE
  8
0
  6
CONTINUOUS
 62
     2
 10
206.989405234
 20
114.6610125
 30
0.0
 11
207.348725234
 21
114.6610125
 31
0.0
  0
LINE
  8
0
  6
CONTINUOUS
 62
     2
 10
207.348725234
 20
114.6610125
 30
0.0
 11
207.348725234
 21
114.23432
 31
0.0
  0
ARC
  8
0
  6
CONTINUOUS
 62
     2
 10
207.528385234
 20
114.23432
 30
0.0
 40
0.17966
 50
180.0
 51
270.0
  0
LINE
  8
0
  6
CONTINUOUS
 62
     2
 10
207.528385234
 20
114.05466
 30
0.0
 11
207.955077734
 21
114.05466
 31
0.0
  0
LINE
  8
0
  6
CONTINUOUS
 62
     2
 10
207.955077734
 20
114.05466
 30
0.0
 11
207.955077734
 21
113.69534
 31
0.0
  0
LINE
  8
0
  6
CONTINUOUS
 62
     2
 10
207.955077734
 20
113.69534
 30
0.0
 11
207.528385234
 21
113.69534
 31
0.0
  0
ARC
  8
0
  6
CONTINUOUS
 62
     2
 10
207.528385234
 20
113.51568
 30
0.0
 40
0.17966
 50
90.0
 51
180.0
  0
LINE
  8
0
  6
CONTINUOUS
 62
     2
 10
207.348725234
 20
113.51568
 30
0.0
 11
207.348725234
 21
113.0889875
 31
0.0
  0
LINE
  8
0
  6
CONTINUOUS
 62
     2
 10
207.348725234
 20
113.0889875
 30
0.0
 11
206.989405234
 21
113.0889875
 31
0.0
  0
LINE
  8
0
  6
CONTINUOUS
 62
     2
 10
206.989405234
 20
113.0889875
 30
0.0
 11
206.989405234
 21
113.51568
 31
0.0
  0
ARC
  8
0
  6
CONTINUOUS
 62
     2
 10
206.809745234
 20
113.51568
 30
0.0
 40
0.17966
 50
0.0
 51
90.0
  0
LINE
  8
0
  6
CONTINUOUS
 62
     2
 10
206.809745234
 20
113.69534
 30
0.0
 11
206.383052734
 21
113.69534
 31
0.0
  0
LINE
  8
0
  6
CONTINUOUS
 62
     2
 10
206.383052734
 20
113.69534
 30
0.0
 11
206.383052734
 21
114.05466
 31
0.0
  0
LINE
  8
0
  6
LTYPE1
 62
     2
 10
205.372465234
 20
113.875
 30
0.0
 11
208.965665234
 21
113.875
 31
0.0
  0
LINE
  8
0
  6
LTYPE1
 62
     2
 10
207.169065234
 20
115.6716
 30
0.0
 11
207.169065234
 21
112.0784
 31
0.0
  0
CIRCLE
  8
0
  6
CONTINUOUS
 62
     2
 10
168.680934766
 20
113.875
 30
0.0
 40
1.572025
  0
CIRCLE
  8
0
  6
CONTINUOUS
 62
     2
 10
168.680934766
 20
113.875
 30
0.0
 40
1.34745
  0
LINE
  8
0
  6
CONTINUOUS
 62
     2
 10
167.894922266
 20
114.05466
 30
0.0
 11
168.321614766
 21
114.05466
 31
0.0
  0
ARC
  8
0
  6
CONTINUOUS
 62
     2
 10
168.321614766
 20
114.23432
 30
0.0
 40
0.17966
 50
270.0
 51
0.0
  0
LINE
  8
0
  6
CONTINUOUS
 62
     2
 10
168.501274766
 20
114.23432
 30
0.0
 11
168.501274766
 21
114.6610125
 31
0.0
  0
LINE
  8
0
  6
CONTINUOUS
 62
     2
 10
168.501274766
 20
114.6610125
 30
0.0
 11
168.860594766
 21
114.6610125
 31
0.0
  0
LINE
  8
0
  6
CONTINUOUS
 62
     2
 10
168.860594766
 20
114.6610125
 30
0.0
 11
168.860594766
 21
114.23432
 31
0.0
  0
ARC
  8
0
  6
CONTINUOUS
 62
     2
 10
169.040254766
 20
114.23432
 30
0.0
 40
0.17966
 50
180.0
 51
270.0
  0
LINE
  8
0
  6
CONTINUOUS
 62
     2
 10
169.040254766
 20
114.05466
 30
0.0
 11
169.466947266
 21
114.05466
 31
0.0
  0
LINE
  8
0
  6
CONTINUOUS
 62
     2
 10
169.466947266
 20
114.05466
 30
0.0
 11
169.466947266
 21
113.69534
 31
0.0
  0
LINE
  8
0
  6
CONTINUOUS
 62
     2
 10
169.466947266
 20
113.69534
 30
0.0
 11
169.040254766
 21
113.69534
 31
0.0
  0
ARC
  8
0
  6
CONTINUOUS
 62
     2
 10
169.040254766
 20
113.51568
 30
0.0
 40
0.17966
 50
90.0
 51
180.0
  0
LINE
  8
0
  6
CONTINUOUS
 62
     2
 10
168.860594766
 20
113.51568
 30
0.0
 11
168.860594766
 21
113.0889875
 31
0.0
  0
LINE
  8
0
  6
CONTINUOUS
 62
     2
 10
168.860594766
 20
113.0889875
 30
0.0
 11
168.501274766
 21
113.0889875
 31
0.0
  0
LINE
  8
0
  6
CONTINUOUS
 62
     2
 10
168.501274766
 20
113.0889875
 30
0.0
 11
168.501274766
 21
113.51568
 31
0.0
  0
ARC
  8
0
  6
CONTINUOUS
 62
     2
 10
168.321614766
 20
113.51568
 30
0.0
 40
0.17966
 50
0.0
 51
90.0
  0
LINE
  8
0
  6
CONTINUOUS
 62
     2
 10
168.321614766
 20
113.69534
 30
0.0
 11
167.894922266
 21
113.69534
 31
0.0
  0
LINE
  8
0
  6
CONTINUOUS
 62
     2
 10
167.894922266
 20
113.69534
 30
0.0
 11
167.894922266
 21
114.05466
 31
0.0
  0
LINE
  8
0
  6
LTYPE1
 62
     2
 10
166.884334766
 20
113.875
 30
0.0
 11
170.477534766
 21
113.875
 31
0.0
  0
LINE
  8
0
  6
LTYPE1
 62
     2
 10
168.680934766
 20
115.6716
 30
0.0
 11
168.680934766
 21
112.0784
 31
0.0
  0
CIRCLE
  8
0
  6
CONTINUOUS
 62
     2
 10
187.875
 20
147.20669873
 30
0.0
 40
1.572025
  0
CIRCLE
  8
0
  6
CONTINUOUS
 62
     2
 10
187.875
 20
147.20669873
 30
0.0
 40
1.34745
  0
LINE
  8
0
  6
CONTINUOUS
 62
     2
 10
188.423596374
 20
147.797575523
 30
0.0
 11
188.210250124
 21
147.428048978
 31
0.0
  0
ARC
  8
0
  6
CONTINUOUS
 62
     2
 10
188.365840248
 20
147.338218978
 30
0.0
 40
0.17966
 50
150.0
 51
240.0
  0
LINE
  8
0
  6
CONTINUOUS
 62
     2
 10
188.276010248
 20
147.182628854
 30
0.0
 11
188.645536793
 21
146.969282604
 31
0.0
  0
LINE
  8
0
  6
CONTINUOUS
 62
     2
 10
188.645536793
 20
146.969282604
 30
0.0
 11
188.465876793
 21
146.658102356
 31
0.0
  0
LINE
  8
0
  6
CONTINUOUS
 62
     2
 10
188.465876793
 20
146.658102356
 30
0.0
 11
188.096350248
 21
146.871448606
 31
0.0
  0
ARC
  8
0
  6
CONTINUOUS
 62
     2
 10
188.006520248
 20
146.715858482
 30
0.0
 40
0.17966
 50
60.0
 51
150.0
  0
LINE
  8
0
  6
CONTINUOUS
 62
     2
 10
187.850930124
 20
146.805688482
 30
0.0
 11
187.637583874
 21
146.436161937
 31
0.0
  0
LINE
  8
0
  6
CONTINUOUS
 62
     2
 10
187.637583874
 20
146.436161937
 30
0.0
 11
187.326403626
 21
146.615821937
 31
0.0
  0
LINE
  8
0
  6
CONTINUOUS
 62
     2
 10
187.326403626
 20
146.615821937
 30
0.0
 11
187.539749876
 21
146.985348482
 31
0.0
  0
ARC
  8
0
  6
CONTINUOUS
 62
     2
 10
187.384159752
 20
147.075178482
 30
0.0
 40
0.17966
 50
330.0
 51
60.0
  0
LINE
  8
0
  6
CONTINUOUS
 62
     2
 10
187.473989752
 20
147.230768606
 30
0.0
 11
187.104463207
 21
147.444114856
 31
0.0
  0
LINE
  8
0
  6
CONTINUOUS
 62
     2
 10
187.104463207
 20
147.444114856
 30
0.0
 11
187.284123207
 21
147.755295104
 31
0.0
  0
LINE
  8
0
  6
CONTINUOUS
 62
     2
 10
187.284123207
 20
147.755295104
 30
0.0
 11
187.653649752
 21
147.541948854
 31
0.0
  0
ARC
  8
0
  6
CONTINUOUS
 62
     2
 10
187.743479752
 20
147.697538978
 30
0.0
 40
0.17966
 50
240.0
 51
330.0
  0
LINE
  8
0
  6
CONTINUOUS
 62
     2
 10
187.899069876
 20
147.607708978
 30
0.0
 11
188.112416126
 21
147.977235523
 31
0.0
  0
LINE
  8
0
  6
CONTINUOUS
 62
     2
 10
188.112416126
 20
147.977235523
 30
0.0
 11
188.423596374
 21
147.797575523
 31
0.0
  0
LINE
  8
0
  6
LTYPE1
 62
     2
 10
188.7733
 20
148.76259997
 30
0.0
 11
186.9767
 21
145.650797489
 31
0.0
  0
LINE
  8
0
  6
LTYPE1
 62
     2
 10
189.43090124
 20
146.30839873
 30
0.0
 11
186.31909876
 21
148.10499873
 31
0.0
  0
LINE
  8
0
  6
CONTINUOUS
 62
     2
 10
167.412643038
 20
103.662
 30
0.0
 11
165.4
 21
104.824
 31
0.0
  0
LINE
  8
0
  6
CONTINUOUS
 62
     2
 10
165.4
 20
104.824
 30
0.0
 11
163.387356962
 21
103.662
 31
0.0
  0
LINE
  8
0
  6
CONTINUOUS
 62
     2
 10
163.387356962
 20
103.662
 30
0.0
 11
163.387356962
 21
101.338
 31
0.0
  0
LINE
  8
0
  6
CONTINUOUS
 62
     2
 10
163.387356962
 20
101.338
 30
0.0
 11
165.4
 21
100.176
 31
0.0
  0
LINE
  8
0
  6
CONTINUOUS
 62
     2
 10
165.4
 20
100.176
 30
0.0
 11
167.412643038
 21
101.338
 31
0.0
  0
LINE
  8
0
  6
CONTINUOUS
 62
     2
 10
167.412643038
 20
101.338
 30
0.0
 11
167.412643038
 21
103.662
 31
0.0
  0
CIRCLE
  8
0
  6
CONTINUOUS
 62
     2
 10
165.4
 20
102.5
 30
0.0
 40
1.245
  0
CIRCLE
  8
0
  6
CONTINUOUS
 62
     2
 10
165.4
 20
102.5
 30
0.0
 40
1.162
  0
CIRCLE
  8
0
  6
CONTINUOUS
 62
     2
 10
165.4
 20
102.5
 30
0.0
 40
2.49
  0
CIRCLE
  8
0
  6
CONTINUOUS
 62
     2
 10
165.4
 20
102.5
 30
0.0
 40
2.075
  0
LINE
  8
0
  6
LTYPE1
 62
     2
 10
162.18375
 20
102.5
 30
0.0
 11
168.803
 21
102.5
 31
0.0
  0
LINE
  8
0
  6
LTYPE1
 62
     2
 10
165.4
 20
105.737
 30
0.0
 11
165.4
 21
99.32525
 31
0.0
  0
LINE
  8
0
  6
CONTINUOUS
 62
     2
 10
167.412643038
 20
148.662
 30
0.0
 11
165.4
 21
149.824
 31
0.0
  0
LINE
  8
0
  6
CONTINUOUS
 62
     2
 10
165.4
 20
149.824
 30
0.0
 11
163.387356962
 21
148.662
 31
0.0
  0
LINE
  8
0
  6
CONTINUOUS
 62
     2
 10
163.387356962
 20
148.662
 30
0.0
 11
163.387356962
 21
146.338
 31
0.0
  0
LINE
  8
0
  6
CONTINUOUS
 62
     2
 10
163.387356962
 20
146.338
 30
0.0
 11
165.4
 21
145.176
 31
0.0
  0
LINE
  8
0
  6
CONTINUOUS
 62
     2
 10
165.4
 20
145.176
 30
0.0
 11
167.412643038
 21
146.338
 31
0.0
  0
LINE
  8
0
  6
CONTINUOUS
 62
     2
 10
167.412643038
 20
146.338
 30
0.0
 11
167.412643038
 21
148.662
 31
0.0
  0
CIRCLE
  8
0
  6
CONTINUOUS
 62
     2
 10
165.4
 20
147.5
 30
0.0
 40
1.245
  0
CIRCLE
  8
0
  6
CONTINUOUS
 62
     2
 10
165.4
 20
147.5
 30
0.0
 40
1.162
  0
CIRCLE
  8
0
  6
CONTINUOUS
 62
     2
 10
165.4
 20
147.5
 30
0.0
 40
2.49
  0
CIRCLE
  8
0
  6
CONTINUOUS
 62
     2
 10
165.4
 20
147.5
 30
0.0
 40
2.075
  0
LINE
  8
0
  6
LTYPE1
 62
     2
 10
162.18375
 20
147.5
 30
0.0
 11
168.803
 21
147.5
 31
0.0
  0
LINE
  8
0
  6
LTYPE1
 62
     2
 10
165.4
 20
150.737
 30
0.0
 11
165.4
 21
144.32525
 31
0.0
  0
LINE
  8
0
  6
CONTINUOUS
 62
     2
 10
212.412643038
 20
148.662
 30
0.0
 11
210.4
 21
149.824
 31
0.0
  0
LINE
  8
0
  6
CONTINUOUS
 62
     2
 10
210.4
 20
149.824
 30
0.0
 11
208.387356962
 21
148.662
 31
0.0
  0
LINE
  8
0
  6
CONTINUOUS
 62
     2
 10
208.387356962
 20
148.662
 30
0.0
 11
208.387356962
 21
146.338
 31
0.0
  0
LINE
  8
0
  6
CONTINUOUS
 62
     2
 10
208.387356962
 20
146.338
 30
0.0
 11
210.4
 21
145.176
 31
0.0
  0
LINE
  8
0
  6
CONTINUOUS
 62
     2
 10
210.4
 20
145.176
 30
0.0
 11
212.412643038
 21
146.338
 31
0.0
  0
LINE
  8
0
  6
CONTINUOUS
 62
     2
 10
212.412643038
 20
146.338
 30
0.0
 11
212.412643038
 21
148.662
 31
0.0
  0
CIRCLE
  8
0
  6
CONTINUOUS
 62
     2
 10
210.4
 20
147.5
 30
0.0
 40
1.245
  0
CIRCLE
  8
0
  6
CONTINUOUS
 62
     2
 10
210.4
 20
147.5
 30
0.0
 40
1.162
  0
CIRCLE
  8
0
  6
CONTINUOUS
 62
     2
 10
210.4
 20
147.5
 30
0.0
 40
2.49
  0
CIRCLE
  8
0
  6
CONTINUOUS
 62
     2
 10
210.4
 20
147.5
 30
0.0
 40
2.075
  0
LINE
  8
0
  6
LTYPE1
 62
     2
 10
207.18375
 20
147.5
 30
0.0
 11
213.803
 21
147.5
 31
0.0
  0
LINE
  8
0
  6
LTYPE1
 62
     2
 10
210.4
 20
150.737
 30
0.0
 11
210.4
 21
144.32525
 31
0.0
  0
LINE
  8
0
  6
CONTINUOUS
 62
     2
 10
212.412643038
 20
103.662
 30
0.0
 11
210.4
 21
104.824
 31
0.0
  0
LINE
  8
0
  6
CONTINUOUS
 62
     2
 10
210.4
 20
104.824
 30
0.0
 11
208.387356962
 21
103.662
 31
0.0
  0
LINE
  8
0
  6
CONTINUOUS
 62
     2
 10
208.387356962
 20
103.662
 30
0.0
 11
208.387356962
 21
101.338
 31
0.0
  0
LINE
  8
0
  6
CONTINUOUS
 62
     2
 10
208.387356962
 20
101.338
 30
0.0
 11
210.4
 21
100.176
 31
0.0
  0
LINE
  8
0
  6
CONTINUOUS
 62
     2
 10
210.4
 20
100.176
 30
0.0
 11
212.412643038
 21
101.338
 31
0.0
  0
LINE
  8
0
  6
CONTINUOUS
 62
     2
 10
212.412643038
 20
101.338
 30
0.0
 11
212.412643038
 21
103.662
 31
0.0
  0
CIRCLE
  8
0
  6
CONTINUOUS
 62
     2
 10
210.4
 20
102.5
 30
0.0
 40
1.245
  0
CIRCLE
  8
0
  6
CONTINUOUS
 62
     2
 10
210.4
 20
102.5
 30
0.0
 40
1.162
  0
CIRCLE
  8
0
  6
CONTINUOUS
 62
     2
 10
210.4
 20
102.5
 30
0.0
 40
2.49
  0
CIRCLE
  8
0
  6
CONTINUOUS
 62
     2
 10
210.4
 20
102.5
 30
0.0
 40
2.075
  0
LINE
  8
0
  6
LTYPE1
 62
     2
 10
207.18375
 20
102.5
 30
0.0
 11
213.803
 21
102.5
 31
0.0
  0
LINE
  8
0
  6
LTYPE1
 62
     2
 10
210.4
 20
105.737
 30
0.0
 11
210.4
 21
99.32525
 31
0.0
  0
TEXT
  8
0
  6
CONTINUOUS
 62
     2
 10
221.5
 20
113.27
 30
0.18
 40
1.8
  1
±０．３
 50
90.0
 41
0.6
 51
0.0
  7
KANJI2
  0
TEXT
  8
0
  6
CONTINUOUS
 62
     2
 10
221.5
 20
135.77
 30
0.18
 40
1.8
  1
±０．３
 50
90.0
 41
0.6
 51
0.0
  7
KANJI2
  0
LINE
  8
0
  6
CONTINUOUS
 62
     2
 10
205.229905948
 20
72.43397463
 30
0.0
 11
203.367390815
 21
71.299468754
 31
0.0
  0
LINE
  8
0
  6
CONTINUOUS
 62
     2
 10
205.348997876
 20
72.319123642
 30
0.0
 11
204.303707079
 21
70.406163484
 31
0.0
  0
LINE
  8
0
  6
CONTINUOUS
 62
     2
 10
170.476320798
 20
35.808905669
 30
0.0
 11
172.432609185
 21
37.000531246
 31
0.0
  0
LINE
  8
0
  6
CONTINUOUS
 62
     2
 10
170.430439606
 20
35.943245415
 30
0.0
 11
171.496292921
 21
37.893836516
 31
0.0
  0
LINE
  8
0
  6
CONTINUOUS
 62
     2
 10
170.434191738
 20
35.843245415
 30
0.0
 11
205.329905948
 21
72.419123642
 31
0.0
  0
LINE
  8
0
  6
CONTINUOUS
 62
     2
 10
165.4
 20
166.35
 30
0.0
 11
167.814814566
 21
165.702952387
 31
0.0
  0
LINE
  8
0
  6
CONTINUOUS
 62
     2
 10
165.4
 20
166.35
 30
0.0
 11
167.814814566
 21
166.997047613
 31
0.0
  0
LINE
  8
0
  6
CONTINUOUS
 62
     2
 10
165.4
 20
166.35
 30
0.0
 11
187.9
 21
166.35
 31
0.0
  0
LINE
  8
0
  6
CONTINUOUS
 62
     2
 10
187.9
 20
166.35
 30
0.0
 11
185.485185434
 21
166.997047613
 31
0.0
  0
LINE
  8
0
  6
CONTINUOUS
 62
     2
 10
187.9
 20
166.35
 30
0.0
 11
185.485185434
 21
165.702952387
 31
0.0
  0
TEXT
  8
0
  6
CONTINUOUS
 62
     2
 10
172.27
 20
167.35
 30
0.3
 40
3.0
  1
４５
 50
0.0
 41
0.6
 51
0.0
  7
KANJI1
  0
LINE
  8
0
  6
CONTINUOUS
 62
     2
 10
187.9
 20
166.35
 30
0.0
 11
190.314814566
 21
165.702952387
 31
0.0
  0
LINE
  8
0
  6
CONTINUOUS
 62
     2
 10
187.9
 20
166.35
 30
0.0
 11
190.314814566
 21
166.997047613
 31
0.0
  0
LINE
  8
0
  6
CONTINUOUS
 62
     2
 10
187.9
 20
166.35
 30
0.0
 11
210.4
 21
166.35
 31
0.0
  0
LINE
  8
0
  6
CONTINUOUS
 62
     2
 10
210.4
 20
166.35
 30
0.0
 11
207.985185434
 21
166.997047613
 31
0.0
  0
LINE
  8
0
  6
CONTINUOUS
 62
     2
 10
210.4
 20
166.35
 30
0.0
 11
207.985185434
 21
165.702952387
 31
0.0
  0
TEXT
  8
0
  6
CONTINUOUS
 62
     2
 10
194.77
 20
167.35
 30
0.3
 40
3.0
  1
４５
 50
0.0
 41
0.6
 51
0.0
  7
KANJI1
  0
TEXT
  8
0
  6
CONTINUOUS
 62
     2
 10
198.67
 20
167.35
 30
0.18
 40
1.8
  1
±０．３
 50
0.0
 41
0.6
 51
0.0
  7
KANJI2
  0
TEXT
  8
0
  6
CONTINUOUS
 62
     2
 10
176.17
 20
167.35
 30
0.18
 40
1.8
  1
±０．３
 50
0.0
 41
0.6
 51
0.0
  7
KANJI2
  0
LINE
  8
0
  6
CONTINUOUS
 62
     2
 10
165.4
 20
151.6
 30
0.0
 11
165.4
 21
168.218245415
 31
0.0
  0
LINE
  8
0
  6
CONTINUOUS
 62
     2
 10
187.9
 20
156.2
 30
0.0
 11
187.9
 21
168.218245415
 31
0.0
  0
LINE
  8
0
  6
CONTINUOUS
 62
     2
 10
210.4
 20
151.5
 30
0.0
 11
210.4
 21
168.218245415
 31
0.0
  0
ARC
  8
0
  6
CONTINUOUS
 62
     2
 10
166.65
 20
103.75
 30
0.0
 40
5.0
 50
180.0
 51
269.999995647
  0
LINE
  8
0
  6
CONTINUOUS
 62
     2
 10
166.65
 20
98.75
 30
0.0
 11
209.15
 21
98.75
 31
0.0
  0
ARC
  8
0
  6
CONTINUOUS
 62
     2
 10
209.15
 20
103.75
 30
0.0
 40
5.0
 50
269.999968852
 51
0.0
  0
LINE
  8
0
  6
CONTINUOUS
 62
     2
 10
214.15
 20
103.75
 30
0.0
 11
214.15
 21
146.25
 31
0.0
  0
ARC
  8
0
  6
CONTINUOUS
 62
     2
 10
209.15
 20
146.25
 30
0.0
 40
5.0
 50
0.0
 51
89.999977967
  0
LINE
  8
0
  6
CONTINUOUS
 62
     2
 10
161.65
 20
146.25
 30
0.0
 11
161.65
 21
103.75
 31
0.0
  0
LINE
  8
0
  6
CONTINUOUS
 62
     2
 10
209.15
 20
151.25
 30
0.0
 11
166.65
 21
151.25
 31
0.0
  0
ARC
  8
0
  6
CONTINUOUS
 62
     2
 10
166.65
 20
146.25
 30
0.0
 40
5.0
 50
90.000022033
 51
180.0
  0
ARC
  8
0
  6
CONTINUOUS
 62
     2
 10
205.4
 20
127.5
 30
0.0
 40
1.0
 50
0.0
 51
90.0
  0
LINE
  8
0
  6
CONTINUOUS
 62
     2
 10
206.4
 20
121.0
 30
0.0
 11
206.4
 21
127.5
 31
0.0
  0
ARC
  8
0
  6
CONTINUOUS
 62
     2
 10
205.4
 20
121.0
 30
0.0
 40
1.0
 50
270.0
 51
0.0
  0
LINE
  8
0
  6
CONTINUOUS
 62
     2
 10
170.4
 20
120.0
 30
0.0
 11
205.4
 21
120.0
 31
0.0
  0
ARC
  8
0
  6
CONTINUOUS
 62
     2
 10
170.4
 20
121.0
 30
0.0
 40
1.0
 50
180.0
 51
270.0
  0
LINE
  8
0
  6
CONTINUOUS
 62
     2
 10
205.4
 20
128.5
 30
0.0
 11
170.4
 21
128.5
 31
0.0
  0
LINE
  8
0
  6
CONTINUOUS
 62
     2
 10
169.4
 20
127.5
 30
0.0
 11
169.4
 21
121.0
 31
0.0
  0
ARC
  8
0
  6
CONTINUOUS
 62
     2
 10
170.4
 20
127.5
 30
0.0
 40
1.0
 50
90.0
 51
180.0
  0
CIRCLE
  8
0
  6
CONTINUOUS
 62
     2
 10
170.9
 20
131.5
 30
0.0
 40
1.2
  0
CIRCLE
  8
0
  6
CONTINUOUS
 62
     2
 10
204.9
 20
131.5
 30
0.0
 40
1.2
  0
LINE
  8
0
  6
LTYPE1
 62
     2
 10
49.5
 20
156.5
 30
0.0
 11
49.5
 21
90.0
 31
0.0
  0
CIRCLE
  8
0
  6
CONTINUOUS
 62
     2
 10
72.0
 20
147.5
 30
0.0
 40
1.5
  0
LINE
  8
0
  6
CONTINUOUS
 62
     2
 10
71.125
 20
147.7
 30
0.0
 11
71.6
 21
147.7
 31
0.0
  0
ARC
  8
0
  6
CONTINUOUS
 62
     2
 10
71.6
 20
147.9
 30
0.0
 40
0.2
 50
270.0
 51
0.0
  0
LINE
  8
0
  6
CONTINUOUS
 62
     2
 10
71.8
 20
147.9
 30
0.0
 11
71.8
 21
148.375
 31
0.0
  0
LINE
  8
0
  6
CONTINUOUS
 62
     2
 10
71.8
 20
148.375
 30
0.0
 11
72.2
 21
148.375
 31
0.0
  0
LINE
  8
0
  6
CONTINUOUS
 62
     2
 10
72.2
 20
148.375
 30
0.0
 11
72.2
 21
147.9
 31
0.0
  0
ARC
  8
0
  6
CONTINUOUS
 62
     2
 10
72.4
 20
147.9
 30
0.0
 40
0.2
 50
180.0
 51
270.0
  0
LINE
  8
0
  6
CONTINUOUS
 62
     2
 10
72.4
 20
147.7
 30
0.0
 11
72.875
 21
147.7
 31
0.0
  0
LINE
  8
0
  6
CONTINUOUS
 62
     2
 10
72.875
 20
147.7
 30
0.0
 11
72.875
 21
147.3
 31
0.0
  0
LINE
  8
0
  6
CONTINUOUS
 62
     2
 10
72.875
 20
147.3
 30
0.0
 11
72.4
 21
147.3
 31
0.0
  0
ARC
  8
0
  6
CONTINUOUS
 62
     2
 10
72.4
 20
147.1
 30
0.0
 40
0.2
 50
90.0
 51
180.0
  0
LINE
  8
0
  6
CONTINUOUS
 62
     2
 10
72.2
 20
147.1
 30
0.0
 11
72.2
 21
146.625
 31
0.0
  0
LINE
  8
0
  6
CONTINUOUS
 62
     2
 10
72.2
 20
146.625
 30
0.0
 11
71.8
 21
146.625
 31
0.0
  0
LINE
  8
0
  6
CONTINUOUS
 62
     2
 10
71.8
 20
146.625
 30
0.0
 11
71.8
 21
147.1
 31
0.0
  0
ARC
  8
0
  6
CONTINUOUS
 62
     2
 10
71.6
 20
147.1
 30
0.0
 40
0.2
 50
0.0
 51
90.0
  0
LINE
  8
0
  6
CONTINUOUS
 62
     2
 10
71.6
 20
147.3
 30
0.0
 11
71.125
 21
147.3
 31
0.0
  0
LINE
  8
0
  6
CONTINUOUS
 62
     2
 10
71.125
 20
147.3
 30
0.0
 11
71.125
 21
147.7
 31
0.0
  0
LINE
  8
0
  6
LTYPE1
 62
     2
 10
70.0
 20
147.5
 30
0.0
 11
74.0
 21
147.5
 31
0.0
  0
LINE
  8
0
  6
LTYPE1
 62
     2
 10
72.0
 20
149.5
 30
0.0
 11
72.0
 21
145.5
 31
0.0
  0
CIRCLE
  8
0
  6
CONTINUOUS
 62
     2
 10
27.0
 20
147.5
 30
0.0
 40
1.5
  0
LINE
  8
0
  6
CONTINUOUS
 62
     2
 10
26.125
 20
147.7
 30
0.0
 11
26.6
 21
147.7
 31
0.0
  0
ARC
  8
0
  6
CONTINUOUS
 62
     2
 10
26.6
 20
147.9
 30
0.0
 40
0.2
 50
270.0
 51
0.0
  0
LINE
  8
0
  6
CONTINUOUS
 62
     2
 10
26.8
 20
147.9
 30
0.0
 11
26.8
 21
148.375
 31
0.0
  0
LINE
  8
0
  6
CONTINUOUS
 62
     2
 10
26.8
 20
148.375
 30
0.0
 11
27.2
 21
148.375
 31
0.0
  0
LINE
  8
0
  6
CONTINUOUS
 62
     2
 10
27.2
 20
148.375
 30
0.0
 11
27.2
 21
147.9
 31
0.0
  0
ARC
  8
0
  6
CONTINUOUS
 62
     2
 10
27.4
 20
147.9
 30
0.0
 40
0.2
 50
180.0
 51
270.0
  0
LINE
  8
0
  6
CONTINUOUS
 62
     2
 10
27.4
 20
147.7
 30
0.0
 11
27.875
 21
147.7
 31
0.0
  0
LINE
  8
0
  6
CONTINUOUS
 62
     2
 10
27.875
 20
147.7
 30
0.0
 11
27.875
 21
147.3
 31
0.0
  0
LINE
  8
0
  6
CONTINUOUS
 62
     2
 10
27.875
 20
147.3
 30
0.0
 11
27.4
 21
147.3
 31
0.0
  0
ARC
  8
0
  6
CONTINUOUS
 62
     2
 10
27.4
 20
147.1
 30
0.0
 40
0.2
 50
90.0
 51
180.0
  0
LINE
  8
0
  6
CONTINUOUS
 62
     2
 10
27.2
 20
147.1
 30
0.0
 11
27.2
 21
146.625
 31
0.0
  0
LINE
  8
0
  6
CONTINUOUS
 62
     2
 10
27.2
 20
146.625
 30
0.0
 11
26.8
 21
146.625
 31
0.0
  0
LINE
  8
0
  6
CONTINUOUS
 62
     2
 10
26.8
 20
146.625
 30
0.0
 11
26.8
 21
147.1
 31
0.0
  0
ARC
  8
0
  6
CONTINUOUS
 62
     2
 10
26.6
 20
147.1
 30
0.0
 40
0.2
 50
0.0
 51
90.0
  0
LINE
  8
0
  6
CONTINUOUS
 62
     2
 10
26.6
 20
147.3
 30
0.0
 11
26.125
 21
147.3
 31
0.0
  0
LINE
  8
0
  6
CONTINUOUS
 62
     2
 10
26.125
 20
147.3
 30
0.0
 11
26.125
 21
147.7
 31
0.0
  0
LINE
  8
0
  6
LTYPE1
 62
     2
 10
25.0
 20
147.5
 30
0.0
 11
29.0
 21
147.5
 31
0.0
  0
LINE
  8
0
  6
LTYPE1
 62
     2
 10
27.0
 20
149.5
 30
0.0
 11
27.0
 21
145.5
 31
0.0
  0
CIRCLE
  8
0
  6
CONTINUOUS
 62
     2
 10
27.0
 20
102.5
 30
0.0
 40
1.5
  0
LINE
  8
0
  6
CONTINUOUS
 62
     2
 10
26.125
 20
102.7
 30
0.0
 11
26.6
 21
102.7
 31
0.0
  0
ARC
  8
0
  6
CONTINUOUS
 62
     2
 10
26.6
 20
102.9
 30
0.0
 40
0.2
 50
270.0
 51
0.0
  0
LINE
  8
0
  6
CONTINUOUS
 62
     2
 10
26.8
 20
102.9
 30
0.0
 11
26.8
 21
103.375
 31
0.0
  0
LINE
  8
0
  6
CONTINUOUS
 62
     2
 10
26.8
 20
103.375
 30
0.0
 11
27.2
 21
103.375
 31
0.0
  0
LINE
  8
0
  6
CONTINUOUS
 62
     2
 10
27.2
 20
103.375
 30
0.0
 11
27.2
 21
102.9
 31
0.0
  0
ARC
  8
0
  6
CONTINUOUS
 62
     2
 10
27.4
 20
102.9
 30
0.0
 40
0.2
 50
180.0
 51
270.0
  0
LINE
  8
0
  6
CONTINUOUS
 62
     2
 10
27.4
 20
102.7
 30
0.0
 11
27.875
 21
102.7
 31
0.0
  0
LINE
  8
0
  6
CONTINUOUS
 62
     2
 10
27.875
 20
102.7
 30
0.0
 11
27.875
 21
102.3
 31
0.0
  0
LINE
  8
0
  6
CONTINUOUS
 62
     2
 10
27.875
 20
102.3
 30
0.0
 11
27.4
 21
102.3
 31
0.0
  0
ARC
  8
0
  6
CONTINUOUS
 62
     2
 10
27.4
 20
102.1
 30
0.0
 40
0.2
 50
90.0
 51
180.0
  0
LINE
  8
0
  6
CONTINUOUS
 62
     2
 10
27.2
 20
102.1
 30
0.0
 11
27.2
 21
101.625
 31
0.0
  0
LINE
  8
0
  6
CONTINUOUS
 62
     2
 10
27.2
 20
101.625
 30
0.0
 11
26.8
 21
101.625
 31
0.0
  0
LINE
  8
0
  6
CONTINUOUS
 62
     2
 10
26.8
 20
101.625
 30
0.0
 11
26.8
 21
102.1
 31
0.0
  0
ARC
  8
0
  6
CONTINUOUS
 62
     2
 10
26.6
 20
102.1
 30
0.0
 40
0.2
 50
0.0
 51
90.0
  0
LINE
  8
0
  6
CONTINUOUS
 62
     2
 10
26.6
 20
102.3
 30
0.0
 11
26.125
 21
102.3
 31
0.0
  0
LINE
  8
0
  6
CONTINUOUS
 62
     2
 10
26.125
 20
102.3
 30
0.0
 11
26.125
 21
102.7
 31
0.0
  0
LINE
  8
0
  6
LTYPE1
 62
     2
 10
25.0
 20
102.5
 30
0.0
 11
29.0
 21
102.5
 31
0.0
  0
LINE
  8
0
  6
LTYPE1
 62
     2
 10
27.0
 20
104.5
 30
0.0
 11
27.0
 21
100.5
 31
0.0
  0
CIRCLE
  8
0
  6
CONTINUOUS
 62
     2
 10
72.0
 20
102.5
 30
0.0
 40
1.5
  0
LINE
  8
0
  6
CONTINUOUS
 62
     2
 10
71.125
 20
102.7
 30
0.0
 11
71.6
 21
102.7
 31
0.0
  0
ARC
  8
0
  6
CONTINUOUS
 62
     2
 10
71.6
 20
102.9
 30
0.0
 40
0.2
 50
270.0
 51
0.0
  0
LINE
  8
0
  6
CONTINUOUS
 62
     2
 10
71.8
 20
102.9
 30
0.0
 11
71.8
 21
103.375
 31
0.0
  0
LINE
  8
0
  6
CONTINUOUS
 62
     2
 10
71.8
 20
103.375
 30
0.0
 11
72.2
 21
103.375
 31
0.0
  0
LINE
  8
0
  6
CONTINUOUS
 62
     2
 10
72.2
 20
103.375
 30
0.0
 11
72.2
 21
102.9
 31
0.0
  0
ARC
  8
0
  6
CONTINUOUS
 62
     2
 10
72.4
 20
102.9
 30
0.0
 40
0.2
 50
180.0
 51
270.0
  0
LINE
  8
0
  6
CONTINUOUS
 62
     2
 10
72.4
 20
102.7
 30
0.0
 11
72.875
 21
102.7
 31
0.0
  0
LINE
  8
0
  6
CONTINUOUS
 62
     2
 10
72.875
 20
102.7
 30
0.0
 11
72.875
 21
102.3
 31
0.0
  0
LINE
  8
0
  6
CONTINUOUS
 62
     2
 10
72.875
 20
102.3
 30
0.0
 11
72.4
 21
102.3
 31
0.0
  0
ARC
  8
0
  6
CONTINUOUS
 62
     2
 10
72.4
 20
102.1
 30
0.0
 40
0.2
 50
90.0
 51
180.0
  0
LINE
  8
0
  6
CONTINUOUS
 62
     2
 10
72.2
 20
102.1
 30
0.0
 11
72.2
 21
101.625
 31
0.0
  0
LINE
  8
0
  6
CONTINUOUS
 62
     2
 10
72.2
 20
101.625
 30
0.0
 11
71.8
 21
101.625
 31
0.0
  0
LINE
  8
0
  6
CONTINUOUS
 62
     2
 10
71.8
 20
101.625
 30
0.0
 11
71.8
 21
102.1
 31
0.0
  0
ARC
  8
0
  6
CONTINUOUS
 62
     2
 10
71.6
 20
102.1
 30
0.0
 40
0.2
 50
0.0
 51
90.0
  0
LINE
  8
0
  6
CONTINUOUS
 62
     2
 10
71.6
 20
102.3
 30
0.0
 11
71.125
 21
102.3
 31
0.0
  0
LINE
  8
0
  6
CONTINUOUS
 62
     2
 10
71.125
 20
102.3
 30
0.0
 11
71.125
 21
102.7
 31
0.0
  0
LINE
  8
0
  6
LTYPE1
 62
     2
 10
70.0
 20
102.5
 30
0.0
 11
74.0
 21
102.5
 31
0.0
  0
LINE
  8
0
  6
LTYPE1
 62
     2
 10
72.0
 20
104.5
 30
0.0
 11
72.0
 21
100.5
 31
0.0
  0
LINE
  8
0
  6
CONTINUOUS
 62
     2
 10
49.95
 20
121.983379374
 30
0.0
 11
49.95
 21
128.016620626
 31
0.0
  0
LINE
  8
0
  6
CONTINUOUS
 62
     2
 10
49.05
 20
128.016620626
 30
0.0
 11
49.05
 21
121.983379374
 31
0.0
  0
CIRCLE
  8
0
  6
CONTINUOUS
 62
     2
 10
49.5
 20
125.0
 30
0.0
 40
8.5
  0
CIRCLE
  8
0
  6
CONTINUOUS
 62
     2
 10
49.5
 20
125.0
 30
0.0
 40
7.8
  0
CIRCLE
  8
0
  6
CONTINUOUS
 62
     2
 10
49.5
 20
125.0
 30
0.0
 40
7.1
  0
CIRCLE
  8
0
  6
CONTINUOUS
 62
     2
 10
49.5
 20
125.0
 30
0.0
 40
6.4
  0
CIRCLE
  8
0
  6
CONTINUOUS
 62
     2
 10
49.5
 20
125.0
 30
0.0
 40
5.7
  0
CIRCLE
  8
0
  6
CONTINUOUS
 62
     2
 10
49.5
 20
125.0
 30
0.0
 40
5.0
  0
CIRCLE
  8
0
  6
CONTINUOUS
 62
     2
 10
49.5
 20
125.0
 30
0.0
 40
4.3
  0
CIRCLE
  8
0
  6
CONTINUOUS
 62
     2
 10
49.5
 20
125.0
 30
0.0
 40
3.6
  0
CIRCLE
  8
0
  6
CONTINUOUS
 62
     2
 10
49.5
 20
125.0
 30
0.0
 40
24.25
  0
CIRCLE
  8
0
  6
CONTINUOUS
 62
     2
 10
49.5
 20
125.0
 30
0.0
 40
21.0
  0
LINE
  8
0
  6
CONTINUOUS
 62
     2
 10
34.202240015
 20
117.54741391
 30
0.0
 11
31.48424919
 21
115.218245415
 31
0.0
  0
LINE
  8
0
  6
CONTINUOUS
 62
     2
 10
31.48424919
 20
115.218245415
 30
0.0
 11
34.917978155
 21
116.229188241
 31
0.0
  0
LINE
  8
0
  6
CONTINUOUS
 62
     2
 10
34.917978155
 20
116.229188241
 30
0.0
 11
42.417058939
 21
120.300856895
 31
0.0
  0
LINE
  8
0
  6
CONTINUOUS
 62
     2
 10
33.681291972
 20
116.411142315
 30
0.0
 11
42.201656687
 21
120.642915552
 31
0.0
  0
LINE
  8
0
  6
CONTINUOUS
 62
     2
 10
41.870878852
 20
121.252132538
 30
0.0
 11
33.681291972
 21
116.411142315
 31
0.0
  0
LINE
  8
0
  6
CONTINUOUS
 62
     2
 10
41.701320798
 20
121.619082564
 30
0.0
 11
34.202240015
 21
117.54741391
 31
0.0
  0
LINE
  8
0
  6
CONTINUOUS
 62
     2
 10
35.5
 20
116.6
 30
0.0
 11
34.46730914
 21
114.323258999
 31
0.0
  0
LINE
  8
0
  6
CONTINUOUS
 62
     2
 10
35.5
 20
116.6
 30
0.0
 11
35.744033981
 21
114.111939025
 31
0.0
  0
LINE
  8
0
  6
CONTINUOUS
 62
     2
 10
51.1
 20
122.6
 30
0.0
 11
51.145041865
 21
120.100405787
 31
0.0
  0
LINE
  8
0
  6
CONTINUOUS
 62
     2
 10
51.1
 20
122.6
 30
0.0
 11
52.388804506
 21
120.457808845
 31
0.0
  0
LINE
  8
0
  6
CONTINUOUS
 62
     2
 10
51.1
 20
122.6
 30
0.0
 11
61.1
 21
87.8
 31
0.0
  0
LINE
  8
0
  6
CONTINUOUS
 62
     2
 10
17.463820798
 20
152.518245415
 30
0.0
 11
16.816773186
 21
150.103430849
 31
0.0
  0
LINE
  8
0
  6
CONTINUOUS
 62
     2
 10
17.463820798
 20
152.518245415
 30
0.0
 11
18.110868411
 21
150.103430849
 31
0.0
  0
LINE
  8
0
  6
CONTINUOUS
 62
     2
 10
17.463820798
 20
152.518245415
 30
0.0
 11
17.463820798
 21
97.518245415
 31
0.0
  0
LINE
  8
0
  6
CONTINUOUS
 62
     2
 10
17.463820798
 20
97.518245415
 30
0.0
 11
18.110868411
 21
99.93305998
 31
0.0
  0
LINE
  8
0
  6
CONTINUOUS
 62
     2
 10
17.463820798
 20
97.518245415
 30
0.0
 11
16.816773186
 21
99.93305998
 31
0.0
  0
TEXT
  8
0
  6
CONTINUOUS
 62
     2
 10
16.463820798
 20
119.588245415
 30
0.3
 40
3.0
  1
１１０
 50
90.0
 41
0.6
 51
0.0
  7
KANJI1
  0
TEXT
  8
0
  6
CONTINUOUS
 62
     2
 10
16.463820798
 20
125.588245415
 30
0.18
 40
1.8
  1
±１．５
 50
90.0
 41
0.6
 51
0.0
  7
KANJI2
  0
LINE
  8
0
  6
CONTINUOUS
 62
     2
 10
23.863820798
 20
152.518245415
 30
0.0
 11
15.963820798
 21
152.518245415
 31
0.0
  0
LINE
  8
0
  6
CONTINUOUS
 62
     2
 10
23.363820798
 20
97.518245415
 30
0.0
 11
15.963820798
 21
97.518245415
 31
0.0
  0
LINE
  8
0
  6
CONTINUOUS
 62
     2
 10
22.013820798
 20
166.218245415
 30
0.0
 11
24.428635364
 21
165.571197802
 31
0.0
  0
LINE
  8
0
  6
CONTINUOUS
 62
     2
 10
22.013820798
 20
166.218245415
 30
0.0
 11
24.428635364
 21
166.865293027
 31
0.0
  0
LINE
  8
0
  6
CONTINUOUS
 62
     2
 10
22.013820798
 20
166.218245415
 30
0.0
 11
77.013820798
 21
166.218245415
 31
0.0
  0
LINE
  8
0
  6
CONTINUOUS
 62
     2
 10
77.013820798
 20
166.218245415
 30
0.0
 11
74.599006233
 21
166.865293027
 31
0.0
  0
LINE
  8
0
  6
CONTINUOUS
 62
     2
 10
77.013820798
 20
166.218245415
 30
0.0
 11
74.599006233
 21
165.571197802
 31
0.0
  0
TEXT
  8
0
  6
CONTINUOUS
 62
     2
 10
44.083820798
 20
167.218245415
 30
0.3
 40
3.0
  1
１１０
 50
0.0
 41
0.6
 51
0.0
  7
KANJI1
  0
TEXT
  8
0
  6
CONTINUOUS
 62
     2
 10
50.083820798
 20
167.218245415
 30
0.18
 40
1.8
  1
±１．５
 50
0.0
 41
0.6
 51
0.0
  7
KANJI2
  0
LINE
  8
0
  6
CONTINUOUS
 62
     2
 10
77.013820798
 20
151.468245415
 30
0.0
 11
77.013820798
 21
168.218245415
 31
0.0
  0
LINE
  8
0
  6
CONTINUOUS
 62
     2
 10
22.013820798
 20
151.068245415
 30
0.0
 11
22.013820798
 21
168.218245415
 31
0.0
  0
LINE
  8
0
  6
CONTINUOUS
 62
     2
 10
93.35
 20
103.725
 30
0.0
 11
93.25
 21
103.725
 31
0.0
  0
LINE
  8
0
  6
CONTINUOUS
 62
     2
 10
93.25
 20
103.725
 30
0.0
 11
93.25
 21
101.225
 31
0.0
  0
LINE
  8
0
  6
CONTINUOUS
 62
     2
 10
93.25
 20
101.225
 30
0.0
 11
93.35
 21
101.225
 31
0.0
  0
LINE
  8
0
  6
CONTINUOUS
 62
     2
 10
93.25
 20
104.0
 30
0.0
 11
93.25
 21
101.0
 31
0.0
  0
LINE
  8
0
  6
CONTINUOUS
 62
     2
 10
92.9
 20
101.0
 30
0.0
 11
93.25
 21
101.0
 31
0.0
  0
ARC
  8
0
  6
CONTINUOUS
 62
     2
 10
92.9
 20
101.4
 30
0.0
 40
0.4
 50
180.0
 51
270.0
  0
LINE
  8
0
  6
CONTINUOUS
 62
     2
 10
92.9
 20
104.0
 30
0.0
 11
93.35
 21
104.0
 31
0.0
  0
LINE
  8
0
  6
CONTINUOUS
 62
     2
 10
92.5
 20
101.4
 30
0.0
 11
92.5
 21
103.6
 31
0.0
  0
ARC
  8
0
  6
CONTINUOUS
 62
     2
 10
92.9
 20
103.6
 30
0.0
 40
0.4
 50
90.0
 51
180.0
  0
LINE
  8
0
  6
CONTINUOUS
 62
     2
 10
92.5
 20
102.6
 30
0.0
 11
92.6
 21
102.6
 31
0.0
  0
LINE
  8
0
  6
CONTINUOUS
 62
     2
 10
92.6
 20
102.6
 30
0.0
 11
92.6
 21
102.4
 31
0.0
  0
LINE
  8
0
  6
CONTINUOUS
 62
     2
 10
92.6
 20
102.4
 30
0.0
 11
92.5
 21
102.4
 31
0.0
  0
LINE
  8
0
  6
CONTINUOUS
 62
     2
 10
93.35
 20
148.725
 30
0.0
 11
93.25
 21
148.725
 31
0.0
  0
LINE
  8
0
  6
CONTINUOUS
 62
     2
 10
93.25
 20
148.725
 30
0.0
 11
93.25
 21
146.225
 31
0.0
  0
LINE
  8
0
  6
CONTINUOUS
 62
     2
 10
93.25
 20
146.225
 30
0.0
 11
93.35
 21
146.225
 31
0.0
  0
LINE
  8
0
  6
CONTINUOUS
 62
     2
 10
93.25
 20
149.0
 30
0.0
 11
93.25
 21
146.0
 31
0.0
  0
LINE
  8
0
  6
CONTINUOUS
 62
     2
 10
92.9
 20
146.0
 30
0.0
 11
93.25
 21
146.0
 31
0.0
  0
ARC
  8
0
  6
CONTINUOUS
 62
     2
 10
92.9
 20
146.4
 30
0.0
 40
0.4
 50
180.0
 51
270.0
  0
LINE
  8
0
  6
CONTINUOUS
 62
     2
 10
92.9
 20
149.0
 30
0.0
 11
93.35
 21
149.0
 31
0.0
  0
LINE
  8
0
  6
CONTINUOUS
 62
     2
 10
92.5
 20
146.4
 30
0.0
 11
92.5
 21
148.6
 31
0.0
  0
ARC
  8
0
  6
CONTINUOUS
 62
     2
 10
92.9
 20
148.6
 30
0.0
 40
0.4
 50
90.0
 51
180.0
  0
LINE
  8
0
  6
CONTINUOUS
 62
     2
 10
92.5
 20
147.6
 30
0.0
 11
92.6
 21
147.6
 31
0.0
  0
LINE
  8
0
  6
CONTINUOUS
 62
     2
 10
92.6
 20
147.6
 30
0.0
 11
92.6
 21
147.4
 31
0.0
  0
LINE
  8
0
  6
CONTINUOUS
 62
     2
 10
92.6
 20
147.4
 30
0.0
 11
92.5
 21
147.4
 31
0.0
  0
LINE
  8
0
  6
CONTINUOUS
 62
     2
 10
88.6
 20
128.15
 30
0.0
 11
88.6
 21
122.25
 31
0.0
  0
POINT
  8
0
  6
CONTINUOUS
 62
     2
 10
88.6
 20
128.15
 30
0.0
  0
ARC
  8
0
  6
CONTINUOUS
 62
     2
 10
88.6
 20
126.65
 30
0.0
 40
1.5
 50
90.0
 51
180.0
  0
LINE
  8
0
  6
CONTINUOUS
 62
     2
 10
88.6
 20
122.25
 30
0.0
 11
88.5
 21
122.25
 31
0.0
  0
LINE
  8
0
  6
CONTINUOUS
 62
     2
 10
87.1
 20
123.65
 30
0.0
 11
87.1
 21
126.65
 31
0.0
  0
ARC
  8
0
  6
CONTINUOUS
 62
     2
 10
88.5
 20
123.65
 30
0.0
 40
1.4
 50
180.0
 51
270.0
  0
LINE
  8
0
  6
CONTINUOUS
 62
     2
 10
84.225
 20
99.475
 30
0.0
 11
84.872047613
 21
101.889814566
 31
0.0
  0
LINE
  8
0
  6
CONTINUOUS
 62
     2
 10
84.225
 20
99.475
 30
0.0
 11
83.577952387
 21
101.889814566
 31
0.0
  0
LINE
  8
0
  6
CONTINUOUS
 62
     2
 10
84.225
 20
99.475
 30
0.0
 11
84.225
 21
150.475
 31
0.0
  0
LINE
  8
0
  6
CONTINUOUS
 62
     2
 10
84.225
 20
150.475
 30
0.0
 11
83.577952387
 21
148.060185434
 31
0.0
  0
LINE
  8
0
  6
CONTINUOUS
 62
     2
 10
84.225
 20
150.475
 30
0.0
 11
84.872047613
 21
148.060185434
 31
0.0
  0
LINE
  8
0
  6
CONTINUOUS
 62
     2
 10
99.35
 20
160.875001907
 30
0.0
 11
101.764814566
 21
160.227954295
 31
0.0
  0
LINE
  8
0
  6
CONTINUOUS
 62
     2
 10
99.35
 20
160.875001907
 30
0.0
 11
101.764814566
 21
161.52204952
 31
0.0
  0
LINE
  8
0
  6
CONTINUOUS
 62
     2
 10
99.35
 20
160.875001907
 30
0.0
 11
106.85
 21
160.875001907
 31
0.0
  0
LINE
  8
0
  6
CONTINUOUS
 62
     2
 10
106.85
 20
160.875001907
 30
0.0
 11
104.435185434
 21
161.52204952
 31
0.0
  0
LINE
  8
0
  6
CONTINUOUS
 62
     2
 10
106.85
 20
160.875001907
 30
0.0
 11
104.435185434
 21
160.227954295
 31
0.0
  0
TEXT
  8
0
  6
CONTINUOUS
 62
     2
 10
101.15
 20
161.875001907
 30
0.3
 40
3.0
  1
１５
 50
0.0
 41
0.6
 51
0.0
  7
KANJI1
  0
LINE
  8
0
  6
CONTINUOUS
 62
     2
 10
99.1
 20
160.875001907
 30
0.0
 11
96.685185434
 21
161.52204952
 31
0.0
  0
LINE
  8
0
  6
CONTINUOUS
 62
     2
 10
99.1
 20
160.875001907
 30
0.0
 11
96.685185434
 21
160.227954295
 31
0.0
  0
LINE
  8
0
  6
CONTINUOUS
 62
     2
 10
88.1
 20
160.875001907
 30
0.0
 11
104.35
 21
160.875001907
 31
0.0
  0
LINE
  8
0
  6
CONTINUOUS
 62
     2
 10
99.35
 20
160.875001907
 30
0.0
 11
101.764814566
 21
160.227954295
 31
0.0
  0
LINE
  8
0
  6
CONTINUOUS
 62
     2
 10
99.35
 20
160.875001907
 30
0.0
 11
101.764814566
 21
161.52204952
 31
0.0
  0
TEXT
  8
0
  6
CONTINUOUS
 62
     2
 10
89.25
 20
161.875001907
 30
0.3
 40
3.0
  1
０．５
 50
0.0
 41
0.6
 51
0.0
  7
KANJI1
  0
LINE
  8
0
  6
CONTINUOUS
 62
     2
 10
106.85
 20
162.9005
 30
0.0
 11
106.85
 21
148.9005
 31
0.0
  0
LINE
  8
0
  6
LTYPE1
 62
     2
 10
97.64235
 20
102.5
 30
0.0
 11
107.5134
 21
102.5
 31
0.0
  0
LINE
  8
0
  6
CONTINUOUS
 62
     2
 10
104.2647
 20
101.37545
 30
0.0
 11
112.246764706
 21
87.54665
 31
0.0
  0
LINE
  8
0
  6
CONTINUOUS
 62
     2
 10
112.25375
 20
87.55
 30
0.0
 11
133.3
 21
87.55
 31
0.0
  0
TEXT
  8
0
  6
CONTINUOUS
 62
     2
 10
113.1
 20
88.55
 30
0.5
 40
3.0
  1
４－Ｍ５取付ボルト
 50
0.0
 41
0.6
 51
0.0
  7
KANJI3
  0
LINE
  8
0
  6
CONTINUOUS
 62
     2
 10
99.1
 20
152.7
 30
0.0
 11
99.1
 21
162.9
 31
0.0
  0
TEXT
  8
0
  6
CONTINUOUS
 62
     2
 10
83.225
 20
120.925
 30
0.3
 40
3.0
  1
φ１０３
 50
90.0
 41
0.6
 51
0.0
  7
KANJI1
  0
LINE
  8
0
  6
CONTINUOUS
 62
     2
 10
89.4
 20
150.475
 30
0.0
 11
82.225
 21
150.475
 31
0.0
  0
LINE
  8
0
  6
CONTINUOUS
 62
     2
 10
89.3
 20
99.475
 30
0.0
 11
82.225
 21
99.475
 31
0.0
  0
LINE
  8
0
  6
CONTINUOUS
 62
     2
 10
99.35
 20
166.525001907
 30
0.0
 11
101.764814566
 21
165.877954295
 31
0.0
  0
LINE
  8
0
  6
CONTINUOUS
 62
     2
 10
99.35
 20
166.525001907
 30
0.0
 11
101.764814566
 21
167.17204952
 31
0.0
  0
LINE
  8
0
  6
CONTINUOUS
 62
     2
 10
99.35
 20
166.525001907
 30
0.0
 11
96.935185434
 21
167.17204952
 31
0.0
  0
LINE
  8
0
  6
CONTINUOUS
 62
     2
 10
99.35
 20
166.525001907
 30
0.0
 11
96.935185434
 21
165.877954295
 31
0.0
  0
LINE
  8
0
  6
CONTINUOUS
 62
     2
 10
99.35
 20
166.525001907
 30
0.0
 11
87.1
 21
166.525001907
 31
0.0
  0
LINE
  8
0
  6
CONTINUOUS
 62
     2
 10
87.1
 20
166.525001907
 30
0.0
 11
89.514814566
 21
165.877954295
 31
0.0
  0
LINE
  8
0
  6
CONTINUOUS
 62
     2
 10
87.1
 20
166.525001907
 30
0.0
 11
89.514814566
 21
167.17204952
 31
0.0
  0
TEXT
  8
0
  6
CONTINUOUS
 62
     2
 10
89.85
 20
167.425001907
 30
0.3
 40
3.0
  1
２４．５
 50
0.0
 41
0.6
 51
0.0
  7
KANJI1
  0
LINE
  8
0
  6
CONTINUOUS
 62
     2
 10
87.1
 20
127.675
 30
0.0
 11
87.1
 21
168.218245415
 31
0.0
  0
LINE
  8
0
  6
CONTINUOUS
 62
     2
 10
99.35
 20
150.75
 30
0.0
 11
99.35
 21
168.218245415
 31
0.0
  0
LINE
  8
0
  6
CONTINUOUS
 62
     2
 10
147.85
 20
166.525001907
 30
0.0
 11
145.435185434
 21
167.17204952
 31
0.0
  0
LINE
  8
0
  6
CONTINUOUS
 62
     2
 10
147.85
 20
166.525001907
 30
0.0
 11
145.435185434
 21
165.877954295
 31
0.0
  0
LINE
  8
0
  6
CONTINUOUS
 62
     2
 10
147.85
 20
166.525001907
 30
0.0
 11
99.35
 21
166.525001907
 31
0.0
  0
LINE
  8
0
  6
CONTINUOUS
 62
     2
 10
118.6
 20
100.25
 30
0.0
 11
119.247047613
 21
102.664814566
 31
0.0
  0
LINE
  8
0
  6
CONTINUOUS
 62
     2
 10
118.6
 20
100.25
 30
0.0
 11
117.952952387
 21
102.664814566
 31
0.0
  0
LINE
  8
0
  6
CONTINUOUS
 62
     2
 10
118.6
 20
100.25
 30
0.0
 11
118.6
 21
149.8
 31
0.0
  0
LINE
  8
0
  6
CONTINUOUS
 62
     2
 10
118.6
 20
149.8
 30
0.0
 11
117.952952387
 21
147.385185434
 31
0.0
  0
LINE
  8
0
  6
CONTINUOUS
 62
     2
 10
118.6
 20
149.8
 30
0.0
 11
119.247047613
 21
147.385185434
 31
0.0
  0
LINE
  8
0
  6
CONTINUOUS
 62
     2
 10
146.85
 20
110.0
 30
0.0
 11
146.85
 21
112.0
 31
0.0
  0
LINE
  8
0
  6
CONTINUOUS
 62
     2
 10
147.35
 20
110.0
 30
0.0
 11
147.35
 21
112.0
 31
0.0
  0
LINE
  8
0
  6
CONTINUOUS
 62
     2
 10
146.85
 20
136.5
 30
0.0
 11
146.85
 21
138.5
 31
0.0
  0
LINE
  8
0
  6
CONTINUOUS
 62
     2
 10
147.35
 20
138.5
 30
0.0
 11
147.35
 21
136.5
 31
0.0
  0
LINE
  8
0
  6
CONTINUOUS
 62
     2
 10
147.85
 20
141.75
 30
0.0
 11
147.85
 21
168.025001907
 31
0.0
  0
LINE
  8
0
  6
LTYPE1
 62
     2
 10
19.0
 20
125.0
 30
0.0
 11
78.35
 21
125.0
 31
0.0
  0
LINE
  8
0
  6
CONTINUOUS
 62
     2
 10
150.85
 20
137.5
 30
0.0
 11
154.95
 21
137.5
 31
0.0
  0
LINE
  8
0
  6
CONTINUOUS
 62
     2
 10
152.95
 20
137.5
 30
0.0
 11
152.302952387
 21
135.085185434
 31
0.0
  0
LINE
  8
0
  6
CONTINUOUS
 62
     2
 10
152.95
 20
137.5
 30
0.0
 11
153.597047613
 21
135.085185434
 31
0.0
  0
LINE
  8
0
  6
CONTINUOUS
 62
     2
 10
152.95
 20
137.5
 30
0.0
 11
152.95
 21
125.0
 31
0.0
  0
LINE
  8
0
  6
CONTINUOUS
 62
     2
 10
152.95
 20
125.0
 30
0.0
 11
153.597047613
 21
127.414814566
 31
0.0
  0
LINE
  8
0
  6
CONTINUOUS
 62
     2
 10
152.95
 20
125.0
 30
0.0
 11
152.302952387
 21
127.414814566
 31
0.0
  0
LINE
  8
0
  6
CONTINUOUS
 62
     2
 10
153.15
 20
125.0
 30
0.0
 11
150.95
 21
125.0
 31
0.0
  0
TEXT
  8
0
  6
CONTINUOUS
 62
     2
 10
151.95
 20
128.75
 30
0.2
 40
3.0
  1
２５
 50
90.0
 41
0.8
 51
0.0
  7
KANJI4
  0
LINE
  8
0
  6
CONTINUOUS
 62
     2
 10
150.85
 20
111.0
 30
0.0
 11
155.15
 21
111.0
 31
0.0
  0
LINE
  8
0
  6
CONTINUOUS
 62
     2
 10
153.15
 20
111.0
 30
0.0
 11
153.797047613
 21
113.414814566
 31
0.0
  0
LINE
  8
0
  6
CONTINUOUS
 62
     2
 10
153.15
 20
111.0
 30
0.0
 11
152.502952387
 21
113.414814566
 31
0.0
  0
LINE
  8
0
  6
CONTINUOUS
 62
     2
 10
153.15
 20
111.0
 30
0.0
 11
153.15
 21
125.0
 31
0.0
  0
LINE
  8
0
  6
CONTINUOUS
 62
     2
 10
153.15
 20
125.0
 30
0.0
 11
152.502952387
 21
122.585185434
 31
0.0
  0
LINE
  8
0
  6
CONTINUOUS
 62
     2
 10
153.15
 20
125.0
 30
0.0
 11
153.797047613
 21
122.585185434
 31
0.0
  0
TEXT
  8
0
  6
CONTINUOUS
 62
     2
 10
152.15
 20
115.5
 30
0.2
 40
3.0
  1
２８
 50
90.0
 41
0.8
 51
0.0
  7
KANJI4
  0
LINE
  8
0
  6
CONTINUOUS
 62
     2
 10
185.4
 20
106.200001349
 30
0.0
 11
185.4
 21
91.0
 31
0.0
  0
LINE
  8
0
  6
CONTINUOUS
 62
     2
 10
185.4
 20
93.0
 30
0.0
 11
190.4
 21
93.0
 31
0.0
  0
LINE
  8
0
  6
CONTINUOUS
 62
     2
 10
190.4
 20
106.200001907
 30
0.0
 11
190.4
 21
91.0
 31
0.0
  0
TEXT
  8
0
  6
CONTINUOUS
 62
     2
 10
185.4
 20
94.0
 30
0.2
 40
3.0
  1
１０
 50
0.0
 41
0.8
 51
0.0
  7
KANJI4
  0
LINE
  8
0
  6
CONTINUOUS
 62
     2
 10
190.4
 20
93.0
 30
0.0
 11
188.6
 21
92.517691454
 31
0.0
  0
LINE
  8
0
  6
CONTINUOUS
 62
     2
 10
190.4
 20
93.0
 30
0.0
 11
188.6
 21
93.482308546
 31
0.0
  0
LINE
  8
0
  6
CONTINUOUS
 62
     2
 10
185.4
 20
93.0
 30
0.0
 11
187.2
 21
93.482308546
 31
0.0
  0
LINE
  8
0
  6
CONTINUOUS
 62
     2
 10
185.4
 20
93.0
 30
0.0
 11
187.2
 21
92.517691454
 31
0.0
  0
LINE
  8
0
  6
LTYPE1
 62
     2
 10
187.9
 20
86.217691454
 30
0.0
 11
187.9
 21
36.95825
 31
0.0
  0
LINE
  8
0
  6
LTYPE1
 62
     2
 10
187.9
 20
155.0847
 30
0.0
 11
187.9
 21
96.817691454
 31
0.0
  0
LINE
  8
0
  6
CONTINUOUS
 62
     2
 10
175.9
 20
107.25
 30
0.0
 11
175.9
 21
91.1
 31
0.0
  0
LINE
  8
0
  6
CONTINUOUS
 62
     2
 10
181.9
 20
107.25
 30
0.0
 11
181.9
 21
91.1
 31
0.0
  0
TEXT
  8
0
  6
CONTINUOUS
 62
     2
 10
176.4
 20
94.1
 30
0.2
 40
3.0
  1
１２
 50
0.0
 41
0.8
 51
0.0
  7
KANJI4
  0
LINE
  8
0
  6
CONTINUOUS
 62
     2
 10
175.9
 20
93.0
 30
0.0
 11
181.9
 21
93.0
 31
0.0
  0
LINE
  8
0
  6
CONTINUOUS
 62
     2
 10
181.9
 20
93.0
 30
0.0
 11
180.1
 21
92.517691454
 31
0.0
  0
LINE
  8
0
  6
CONTINUOUS
 62
     2
 10
175.9
 20
93.0
 30
0.0
 11
177.7
 21
92.517691454
 31
0.0
  0
LINE
  8
0
  6
CONTINUOUS
 62
     2
 10
175.9
 20
93.0
 30
0.0
 11
177.7
 21
93.482308546
 31
0.0
  0
LINE
  8
0
  6
CONTINUOUS
 62
     2
 10
181.9
 20
93.0
 30
0.0
 11
180.1
 21
93.482308546
 31
0.0
  0
TEXT
  8
0
  6
CONTINUOUS
 62
     2
 10
144.55
 20
91.55
 30
0.3
 40
3.0
  1
Ｍ４ターミナルネジ
 50
0.0
 41
0.8
 51
0.0
  7
KANJI5
  0
TEXT
  8
0
  6
CONTINUOUS
 62
     2
 10
190.65
 20
122.15
 30
0.75
 40
3.0
  1
板
 50
0.0
 41
1.0
 51
0.0
  7
KANJI6
  0
TEXT
  8
0
  6
CONTINUOUS
 62
     2
 10
182.45
 20
122.15
 30
0.75
 40
3.0
  1
銘
 50
0.0
 41
1.0
 51
0.0
  7
KANJI6
  0
LINE
  8
0
  6
LTYPE1
 62
     2
 10
120.25
 20
125.0
 30
0.0
 11
204.8
 21
125.0
 31
0.0
  0
TEXT
  8
0
  6
CONTINUOUS
 62
     2
 10
117.6
 20
116.625
 30
0.3
 40
3.0
  1
φ９９
 50
90.0
 41
0.6
 51
0.0
  7
KANJI1
  0
LINE
  8
0
  6
LTYPE1
 62
     2
 10
85.35
 20
125.0
 30
0.0
 11
120.25
 21
125.0
 31
0.0
  0
LINE
  8
0
  6
CONTINUOUS
 62
     2
 10
139.65
 20
150.250001907
 30
0.0
 11
139.65
 21
162.875001907
 31
0.0
  0
LINE
  8
0
  6
CONTINUOUS
 62
     2
 10
139.65
 20
160.875001907
 30
0.0
 11
142.064814566
 21
160.227954295
 31
0.0
  0
LINE
  8
0
  6
CONTINUOUS
 62
     2
 10
139.65
 20
160.875001907
 30
0.0
 11
142.064814566
 21
161.52204952
 31
0.0
  0
LINE
  8
0
  6
CONTINUOUS
 62
     2
 10
139.65
 20
160.875001907
 30
0.0
 11
147.85
 21
160.875001907
 31
0.0
  0
LINE
  8
0
  6
CONTINUOUS
 62
     2
 10
147.85
 20
160.875001907
 30
0.0
 11
145.435185434
 21
161.52204952
 31
0.0
  0
LINE
  8
0
  6
CONTINUOUS
 62
     2
 10
147.85
 20
160.875001907
 30
0.0
 11
145.435185434
 21
160.227954295
 31
0.0
  0
TEXT
  8
0
  6
CONTINUOUS
 62
     2
 10
139.7
 20
161.875001907
 30
0.3
 40
3.0
  1
１６．５
 50
0.0
 41
0.6
 51
0.0
  7
KANJI1
  0
LINE
  8
0
  6
CONTINUOUS
 62
     2
 10
200.9
 20
107.0
 30
0.0
 11
174.9
 21
107.0
 31
0.0
  0
LINE
  8
0
  6
CONTINUOUS
 62
     2
 10
173.4
 20
107.75
 30
0.0
 11
174.9
 21
107.0
 31
0.0
  0
LINE
  8
0
  6
CONTINUOUS
 62
     2
 10
202.4
 20
107.75
 30
0.0
 11
200.9
 21
107.0
 31
0.0
  0
LINE
  8
0
  6
CONTINUOUS
 62
     2
 10
174.9
 20
115.0
 30
0.0
 11
172.9
 21
114.2
 31
0.0
  0
LINE
  8
0
  6
CONTINUOUS
 62
     2
 10
202.9
 20
114.2
 30
0.0
 11
200.9
 21
115.0
 31
0.0
  0
CIRCLE
  8
0
  6
CONTINUOUS
 62
     2
 10
172.9
 20
137.5
 30
0.0
 40
1.6625
  0
LINE
  8
0
  6
CONTINUOUS
 62
     2
 10
172.66725
 20
136.585625
 30
0.0
 11
173.13275
 21
136.585625
 31
0.0
  0
LINE
  8
0
  6
CONTINUOUS
 62
     2
 10
173.13275
 20
138.414375
 30
0.0
 11
172.66725
 21
138.414375
 31
0.0
  0
LINE
  8
0
  6
CONTINUOUS
 62
     2
 10
173.13275
 20
136.585625
 30
0.0
 11
173.13275
 21
136.7685
 31
0.0
  0
LINE
  8
0
  6
CONTINUOUS
 62
     2
 10
173.6315
 20
137.26725
 30
0.0
 11
174.546126875
 21
137.26725
 31
0.0
  0
ARC
  8
0
  6
CONTINUOUS
 62
     2
 10
173.6315
 20
136.7685
 30
0.0
 40
0.49875
 50
90.0
 51
180.0
  0
LINE
  8
0
  6
CONTINUOUS
 62
     2
 10
172.66725
 20
136.7685
 30
0.0
 11
172.66725
 21
136.585625
 31
0.0
  0
LINE
  8
0
  6
CONTINUOUS
 62
     2
 10
171.27075
 20
137.26725
 30
0.0
 11
172.1685
 21
137.26725
 31
0.0
  0
ARC
  8
0
  6
CONTINUOUS
 62
     2
 10
172.1685
 20
136.7685
 30
0.0
 40
0.49875
 50
0.0
 51
90.0
  0
LINE
  8
0
  6
CONTINUOUS
 62
     2
 10
172.66725
 20
138.414375
 30
0.0
 11
172.66725
 21
138.2315
 31
0.0
  0
LINE
  8
0
  6
CONTINUOUS
 62
     2
 10
172.1685
 20
137.73275
 30
0.0
 11
171.253873125
 21
137.73275
 31
0.0
  0
ARC
  8
0
  6
CONTINUOUS
 62
     2
 10
172.1685
 20
138.2315
 30
0.0
 40
0.49875
 50
270.0
 51
0.0
  0
LINE
  8
0
  6
CONTINUOUS
 62
     2
 10
173.13275
 20
138.2315
 30
0.0
 11
173.13275
 21
138.414375
 31
0.0
  0
LINE
  8
0
  6
CONTINUOUS
 62
     2
 10
174.546126875
 20
137.73275
 30
0.0
 11
173.6315
 21
137.73275
 31
0.0
  0
ARC
  8
0
  6
CONTINUOUS
 62
     2
 10
173.6315
 20
138.2315
 30
0.0
 40
0.49875
 50
180.0
 51
270.0
  0
CIRCLE
  8
0
  6
CONTINUOUS
 62
     2
 10
178.9
 20
137.5
 30
0.0
 40
1.6625
  0
LINE
  8
0
  6
CONTINUOUS
 62
     2
 10
178.66725
 20
136.585625
 30
0.0
 11
179.13275
 21
136.585625
 31
0.0
  0
LINE
  8
0
  6
CONTINUOUS
 62
     2
 10
179.13275
 20
138.414375
 30
0.0
 11
178.66725
 21
138.414375
 31
0.0
  0
LINE
  8
0
  6
CONTINUOUS
 62
     2
 10
179.13275
 20
136.585625
 30
0.0
 11
179.13275
 21
136.7685
 31
0.0
  0
LINE
  8
0
  6
CONTINUOUS
 62
     2
 10
179.6315
 20
137.26725
 30
0.0
 11
180.546126875
 21
137.26725
 31
0.0
  0
ARC
  8
0
  6
CONTINUOUS
 62
     2
 10
179.6315
 20
136.7685
 30
0.0
 40
0.49875
 50
90.0
 51
180.0
  0
LINE
  8
0
  6
CONTINUOUS
 62
     2
 10
178.66725
 20
136.7685
 30
0.0
 11
178.66725
 21
136.585625
 31
0.0
  0
LINE
  8
0
  6
CONTINUOUS
 62
     2
 10
177.27075
 20
137.26725
 30
0.0
 11
178.1685
 21
137.26725
 31
0.0
  0
ARC
  8
0
  6
CONTINUOUS
 62
     2
 10
178.1685
 20
136.7685
 30
0.0
 40
0.49875
 50
0.0
 51
90.0
  0
LINE
  8
0
  6
CONTINUOUS
 62
     2
 10
178.66725
 20
138.414375
 30
0.0
 11
178.66725
 21
138.2315
 31
0.0
  0
LINE
  8
0
  6
CONTINUOUS
 62
     2
 10
178.1685
 20
137.73275
 30
0.0
 11
177.253873125
 21
137.73275
 31
0.0
  0
ARC
  8
0
  6
CONTINUOUS
 62
     2
 10
178.1685
 20
138.2315
 30
0.0
 40
0.49875
 50
270.0
 51
0.0
  0
LINE
  8
0
  6
CONTINUOUS
 62
     2
 10
179.13275
 20
138.2315
 30
0.0
 11
179.13275
 21
138.414375
 31
0.0
  0
LINE
  8
0
  6
CONTINUOUS
 62
     2
 10
180.546126875
 20
137.73275
 30
0.0
 11
179.6315
 21
137.73275
 31
0.0
  0
ARC
  8
0
  6
CONTINUOUS
 62
     2
 10
179.6315
 20
138.2315
 30
0.0
 40
0.49875
 50
180.0
 51
270.0
  0
CIRCLE
  8
0
  6
CONTINUOUS
 62
     2
 10
196.9
 20
137.5
 30
0.0
 40
1.6625
  0
LINE
  8
0
  6
CONTINUOUS
 62
     2
 10
196.66725
 20
136.585625
 30
0.0
 11
197.13275
 21
136.585625
 31
0.0
  0
LINE
  8
0
  6
CONTINUOUS
 62
     2
 10
197.13275
 20
138.414375
 30
0.0
 11
196.66725
 21
138.414375
 31
0.0
  0
LINE
  8
0
  6
CONTINUOUS
 62
     2
 10
197.13275
 20
136.585625
 30
0.0
 11
197.13275
 21
136.7685
 31
0.0
  0
LINE
  8
0
  6
CONTINUOUS
 62
     2
 10
197.6315
 20
137.26725
 30
0.0
 11
198.546126875
 21
137.26725
 31
0.0
  0
ARC
  8
0
  6
CONTINUOUS
 62
     2
 10
197.6315
 20
136.7685
 30
0.0
 40
0.49875
 50
90.0
 51
180.0
  0
LINE
  8
0
  6
CONTINUOUS
 62
     2
 10
196.66725
 20
136.7685
 30
0.0
 11
196.66725
 21
136.585625
 31
0.0
  0
LINE
  8
0
  6
CONTINUOUS
 62
     2
 10
195.27075
 20
137.26725
 30
0.0
 11
196.1685
 21
137.26725
 31
0.0
  0
ARC
  8
0
  6
CONTINUOUS
 62
     2
 10
196.1685
 20
136.7685
 30
0.0
 40
0.49875
 50
0.0
 51
90.0
  0
LINE
  8
0
  6
CONTINUOUS
 62
     2
 10
196.66725
 20
138.414375
 30
0.0
 11
196.66725
 21
138.2315
 31
0.0
  0
LINE
  8
0
  6
CONTINUOUS
 62
     2
 10
196.1685
 20
137.73275
 30
0.0
 11
195.253873125
 21
137.73275
 31
0.0
  0
ARC
  8
0
  6
CONTINUOUS
 62
     2
 10
196.1685
 20
138.2315
 30
0.0
 40
0.49875
 50
270.0
 51
0.0
  0
LINE
  8
0
  6
CONTINUOUS
 62
     2
 10
197.13275
 20
138.2315
 30
0.0
 11
197.13275
 21
138.414375
 31
0.0
  0
LINE
  8
0
  6
CONTINUOUS
 62
     2
 10
198.546126875
 20
137.73275
 30
0.0
 11
197.6315
 21
137.73275
 31
0.0
  0
ARC
  8
0
  6
CONTINUOUS
 62
     2
 10
197.6315
 20
138.2315
 30
0.0
 40
0.49875
 50
180.0
 51
270.0
  0
CIRCLE
  8
0
  6
CONTINUOUS
 62
     2
 10
202.9
 20
137.5
 30
0.0
 40
1.6625
  0
LINE
  8
0
  6
CONTINUOUS
 62
     2
 10
202.66725
 20
136.585625
 30
0.0
 11
203.13275
 21
136.585625
 31
0.0
  0
LINE
  8
0
  6
CONTINUOUS
 62
     2
 10
203.13275
 20
138.414375
 30
0.0
 11
202.66725
 21
138.414375
 31
0.0
  0
LINE
  8
0
  6
CONTINUOUS
 62
     2
 10
203.13275
 20
136.585625
 30
0.0
 11
203.13275
 21
136.7685
 31
0.0
  0
LINE
  8
0
  6
CONTINUOUS
 62
     2
 10
203.6315
 20
137.26725
 30
0.0
 11
204.546126875
 21
137.26725
 31
0.0
  0
ARC
  8
0
  6
CONTINUOUS
 62
     2
 10
203.6315
 20
136.7685
 30
0.0
 40
0.49875
 50
90.0
 51
180.0
  0
LINE
  8
0
  6
CONTINUOUS
 62
     2
 10
202.66725
 20
136.7685
 30
0.0
 11
202.66725
 21
136.585625
 31
0.0
  0
LINE
  8
0
  6
CONTINUOUS
 62
     2
 10
201.27075
 20
137.26725
 30
0.0
 11
202.1685
 21
137.26725
 31
0.0
  0
ARC
  8
0
  6
CONTINUOUS
 62
     2
 10
202.1685
 20
136.7685
 30
0.0
 40
0.49875
 50
0.0
 51
90.0
  0
LINE
  8
0
  6
CONTINUOUS
 62
     2
 10
202.66725
 20
138.414375
 30
0.0
 11
202.66725
 21
138.2315
 31
0.0
  0
LINE
  8
0
  6
CONTINUOUS
 62
     2
 10
202.1685
 20
137.73275
 30
0.0
 11
201.253873125
 21
137.73275
 31
0.0
  0
ARC
  8
0
  6
CONTINUOUS
 62
     2
 10
202.1685
 20
138.2315
 30
0.0
 40
0.49875
 50
270.0
 51
0.0
  0
LINE
  8
0
  6
CONTINUOUS
 62
     2
 10
203.13275
 20
138.2315
 30
0.0
 11
203.13275
 21
138.414375
 31
0.0
  0
LINE
  8
0
  6
CONTINUOUS
 62
     2
 10
204.546126875
 20
137.73275
 30
0.0
 11
203.6315
 21
137.73275
 31
0.0
  0
ARC
  8
0
  6
CONTINUOUS
 62
     2
 10
203.6315
 20
138.2315
 30
0.0
 40
0.49875
 50
180.0
 51
270.0
  0
CIRCLE
  8
0
  6
CONTINUOUS
 62
     2
 10
175.9
 20
111.0
 30
0.0
 40
1.6625
  0
LINE
  8
0
  6
CONTINUOUS
 62
     2
 10
175.66725
 20
110.085625
 30
0.0
 11
176.13275
 21
110.085625
 31
0.0
  0
LINE
  8
0
  6
CONTINUOUS
 62
     2
 10
176.13275
 20
111.914375
 30
0.0
 11
175.66725
 21
111.914375
 31
0.0
  0
LINE
  8
0
  6
CONTINUOUS
 62
     2
 10
176.13275
 20
110.085625
 30
0.0
 11
176.13275
 21
110.2685
 31
0.0
  0
LINE
  8
0
  6
CONTINUOUS
 62
     2
 10
176.6315
 20
110.76725
 30
0.0
 11
177.546126875
 21
110.76725
 31
0.0
  0
ARC
  8
0
  6
CONTINUOUS
 62
     2
 10
176.6315
 20
110.2685
 30
0.0
 40
0.49875
 50
90.0
 51
180.0
  0
LINE
  8
0
  6
CONTINUOUS
 62
     2
 10
175.66725
 20
110.2685
 30
0.0
 11
175.66725
 21
110.085625
 31
0.0
  0
LINE
  8
0
  6
CONTINUOUS
 62
     2
 10
174.27075
 20
110.76725
 30
0.0
 11
175.1685
 21
110.76725
 31
0.0
  0
ARC
  8
0
  6
CONTINUOUS
 62
     2
 10
175.1685
 20
110.2685
 30
0.0
 40
0.49875
 50
0.0
 51
90.0
  0
LINE
  8
0
  6
CONTINUOUS
 62
     2
 10
175.66725
 20
111.914375
 30
0.0
 11
175.66725
 21
111.7315
 31
0.0
  0
LINE
  8
0
  6
CONTINUOUS
 62
     2
 10
175.1685
 20
111.23275
 30
0.0
 11
174.253873125
 21
111.23275
 31
0.0
  0
ARC
  8
0
  6
CONTINUOUS
 62
     2
 10
175.1685
 20
111.7315
 30
0.0
 40
0.49875
 50
270.0
 51
0.0
  0
LINE
  8
0
  6
CONTINUOUS
 62
     2
 10
176.13275
 20
111.7315
 30
0.0
 11
176.13275
 21
111.914375
 31
0.0
  0
LINE
  8
0
  6
CONTINUOUS
 62
     2
 10
177.546126875
 20
111.23275
 30
0.0
 11
176.6315
 21
111.23275
 31
0.0
  0
ARC
  8
0
  6
CONTINUOUS
 62
     2
 10
176.6315
 20
111.7315
 30
0.0
 40
0.49875
 50
180.0
 51
270.0
  0
CIRCLE
  8
0
  6
CONTINUOUS
 62
     2
 10
187.9
 20
111.0
 30
0.0
 40
1.6625
  0
LINE
  8
0
  6
CONTINUOUS
 62
     2
 10
187.66725
 20
110.085625
 30
0.0
 11
188.13275
 21
110.085625
 31
0.0
  0
LINE
  8
0
  6
CONTINUOUS
 62
     2
 10
188.13275
 20
111.914375
 30
0.0
 11
187.66725
 21
111.914375
 31
0.0
  0
LINE
  8
0
  6
CONTINUOUS
 62
     2
 10
188.13275
 20
110.085625
 30
0.0
 11
188.13275
 21
110.2685
 31
0.0
  0
LINE
  8
0
  6
CONTINUOUS
 62
     2
 10
188.6315
 20
110.76725
 30
0.0
 11
189.546126875
 21
110.76725
 31
0.0
  0
ARC
  8
0
  6
CONTINUOUS
 62
     2
 10
188.6315
 20
110.2685
 30
0.0
 40
0.49875
 50
90.0
 51
180.0
  0
LINE
  8
0
  6
CONTINUOUS
 62
     2
 10
187.66725
 20
110.2685
 30
0.0
 11
187.66725
 21
110.085625
 31
0.0
  0
LINE
  8
0
  6
CONTINUOUS
 62
     2
 10
186.27075
 20
110.76725
 30
0.0
 11
187.1685
 21
110.76725
 31
0.0
  0
ARC
  8
0
  6
CONTINUOUS
 62
     2
 10
187.1685
 20
110.2685
 30
0.0
 40
0.49875
 50
0.0
 51
90.0
  0
LINE
  8
0
  6
CONTINUOUS
 62
     2
 10
187.66725
 20
111.914375
 30
0.0
 11
187.66725
 21
111.7315
 31
0.0
  0
LINE
  8
0
  6
CONTINUOUS
 62
     2
 10
187.1685
 20
111.23275
 30
0.0
 11
186.253873125
 21
111.23275
 31
0.0
  0
ARC
  8
0
  6
CONTINUOUS
 62
     2
 10
187.1685
 20
111.7315
 30
0.0
 40
0.49875
 50
270.0
 51
0.0
  0
LINE
  8
0
  6
CONTINUOUS
 62
     2
 10
188.13275
 20
111.7315
 30
0.0
 11
188.13275
 21
111.914375
 31
0.0
  0
LINE
  8
0
  6
CONTINUOUS
 62
     2
 10
189.546126875
 20
111.23275
 30
0.0
 11
188.6315
 21
111.23275
 31
0.0
  0
ARC
  8
0
  6
CONTINUOUS
 62
     2
 10
188.6315
 20
111.7315
 30
0.0
 40
0.49875
 50
180.0
 51
270.0
  0
CIRCLE
  8
0
  6
CONTINUOUS
 62
     2
 10
199.9
 20
111.0
 30
0.0
 40
1.6625
  0
LINE
  8
0
  6
CONTINUOUS
 62
     2
 10
199.66725
 20
110.085625
 30
0.0
 11
200.13275
 21
110.085625
 31
0.0
  0
LINE
  8
0
  6
CONTINUOUS
 62
     2
 10
200.13275
 20
111.914375
 30
0.0
 11
199.66725
 21
111.914375
 31
0.0
  0
LINE
  8
0
  6
CONTINUOUS
 62
     2
 10
200.13275
 20
110.085625
 30
0.0
 11
200.13275
 21
110.2685
 31
0.0
  0
LINE
  8
0
  6
CONTINUOUS
 62
     2
 10
200.6315
 20
110.76725
 30
0.0
 11
201.546126875
 21
110.76725
 31
0.0
  0
ARC
  8
0
  6
CONTINUOUS
 62
     2
 10
200.6315
 20
110.2685
 30
0.0
 40
0.49875
 50
90.0
 51
180.0
  0
LINE
  8
0
  6
CONTINUOUS
 62
     2
 10
199.66725
 20
110.2685
 30
0.0
 11
199.66725
 21
110.085625
 31
0.0
  0
LINE
  8
0
  6
CONTINUOUS
 62
     2
 10
198.27075
 20
110.76725
 30
0.0
 11
199.1685
 21
110.76725
 31
0.0
  0
ARC
  8
0
  6
CONTINUOUS
 62
     2
 10
199.1685
 20
110.2685
 30
0.0
 40
0.49875
 50
0.0
 51
90.0
  0
LINE
  8
0
  6
CONTINUOUS
 62
     2
 10
199.66725
 20
111.914375
 30
0.0
 11
199.66725
 21
111.7315
 31
0.0
  0
LINE
  8
0
  6
CONTINUOUS
 62
     2
 10
199.1685
 20
111.23275
 30
0.0
 11
198.253873125
 21
111.23275
 31
0.0
  0
ARC
  8
0
  6
CONTINUOUS
 62
     2
 10
199.1685
 20
111.7315
 30
0.0
 40
0.49875
 50
270.0
 51
0.0
  0
LINE
  8
0
  6
CONTINUOUS
 62
     2
 10
200.13275
 20
111.7315
 30
0.0
 11
200.13275
 21
111.914375
 31
0.0
  0
LINE
  8
0
  6
CONTINUOUS
 62
     2
 10
201.546126875
 20
111.23275
 30
0.0
 11
200.6315
 21
111.23275
 31
0.0
  0
ARC
  8
0
  6
CONTINUOUS
 62
     2
 10
200.6315
 20
111.7315
 30
0.0
 40
0.49875
 50
180.0
 51
270.0
  0
LINE
  8
0
  6
CONTINUOUS
 62
     2
 10
175.2
 20
109.95
 30
0.0
 11
173.804881526
 21
107.875477297
 31
0.0
  0
LINE
  8
0
  6
CONTINUOUS
 62
     2
 10
175.2
 20
109.95
 30
0.0
 11
175.029053312
 21
107.455851402
 31
0.0
  0
LINE
  8
0
  6
CONTINUOUS
 62
     2
 10
175.2
 20
109.95
 30
0.0
 11
168.55
 21
90.55
 31
0.0
  0
TEXT
  8
0
  6
CONTINUOUS
 62
     2
 10
12.6
 20
78.7
 30
0.3
 40
3.0
  1
項
 50
0.0
 41
0.9
 51
0.0
  7
KANJI7
  0
TEXT
  8
0
  6
CONTINUOUS
 62
     2
 10
12.6
 20
73.7
 30
0.3
 40
3.0
  1
１
 50
0.0
 41
0.9
 51
0.0
  7
KANJI7
  0
TEXT
  8
0
  6
CONTINUOUS
 62
     2
 10
12.6
 20
68.7
 30
0.3
 40
3.0
  1
２
 50
0.0
 41
0.9
 51
0.0
  7
KANJI7
  0
TEXT
  8
0
  6
CONTINUOUS
 62
     2
 10
12.6
 20
63.7
 30
0.3
 40
3.0
  1
３
 50
0.0
 41
0.9
 51
0.0
  7
KANJI7
  0
LINE
  8
0
  6
CONTINUOUS
 62
     2
 10
11.6
 20
62.7
 30
0.0
 11
11.6
 21
82.7
 31
0.0
  0
LINE
  8
0
  6
CONTINUOUS
 62
     2
 10
16.6
 20
82.7
 30
0.0
 11
16.6
 21
62.7
 31
0.0
  0
LINE
  8
0
  6
CONTINUOUS
 62
     2
 10
11.6
 20
62.7
 30
0.0
 11
11.6
 21
32.7
 31
0.0
  0
LINE
  8
0
  6
CONTINUOUS
 62
     2
 10
16.6
 20
62.7
 30
0.0
 11
16.6
 21
32.7
 31
0.0
  0
TEXT
  8
0
  6
CONTINUOUS
 62
     2
 10
23.025
 20
79.15
 30
3.0
 40
3.0
  1
　品　　名
 50
0.0
 41
0.9
 51
0.0
  7
KANJI8
  0
TEXT
  8
0
  6
CONTINUOUS
 62
     2
 10
18.825
 20
73.45
 30
1.0
 40
3.0
  1
単相電力計
 50
0.0
 41
0.9
 51
0.0
  7
KANJI9
  0
TEXT
  8
0
  6
CONTINUOUS
 62
     2
 10
18.825
 20
68.45
 30
1.0
 40
3.0
  1
単相３線式電力計
 50
0.0
 41
0.9
 51
0.0
  7
KANJI9
  0
TEXT
  8
0
  6
CONTINUOUS
 62
     2
 10
12.6
 20
58.7
 30
0.3
 40
3.0
  1
４
 50
0.0
 41
0.9
 51
0.0
  7
KANJI7
  0
TEXT
  8
0
  6
CONTINUOUS
 62
     2
 10
12.6
 20
53.7
 30
0.3
 40
3.0
  1
５
 50
0.0
 41
0.9
 51
0.0
  7
KANJI7
  0
TEXT
  8
0
  6
CONTINUOUS
 62
     2
 10
12.6
 20
48.7
 30
0.3
 40
3.0
  1
６
 50
0.0
 41
0.9
 51
0.0
  7
KANJI7
  0
TEXT
  8
0
  6
CONTINUOUS
 62
     2
 10
12.6
 20
43.7
 30
0.3
 40
3.0
  1
７
 50
0.0
 41
0.9
 51
0.0
  7
KANJI7
  0
TEXT
  8
0
  6
CONTINUOUS
 62
     2
 10
12.6
 20
38.7
 30
0.3
 40
3.0
  1
８
 50
0.0
 41
0.9
 51
0.0
  7
KANJI7
  0
TEXT
  8
0
  6
CONTINUOUS
 62
     2
 10
12.6
 20
33.7
 30
0.3
 40
3.0
  1
９
 50
0.0
 41
0.9
 51
0.0
  7
KANJI7
  0
TEXT
  8
0
  6
CONTINUOUS
 62
     2
 10
18.825
 20
53.45
 30
1.0
 40
3.0
  1
単相無効電力計
 50
0.0
 41
0.9
 51
0.0
  7
KANJI9
  0
TEXT
  8
0
  6
CONTINUOUS
 62
     2
 10
18.825
 20
38.45
 30
1.0
 40
3.0
  1
三相不平衡力率計
 50
0.0
 41
0.9
 51
0.0
  7
KANJI9
  0
TEXT
  8
0
  6
CONTINUOUS
 62
     2
 10
18.825
 20
33.45
 30
1.0
 40
3.0
  1
三相４線式不平衡力率計
 50
0.0
 41
0.9
 51
0.0
  7
KANJI9
  0
TEXT
  8
0
  6
CONTINUOUS
 62
     2
 10
24.2
 20
28.2
 30
0.18
 40
1.8
  1
※
 50
0.0
 41
0.9
 51
0.0
  7
KANJI10
  0
TEXT
  8
0
  6
CONTINUOUS
 62
     2
 10
19.7
 20
28.0
 30
0.2
 40
2.5
  1
注）　印は，５０ＨＺまたは６０ＨＺの周波数指定を必要とします。
 50
0.0
 41
0.8
 51
0.0
  7
KANJI11
  0
TEXT
  8
0
  6
CONTINUOUS
 62
     2
 10
83.5
 20
27.9
 30
0.2
 40
2.5
  1
　　　　その他は、共用です。
 50
0.0
 41
0.8
 51
0.0
  7
KANJI11
  0
TEXT
  8
0
  6
CONTINUOUS
 62
     2
 10
18.825
 20
48.45
 30
1.0
 40
3.0
  1
三相無効電力計（電圧平衡）
 50
0.0
 41
0.9
 51
0.0
  7
KANJI9
  0
TEXT
  8
0
  6
CONTINUOUS
 62
     2
 10
18.825
 20
58.45
 30
1.0
 40
3.0
  1
三相４線式電力計（電圧平衡）
 50
0.0
 41
0.9
 51
0.0
  7
KANJI9
  0
TEXT
  8
0
  6
CONTINUOUS
 62
     2
 10
18.825
 20
63.45
 30
1.0
 40
3.0
  1
三相電力計
 50
0.0
 41
0.9
 51
0.0
  7
KANJI9
  0
LINE
  8
0
  6
CONTINUOUS
 62
     2
 10
195.3
 20
140.3
 30
0.0
 11
195.234783106
 21
142.298936406
 31
0.0
  0
LINE
  8
0
  6
CONTINUOUS
 62
     2
 10
195.3
 20
140.3
 30
0.0
 11
194.24405231
 21
141.998521262
 31
0.0
  0
LINE
  8
0
  6
CONTINUOUS
 62
     2
 10
195.6
 20
90.7
 30
0.0
 11
224.6
 21
90.7
 31
0.0
  0
LINE
  8
0
  6
CONTINUOUS
 62
     2
 10
192.0
 20
108.3
 30
0.0
 11
191.879998033
 21
106.303603364
 31
0.0
  0
LINE
  8
0
  6
CONTINUOUS
 62
     2
 10
192.0
 20
108.3
 30
0.0
 11
192.894273566
 21
106.511068814
 31
0.0
  0
LINE
  8
0
  6
CONTINUOUS
 62
     2
 10
192.0
 20
108.3
 30
0.0
 11
195.6
 21
90.7
 31
0.0
  0
TEXT
  8
0
  6
CONTINUOUS
 62
     2
 10
120.874499685
 20
167.525001907
 30
0.3
 40
3.0
  1
９７
 50
0.0
 41
0.6
 51
0.0
  7
KANJI1
  0
TEXT
  8
0
  6
CONTINUOUS
 62
     2
 10
163.857
 20
210.02999855
 30
0.114
 40
1.14
  1
結線図ラベル
 50
0.0
 41
0.8
 51
0.0
  7
KANJI12
  0
LINE
  8
0
  6
CONTINUOUS
 62
     2
 10
132.15
 20
149.75
 30
0.0
 11
132.15
 21
137.204984
 31
0.0
  0
ARC
  8
0
  6
CONTINUOUS
 62
     2
 10
131.14639872
 20
137.204984
 30
0.0
 40
1.00360128
 50
270.0
 51
0.0
  0
ARC
  8
0
  6
CONTINUOUS
 62
     2
 10
110.57257248
 20
137.204984
 30
0.0
 40
1.00360128
 50
180.0
 51
270.0
  0
LINE
  8
0
  6
CONTINUOUS
 62
     2
 10
131.14639872
 20
136.20138272
 30
0.0
 11
110.57257248
 21
136.20138272
 31
0.0
  0
LINE
  8
0
  6
CONTINUOUS
 62
     2
 10
109.5689712
 20
137.204984
 30
0.0
 11
109.5689712
 21
149.75
 31
0.0
  0
LINE
  8
0
  6
CONTINUOUS
 62
     2
 10
105.228395664
 20
149.348559488
 30
0.0
 11
105.951878536
 21
151.750989423
 31
0.0
  0
LINE
  8
0
  6
CONTINUOUS
 62
     2
 10
105.228395664
 20
149.348559488
 30
0.0
 11
110.44712232
 21
157.77881024
 31
0.0
  0
TEXT
  8
0
  6
CONTINUOUS
 62
     2
 10
110.44712232
 20
158.78241152
 30
0.200720256
 40
3.01080384
  1
検印ラベル
 50
0.0
 41
0.733333333
 51
0.0
  7
KANJI13
  0
LINE
  8
0
  6
CONTINUOUS
 62
     2
 10
110.44712232
 20
157.77881024
 30
0.0
 11
122.61578784
 21
157.77881024
 31
0.0
  0
LINE
  8
0
  6
CONTINUOUS
 62
     2
 10
125.0
 20
146.85
 30
0.0
 11
126.203825436
 21
149.041073782
 31
0.0
  0
LINE
  8
0
  6
CONTINUOUS
 62
     2
 10
125.0
 20
146.85
 30
0.0
 11
124.947006518
 21
149.349438275
 31
0.0
  0
LINE
  8
0
  6
CONTINUOUS
 62
     2
 10
125.0
 20
146.85
 30
0.0
 11
131.6
 21
173.75
 31
0.0
  0
TEXT
  8
0
  6
CONTINUOUS
 62
     2
 10
131.6
 20
174.75
 30
0.3
 40
3.0
  1
結線図ラベル
 50
0.0
 41
0.8
 51
0.0
  7
KANJI5
  0
LINE
  8
0
  6
CONTINUOUS
 62
     2
 10
131.6
 20
173.75
 30
0.0
 11
148.25
 21
173.75
 31
0.0
  0
LINE
  8
0
  6
LTYPE1
 62
     5
 10
174.9
 20
111.0
 30
0.0
 11
201.9
 21
111.0
 31
0.0
  0
LINE
  8
0
  6
LTYPE1
 62
     5
 10
193.9
 20
113.75
 30
0.0
 11
193.9
 21
108.25
 31
0.0
  0
LINE
  8
0
  6
LTYPE1
 62
     5
 10
199.9
 20
113.75
 30
0.0
 11
199.9
 21
108.25
 31
0.0
  0
LINE
  8
0
  6
LTYPE1
 62
     5
 10
181.9
 20
113.75
 30
0.0
 11
181.9
 21
108.25
 31
0.0
  0
LINE
  8
0
  6
LTYPE1
 62
     5
 10
175.9
 20
113.75
 30
0.0
 11
175.9
 21
108.25
 31
0.0
  0
LINE
  8
0
  6
LTYPE1
 62
     5
 10
178.9
 20
134.75
 30
0.0
 11
178.9
 21
140.25
 31
0.0
  0
LINE
  8
0
  6
LTYPE1
 62
     5
 10
172.9
 20
134.75
 30
0.0
 11
172.9
 21
140.25
 31
0.0
  0
LINE
  8
0
  6
LTYPE1
 62
     5
 10
190.9
 20
134.75
 30
0.0
 11
190.9
 21
140.25
 31
0.0
  0
LINE
  8
0
  6
LTYPE1
 62
     5
 10
202.9
 20
134.75
 30
0.0
 11
202.9
 21
140.25
 31
0.0
  0
LINE
  8
0
  6
LTYPE1
 62
     5
 10
184.9
 20
134.75
 30
0.0
 11
184.9
 21
140.25
 31
0.0
  0
LINE
  8
0
  6
LTYPE1
 62
     5
 10
205.5
 20
137.5
 30
0.0
 11
170.9
 21
137.5
 31
0.0
  0
LINE
  8
0
  6
LTYPE1
 62
     5
 10
196.9
 20
134.75
 30
0.0
 11
196.9
 21
140.25
 31
0.0
  0
LINE
  8
0
  6
LTYPE1
 62
     5
 10
149.85
 20
137.5
 30
0.0
 11
138.85
 21
137.5
 31
0.0
  0
LINE
  8
0
  6
LTYPE1
 62
     5
 10
149.85
 20
111.0
 30
0.0
 11
138.85
 21
111.0
 31
0.0
  0
LINE
  8
0
  6
LTYPE1
 62
     2
 10
97.64235
 20
147.5
 30
0.0
 11
107.5134
 21
147.5
 31
0.0
  0
ARC
  8
0
  6
CONTINUOUS
 62
     2
 10
100.1005
 20
147.5
 30
0.0
 40
4.165
 50
343.5
 51
16.5
  0
ARC
  8
0
  6
CONTINUOUS
 62
     2
 10
106.348
 20
147.5
 30
0.0
 40
4.165
 50
163.5
 51
196.3
  0
ARC
  8
0
  6
CONTINUOUS
 62
     2
 10
103.22425
 20
149.270125
 30
0.0
 40
1.04125
 50
325.0
 51
35.0
  0
ARC
  8
0
  6
CONTINUOUS
 62
     2
 10
103.22425
 20
149.270125
 30
0.0
 40
1.04125
 50
145.0
 51
215.0
  0
ARC
  8
0
  6
CONTINUOUS
 62
     2
 10
103.22425
 20
145.729875
 30
0.0
 40
1.04125
 50
145.0
 51
215.0
  0
ARC
  8
0
  6
CONTINUOUS
 62
     2
 10
103.22425
 20
145.729875
 30
0.0
 40
1.04125
 50
325.0
 51
35.0
  0
LINE
  8
0
  6
CONTINUOUS
 62
     2
 10
102.350410959
 20
146.331023157
 30
0.0
 11
104.078885959
 21
146.331023157
 31
0.0
  0
LINE
  8
0
  6
CONTINUOUS
 62
     2
 10
104.093984196
 20
148.682923911
 30
0.0
 11
102.354515804
 21
148.682923911
 31
0.0
  0
LINE
  8
0
  6
CONTINUOUS
 62
     2
 10
104.2655
 20
145.729875
 30
0.0
 11
104.2655
 21
149.270125
 31
0.0
  0
LINE
  8
0
  6
CONTINUOUS
 62
     2
 10
104.082990804
 20
149.87405
 30
0.0
 11
102.183
 21
149.87405
 31
0.0
  0
LINE
  8
0
  6
CONTINUOUS
 62
     2
 10
102.183
 20
145.12595
 30
0.0
 11
104.078075
 21
145.12595
 31
0.0
  0
LINE
  8
0
  6
CONTINUOUS
 62
     2
 10
102.183
 20
149.87405
 30
0.0
 11
102.183
 21
145.12595
 31
0.0
  0
LINE
  8
0
  6
CONTINUOUS
 62
     2
 10
101.35
 20
150.29055
 30
0.0
 11
102.183
 21
149.87405
 31
0.0
  0
LINE
  8
0
  6
CONTINUOUS
 62
     2
 10
101.35
 20
144.70945
 30
0.0
 11
102.183
 21
145.12595
 31
0.0
  0
LINE
  8
0
  6
CONTINUOUS
 62
     2
 10
101.35
 20
150.29055
 30
0.0
 11
101.35
 21
144.70945
 31
0.0
  0
LINE
  8
0
  6
CONTINUOUS
 62
     1
 10
101.35
 20
149.75
 30
0.0
 11
99.35
 21
149.75
 31
0.0
  0
LINE
  8
0
  6
CONTINUOUS
 62
     2
 10
99.35
 20
150.5
 30
0.0
 11
99.1
 21
150.5
 31
0.0
  0
LINE
  8
0
  6
CONTINUOUS
 62
     2
 10
99.35
 20
148.7495
 30
0.0
 11
101.35
 21
148.7495
 31
0.0
  0
LINE
  8
0
  6
CONTINUOUS
 62
     2
 10
101.35
 20
148.653705
 30
0.0
 11
99.35
 21
148.653705
 31
0.0
  0
LINE
  8
0
  6
CONTINUOUS
 62
     2
 10
106.85
 20
148.7495
 30
0.0
 11
106.85
 21
146.2505
 31
0.0
  0
LINE
  8
0
  6
CONTINUOUS
 62
     2
 10
99.35
 20
146.354625
 30
0.0
 11
101.35
 21
146.354625
 31
0.0
  0
LINE
  8
0
  6
CONTINUOUS
 62
     2
 10
101.35
 20
146.2505
 30
0.0
 11
99.35
 21
146.2505
 31
0.0
  0
LINE
  8
0
  6
CONTINUOUS
 62
     2
 10
99.1
 20
144.5
 30
0.0
 11
99.35
 21
144.5
 31
0.0
  0
LINE
  8
0
  6
CONTINUOUS
 62
     2
 10
99.35
 20
144.5
 30
0.0
 11
99.35
 21
150.5
 31
0.0
  0
LINE
  8
0
  6
CONTINUOUS
 62
     2
 10
104.2655
 20
148.7495
 30
0.0
 11
106.85
 21
148.7495
 31
0.0
  0
LINE
  8
0
  6
CONTINUOUS
 62
     2
 10
106.85
 20
148.653705
 30
0.0
 11
104.2655
 21
148.653705
 31
0.0
  0
LINE
  8
0
  6
CONTINUOUS
 62
     2
 10
104.2655
 20
146.354625
 30
0.0
 11
106.85
 21
146.354625
 31
0.0
  0
LINE
  8
0
  6
CONTINUOUS
 62
     2
 10
106.85
 20
146.2505
 30
0.0
 11
104.2655
 21
146.2505
 31
0.0
  0
LINE
  8
0
  6
CONTINUOUS
 62
     2
 10
105.228395664
 20
149.348559488
 30
0.0
 11
106.928395664
 21
151.048559488
 31
0.0
  0
LINE
  8
0
  6
CONTINUOUS
 62
     1
 10
139.15
 20
149.75
 30
0.0
 11
104.148328756
 21
149.75
 31
0.0
  0
ARC
  8
0
  6
CONTINUOUS
 62
     2
 10
100.1005
 20
102.5
 30
0.0
 40
4.165
 50
343.5
 51
16.5
  0
ARC
  8
0
  6
CONTINUOUS
 62
     2
 10
106.348
 20
102.5
 30
0.0
 40
4.165
 50
163.5
 51
196.3
  0
ARC
  8
0
  6
CONTINUOUS
 62
     2
 10
103.22425
 20
104.270125
 30
0.0
 40
1.04125
 50
325.0
 51
35.0
  0
ARC
  8
0
  6
CONTINUOUS
 62
     2
 10
103.22425
 20
104.270125
 30
0.0
 40
1.04125
 50
145.0
 51
215.0
  0
ARC
  8
0
  6
CONTINUOUS
 62
     2
 10
103.22425
 20
100.729875
 30
0.0
 40
1.04125
 50
145.0
 51
215.0
  0
ARC
  8
0
  6
CONTINUOUS
 62
     2
 10
103.22425
 20
100.729875
 30
0.0
 40
1.04125
 50
325.0
 51
35.0
  0
LINE
  8
0
  6
CONTINUOUS
 62
     2
 10
102.350410959
 20
101.331023157
 30
0.0
 11
104.078885959
 21
101.331023157
 31
0.0
  0
LINE
  8
0
  6
CONTINUOUS
 62
     2
 10
104.093984196
 20
103.682923911
 30
0.0
 11
102.354515804
 21
103.682923911
 31
0.0
  0
LINE
  8
0
  6
CONTINUOUS
 62
     2
 10
104.2655
 20
100.729875
 30
0.0
 11
104.2655
 21
104.270125
 31
0.0
  0
LINE
  8
0
  6
CONTINUOUS
 62
     2
 10
104.082990804
 20
104.87405
 30
0.0
 11
102.183
 21
104.87405
 31
0.0
  0
LINE
  8
0
  6
CONTINUOUS
 62
     2
 10
102.183
 20
100.12595
 30
0.0
 11
104.078075
 21
100.12595
 31
0.0
  0
LINE
  8
0
  6
CONTINUOUS
 62
     2
 10
102.183
 20
104.87405
 30
0.0
 11
102.183
 21
100.12595
 31
0.0
  0
LINE
  8
0
  6
CONTINUOUS
 62
     2
 10
101.35
 20
105.29055
 30
0.0
 11
102.183
 21
104.87405
 31
0.0
  0
LINE
  8
0
  6
CONTINUOUS
 62
     2
 10
101.35
 20
99.70945
 30
0.0
 11
102.183
 21
100.12595
 31
0.0
  0
LINE
  8
0
  6
CONTINUOUS
 62
     2
 10
101.35
 20
105.29055
 30
0.0
 11
101.35
 21
99.70945
 31
0.0
  0
LINE
  8
0
  6
CONTINUOUS
 62
     1
 10
101.35
 20
104.75
 30
0.0
 11
99.35
 21
104.75
 31
0.0
  0
LINE
  8
0
  6
CONTINUOUS
 62
     2
 10
99.35
 20
105.5
 30
0.0
 11
99.1
 21
105.5
 31
0.0
  0
LINE
  8
0
  6
CONTINUOUS
 62
     2
 10
99.35
 20
103.7495
 30
0.0
 11
101.35
 21
103.7495
 31
0.0
  0
LINE
  8
0
  6
CONTINUOUS
 62
     2
 10
101.35
 20
103.653705
 30
0.0
 11
99.35
 21
103.653705
 31
0.0
  0
LINE
  8
0
  6
CONTINUOUS
 62
     2
 10
106.85
 20
103.7495
 30
0.0
 11
106.85
 21
101.2505
 31
0.0
  0
LINE
  8
0
  6
CONTINUOUS
 62
     2
 10
99.35
 20
101.354625
 30
0.0
 11
101.35
 21
101.354625
 31
0.0
  0
LINE
  8
0
  6
CONTINUOUS
 62
     2
 10
101.35
 20
101.2505
 30
0.0
 11
99.35
 21
101.2505
 31
0.0
  0
LINE
  8
0
  6
CONTINUOUS
 62
     2
 10
99.1
 20
99.5
 30
0.0
 11
99.35
 21
99.5
 31
0.0
  0
LINE
  8
0
  6
CONTINUOUS
 62
     2
 10
99.35
 20
99.5
 30
0.0
 11
99.35
 21
105.5
 31
0.0
  0
LINE
  8
0
  6
CONTINUOUS
 62
     2
 10
104.2655
 20
103.7495
 30
0.0
 11
106.85
 21
103.7495
 31
0.0
  0
LINE
  8
0
  6
CONTINUOUS
 62
     2
 10
106.85
 20
103.653705
 30
0.0
 11
104.2655
 21
103.653705
 31
0.0
  0
LINE
  8
0
  6
CONTINUOUS
 62
     2
 10
104.2655
 20
101.354625
 30
0.0
 11
106.85
 21
101.354625
 31
0.0
  0
LINE
  8
0
  6
CONTINUOUS
 62
     2
 10
106.85
 20
101.2505
 30
0.0
 11
104.2655
 21
101.2505
 31
0.0
  0
LINE
  8
0
  6
CONTINUOUS
 62
     1
 10
99.1
 20
125.225
 30
0.0
 11
99.1
 21
97.475
 31
0.0
  0
LINE
  8
0
  6
CONTINUOUS
 62
     1
 10
99.1
 20
97.475
 30
0.0
 11
93.85
 21
97.475
 31
0.0
  0
LINE
  8
0
  6
CONTINUOUS
 62
     1
 10
139.15
 20
100.25
 30
0.0
 11
104.148328756
 21
100.25
 31
0.0
  0
LINE
  8
0
  6
CONTINUOUS
 62
     1
 10
101.35
 20
100.25
 30
0.0
 11
99.35
 21
100.25
 31
0.0
  0
TEXT
  8
0
  6
CONTINUOUS
 62
     3
 10
235.1
 20
12.0
 30
0.6
 40
6.0
  1
ＭＳ－１２０１９Ａ
 50
0.0
 41
0.833333333
 51
0.0
  7
KANJI14
  0
TEXT
  8
0
  6
CONTINUOUS
 62
     2
 10
113.1
 20
91.75
 30
0.5
 40
3.0
  1
フランジナット
 50
0.0
 41
0.6
 51
0.0
  7
KANJI3
  0
TEXT
  8
0
  6
CONTINUOUS
 62
     2
 10
195.6
 20
91.7
 30
0.2
 40
3.0
  1
端子カバー（透明樹脂）
 50
0.0
 41
0.733333333
 51
0.0
  7
KANJI15
  0
LINE
  8
0
  6
LTYPE1
 62
     2
 10
210.4
 20
71.25
 30
0.0
 11
210.4
 21
81.8
 31
0.0
  0
LINE
  8
0
  6
CONTINUOUS
 62
     2
 10
210.4
 20
85.65
 30
0.0
 11
210.4
 21
81.65
 31
0.0
  0
LINE
  8
0
  6
CONTINUOUS
 62
     2
 10
61.1
 20
87.8
 30
0.0
 11
85.5
 21
87.8
 31
0.0
  0
TEXT
  8
0
  6
CONTINUOUS
 62
     2
 10
62.1
 20
88.8
 30
0.3
 40
3.0
  1
機械的零位調整器
 50
0.0
 41
0.9
 51
0.0
  7
KANJI7
  0
TEXT
  8
0
  6
CONTINUOUS
 62
     2
 10
24.6
 20
88.6
 30
0.3
 40
3.0
  1
指針
 50
0.0
 41
0.9
 51
0.0
  7
KANJI7
  0
LINE
  8
0
  6
CONTINUOUS
 62
     2
 10
30.7
 20
87.6
 30
0.0
 11
24.6
 21
87.6
 31
0.0
  0
LINE
  8
0
  6
CONTINUOUS
 62
     2
 10
35.5
 20
116.6
 30
0.0
 11
30.7
 21
87.6
 31
0.0
  0
TEXT
  8
0
  6
CONTINUOUS
 62
     1
 10
244.9
 20
20.6
 30
0.5
 40
5.0
  1
広角度計器　外形図
 50
0.0
 41
0.9
 51
0.0
  7
KANJI16
  0
TEXT
  8
0
  6
CONTINUOUS
 62
     1
 10
267.1
 20
33.6
 30
0.3
 40
3.0
  1
ＵｕＶＦ－１１Ｆ
 50
0.0
 41
0.9
 51
0.0
  7
KANJI7
  0
TEXT
  8
0
  6
CONTINUOUS
 62
     1
 10
243.1
 20
33.6
 30
0.3
 40
3.0
  1
ＥＶＦ－１１Ｆ
 50
0.0
 41
0.9
 51
0.0
  7
KANJI7
  0
TEXT
  8
0
  6
CONTINUOUS
 62
     1
 10
243.1
 20
29.6
 30
0.3
 40
3.0
  1
ＲＶＦ－１１Ｆ
 50
0.0
 41
0.9
 51
0.0
  7
KANJI7
  0
LINE
  8
0
  6
LTYPE1
 62
     2
 10
187.9
 20
96.6
 30
0.0
 11
187.9
 21
155.0847
 31
0.0
  0
LINE
  8
0
  6
LTYPE1
 62
     2
 10
187.9
 20
24.45
 30
0.0
 11
187.9
 21
86.5
 31
0.0
  0
LINE
  8
0
  6
CONTINUOUS
 62
     2
 10
156.9
 20
90.55
 30
0.0
 11
144.55
 21
90.55
 31
0.0
  0
LINE
  8
0
  6
CONTINUOUS
 62
     2
 10
168.55
 20
90.55
 30
0.0
 11
156.9
 21
90.55
 31
0.0
  0
TEXT
  8
0
  6
CONTINUOUS
 62
     2
 10
18.825
 20
43.45
 30
1.0
 40
3.0
  1
三相４線式無効電力計（電圧平衡）
 50
0.0
 41
0.9
 51
0.0
  7
KANJI9
  0
LINE
  8
0
  6
CONTINUOUS
 62
     2
 10
86.514213562
 20
72.7
 30
0.0
 11
80.1
 21
72.7
 31
0.0
  0
LINE
  8
0
  6
CONTINUOUS
 62
     2
 10
80.1
 20
32.8
 30
0.0
 11
80.1
 21
82.7
 31
0.0
  0
TEXT
  8
0
  6
CONTINUOUS
 62
     2
 10
122.1
 20
78.7
 30
1.0
 40
3.0
  1
動作原理
 50
0.0
 41
0.9
 51
0.0
  7
KANJI9
  0
LINE
  8
0
  6
CONTINUOUS
 62
     2
 10
117.1
 20
82.7
 30
0.0
 11
117.1
 21
32.7
 31
0.0
  0
LINE
  8
0
  6
CONTINUOUS
 62
     2
 10
80.2
 20
82.7
 30
0.0
 11
117.1
 21
82.7
 31
0.0
  0
LINE
  8
0
  6
CONTINUOUS
 62
     2
 10
80.4
 20
77.7
 30
0.0
 11
117.1
 21
77.7
 31
0.0
  0
LINE
  8
0
  6
CONTINUOUS
 62
     2
 10
117.0
 20
72.7
 30
0.0
 11
86.514213562
 21
72.7
 31
0.0
  0
LINE
  8
0
  6
CONTINUOUS
 62
     2
 10
80.3
 20
67.7
 30
0.0
 11
117.1
 21
67.7
 31
0.0
  0
LINE
  8
0
  6
CONTINUOUS
 62
     2
 10
117.1
 20
62.7
 30
0.0
 11
80.6
 21
62.7
 31
0.0
  0
TEXT
  8
0
  6
CONTINUOUS
 62
     2
 10
91.8
 20
78.6
 30
1.0
 40
3.0
  1
計器形名
 50
0.0
 41
0.9
 51
0.0
  7
KANJI9
  0
TEXT
  8
0
  6
CONTINUOUS
 62
     2
 10
108.6
 20
75.2
 30
0.18
 40
1.8
  1
１Ｐ
 50
0.0
 41
0.9
 51
0.0
  7
KANJI10
  0
TEXT
  8
0
  6
CONTINUOUS
 62
     2
 10
108.6
 20
55.2
 30
0.18
 40
1.8
  1
１Ｐ
 50
0.0
 41
0.9
 51
0.0
  7
KANJI10
  0
TEXT
  8
0
  6
CONTINUOUS
 62
     2
 10
108.6
 20
70.2
 30
0.18
 40
1.8
  1
１Ｐ３Ｗ
 50
0.0
 41
0.9
 51
0.0
  7
KANJI10
  0
TEXT
  8
0
  6
CONTINUOUS
 62
     2
 10
108.6
 20
65.2
 30
0.18
 40
1.8
  1
３Ｐ
 50
0.0
 41
0.9
 51
0.0
  7
KANJI10
  0
TEXT
  8
0
  6
CONTINUOUS
 62
     2
 10
108.6
 20
60.2
 30
0.18
 40
1.8
  1
３Ｐ４Ｗ
 50
0.0
 41
0.9
 51
0.0
  7
KANJI10
  0
TEXT
  8
0
  6
CONTINUOUS
 62
     2
 10
108.6
 20
50.2
 30
0.18
 40
1.8
  1
３Ｐ
 50
0.0
 41
0.9
 51
0.0
  7
KANJI10
  0
TEXT
  8
0
  6
CONTINUOUS
 62
     2
 10
108.6
 20
45.2
 30
0.18
 40
1.8
  1
３Ｐ４Ｗ
 50
0.0
 41
0.9
 51
0.0
  7
KANJI10
  0
TEXT
  8
0
  6
CONTINUOUS
 62
     2
 10
108.6
 20
35.2
 30
0.18
 40
1.8
  1
３Ｐ４Ｗ
 50
0.0
 41
0.9
 51
0.0
  7
KANJI10
  0
TEXT
  8
0
  6
CONTINUOUS
 62
     2
 10
108.6
 20
40.2
 30
0.18
 40
1.8
  1
３Ｐ
 50
0.0
 41
0.9
 51
0.0
  7
KANJI10
  0
TEXT
  8
0
  6
CONTINUOUS
 62
     2
 10
120.6
 20
38.7
 30
0.5
 40
3.0
  1
時分割比率計方式
 50
0.0
 41
0.9
 51
0.0
  7
KANJI0
  0
TEXT
  8
0
  6
CONTINUOUS
 62
     2
 10
120.6
 20
33.7
 30
0.5
 40
3.0
  1
時分割比率計方式
 50
0.0
 41
0.9
 51
0.0
  7
KANJI0
  0
TEXT
  8
0
  6
CONTINUOUS
 62
     2
 10
81.1
 20
55.6
 30
0.18
 40
1.8
  1
※
 50
0.0
 41
0.9
 51
0.0
  7
KANJI10
  0
TEXT
  8
0
  6
CONTINUOUS
 62
     2
 10
81.1
 20
40.6
 30
0.18
 40
1.8
  1
※
 50
0.0
 41
0.9
 51
0.0
  7
KANJI10
  0
TEXT
  8
0
  6
CONTINUOUS
 62
     2
 10
81.1
 20
35.6
 30
0.18
 40
1.8
  1
※
 50
0.0
 41
0.9
 51
0.0
  7
KANJI10
  0
TEXT
  8
0
  6
CONTINUOUS
 62
     2
 10
86.2
 20
73.7
 30
0.5
 40
3.0
  1
ＥＶＦ－１１Ｆ
 50
0.0
 41
0.9
 51
0.0
  7
KANJI0
  0
TEXT
  8
0
  6
CONTINUOUS
 62
     2
 10
86.2
 20
68.7
 30
0.5
 40
3.0
  1
ＥＶＦ－１１Ｆ
 50
0.0
 41
0.9
 51
0.0
  7
KANJI0
  0
TEXT
  8
0
  6
CONTINUOUS
 62
     2
 10
86.2
 20
63.7
 30
0.5
 40
3.0
  1
ＥＶＦ－１１Ｆ
 50
0.0
 41
0.9
 51
0.0
  7
KANJI0
  0
TEXT
  8
0
  6
CONTINUOUS
 62
     2
 10
86.2
 20
58.7
 30
0.5
 40
3.0
  1
ＥＶＦ－１１Ｆ
 50
0.0
 41
0.9
 51
0.0
  7
KANJI0
  0
TEXT
  8
0
  6
CONTINUOUS
 62
     2
 10
86.2
 20
53.7
 30
0.5
 40
3.0
  1
ＲＶＦ－１１Ｆ
 50
0.0
 41
0.9
 51
0.0
  7
KANJI0
  0
TEXT
  8
0
  6
CONTINUOUS
 62
     2
 10
86.2
 20
48.7
 30
0.5
 40
3.0
  1
ＲＶＦ－１１Ｆ
 50
0.0
 41
0.9
 51
0.0
  7
KANJI0
  0
TEXT
  8
0
  6
CONTINUOUS
 62
     2
 10
86.2
 20
43.7
 30
0.5
 40
3.0
  1
ＲＶＦ－１１Ｆ
 50
0.0
 41
0.9
 51
0.0
  7
KANJI0
  0
TEXT
  8
0
  6
CONTINUOUS
 62
     2
 10
83.2
 20
38.8
 30
0.5
 40
3.0
  1
ＵｕＶＦ－１１Ｆ
 50
0.0
 41
0.9
 51
0.0
  7
KANJI0
  0
TEXT
  8
0
  6
CONTINUOUS
 62
     2
 10
83.2
 20
33.8
 30
0.5
 40
3.0
  1
ＵｕＶＦ－１１Ｆ
 50
0.0
 41
0.9
 51
0.0
  7
KANJI0
  0
TEXT
  8
0
  6
CONTINUOUS
 62
     2
 10
120.7
 20
73.7
 30
0.5
 40
3.0
  1
時分割掛算方式
 50
0.0
 41
0.9
 51
0.0
  7
KANJI0
  0
TEXT
  8
0
  6
CONTINUOUS
 62
     2
 10
120.7
 20
68.7
 30
0.5
 40
3.0
  1
時分割掛算方式
 50
0.0
 41
0.9
 51
0.0
  7
KANJI0
  0
TEXT
  8
0
  6
CONTINUOUS
 62
     2
 10
120.7
 20
63.7
 30
0.5
 40
3.0
  1
時分割掛算方式
 50
0.0
 41
0.9
 51
0.0
  7
KANJI0
  0
TEXT
  8
0
  6
CONTINUOUS
 62
     2
 10
120.7
 20
58.7
 30
0.5
 40
3.0
  1
時分割掛算方式
 50
0.0
 41
0.9
 51
0.0
  7
KANJI0
  0
TEXT
  8
0
  6
CONTINUOUS
 62
     2
 10
120.7
 20
53.7
 30
0.5
 40
3.0
  1
時分割掛算方式
 50
0.0
 41
0.9
 51
0.0
  7
KANJI0
  0
TEXT
  8
0
  6
CONTINUOUS
 62
     2
 10
120.7
 20
48.7
 30
0.5
 40
3.0
  1
時分割掛算方式
 50
0.0
 41
0.9
 51
0.0
  7
KANJI0
  0
TEXT
  8
0
  6
CONTINUOUS
 62
     2
 10
120.7
 20
43.7
 30
0.5
 40
3.0
  1
時分割掛算方式
 50
0.0
 41
0.9
 51
0.0
  7
KANJI0
  0
TEXT
  8
0
  6
CONTINUOUS
 62
     2
 10
148.3
 20
78.5
 30
0.2
 40
3.0
  1
端子数
 50
0.0
 41
0.733333333
 51
0.0
  7
KANJI15
  0
LINE
  8
0
  6
CONTINUOUS
 62
     2
 10
156.1
 20
32.7
 30
0.0
 11
156.1
 21
82.7
 31
0.0
  0
LINE
  8
0
  6
CONTINUOUS
 62
     2
 10
117.1
 20
82.7
 30
0.0
 11
156.1
 21
82.7
 31
0.0
  0
LINE
  8
0
  6
CONTINUOUS
 62
     2
 10
117.1
 20
77.7
 30
0.0
 11
156.1
 21
77.7
 31
0.0
  0
LINE
  8
0
  6
CONTINUOUS
 62
     2
 10
156.1
 20
32.7
 30
0.0
 11
117.1
 21
32.7
 31
0.0
  0
LINE
  8
0
  6
CONTINUOUS
 62
     2
 10
147.1
 20
32.7
 30
0.0
 11
147.1
 21
82.7
 31
0.0
  0
LINE
  8
0
  6
CONTINUOUS
 62
     2
 10
117.1
 20
37.7
 30
0.0
 11
156.1
 21
37.7
 31
0.0
  0
LINE
  8
0
  6
CONTINUOUS
 62
     2
 10
156.1
 20
42.7
 30
0.0
 11
117.1
 21
42.7
 31
0.0
  0
LINE
  8
0
  6
CONTINUOUS
 62
     2
 10
117.1
 20
47.7
 30
0.0
 11
156.1
 21
47.7
 31
0.0
  0
LINE
  8
0
  6
CONTINUOUS
 62
     2
 10
156.1
 20
52.7
 30
0.0
 11
117.1
 21
52.7
 31
0.0
  0
LINE
  8
0
  6
CONTINUOUS
 62
     2
 10
117.1
 20
57.7
 30
0.0
 11
156.1
 21
57.7
 31
0.0
  0
LINE
  8
0
  6
CONTINUOUS
 62
     2
 10
156.1
 20
62.7
 30
0.0
 11
117.1
 21
62.7
 31
0.0
  0
LINE
  8
0
  6
CONTINUOUS
 62
     2
 10
117.1
 20
67.7
 30
0.0
 11
156.1
 21
67.7
 31
0.0
  0
LINE
  8
0
  6
CONTINUOUS
 62
     2
 10
156.1
 20
72.7
 30
0.0
 11
117.0
 21
72.7
 31
0.0
  0
TEXT
  8
0
  6
CONTINUOUS
 62
     2
 10
150.0
 20
73.6
 30
0.2
 40
3.0
  1
４
 50
0.0
 41
0.733333333
 51
0.0
  7
KANJI15
  0
TEXT
  8
0
  6
CONTINUOUS
 62
     2
 10
150.0
 20
53.6
 30
0.2
 40
3.0
  1
４
 50
0.0
 41
0.733333333
 51
0.0
  7
KANJI15
  0
TEXT
  8
0
  6
CONTINUOUS
 62
     2
 10
150.0
 20
68.6
 30
0.2
 40
3.0
  1
７
 50
0.0
 41
0.733333333
 51
0.0
  7
KANJI15
  0
TEXT
  8
0
  6
CONTINUOUS
 62
     2
 10
150.0
 20
63.6
 30
0.2
 40
3.0
  1
７
 50
0.0
 41
0.733333333
 51
0.0
  7
KANJI15
  0
TEXT
  8
0
  6
CONTINUOUS
 62
     2
 10
150.0
 20
58.6
 30
0.2
 40
3.0
  1
９
 50
0.0
 41
0.733333333
 51
0.0
  7
KANJI15
  0
TEXT
  8
0
  6
CONTINUOUS
 62
     2
 10
150.0
 20
48.6
 30
0.2
 40
3.0
  1
７
 50
0.0
 41
0.733333333
 51
0.0
  7
KANJI15
  0
TEXT
  8
0
  6
CONTINUOUS
 62
     2
 10
150.0
 20
43.6
 30
0.2
 40
3.0
  1
９
 50
0.0
 41
0.733333333
 51
0.0
  7
KANJI15
  0
TEXT
  8
0
  6
CONTINUOUS
 62
     2
 10
150.0
 20
38.6
 30
0.2
 40
3.0
  1
７
 50
0.0
 41
0.733333333
 51
0.0
  7
KANJI15
  0
TEXT
  8
0
  6
CONTINUOUS
 62
     2
 10
149.1
 20
33.6
 30
0.2
 40
3.0
  1
１０
 50
0.0
 41
0.733333333
 51
0.0
  7
KANJI15
  0
LINE
  8
0
  6
CONTINUOUS
 62
     2
 10
11.6
 20
82.7
 30
0.0
 11
80.1
 21
82.7
 31
0.0
  0
LINE
  8
0
  6
CONTINUOUS
 62
     2
 10
11.6
 20
77.7
 30
0.0
 11
80.5
 21
77.7
 31
0.0
  0
LINE
  8
0
  6
CONTINUOUS
 62
     2
 10
80.1
 20
72.7
 30
0.0
 11
11.6
 21
72.7
 31
0.0
  0
LINE
  8
0
  6
CONTINUOUS
 62
     2
 10
11.6
 20
67.7
 30
0.0
 11
80.3
 21
67.7
 31
0.0
  0
LINE
  8
0
  6
CONTINUOUS
 62
     2
 10
80.6
 20
62.7
 30
0.0
 11
11.6
 21
62.7
 31
0.0
  0
LINE
  8
0
  6
CONTINUOUS
 62
     2
 10
117.1
 20
32.7
 30
0.0
 11
11.6
 21
32.7
 31
0.0
  0
LINE
  8
0
  6
CONTINUOUS
 62
     2
 10
11.6
 20
37.7
 30
0.0
 11
117.1
 21
37.7
 31
0.0
  0
LINE
  8
0
  6
CONTINUOUS
 62
     2
 10
117.1
 20
42.7
 30
0.0
 11
11.6
 21
42.7
 31
0.0
  0
LINE
  8
0
  6
CONTINUOUS
 62
     2
 10
11.6
 20
47.7
 30
0.0
 11
117.1
 21
47.7
 31
0.0
  0
LINE
  8
0
  6
CONTINUOUS
 62
     2
 10
117.1
 20
52.7
 30
0.0
 11
11.6
 21
52.7
 31
0.0
  0
LINE
  8
0
  6
CONTINUOUS
 62
     2
 10
11.6
 20
57.7
 30
0.0
 11
117.0
 21
57.7
 31
0.0
  0
TEXT
  8
0
  6
CONTINUOUS
 62
     2
 10
160.6
 20
172.8
 30
0.2
 40
3.0
  1
端子カバー（透明樹脂）
 50
0.0
 41
0.733333333
 51
0.0
  7
KANJI15
  0
LINE
  8
0
  6
CONTINUOUS
 62
     2
 10
185.748387097
 20
171.8
 30
0.0
 11
159.0
 21
171.8
 31
0.0
  0
LINE
  8
0
  6
CONTINUOUS
 62
     2
 10
195.3
 20
140.3
 30
0.0
 11
185.748387097
 21
171.8
 31
0.0
  0
ENDSEC
  0
EOF
