  0
SECTION
  2
HEADER
  9
$ACADVER
  1
AC1009
  9
$DWGCODEPAGE
  3
dos932
  9
$EXTMIN
 10
0.0
 20
0.0
 30
0.0
  9
$EXTMAX
 10
297.0
 20
210.0
 30
0.0
  9
$LIMMIN
 10
0.0
 20
0.0
  9
$LIMMAX
 10
297.0
 20
210.0
  9
$LTSCALE
 40
1.0
  9
$PDMODE
 70
     0
  0
ENDSEC
  0
SECTION
  2
TABLES
  0
TABLE
  2
VPORT
 70
     1
  0
VPORT
  2
*ACTIVE
 70
     0
 10
0.0
 20
0.0
 11
1.0
 21
1.0
 12
148.5
 22
105.0
 13
0.0
 23
0.0
 14
10.0
 24
10.0
 15
10.0
 25
10.0
 16
0.0
 26
0.0
 36
1.0
 17
0.0
 27
0.0
 37
0.0
 40
297.0
 41
1.414285714
 42
50.0
 43
0.0
 44
0.0
 50
0.0
 51
0.0
 71
     0
 72
  1000
 73
     1
 74
     3
 75
     0
 76
     0
 77
     0
 78
     0
  0
ENDTAB
  0
TABLE
  2
LTYPE
 70
     8
  0
LTYPE
  2
CONTINUOUS
 70
    64
  3
Solid line
 72
    65
 73
     0
 40
0.0
  0
LTYPE
  2
LTYPE1
 70
    64
  3
CENTER
 72
    65
 73
     4
 40
5.0
 49
3.5
 49
-0.5
 49
0.5
 49
-0.5
  0
LTYPE
  2
LTYPE2
 70
    64
  3
CENTER
 72
    65
 73
     4
 40
15.0
 49
10.5
 49
-1.5
 49
1.5
 49
-1.5
  0
LTYPE
  2
LTYPE3
 70
    64
  3
HIDDEN
 72
    65
 73
     2
 40
1.0
 49
0.6
 49
-0.4
  0
LTYPE
  2
LTYPE4
 70
    64
  3
CENTER
 72
    65
 73
     4
 40
8.0
 49
5.6
 49
-0.8
 49
0.8
 49
-0.8
  0
LTYPE
  2
LTYPE5
 70
    64
  3
HIDDEN
 72
    65
 73
     2
 40
3.0
 49
1.8
 49
-1.2
  0
LTYPE
  2
LTYPE6
 70
    64
  3
HIDDEN
 72
    65
 73
     2
 40
2.0
 49
1.2
 49
-0.8
  0
LTYPE
  2
LTYPE7
 70
    64
  3
HIDDEN
 72
    65
 73
     2
 40
1.5
 49
0.9
 49
-0.6
  0
ENDTAB
  0
TABLE
  2
LAYER
 70
   128
  0
LAYER
  2
0
 70
     0
 62
     7
  6
CONTINUOUS
  0
LAYER
  2
2
 70
     0
 62
     7
  6
CONTINUOUS
  0
LAYER
  2
3
 70
     0
 62
     7
  6
CONTINUOUS
  0
LAYER
  2
4
 70
     0
 62
     7
  6
CONTINUOUS
  0
LAYER
  2
5
 70
     0
 62
     7
  6
CONTINUOUS
  0
LAYER
  2
6
 70
     0
 62
     7
  6
CONTINUOUS
  0
LAYER
  2
7
 70
     0
 62
     7
  6
CONTINUOUS
  0
LAYER
  2
8
 70
     0
 62
     7
  6
CONTINUOUS
  0
LAYER
  2
9
 70
     0
 62
     7
  6
CONTINUOUS
  0
LAYER
  2
10
 70
     0
 62
     7
  6
CONTINUOUS
  0
LAYER
  2
11
 70
     0
 62
     7
  6
CONTINUOUS
  0
LAYER
  2
12
 70
     0
 62
     7
  6
CONTINUOUS
  0
LAYER
  2
13
 70
     0
 62
     7
  6
CONTINUOUS
  0
LAYER
  2
14
 70
     0
 62
     7
  6
CONTINUOUS
  0
LAYER
  2
15
 70
     0
 62
     7
  6
CONTINUOUS
  0
LAYER
  2
16
 70
     0
 62
     7
  6
CONTINUOUS
  0
LAYER
  2
17
 70
     0
 62
     7
  6
CONTINUOUS
  0
LAYER
  2
18
 70
     0
 62
     7
  6
CONTINUOUS
  0
LAYER
  2
19
 70
     0
 62
     7
  6
CONTINUOUS
  0
LAYER
  2
20
 70
     0
 62
     7
  6
CONTINUOUS
  0
LAYER
  2
21
 70
     0
 62
     7
  6
CONTINUOUS
  0
LAYER
  2
22
 70
     0
 62
     7
  6
CONTINUOUS
  0
LAYER
  2
23
 70
     0
 62
     7
  6
CONTINUOUS
  0
LAYER
  2
24
 70
     0
 62
     7
  6
CONTINUOUS
  0
LAYER
  2
25
 70
     0
 62
     7
  6
CONTINUOUS
  0
LAYER
  2
26
 70
     0
 62
     7
  6
CONTINUOUS
  0
LAYER
  2
27
 70
     0
 62
     7
  6
CONTINUOUS
  0
LAYER
  2
28
 70
     0
 62
     7
  6
CONTINUOUS
  0
LAYER
  2
29
 70
     0
 62
     7
  6
CONTINUOUS
  0
LAYER
  2
30
 70
     0
 62
     7
  6
CONTINUOUS
  0
LAYER
  2
31
 70
     0
 62
     7
  6
CONTINUOUS
  0
LAYER
  2
32
 70
     0
 62
     7
  6
CONTINUOUS
  0
LAYER
  2
33
 70
     0
 62
     7
  6
CONTINUOUS
  0
LAYER
  2
34
 70
     0
 62
     7
  6
CONTINUOUS
  0
LAYER
  2
35
 70
     0
 62
     7
  6
CONTINUOUS
  0
LAYER
  2
36
 70
     0
 62
     7
  6
CONTINUOUS
  0
LAYER
  2
37
 70
     0
 62
     7
  6
CONTINUOUS
  0
LAYER
  2
38
 70
     0
 62
     7
  6
CONTINUOUS
  0
LAYER
  2
39
 70
     0
 62
     7
  6
CONTINUOUS
  0
LAYER
  2
40
 70
     0
 62
     7
  6
CONTINUOUS
  0
LAYER
  2
41
 70
     0
 62
     7
  6
CONTINUOUS
  0
LAYER
  2
42
 70
     0
 62
     7
  6
CONTINUOUS
  0
LAYER
  2
43
 70
     0
 62
     7
  6
CONTINUOUS
  0
LAYER
  2
44
 70
     0
 62
     7
  6
CONTINUOUS
  0
LAYER
  2
45
 70
     0
 62
     7
  6
CONTINUOUS
  0
LAYER
  2
46
 70
     0
 62
     7
  6
CONTINUOUS
  0
LAYER
  2
47
 70
     0
 62
     7
  6
CONTINUOUS
  0
LAYER
  2
48
 70
     0
 62
     7
  6
CONTINUOUS
  0
LAYER
  2
49
 70
     0
 62
     7
  6
CONTINUOUS
  0
LAYER
  2
50
 70
     0
 62
     7
  6
CONTINUOUS
  0
LAYER
  2
51
 70
     0
 62
     7
  6
CONTINUOUS
  0
LAYER
  2
52
 70
     0
 62
     7
  6
CONTINUOUS
  0
LAYER
  2
53
 70
     0
 62
     7
  6
CONTINUOUS
  0
LAYER
  2
54
 70
     0
 62
     7
  6
CONTINUOUS
  0
LAYER
  2
55
 70
     0
 62
     7
  6
CONTINUOUS
  0
LAYER
  2
56
 70
     0
 62
     7
  6
CONTINUOUS
  0
LAYER
  2
57
 70
     0
 62
     7
  6
CONTINUOUS
  0
LAYER
  2
58
 70
     0
 62
     7
  6
CONTINUOUS
  0
LAYER
  2
59
 70
     0
 62
     7
  6
CONTINUOUS
  0
LAYER
  2
60
 70
     0
 62
     7
  6
CONTINUOUS
  0
LAYER
  2
61
 70
     0
 62
     7
  6
CONTINUOUS
  0
LAYER
  2
62
 70
     0
 62
     7
  6
CONTINUOUS
  0
LAYER
  2
63
 70
     0
 62
     7
  6
CONTINUOUS
  0
LAYER
  2
64
 70
     0
 62
     7
  6
CONTINUOUS
  0
LAYER
  2
65
 70
     0
 62
     7
  6
CONTINUOUS
  0
LAYER
  2
66
 70
     0
 62
     7
  6
CONTINUOUS
  0
LAYER
  2
67
 70
     0
 62
     7
  6
CONTINUOUS
  0
LAYER
  2
68
 70
     0
 62
     7
  6
CONTINUOUS
  0
LAYER
  2
69
 70
     0
 62
     7
  6
CONTINUOUS
  0
LAYER
  2
70
 70
     0
 62
     7
  6
CONTINUOUS
  0
LAYER
  2
71
 70
     0
 62
     7
  6
CONTINUOUS
  0
LAYER
  2
72
 70
     0
 62
     7
  6
CONTINUOUS
  0
LAYER
  2
73
 70
     0
 62
     7
  6
CONTINUOUS
  0
LAYER
  2
74
 70
     0
 62
     7
  6
CONTINUOUS
  0
LAYER
  2
75
 70
     0
 62
     7
  6
CONTINUOUS
  0
LAYER
  2
76
 70
     0
 62
     7
  6
CONTINUOUS
  0
LAYER
  2
77
 70
     0
 62
     7
  6
CONTINUOUS
  0
LAYER
  2
78
 70
     0
 62
     7
  6
CONTINUOUS
  0
LAYER
  2
79
 70
     0
 62
     7
  6
CONTINUOUS
  0
LAYER
  2
80
 70
     0
 62
     7
  6
CONTINUOUS
  0
LAYER
  2
81
 70
     0
 62
     7
  6
CONTINUOUS
  0
LAYER
  2
82
 70
     0
 62
     7
  6
CONTINUOUS
  0
LAYER
  2
83
 70
     0
 62
     7
  6
CONTINUOUS
  0
LAYER
  2
84
 70
     0
 62
     7
  6
CONTINUOUS
  0
LAYER
  2
85
 70
     0
 62
     7
  6
CONTINUOUS
  0
LAYER
  2
86
 70
     0
 62
     7
  6
CONTINUOUS
  0
LAYER
  2
87
 70
     0
 62
     7
  6
CONTINUOUS
  0
LAYER
  2
88
 70
     0
 62
     7
  6
CONTINUOUS
  0
LAYER
  2
89
 70
     0
 62
     7
  6
CONTINUOUS
  0
LAYER
  2
90
 70
     0
 62
     7
  6
CONTINUOUS
  0
LAYER
  2
91
 70
     0
 62
     7
  6
CONTINUOUS
  0
LAYER
  2
92
 70
     0
 62
     7
  6
CONTINUOUS
  0
LAYER
  2
93
 70
     0
 62
     7
  6
CONTINUOUS
  0
LAYER
  2
94
 70
     0
 62
     7
  6
CONTINUOUS
  0
LAYER
  2
95
 70
     0
 62
     7
  6
CONTINUOUS
  0
LAYER
  2
96
 70
     0
 62
     7
  6
CONTINUOUS
  0
LAYER
  2
97
 70
     0
 62
     7
  6
CONTINUOUS
  0
LAYER
  2
98
 70
     0
 62
     7
  6
CONTINUOUS
  0
LAYER
  2
99
 70
     0
 62
     7
  6
CONTINUOUS
  0
LAYER
  2
100
 70
     0
 62
     7
  6
CONTINUOUS
  0
LAYER
  2
101
 70
     0
 62
     7
  6
CONTINUOUS
  0
LAYER
  2
102
 70
     0
 62
     7
  6
CONTINUOUS
  0
LAYER
  2
103
 70
     0
 62
     7
  6
CONTINUOUS
  0
LAYER
  2
104
 70
     0
 62
     7
  6
CONTINUOUS
  0
LAYER
  2
105
 70
     0
 62
     7
  6
CONTINUOUS
  0
LAYER
  2
106
 70
     0
 62
     7
  6
CONTINUOUS
  0
LAYER
  2
107
 70
     0
 62
     7
  6
CONTINUOUS
  0
LAYER
  2
108
 70
     0
 62
     7
  6
CONTINUOUS
  0
LAYER
  2
109
 70
     0
 62
     7
  6
CONTINUOUS
  0
LAYER
  2
110
 70
     0
 62
     7
  6
CONTINUOUS
  0
LAYER
  2
111
 70
     0
 62
     7
  6
CONTINUOUS
  0
LAYER
  2
112
 70
     0
 62
     7
  6
CONTINUOUS
  0
LAYER
  2
113
 70
     0
 62
     7
  6
CONTINUOUS
  0
LAYER
  2
114
 70
     0
 62
     7
  6
CONTINUOUS
  0
LAYER
  2
115
 70
     0
 62
     7
  6
CONTINUOUS
  0
LAYER
  2
116
 70
     0
 62
     7
  6
CONTINUOUS
  0
LAYER
  2
117
 70
     0
 62
     7
  6
CONTINUOUS
  0
LAYER
  2
118
 70
     0
 62
     7
  6
CONTINUOUS
  0
LAYER
  2
119
 70
     0
 62
     7
  6
CONTINUOUS
  0
LAYER
  2
120
 70
     0
 62
     7
  6
CONTINUOUS
  0
LAYER
  2
121
 70
     0
 62
     7
  6
CONTINUOUS
  0
LAYER
  2
122
 70
     0
 62
     7
  6
CONTINUOUS
  0
LAYER
  2
123
 70
     0
 62
     7
  6
CONTINUOUS
  0
LAYER
  2
124
 70
     0
 62
     7
  6
CONTINUOUS
  0
LAYER
  2
125
 70
     0
 62
     7
  6
CONTINUOUS
  0
LAYER
  2
126
 70
     0
 62
     7
  6
CONTINUOUS
  0
LAYER
  2
127
 70
     0
 62
     7
  6
CONTINUOUS
  0
LAYER
  2
128
 70
     0
 62
     7
  6
CONTINUOUS
  0
ENDTAB
  0
TABLE
  2
STYLE
 70
     8
  0
STYLE
  2
STANDARD
 70
     0
 40
0.0
 41
1.0
 50
0.0
 71
     0
 42
0.2
  3
txt.shx
  4
extfont.shx
  0
STYLE
  2
KANJI0
 70
     0
 40
3.0
 41
0.6
 50
0.0
 71
     0
 42
3.0
  3
txt.shx
  4
extfont.shx
  0
STYLE
  2
KANJI1
 70
     0
 40
1.8
 41
0.6
 50
0.0
 71
     0
 42
1.8
  3
txt.shx
  4
extfont.shx
  0
STYLE
  2
KANJI2
 70
     0
 40
3.0
 41
0.833333333
 50
0.0
 71
     0
 42
3.0
  3
txt.shx
  4
extfont.shx
  0
STYLE
  2
KANJI3
 70
     0
 40
3.0
 41
0.9
 50
0.0
 71
     0
 42
3.0
  3
txt.shx
  4
extfont.shx
  0
STYLE
  2
KANJI4
 70
     0
 40
4.0
 41
0.9
 50
0.0
 71
     0
 42
4.0
  3
txt.shx
  4
extfont.shx
  0
STYLE
  2
KANJI5
 70
     0
 40
5.0
 41
0.9
 50
0.0
 71
     0
 42
5.0
  3
txt.shx
  4
extfont.shx
  0
STYLE
  2
KANJI6
 70
     0
 40
6.0
 41
0.9
 50
0.0
 71
     0
 42
6.0
  3
txt.shx
  4
extfont.shx
  0
ENDTAB
  0
TABLE
  2
VIEW
 70
     0
  0
ENDTAB
  0
ENDSEC
  0
SECTION
  2
BLOCKS
  0
ENDSEC
  0
SECTION
  2
ENTITIES
  0
CIRCLE
  8
0
  6
CONTINUOUS
 62
     1
 10
39.0
 20
129.0
 30
0.0
 40
18.75
  0
CIRCLE
  8
0
  6
CONTINUOUS
 62
     1
 10
39.0
 20
129.0
 30
0.0
 40
3.0
  0
LINE
  8
0
  6
CONTINUOUS
 62
     1
 10
26.138342919
 20
122.304645108
 30
0.0
 11
27.03447535
 21
122.207451151
 31
0.0
  0
LINE
  8
0
  6
CONTINUOUS
 62
     1
 10
26.138342919
 20
122.304645108
 30
0.0
 11
26.572726737
 21
123.094461985
 31
0.0
  0
LINE
  8
0
  6
CONTINUOUS
 62
     1
 10
26.572726737
 20
123.094461985
 30
0.0
 11
32.001107291
 21
126.202143526
 31
0.0
  0
LINE
  8
0
  6
CONTINUOUS
 62
     1
 10
32.693730211
 20
124.871627276
 30
0.0
 11
27.03447535
 21
122.207451151
 31
0.0
  0
LINE
  8
0
  6
CONTINUOUS
 62
     1
 10
36.65
 20
129.45
 30
0.0
 11
41.35
 21
129.45
 31
0.0
  0
LINE
  8
0
  6
CONTINUOUS
 62
     1
 10
41.35
 20
128.6
 30
0.0
 11
36.65
 21
128.6
 31
0.0
  0
CIRCLE
  8
0
  6
CONTINUOUS
 62
     1
 10
39.0
 20
129.0
 30
0.0
 40
2.4
  0
ARC
  8
0
  6
CONTINUOUS
 62
     1
 10
21.0
 20
147.0
 30
0.0
 40
2.0
 50
90.0
 51
180.0
  0
LINE
  8
0
  6
CONTINUOUS
 62
     1
 10
57.0
 20
149.0
 30
0.0
 11
21.0
 21
149.0
 31
0.0
  0
ARC
  8
0
  6
CONTINUOUS
 62
     1
 10
57.0
 20
147.0
 30
0.0
 40
2.0
 50
0.0
 51
90.0
  0
LINE
  8
0
  6
CONTINUOUS
 62
     1
 10
59.0
 20
111.0
 30
0.0
 11
59.0
 21
147.0
 31
0.0
  0
ARC
  8
0
  6
CONTINUOUS
 62
     1
 10
57.0
 20
111.0
 30
0.0
 40
2.0
 50
270.0
 51
0.0
  0
LINE
  8
0
  6
CONTINUOUS
 62
     1
 10
19.0
 20
147.0
 30
0.0
 11
19.0
 21
111.0
 31
0.0
  0
LINE
  8
0
  6
CONTINUOUS
 62
     1
 10
21.0
 20
109.0
 30
0.0
 11
57.0
 21
109.0
 31
0.0
  0
ARC
  8
0
  6
CONTINUOUS
 62
     1
 10
21.0
 20
111.0
 30
0.0
 40
2.0
 50
180.0
 51
270.0
  0
LINE
  8
0
  6
CONTINUOUS
 62
     1
 10
89.0
 20
109.0
 30
0.0
 11
89.0
 21
149.0
 31
0.0
  0
LINE
  8
0
  6
CONTINUOUS
 62
     1
 10
86.5
 20
109.0
 30
0.0
 11
89.0
 21
109.0
 31
0.0
  0
ARC
  8
0
  6
CONTINUOUS
 62
     1
 10
86.5
 20
110.0
 30
0.0
 40
1.0
 50
180.0
 51
270.0
  0
LINE
  8
0
  6
CONTINUOUS
 62
     1
 10
89.0
 20
149.0
 30
0.0
 11
86.5
 21
149.0
 31
0.0
  0
LINE
  8
0
  6
CONTINUOUS
 62
     1
 10
85.5
 20
148.0
 30
0.0
 11
85.5
 21
110.0
 31
0.0
  0
ARC
  8
0
  6
CONTINUOUS
 62
     1
 10
86.5
 20
148.0
 30
0.0
 40
1.0
 50
90.0
 51
180.0
  0
LINE
  8
0
  6
CONTINUOUS
 62
     1
 10
81.5
 20
131.4
 30
0.0
 11
81.5
 21
126.6
 31
0.0
  0
LINE
  8
0
  6
CONTINUOUS
 62
     1
 10
80.8
 20
129.45
 30
0.0
 11
81.5
 21
129.45
 31
0.0
  0
LINE
  8
0
  6
CONTINUOUS
 62
     1
 10
80.8
 20
128.6
 30
0.0
 11
81.5
 21
128.6
 31
0.0
  0
LINE
  8
0
  6
CONTINUOUS
 62
     1
 10
81.5
 20
131.4
 30
0.0
 11
81.5
 21
131.75
 31
0.0
  0
ARC
  8
0
  6
CONTINUOUS
 62
     1
 10
81.75
 20
131.75
 30
0.0
 40
0.25
 50
90.0
 51
180.0
  0
LINE
  8
0
  6
CONTINUOUS
 62
     1
 10
81.5
 20
126.6
 30
0.0
 11
81.5
 21
126.25
 31
0.0
  0
ARC
  8
0
  6
CONTINUOUS
 62
     1
 10
81.75
 20
126.25
 30
0.0
 40
0.25
 50
180.0
 51
270.0
  0
LINE
  8
0
  6
CONTINUOUS
 62
     1
 10
81.75
 20
126.0
 30
0.0
 11
81.9
 21
126.0
 31
0.0
  0
ARC
  8
0
  6
CONTINUOUS
 62
     1
 10
81.9
 20
126.1
 30
0.0
 40
0.1
 50
270.0
 51
0.0
  0
LINE
  8
0
  6
CONTINUOUS
 62
     1
 10
81.9
 20
132.0
 30
0.0
 11
81.75
 21
132.0
 31
0.0
  0
LINE
  8
0
  6
CONTINUOUS
 62
     1
 10
82.0
 20
126.1
 30
0.0
 11
82.0
 21
131.9
 31
0.0
  0
ARC
  8
0
  6
CONTINUOUS
 62
     1
 10
81.9
 20
131.9
 30
0.0
 40
0.1
 50
0.0
 51
90.0
  0
ARC
  8
0
  6
CONTINUOUS
 62
     1
 10
85.25
 20
129.0
 30
0.0
 40
4.5
 50
185.07960786
 51
212.619243071
  0
ARC
  8
0
  6
CONTINUOUS
 62
     1
 10
85.25
 20
129.0
 30
0.0
 40
4.5
 50
147.380756929
 51
174.289406862
  0
LINE
  8
0
  6
CONTINUOUS
 62
     1
 10
82.35
 20
126.75
 30
0.0
 11
82.05
 21
126.75
 31
0.0
  0
LINE
  8
0
  6
CONTINUOUS
 62
     1
 10
82.35
 20
131.3
 30
0.0
 11
82.05
 21
131.3
 31
0.0
  0
LINE
  8
0
  6
CONTINUOUS
 62
     1
 10
82.35
 20
131.3
 30
0.0
 11
82.35
 21
126.75
 31
0.0
  0
LINE
  8
0
  6
CONTINUOUS
 62
     1
 10
85.5
 20
147.75
 30
0.0
 11
83.961266683
 21
147.75
 31
0.0
  0
LINE
  8
0
  6
CONTINUOUS
 62
     1
 10
82.35
 20
131.3
 30
0.0
 11
82.962046435
 21
146.789482867
 31
0.0
  0
ARC
  8
0
  6
CONTINUOUS
 62
     1
 10
83.961266683
 20
146.75
 30
0.0
 40
1.0
 50
90.0
 51
177.737210193
  0
LINE
  8
0
  6
CONTINUOUS
 62
     1
 10
85.5
 20
110.25
 30
0.0
 11
83.961381701
 21
110.25
 31
0.0
  0
LINE
  8
0
  6
CONTINUOUS
 62
     1
 10
82.35
 20
126.75
 30
0.0
 11
82.96215674
 21
111.210636592
 31
0.0
  0
ARC
  8
0
  6
CONTINUOUS
 62
     1
 10
83.961381701
 20
111.25
 30
0.0
 40
1.0
 50
182.255939964
 51
270.0
  0
LINE
  8
0
  6
CONTINUOUS
 62
     1
 10
89.0
 20
147.5
 30
0.0
 11
89.25
 21
147.5
 31
0.0
  0
LINE
  8
0
  6
CONTINUOUS
 62
     1
 10
89.25
 20
147.5
 30
0.0
 11
89.25
 21
142.5
 31
0.0
  0
LINE
  8
0
  6
CONTINUOUS
 62
     1
 10
89.25
 20
142.5
 30
0.0
 11
89.0
 21
142.5
 31
0.0
  0
POINT
  8
0
  6
CONTINUOUS
 62
     1
 10
89.0
 20
110.5
 30
0.0
  0
LINE
  8
0
  6
CONTINUOUS
 62
     1
 10
89.0
 20
110.5
 30
0.0
 11
89.25
 21
110.5
 31
0.0
  0
LINE
  8
0
  6
CONTINUOUS
 62
     1
 10
89.25
 20
110.5
 30
0.0
 11
89.25
 21
115.5
 31
0.0
  0
LINE
  8
0
  6
CONTINUOUS
 62
     1
 10
89.25
 20
115.5
 30
0.0
 11
89.0
 21
115.5
 31
0.0
  0
ARC
  8
0
  6
CONTINUOUS
 62
     1
 10
85.45834
 20
146.20814
 30
0.0
 40
0.04166
 50
0.0
 51
90.0
  0
LINE
  8
0
  6
CONTINUOUS
 62
     1
 10
85.5
 20
143.79186
 30
0.0
 11
85.5
 21
146.20814
 31
0.0
  0
ARC
  8
0
  6
CONTINUOUS
 62
     1
 10
85.45834
 20
143.79186
 30
0.0
 40
0.04166
 50
270.0
 51
0.0
  0
LINE
  8
0
  6
CONTINUOUS
 62
     1
 10
85.0834
 20
143.7502
 30
0.0
 11
85.45834
 21
143.7502
 31
0.0
  0
ARC
  8
0
  6
CONTINUOUS
 62
     1
 10
85.0834
 20
143.83352
 30
0.0
 40
0.08332
 50
180.0
 51
270.0
  0
LINE
  8
0
  6
CONTINUOUS
 62
     1
 10
85.45834
 20
146.2498
 30
0.0
 11
85.0834
 21
146.2498
 31
0.0
  0
ARC
  8
0
  6
CONTINUOUS
 62
     1
 10
85.0834
 20
146.16648
 30
0.0
 40
0.08332
 50
90.0
 51
180.0
  0
LINE
  8
0
  6
CONTINUOUS
 62
     1
 10
85.04174
 20
143.770336245
 30
0.0
 11
85.04174
 21
146.217861245
 31
0.0
  0
LINE
  8
0
  6
CONTINUOUS
 62
     1
 10
84.70846
 20
144.89585
 30
0.0
 11
84.79178
 21
144.89585
 31
0.0
  0
LINE
  8
0
  6
CONTINUOUS
 62
     1
 10
84.79178
 20
144.89585
 30
0.0
 11
84.79178
 21
145.10415
 31
0.0
  0
LINE
  8
0
  6
CONTINUOUS
 62
     1
 10
84.79178
 20
145.10415
 30
0.0
 11
84.70846
 21
145.10415
 31
0.0
  0
ARC
  8
0
  6
CONTINUOUS
 62
     1
 10
87.20806
 20
145.0
 30
0.0
 40
2.4996
 50
151.294758009
 51
177.611984537
  0
ARC
  8
0
  6
CONTINUOUS
 62
     1
 10
87.20806
 20
145.0
 30
0.0
 40
2.4996
 50
182.388015463
 51
208.942689997
  0
ARC
  8
0
  6
CONTINUOUS
 62
     1
 10
85.45834
 20
114.20814
 30
0.0
 40
0.04166
 50
0.0
 51
90.0
  0
LINE
  8
0
  6
CONTINUOUS
 62
     1
 10
85.5
 20
111.79186
 30
0.0
 11
85.5
 21
114.20814
 31
0.0
  0
ARC
  8
0
  6
CONTINUOUS
 62
     1
 10
85.45834
 20
111.79186
 30
0.0
 40
0.04166
 50
270.0
 51
0.0
  0
LINE
  8
0
  6
CONTINUOUS
 62
     1
 10
85.0834
 20
111.7502
 30
0.0
 11
85.45834
 21
111.7502
 31
0.0
  0
ARC
  8
0
  6
CONTINUOUS
 62
     1
 10
85.0834
 20
111.83352
 30
0.0
 40
0.08332
 50
180.0
 51
270.0
  0
LINE
  8
0
  6
CONTINUOUS
 62
     1
 10
85.45834
 20
114.2498
 30
0.0
 11
85.0834
 21
114.2498
 31
0.0
  0
ARC
  8
0
  6
CONTINUOUS
 62
     1
 10
85.0834
 20
114.16648
 30
0.0
 40
0.08332
 50
90.0
 51
180.0
  0
LINE
  8
0
  6
CONTINUOUS
 62
     1
 10
85.04174
 20
111.770336245
 30
0.0
 11
85.04174
 21
114.217861245
 31
0.0
  0
LINE
  8
0
  6
CONTINUOUS
 62
     1
 10
84.70846
 20
112.89585
 30
0.0
 11
84.79178
 21
112.89585
 31
0.0
  0
LINE
  8
0
  6
CONTINUOUS
 62
     1
 10
84.79178
 20
112.89585
 30
0.0
 11
84.79178
 21
113.10415
 31
0.0
  0
LINE
  8
0
  6
CONTINUOUS
 62
     1
 10
84.79178
 20
113.10415
 30
0.0
 11
84.70846
 21
113.10415
 31
0.0
  0
ARC
  8
0
  6
CONTINUOUS
 62
     1
 10
87.20806
 20
113.0
 30
0.0
 40
2.4996
 50
151.294758009
 51
177.611984537
  0
ARC
  8
0
  6
CONTINUOUS
 62
     1
 10
87.20806
 20
113.0
 30
0.0
 40
2.4996
 50
182.388015463
 51
208.942689997
  0
CIRCLE
  8
0
  6
CONTINUOUS
 62
     1
 10
55.0
 20
113.0
 30
0.0
 40
1.2
  0
LINE
  8
0
  6
CONTINUOUS
 62
     1
 10
54.3
 20
113.16
 30
0.0
 11
54.68
 21
113.16
 31
0.0
  0
ARC
  8
0
  6
CONTINUOUS
 62
     1
 10
54.68
 20
113.32
 30
0.0
 40
0.16
 50
270.0
 51
0.0
  0
LINE
  8
0
  6
CONTINUOUS
 62
     1
 10
54.84
 20
113.32
 30
0.0
 11
54.84
 21
113.7
 31
0.0
  0
LINE
  8
0
  6
CONTINUOUS
 62
     1
 10
54.84
 20
113.7
 30
0.0
 11
55.16
 21
113.7
 31
0.0
  0
LINE
  8
0
  6
CONTINUOUS
 62
     1
 10
55.16
 20
113.7
 30
0.0
 11
55.16
 21
113.32
 31
0.0
  0
ARC
  8
0
  6
CONTINUOUS
 62
     1
 10
55.32
 20
113.32
 30
0.0
 40
0.16
 50
180.0
 51
270.0
  0
LINE
  8
0
  6
CONTINUOUS
 62
     1
 10
55.32
 20
113.16
 30
0.0
 11
55.7
 21
113.16
 31
0.0
  0
LINE
  8
0
  6
CONTINUOUS
 62
     1
 10
55.7
 20
113.16
 30
0.0
 11
55.7
 21
112.84
 31
0.0
  0
LINE
  8
0
  6
CONTINUOUS
 62
     1
 10
55.7
 20
112.84
 30
0.0
 11
55.32
 21
112.84
 31
0.0
  0
ARC
  8
0
  6
CONTINUOUS
 62
     1
 10
55.32
 20
112.68
 30
0.0
 40
0.16
 50
90.0
 51
180.0
  0
LINE
  8
0
  6
CONTINUOUS
 62
     1
 10
55.16
 20
112.68
 30
0.0
 11
55.16
 21
112.3
 31
0.0
  0
LINE
  8
0
  6
CONTINUOUS
 62
     1
 10
55.16
 20
112.3
 30
0.0
 11
54.84
 21
112.3
 31
0.0
  0
LINE
  8
0
  6
CONTINUOUS
 62
     1
 10
54.84
 20
112.3
 30
0.0
 11
54.84
 21
112.68
 31
0.0
  0
ARC
  8
0
  6
CONTINUOUS
 62
     1
 10
54.68
 20
112.68
 30
0.0
 40
0.16
 50
0.0
 51
90.0
  0
LINE
  8
0
  6
CONTINUOUS
 62
     1
 10
54.68
 20
112.84
 30
0.0
 11
54.3
 21
112.84
 31
0.0
  0
LINE
  8
0
  6
CONTINUOUS
 62
     1
 10
54.3
 20
112.84
 30
0.0
 11
54.3
 21
113.16
 31
0.0
  0
CIRCLE
  8
0
  6
CONTINUOUS
 62
     1
 10
55.0
 20
145.0
 30
0.0
 40
1.2
  0
LINE
  8
0
  6
CONTINUOUS
 62
     1
 10
54.3
 20
145.16
 30
0.0
 11
54.68
 21
145.16
 31
0.0
  0
ARC
  8
0
  6
CONTINUOUS
 62
     1
 10
54.68
 20
145.32
 30
0.0
 40
0.16
 50
270.0
 51
0.0
  0
LINE
  8
0
  6
CONTINUOUS
 62
     1
 10
54.84
 20
145.32
 30
0.0
 11
54.84
 21
145.7
 31
0.0
  0
LINE
  8
0
  6
CONTINUOUS
 62
     1
 10
54.84
 20
145.7
 30
0.0
 11
55.16
 21
145.7
 31
0.0
  0
LINE
  8
0
  6
CONTINUOUS
 62
     1
 10
55.16
 20
145.7
 30
0.0
 11
55.16
 21
145.32
 31
0.0
  0
ARC
  8
0
  6
CONTINUOUS
 62
     1
 10
55.32
 20
145.32
 30
0.0
 40
0.16
 50
180.0
 51
270.0
  0
LINE
  8
0
  6
CONTINUOUS
 62
     1
 10
55.32
 20
145.16
 30
0.0
 11
55.7
 21
145.16
 31
0.0
  0
LINE
  8
0
  6
CONTINUOUS
 62
     1
 10
55.7
 20
145.16
 30
0.0
 11
55.7
 21
144.84
 31
0.0
  0
LINE
  8
0
  6
CONTINUOUS
 62
     1
 10
55.7
 20
144.84
 30
0.0
 11
55.32
 21
144.84
 31
0.0
  0
ARC
  8
0
  6
CONTINUOUS
 62
     1
 10
55.32
 20
144.68
 30
0.0
 40
0.16
 50
90.0
 51
180.0
  0
LINE
  8
0
  6
CONTINUOUS
 62
     1
 10
55.16
 20
144.68
 30
0.0
 11
55.16
 21
144.3
 31
0.0
  0
LINE
  8
0
  6
CONTINUOUS
 62
     1
 10
55.16
 20
144.3
 30
0.0
 11
54.84
 21
144.3
 31
0.0
  0
LINE
  8
0
  6
CONTINUOUS
 62
     1
 10
54.84
 20
144.3
 30
0.0
 11
54.84
 21
144.68
 31
0.0
  0
ARC
  8
0
  6
CONTINUOUS
 62
     1
 10
54.68
 20
144.68
 30
0.0
 40
0.16
 50
0.0
 51
90.0
  0
LINE
  8
0
  6
CONTINUOUS
 62
     1
 10
54.68
 20
144.84
 30
0.0
 11
54.3
 21
144.84
 31
0.0
  0
LINE
  8
0
  6
CONTINUOUS
 62
     1
 10
54.3
 20
144.84
 30
0.0
 11
54.3
 21
145.16
 31
0.0
  0
CIRCLE
  8
0
  6
CONTINUOUS
 62
     1
 10
23.0
 20
145.0
 30
0.0
 40
1.2
  0
LINE
  8
0
  6
CONTINUOUS
 62
     1
 10
22.3
 20
145.16
 30
0.0
 11
22.68
 21
145.16
 31
0.0
  0
ARC
  8
0
  6
CONTINUOUS
 62
     1
 10
22.68
 20
145.32
 30
0.0
 40
0.16
 50
270.0
 51
0.0
  0
LINE
  8
0
  6
CONTINUOUS
 62
     1
 10
22.84
 20
145.32
 30
0.0
 11
22.84
 21
145.7
 31
0.0
  0
LINE
  8
0
  6
CONTINUOUS
 62
     1
 10
22.84
 20
145.7
 30
0.0
 11
23.16
 21
145.7
 31
0.0
  0
LINE
  8
0
  6
CONTINUOUS
 62
     1
 10
23.16
 20
145.7
 30
0.0
 11
23.16
 21
145.32
 31
0.0
  0
ARC
  8
0
  6
CONTINUOUS
 62
     1
 10
23.32
 20
145.32
 30
0.0
 40
0.16
 50
180.0
 51
270.0
  0
LINE
  8
0
  6
CONTINUOUS
 62
     1
 10
23.32
 20
145.16
 30
0.0
 11
23.7
 21
145.16
 31
0.0
  0
LINE
  8
0
  6
CONTINUOUS
 62
     1
 10
23.7
 20
145.16
 30
0.0
 11
23.7
 21
144.84
 31
0.0
  0
LINE
  8
0
  6
CONTINUOUS
 62
     1
 10
23.7
 20
144.84
 30
0.0
 11
23.32
 21
144.84
 31
0.0
  0
ARC
  8
0
  6
CONTINUOUS
 62
     1
 10
23.32
 20
144.68
 30
0.0
 40
0.16
 50
90.0
 51
180.0
  0
LINE
  8
0
  6
CONTINUOUS
 62
     1
 10
23.16
 20
144.68
 30
0.0
 11
23.16
 21
144.3
 31
0.0
  0
LINE
  8
0
  6
CONTINUOUS
 62
     1
 10
23.16
 20
144.3
 30
0.0
 11
22.84
 21
144.3
 31
0.0
  0
LINE
  8
0
  6
CONTINUOUS
 62
     1
 10
22.84
 20
144.3
 30
0.0
 11
22.84
 21
144.68
 31
0.0
  0
ARC
  8
0
  6
CONTINUOUS
 62
     1
 10
22.68
 20
144.68
 30
0.0
 40
0.16
 50
0.0
 51
90.0
  0
LINE
  8
0
  6
CONTINUOUS
 62
     1
 10
22.68
 20
144.84
 30
0.0
 11
22.3
 21
144.84
 31
0.0
  0
LINE
  8
0
  6
CONTINUOUS
 62
     1
 10
22.3
 20
144.84
 30
0.0
 11
22.3
 21
145.16
 31
0.0
  0
CIRCLE
  8
0
  6
CONTINUOUS
 62
     1
 10
23.0
 20
113.0
 30
0.0
 40
1.2
  0
LINE
  8
0
  6
CONTINUOUS
 62
     1
 10
22.3
 20
113.16
 30
0.0
 11
22.68
 21
113.16
 31
0.0
  0
ARC
  8
0
  6
CONTINUOUS
 62
     1
 10
22.68
 20
113.32
 30
0.0
 40
0.16
 50
270.0
 51
0.0
  0
LINE
  8
0
  6
CONTINUOUS
 62
     1
 10
22.84
 20
113.32
 30
0.0
 11
22.84
 21
113.7
 31
0.0
  0
LINE
  8
0
  6
CONTINUOUS
 62
     1
 10
22.84
 20
113.7
 30
0.0
 11
23.16
 21
113.7
 31
0.0
  0
LINE
  8
0
  6
CONTINUOUS
 62
     1
 10
23.16
 20
113.7
 30
0.0
 11
23.16
 21
113.32
 31
0.0
  0
ARC
  8
0
  6
CONTINUOUS
 62
     1
 10
23.32
 20
113.32
 30
0.0
 40
0.16
 50
180.0
 51
270.0
  0
LINE
  8
0
  6
CONTINUOUS
 62
     1
 10
23.32
 20
113.16
 30
0.0
 11
23.7
 21
113.16
 31
0.0
  0
LINE
  8
0
  6
CONTINUOUS
 62
     1
 10
23.7
 20
113.16
 30
0.0
 11
23.7
 21
112.84
 31
0.0
  0
LINE
  8
0
  6
CONTINUOUS
 62
     1
 10
23.7
 20
112.84
 30
0.0
 11
23.32
 21
112.84
 31
0.0
  0
ARC
  8
0
  6
CONTINUOUS
 62
     1
 10
23.32
 20
112.68
 30
0.0
 40
0.16
 50
90.0
 51
180.0
  0
LINE
  8
0
  6
CONTINUOUS
 62
     1
 10
23.16
 20
112.68
 30
0.0
 11
23.16
 21
112.3
 31
0.0
  0
LINE
  8
0
  6
CONTINUOUS
 62
     1
 10
23.16
 20
112.3
 30
0.0
 11
22.84
 21
112.3
 31
0.0
  0
LINE
  8
0
  6
CONTINUOUS
 62
     1
 10
22.84
 20
112.3
 30
0.0
 11
22.84
 21
112.68
 31
0.0
  0
ARC
  8
0
  6
CONTINUOUS
 62
     1
 10
22.68
 20
112.68
 30
0.0
 40
0.16
 50
0.0
 51
90.0
  0
LINE
  8
0
  6
CONTINUOUS
 62
     1
 10
22.68
 20
112.84
 30
0.0
 11
22.3
 21
112.84
 31
0.0
  0
LINE
  8
0
  6
CONTINUOUS
 62
     1
 10
22.3
 20
112.84
 30
0.0
 11
22.3
 21
113.16
 31
0.0
  0
LINE
  8
0
  6
CONTINUOUS
 62
     1
 10
96.75
 20
112.2866845
 30
0.0
 11
96.75
 21
112.0866895
 31
0.0
  0
LINE
  8
0
  6
CONTINUOUS
 62
     1
 10
95.350035
 20
110.9733825
 30
0.0
 11
95.616695
 21
111.2400425
 31
0.0
  0
LINE
  8
0
  6
CONTINUOUS
 62
     1
 10
95.350035
 20
110.9733825
 30
0.0
 11
94.016735
 21
110.9733825
 31
0.0
  0
LINE
  8
0
  6
CONTINUOUS
 62
     1
 10
95.350035
 20
115.1066125
 30
0.0
 11
95.616695
 21
114.8399525
 31
0.0
  0
LINE
  8
0
  6
CONTINUOUS
 62
     1
 10
95.3167025
 20
114.00664
 30
0.0
 11
95.5833625
 21
114.2733
 31
0.0
  0
LINE
  8
0
  6
CONTINUOUS
 62
     1
 10
95.5833625
 20
113.73998
 30
0.0
 11
95.3167025
 21
114.00664
 31
0.0
  0
LINE
  8
0
  6
CONTINUOUS
 62
     1
 10
94.016735
 20
114.00664
 30
0.0
 11
95.3167025
 21
114.00664
 31
0.0
  0
LINE
  8
0
  6
CONTINUOUS
 62
     1
 10
95.616695
 20
114.0399725
 30
0.0
 11
96.75
 21
114.0399725
 31
0.0
  0
LINE
  8
0
  6
CONTINUOUS
 62
     1
 10
96.723334
 20
113.806645
 30
0.0
 11
95.643361
 21
113.806645
 31
0.0
  0
LINE
  8
0
  6
CONTINUOUS
 62
     1
 10
94.016735
 20
115.1066125
 30
0.0
 11
95.350035
 21
115.1066125
 31
0.0
  0
LINE
  8
0
  6
CONTINUOUS
 62
     1
 10
96.75
 20
112.2266845
 30
0.0
 11
96.75
 21
112.0266895
 31
0.0
  0
LINE
  8
0
  6
CONTINUOUS
 62
     1
 10
95.643361
 20
112.206685
 30
0.0
 11
96.723334
 21
112.206685
 31
0.0
  0
LINE
  8
0
  6
CONTINUOUS
 62
     1
 10
94.016735
 20
110.9733825
 30
0.0
 11
94.016735
 21
115.1066125
 31
0.0
  0
LINE
  8
0
  6
CONTINUOUS
 62
     1
 10
95.616695
 20
114.8399525
 30
0.0
 11
95.616695
 21
111.2400425
 31
0.0
  0
LINE
  8
0
  6
CONTINUOUS
 62
     1
 10
96.75
 20
114.0399725
 30
0.0
 11
96.75
 21
112.2266845
 31
0.0
  0
LINE
  8
0
  6
CONTINUOUS
 62
     1
 10
95.616735
 20
112.00669
 30
0.0
 11
96.746735
 21
112.00669
 31
0.0
  0
LINE
  8
0
  6
CONTINUOUS
 62
     1
 10
95.3167025
 20
112.00669
 30
0.0
 11
95.5833625
 21
112.27335
 31
0.0
  0
LINE
  8
0
  6
CONTINUOUS
 62
     1
 10
95.5833625
 20
111.74003
 30
0.0
 11
95.3167025
 21
112.00669
 31
0.0
  0
LINE
  8
0
  6
CONTINUOUS
 62
     1
 10
94.016735
 20
112.00669
 30
0.0
 11
95.3167025
 21
112.00669
 31
0.0
  0
LINE
  8
0
  6
CONTINUOUS
 62
     1
 10
95.350035
 20
142.9733825
 30
0.0
 11
95.616695
 21
143.2400425
 31
0.0
  0
LINE
  8
0
  6
CONTINUOUS
 62
     1
 10
95.350035
 20
142.9733825
 30
0.0
 11
94.016735
 21
142.9733825
 31
0.0
  0
LINE
  8
0
  6
CONTINUOUS
 62
     1
 10
95.350035
 20
147.1066125
 30
0.0
 11
95.616695
 21
146.8399525
 31
0.0
  0
LINE
  8
0
  6
CONTINUOUS
 62
     1
 10
95.3167025
 20
146.00664
 30
0.0
 11
95.5833625
 21
146.2733
 31
0.0
  0
LINE
  8
0
  6
CONTINUOUS
 62
     1
 10
95.5833625
 20
145.73998
 30
0.0
 11
95.3167025
 21
146.00664
 31
0.0
  0
LINE
  8
0
  6
CONTINUOUS
 62
     1
 10
94.016735
 20
146.00664
 30
0.0
 11
95.3167025
 21
146.00664
 31
0.0
  0
LINE
  8
0
  6
CONTINUOUS
 62
     1
 10
95.616695
 20
146.0399725
 30
0.0
 11
96.75
 21
146.0399725
 31
0.0
  0
LINE
  8
0
  6
CONTINUOUS
 62
     1
 10
96.723334
 20
145.806645
 30
0.0
 11
95.643361
 21
145.806645
 31
0.0
  0
LINE
  8
0
  6
CONTINUOUS
 62
     1
 10
94.016735
 20
147.1066125
 30
0.0
 11
95.350035
 21
147.1066125
 31
0.0
  0
LINE
  8
0
  6
CONTINUOUS
 62
     1
 10
96.75
 20
144.2266845
 30
0.0
 11
96.75
 21
144.0266895
 31
0.0
  0
LINE
  8
0
  6
CONTINUOUS
 62
     1
 10
95.643361
 20
144.206685
 30
0.0
 11
96.723334
 21
144.206685
 31
0.0
  0
LINE
  8
0
  6
CONTINUOUS
 62
     1
 10
94.016735
 20
142.9733825
 30
0.0
 11
94.016735
 21
147.1066125
 31
0.0
  0
LINE
  8
0
  6
CONTINUOUS
 62
     1
 10
95.616695
 20
146.8399525
 30
0.0
 11
95.616695
 21
143.2400425
 31
0.0
  0
LINE
  8
0
  6
CONTINUOUS
 62
     1
 10
96.75
 20
146.0399725
 30
0.0
 11
96.75
 21
144.2266845
 31
0.0
  0
LINE
  8
0
  6
CONTINUOUS
 62
     1
 10
95.616735
 20
144.00669
 30
0.0
 11
96.746735
 21
144.00669
 31
0.0
  0
LINE
  8
0
  6
CONTINUOUS
 62
     1
 10
95.3167025
 20
144.00669
 30
0.0
 11
95.5833625
 21
144.27335
 31
0.0
  0
LINE
  8
0
  6
CONTINUOUS
 62
     1
 10
95.5833625
 20
143.74003
 30
0.0
 11
95.3167025
 21
144.00669
 31
0.0
  0
LINE
  8
0
  6
CONTINUOUS
 62
     1
 10
94.016735
 20
144.00669
 30
0.0
 11
95.3167025
 21
144.00669
 31
0.0
  0
LINE
  8
0
  6
CONTINUOUS
 62
     1
 10
107.75
 20
112.75
 30
0.0
 11
96.75
 21
112.75
 31
0.0
  0
ARC
  8
0
  6
CONTINUOUS
 62
     1
 10
107.75
 20
113.25
 30
0.0
 40
0.5
 50
270.0
 51
0.0
  0
LINE
  8
0
  6
CONTINUOUS
 62
     1
 10
96.75
 20
145.25
 30
0.0
 11
107.75
 21
145.25
 31
0.0
  0
LINE
  8
0
  6
CONTINUOUS
 62
     1
 10
108.25
 20
144.75
 30
0.0
 11
108.25
 21
113.25
 31
0.0
  0
ARC
  8
0
  6
CONTINUOUS
 62
     1
 10
107.75
 20
144.75
 30
0.0
 40
0.5
 50
0.0
 51
90.0
  0
CIRCLE
  8
0
  6
CONTINUOUS
 62
     2
 10
39.0
 20
129.0
 30
0.0
 40
7.5
  0
CIRCLE
  8
0
  6
CONTINUOUS
 62
     2
 10
39.0
 20
129.0
 30
0.0
 40
7.0
  0
CIRCLE
  8
0
  6
CONTINUOUS
 62
     2
 10
39.0
 20
129.0
 30
0.0
 40
6.5
  0
CIRCLE
  8
0
  6
CONTINUOUS
 62
     2
 10
39.0
 20
129.0
 30
0.0
 40
6.0
  0
CIRCLE
  8
0
  6
CONTINUOUS
 62
     2
 10
39.0
 20
129.0
 30
0.0
 40
6.0
  0
CIRCLE
  8
0
  6
CONTINUOUS
 62
     2
 10
39.0
 20
129.0
 30
0.0
 40
5.5
  0
CIRCLE
  8
0
  6
CONTINUOUS
 62
     2
 10
39.0
 20
129.0
 30
0.0
 40
5.0
  0
CIRCLE
  8
0
  6
CONTINUOUS
 62
     2
 10
39.0
 20
129.0
 30
0.0
 40
4.5
  0
CIRCLE
  8
0
  6
CONTINUOUS
 62
     2
 10
39.0
 20
129.0
 30
0.0
 40
4.0
  0
CIRCLE
  8
0
  6
CONTINUOUS
 62
     2
 10
39.0
 20
129.0
 30
0.0
 40
3.5
  0
CIRCLE
  8
0
  6
CONTINUOUS
 62
     2
 10
39.0
 20
129.0
 30
0.0
 40
17.5
  0
LINE
  8
0
  6
CONTINUOUS
 62
     2
 10
33.329225
 20
122.65332
 30
0.0
 11
33.69336
 21
122.65332
 31
0.0
  0
ARC
  8
0
  6
CONTINUOUS
 62
     2
 10
33.69336
 20
122.80664
 30
0.0
 40
0.15332
 50
270.0
 51
0.0
  0
LINE
  8
0
  6
CONTINUOUS
 62
     2
 10
33.84668
 20
122.80664
 30
0.0
 11
33.84668
 21
123.170775
 31
0.0
  0
LINE
  8
0
  6
CONTINUOUS
 62
     2
 10
33.84668
 20
123.170775
 30
0.0
 11
34.15332
 21
123.170775
 31
0.0
  0
LINE
  8
0
  6
CONTINUOUS
 62
     2
 10
34.15332
 20
123.170775
 30
0.0
 11
34.15332
 21
122.80664
 31
0.0
  0
ARC
  8
0
  6
CONTINUOUS
 62
     2
 10
34.30664
 20
122.80664
 30
0.0
 40
0.15332
 50
180.0
 51
270.0
  0
LINE
  8
0
  6
CONTINUOUS
 62
     2
 10
34.30664
 20
122.65332
 30
0.0
 11
34.670775
 21
122.65332
 31
0.0
  0
LINE
  8
0
  6
CONTINUOUS
 62
     2
 10
34.670775
 20
122.65332
 30
0.0
 11
34.670775
 21
122.34668
 31
0.0
  0
LINE
  8
0
  6
CONTINUOUS
 62
     2
 10
34.670775
 20
122.34668
 30
0.0
 11
34.30664
 21
122.34668
 31
0.0
  0
ARC
  8
0
  6
CONTINUOUS
 62
     2
 10
34.30664
 20
122.19336
 30
0.0
 40
0.15332
 50
90.0
 51
180.0
  0
LINE
  8
0
  6
CONTINUOUS
 62
     2
 10
34.15332
 20
122.19336
 30
0.0
 11
34.15332
 21
121.829225
 31
0.0
  0
LINE
  8
0
  6
CONTINUOUS
 62
     2
 10
34.15332
 20
121.829225
 30
0.0
 11
33.84668
 21
121.829225
 31
0.0
  0
LINE
  8
0
  6
CONTINUOUS
 62
     2
 10
33.84668
 20
121.829225
 30
0.0
 11
33.84668
 21
122.19336
 31
0.0
  0
ARC
  8
0
  6
CONTINUOUS
 62
     2
 10
33.69336
 20
122.19336
 30
0.0
 40
0.15332
 50
0.0
 51
90.0
  0
LINE
  8
0
  6
CONTINUOUS
 62
     2
 10
33.69336
 20
122.34668
 30
0.0
 11
33.329225
 21
122.34668
 31
0.0
  0
LINE
  8
0
  6
CONTINUOUS
 62
     2
 10
33.329225
 20
122.34668
 30
0.0
 11
33.329225
 21
122.65332
 31
0.0
  0
LINE
  8
0
  6
LTYPE1
 62
     2
 10
32.4668
 20
122.5
 30
0.0
 11
35.5332
 21
122.5
 31
0.0
  0
LINE
  8
0
  6
LTYPE1
 62
     2
 10
34.0
 20
124.0332
 30
0.0
 11
34.0
 21
120.9668
 31
0.0
  0
LINE
  8
0
  6
CONTINUOUS
 62
     2
 10
43.329225
 20
122.65332
 30
0.0
 11
43.69336
 21
122.65332
 31
0.0
  0
ARC
  8
0
  6
CONTINUOUS
 62
     2
 10
43.69336
 20
122.80664
 30
0.0
 40
0.15332
 50
270.0
 51
0.0
  0
LINE
  8
0
  6
CONTINUOUS
 62
     2
 10
43.84668
 20
122.80664
 30
0.0
 11
43.84668
 21
123.170775
 31
0.0
  0
LINE
  8
0
  6
CONTINUOUS
 62
     2
 10
43.84668
 20
123.170775
 30
0.0
 11
44.15332
 21
123.170775
 31
0.0
  0
LINE
  8
0
  6
CONTINUOUS
 62
     2
 10
44.15332
 20
123.170775
 30
0.0
 11
44.15332
 21
122.80664
 31
0.0
  0
ARC
  8
0
  6
CONTINUOUS
 62
     2
 10
44.30664
 20
122.80664
 30
0.0
 40
0.15332
 50
180.0
 51
270.0
  0
LINE
  8
0
  6
CONTINUOUS
 62
     2
 10
44.30664
 20
122.65332
 30
0.0
 11
44.670775
 21
122.65332
 31
0.0
  0
LINE
  8
0
  6
CONTINUOUS
 62
     2
 10
44.670775
 20
122.65332
 30
0.0
 11
44.670775
 21
122.34668
 31
0.0
  0
LINE
  8
0
  6
CONTINUOUS
 62
     2
 10
44.670775
 20
122.34668
 30
0.0
 11
44.30664
 21
122.34668
 31
0.0
  0
ARC
  8
0
  6
CONTINUOUS
 62
     2
 10
44.30664
 20
122.19336
 30
0.0
 40
0.15332
 50
90.0
 51
180.0
  0
LINE
  8
0
  6
CONTINUOUS
 62
     2
 10
44.15332
 20
122.19336
 30
0.0
 11
44.15332
 21
121.829225
 31
0.0
  0
LINE
  8
0
  6
CONTINUOUS
 62
     2
 10
44.15332
 20
121.829225
 30
0.0
 11
43.84668
 21
121.829225
 31
0.0
  0
LINE
  8
0
  6
CONTINUOUS
 62
     2
 10
43.84668
 20
121.829225
 30
0.0
 11
43.84668
 21
122.19336
 31
0.0
  0
ARC
  8
0
  6
CONTINUOUS
 62
     2
 10
43.69336
 20
122.19336
 30
0.0
 40
0.15332
 50
0.0
 51
90.0
  0
LINE
  8
0
  6
CONTINUOUS
 62
     2
 10
43.69336
 20
122.34668
 30
0.0
 11
43.329225
 21
122.34668
 31
0.0
  0
LINE
  8
0
  6
CONTINUOUS
 62
     2
 10
43.329225
 20
122.34668
 30
0.0
 11
43.329225
 21
122.65332
 31
0.0
  0
LINE
  8
0
  6
LTYPE1
 62
     2
 10
42.4668
 20
122.5
 30
0.0
 11
45.5332
 21
122.5
 31
0.0
  0
LINE
  8
0
  6
LTYPE1
 62
     2
 10
44.0
 20
124.0332
 30
0.0
 11
44.0
 21
120.9668
 31
0.0
  0
ARC
  8
0
  6
CONTINUOUS
 62
     2
 10
44.0
 20
122.5
 30
0.0
 40
1.1499
 50
176.772955224
 51
0.0
  0
ARC
  8
0
  6
CONTINUOUS
 62
     2
 10
44.0
 20
122.5
 30
0.0
 40
1.1499
 50
0.0
 51
78.364228834
  0
ARC
  8
0
  6
CONTINUOUS
 62
     2
 10
34.0
 20
122.5
 30
0.0
 40
1.1499
 50
101.635771167
 51
0.0
  0
ARC
  8
0
  6
CONTINUOUS
 62
     2
 10
34.0
 20
122.5
 30
0.0
 40
1.1499
 50
0.0
 51
5.706808691
  0
LINE
  8
0
  6
LTYPE1
 62
     2
 10
21.4
 20
113.0
 30
0.0
 11
24.6
 21
113.0
 31
0.0
  0
LINE
  8
0
  6
LTYPE1
 62
     2
 10
23.0
 20
114.6
 30
0.0
 11
23.0
 21
111.4
 31
0.0
  0
LINE
  8
0
  6
LTYPE1
 62
     2
 10
21.4
 20
145.0
 30
0.0
 11
24.6
 21
145.0
 31
0.0
  0
LINE
  8
0
  6
LTYPE1
 62
     2
 10
23.0
 20
146.6
 30
0.0
 11
23.0
 21
143.4
 31
0.0
  0
LINE
  8
0
  6
LTYPE1
 62
     2
 10
53.4
 20
145.0
 30
0.0
 11
56.6
 21
145.0
 31
0.0
  0
LINE
  8
0
  6
LTYPE1
 62
     2
 10
55.0
 20
146.6
 30
0.0
 11
55.0
 21
143.4
 31
0.0
  0
LINE
  8
0
  6
LTYPE1
 62
     2
 10
53.4
 20
113.0
 30
0.0
 11
56.6
 21
113.0
 31
0.0
  0
LINE
  8
0
  6
LTYPE1
 62
     2
 10
55.0
 20
114.6
 30
0.0
 11
55.0
 21
111.4
 31
0.0
  0
LINE
  8
0
  6
LTYPE2
 62
     2
 10
84.08
 20
113.0
 30
0.0
 11
98.549955
 21
113.0
 31
0.0
  0
LINE
  8
0
  6
LTYPE2
 62
     2
 10
84.06
 20
145.0
 30
0.0
 11
98.549955
 21
145.0
 31
0.0
  0
LINE
  8
0
  6
CONTINUOUS
 62
     2
 10
83.6
 20
147.75
 30
0.0
 11
70.5
 21
147.75
 31
0.0
  0
LINE
  8
0
  6
CONTINUOUS
 62
     2
 10
72.5
 20
147.75
 30
0.0
 11
71.852952387
 21
145.335185434
 31
0.0
  0
LINE
  8
0
  6
CONTINUOUS
 62
     2
 10
72.5
 20
147.75
 30
0.0
 11
73.147047613
 21
145.335185434
 31
0.0
  0
LINE
  8
0
  6
CONTINUOUS
 62
     2
 10
72.5
 20
147.75
 30
0.0
 11
72.5
 21
110.25
 31
0.0
  0
LINE
  8
0
  6
CONTINUOUS
 62
     2
 10
72.5
 20
110.25
 30
0.0
 11
73.147047613
 21
112.664814566
 31
0.0
  0
LINE
  8
0
  6
CONTINUOUS
 62
     2
 10
72.5
 20
110.25
 30
0.0
 11
71.852952387
 21
112.664814566
 31
0.0
  0
LINE
  8
0
  6
CONTINUOUS
 62
     2
 10
83.561381701
 20
110.25
 30
0.0
 11
70.5
 21
110.25
 31
0.0
  0
TEXT
  8
0
  6
CONTINUOUS
 62
     2
 10
71.5
 20
126.0
 30
0.3
 40
3.0
  1
φ７５
 50
90.0
 41
0.6
 51
0.0
  7
KANJI0
  0
LINE
  8
0
  6
CONTINUOUS
 62
     2
 10
89.25
 20
147.7
 30
0.0
 11
89.25
 21
157.0
 31
0.0
  0
LINE
  8
0
  6
CONTINUOUS
 62
     2
 10
89.25
 20
155.0
 30
0.0
 11
91.664814566
 21
154.352952387
 31
0.0
  0
LINE
  8
0
  6
CONTINUOUS
 62
     2
 10
89.25
 20
155.0
 30
0.0
 11
91.664814566
 21
155.647047613
 31
0.0
  0
LINE
  8
0
  6
CONTINUOUS
 62
     2
 10
89.25
 20
155.0
 30
0.0
 11
96.75
 21
155.0
 31
0.0
  0
LINE
  8
0
  6
CONTINUOUS
 62
     2
 10
96.75
 20
155.0
 30
0.0
 11
94.335185434
 21
155.647047613
 31
0.0
  0
LINE
  8
0
  6
CONTINUOUS
 62
     2
 10
96.75
 20
155.0
 30
0.0
 11
94.335185434
 21
154.352952387
 31
0.0
  0
LINE
  8
0
  6
CONTINUOUS
 62
     2
 10
96.75
 20
146.2399725
 30
0.0
 11
96.75
 21
157.0
 31
0.0
  0
TEXT
  8
0
  6
CONTINUOUS
 62
     2
 10
91.05
 20
156.0
 30
0.3
 40
3.0
  1
１５
 50
0.0
 41
0.6
 51
0.0
  7
KANJI0
  0
LINE
  8
0
  6
CONTINUOUS
 62
     2
 10
89.25
 20
155.0
 30
0.0
 11
91.664814566
 21
154.352952387
 31
0.0
  0
LINE
  8
0
  6
CONTINUOUS
 62
     2
 10
89.25
 20
155.0
 30
0.0
 11
91.664814566
 21
155.647047613
 31
0.0
  0
LINE
  8
0
  6
CONTINUOUS
 62
     2
 10
89.0
 20
155.0
 30
0.0
 11
86.585185434
 21
155.647047613
 31
0.0
  0
LINE
  8
0
  6
CONTINUOUS
 62
     2
 10
89.0
 20
155.0
 30
0.0
 11
86.585185434
 21
154.352952387
 31
0.0
  0
LINE
  8
0
  6
CONTINUOUS
 62
     2
 10
89.0
 20
149.2
 30
0.0
 11
89.0
 21
157.0
 31
0.0
  0
LINE
  8
0
  6
CONTINUOUS
 62
     2
 10
89.25
 20
157.0
 30
0.0
 11
89.25
 21
171.0
 31
0.0
  0
LINE
  8
0
  6
CONTINUOUS
 62
     2
 10
89.25
 20
169.0
 30
0.0
 11
86.835185434
 21
169.647047613
 31
0.0
  0
LINE
  8
0
  6
CONTINUOUS
 62
     2
 10
89.25
 20
169.0
 30
0.0
 11
86.835185434
 21
168.352952387
 31
0.0
  0
LINE
  8
0
  6
CONTINUOUS
 62
     2
 10
89.25
 20
169.0
 30
0.0
 11
80.772556533
 21
169.0
 31
0.0
  0
LINE
  8
0
  6
CONTINUOUS
 62
     2
 10
80.772556533
 20
169.0
 30
0.0
 11
83.187371099
 21
168.352952387
 31
0.0
  0
LINE
  8
0
  6
CONTINUOUS
 62
     2
 10
80.772556533
 20
169.0
 30
0.0
 11
83.187371099
 21
169.647047613
 31
0.0
  0
LINE
  8
0
  6
CONTINUOUS
 62
     2
 10
80.772556533
 20
129.85
 30
0.0
 11
80.772556533
 21
171.0
 31
0.0
  0
TEXT
  8
0
  6
CONTINUOUS
 62
     2
 10
83.061278267
 20
170.0
 30
0.3
 40
3.0
  1
１７
 50
0.0
 41
0.6
 51
0.0
  7
KANJI0
  0
LINE
  8
0
  6
CONTINUOUS
 62
     2
 10
89.25
 20
169.0
 30
0.0
 11
91.664814566
 21
168.352952387
 31
0.0
  0
LINE
  8
0
  6
CONTINUOUS
 62
     2
 10
89.25
 20
169.0
 30
0.0
 11
91.664814566
 21
169.647047613
 31
0.0
  0
LINE
  8
0
  6
CONTINUOUS
 62
     2
 10
89.25
 20
169.0
 30
0.0
 11
108.25
 21
169.0
 31
0.0
  0
LINE
  8
0
  6
CONTINUOUS
 62
     2
 10
108.25
 20
145.150001907
 30
0.0
 11
108.25
 21
171.0
 31
0.0
  0
TEXT
  8
0
  6
CONTINUOUS
 62
     2
 10
96.8
 20
170.0
 30
0.3
 40
3.0
  1
３８
 50
0.0
 41
0.6
 51
0.0
  7
KANJI0
  0
LINE
  8
0
  6
CONTINUOUS
 62
     2
 10
108.25
 20
169.0
 30
0.0
 11
105.835185434
 21
169.647047613
 31
0.0
  0
LINE
  8
0
  6
CONTINUOUS
 62
     2
 10
108.25
 20
169.0
 30
0.0
 11
105.835185434
 21
168.352952387
 31
0.0
  0
LINE
  8
0
  6
CONTINUOUS
 62
     2
 10
114.25
 20
169.0
 30
0.0
 11
116.664814566
 21
168.352952387
 31
0.0
  0
LINE
  8
0
  6
CONTINUOUS
 62
     2
 10
114.25
 20
169.0
 30
0.0
 11
116.664814566
 21
169.647047613
 31
0.0
  0
TEXT
  8
0
  6
CONTINUOUS
 62
     2
 10
109.3
 20
170.0
 30
0.3
 40
3.0
  1
１２
 50
0.0
 41
0.6
 51
0.0
  7
KANJI0
  0
LINE
  8
0
  6
CONTINUOUS
 62
     2
 10
108.25
 20
169.0
 30
0.0
 11
119.25
 21
169.0
 31
0.0
  0
LINE
  8
0
  6
CONTINUOUS
 62
     2
 10
101.55
 20
112.7
 30
0.0
 11
102.197047613
 21
115.114814566
 31
0.0
  0
LINE
  8
0
  6
CONTINUOUS
 62
     2
 10
101.55
 20
112.7
 30
0.0
 11
100.902952387
 21
115.114814566
 31
0.0
  0
LINE
  8
0
  6
CONTINUOUS
 62
     2
 10
101.55
 20
112.7
 30
0.0
 11
101.55
 21
145.25
 31
0.0
  0
LINE
  8
0
  6
CONTINUOUS
 62
     2
 10
101.55
 20
145.25
 30
0.0
 11
100.902952387
 21
142.835185434
 31
0.0
  0
LINE
  8
0
  6
CONTINUOUS
 62
     2
 10
101.55
 20
145.25
 30
0.0
 11
102.197047613
 21
142.835185434
 31
0.0
  0
LINE
  8
0
  6
CONTINUOUS
 62
     2
 10
95.95
 20
112.05
 30
0.0
 11
96.306511462
 21
109.575550652
 31
0.0
  0
LINE
  8
0
  6
CONTINUOUS
 62
     2
 10
95.95
 20
112.05
 30
0.0
 11
97.495972657
 21
110.085319735
 31
0.0
  0
TEXT
  8
0
  6
CONTINUOUS
 62
     2
 10
82.1
 20
156.0
 30
0.3
 40
3.0
  1
０．５
 50
0.0
 41
0.6
 51
0.0
  7
KANJI0
  0
LINE
  8
0
  6
CONTINUOUS
 62
     2
 10
89.0
 20
155.0
 30
0.0
 11
81.75
 21
155.0
 31
0.0
  0
LINE
  8
0
  6
CONTINUOUS
 62
     2
 10
39.45
 20
127.7
 30
0.0
 11
39.517535139
 21
125.200912365
 31
0.0
  0
LINE
  8
0
  6
CONTINUOUS
 62
     2
 10
39.45
 20
127.7
 30
0.0
 11
40.758030964
 21
125.569494192
 31
0.0
  0
LINE
  8
0
  6
CONTINUOUS
 62
     2
 10
27.35
 20
122.7
 30
0.0
 11
26.229650587
 21
120.465091234
 31
0.0
  0
LINE
  8
0
  6
CONTINUOUS
 62
     2
 10
27.35
 20
122.7
 30
0.0
 11
27.49720333
 21
120.204337527
 31
0.0
  0
LINE
  8
0
  6
CONTINUOUS
 62
     2
 10
114.85
 20
121.3
 30
0.0
 11
115.087086346
 21
118.811267378
 31
0.0
  0
LINE
  8
0
  6
CONTINUOUS
 62
     2
 10
114.85
 20
121.3
 30
0.0
 11
116.299689109
 21
119.263237499
 31
0.0
  0
LINE
  8
0
  6
CONTINUOUS
 62
     1
 10
93.516735
 20
142.5
 30
0.0
 11
93.516735
 21
147.5
 31
0.0
  0
LINE
  8
0
  6
CONTINUOUS
 62
     1
 10
93.516735
 20
147.5
 30
0.0
 11
94.016735
 21
147.1066125
 31
0.0
  0
LINE
  8
0
  6
CONTINUOUS
 62
     1
 10
94.016735
 20
142.9733825
 30
0.0
 11
93.516735
 21
142.5
 31
0.0
  0
LINE
  8
0
  6
CONTINUOUS
 62
     1
 10
93.516735
 20
145.806645
 30
0.0
 11
89.25
 21
145.806645
 31
0.0
  0
LINE
  8
0
  6
CONTINUOUS
 62
     1
 10
89.25
 20
146.00664
 30
0.0
 11
93.516735
 21
146.00664
 31
0.0
  0
LINE
  8
0
  6
CONTINUOUS
 62
     1
 10
93.516735
 20
144.00669
 30
0.0
 11
89.25
 21
144.00669
 31
0.0
  0
LINE
  8
0
  6
CONTINUOUS
 62
     1
 10
89.25
 20
144.206685
 30
0.0
 11
93.516735
 21
144.206685
 31
0.0
  0
LINE
  8
0
  6
CONTINUOUS
 62
     1
 10
94.016735
 20
110.9733825
 30
0.0
 11
94.016735
 21
115.1066125
 31
0.0
  0
LINE
  8
0
  6
CONTINUOUS
 62
     1
 10
93.516735
 20
110.5
 30
0.0
 11
93.516735
 21
115.5
 31
0.0
  0
LINE
  8
0
  6
CONTINUOUS
 62
     1
 10
93.516735
 20
115.5
 30
0.0
 11
94.016735
 21
115.1066125
 31
0.0
  0
LINE
  8
0
  6
CONTINUOUS
 62
     1
 10
94.016735
 20
110.9733825
 30
0.0
 11
93.516735
 21
110.5
 31
0.0
  0
LINE
  8
0
  6
CONTINUOUS
 62
     1
 10
93.516735
 20
113.806645
 30
0.0
 11
89.25
 21
113.806645
 31
0.0
  0
LINE
  8
0
  6
CONTINUOUS
 62
     1
 10
89.25
 20
114.00664
 30
0.0
 11
93.516735
 21
114.00664
 31
0.0
  0
LINE
  8
0
  6
CONTINUOUS
 62
     1
 10
93.516735
 20
112.00669
 30
0.0
 11
89.25
 21
112.00669
 31
0.0
  0
LINE
  8
0
  6
CONTINUOUS
 62
     1
 10
89.25
 20
112.206685
 30
0.0
 11
93.516735
 21
112.206685
 31
0.0
  0
LINE
  8
0
  6
CONTINUOUS
 62
     2
 10
114.85
 20
121.3
 30
0.0
 11
117.086363636
 21
115.3
 31
0.0
  0
LINE
  8
0
  6
CONTINUOUS
 62
     2
 10
95.95
 20
112.05
 30
0.0
 11
103.407142857
 21
94.65
 31
0.0
  0
LINE
  8
0
  6
CONTINUOUS
 62
     2
 10
39.45
 20
127.7
 30
0.0
 11
48.72028754
 21
96.5
 31
0.0
  0
LINE
  8
0
  6
CONTINUOUS
 62
     2
 10
27.35
 20
122.7
 30
0.0
 11
21.95
 21
96.45
 31
0.0
  0
LINE
  8
0
  6
LTYPE1
 62
     2
 10
15.0
 20
129.0
 30
0.0
 11
64.0
 21
129.0
 31
0.0
  0
LINE
  8
0
  6
LTYPE1
 62
     2
 10
39.0
 20
152.7
 30
0.0
 11
39.0
 21
104.2
 31
0.0
  0
LINE
  8
0
  6
LTYPE1
 62
     2
 10
75.1
 20
129.0
 30
0.0
 11
117.0
 21
129.0
 31
0.0
  0
LINE
  8
0
  6
CONTINUOUS
 62
     2
 10
108.25
 20
102.75
 30
0.0
 11
110.664814566
 21
102.102952387
 31
0.0
  0
LINE
  8
0
  6
CONTINUOUS
 62
     2
 10
108.25
 20
102.75
 30
0.0
 11
110.664814566
 21
103.397047613
 31
0.0
  0
LINE
  8
0
  6
CONTINUOUS
 62
     2
 10
108.25
 20
102.75
 30
0.0
 11
115.25
 21
102.75
 31
0.0
  0
LINE
  8
0
  6
CONTINUOUS
 62
     2
 10
115.25
 20
102.75
 30
0.0
 11
112.835185434
 21
103.397047613
 31
0.0
  0
LINE
  8
0
  6
CONTINUOUS
 62
     2
 10
115.25
 20
102.75
 30
0.0
 11
112.835185434
 21
102.102952387
 31
0.0
  0
TEXT
  8
0
  6
CONTINUOUS
 62
     2
 10
109.8
 20
103.75
 30
0.3
 40
3.0
  1
１４
 50
0.0
 41
0.6
 51
0.0
  7
KANJI0
  0
LINE
  8
0
  6
CONTINUOUS
 62
     2
 10
108.25
 20
114.98331
 30
0.0
 11
108.25
 21
100.75
 31
0.0
  0
LINE
  8
0
  6
CONTINUOUS
 62
     2
 10
115.25
 20
117.78331
 30
0.0
 11
115.25
 21
100.75
 31
0.0
  0
LINE
  8
0
  6
LTYPE2
 62
     2
 10
106.183535
 20
123.98331
 30
0.0
 11
116.049955
 21
123.98331
 31
0.0
  0
LINE
  8
0
  6
LTYPE3
 62
     2
 10
112.25
 20
115.98331
 30
0.0
 11
108.25
 21
115.98331
 31
0.0
  0
LINE
  8
0
  6
LTYPE3
 62
     2
 10
108.25
 20
116.58331
 30
0.0
 11
108.5
 21
116.58331
 31
0.0
  0
ARC
  8
0
  6
LTYPE3
 62
     2
 10
112.25
 20
124.48331
 30
0.0
 40
3.0
 50
0.0
 51
90.0
  0
LINE
  8
0
  6
LTYPE3
 62
     2
 10
115.25
 20
124.48331
 30
0.0
 11
115.25
 21
118.98331
 31
0.0
  0
ARC
  8
0
  6
LTYPE3
 62
     2
 10
112.25
 20
118.98331
 30
0.0
 40
3.0
 50
270.0
 51
0.0
  0
LINE
  8
0
  6
LTYPE3
 62
     2
 10
108.25
 20
126.88331
 30
0.0
 11
108.5
 21
126.88331
 31
0.0
  0
LINE
  8
0
  6
LTYPE3
 62
     2
 10
108.5
 20
115.98331
 30
0.0
 11
108.5
 21
126.88331
 31
0.0
  0
LINE
  8
0
  6
LTYPE3
 62
     2
 10
108.25
 20
127.48331
 30
0.0
 11
112.25
 21
127.48331
 31
0.0
  0
LINE
  8
0
  6
LTYPE3
 62
     2
 10
109.85
 20
120.58331
 30
0.0
 11
112.35
 21
120.58331
 31
0.0
  0
LINE
  8
0
  6
LTYPE3
 62
     2
 10
112.35
 20
120.58331
 30
0.0
 11
112.35
 21
117.58331
 31
0.0
  0
LINE
  8
0
  6
LTYPE3
 62
     2
 10
109.85
 20
120.58331
 30
0.0
 11
109.85
 21
117.58331
 31
0.0
  0
LINE
  8
0
  6
LTYPE3
 62
     2
 10
110.75
 20
125.95831
 30
0.0
 11
110.75
 21
120.58331
 31
0.0
  0
LINE
  8
0
  6
LTYPE3
 62
     2
 10
110.35
 20
125.95831
 30
0.0
 11
110.75
 21
125.95831
 31
0.0
  0
LINE
  8
0
  6
LTYPE3
 62
     2
 10
110.35
 20
122.30831
 30
0.0
 11
110.35
 21
120.58331
 31
0.0
  0
LINE
  8
0
  6
CONTINUOUS
 62
     2
 10
108.25
 20
121.25
 30
0.0
 11
108.75
 21
121.5
 31
0.0
  0
LINE
  8
0
  6
CONTINUOUS
 62
     2
 10
108.75
 20
121.5
 30
0.0
 11
108.75
 21
126.5
 31
0.0
  0
LINE
  8
0
  6
CONTINUOUS
 62
     2
 10
108.75
 20
126.5
 30
0.0
 11
108.25
 21
126.75
 31
0.0
  0
LINE
  8
0
  6
CONTINUOUS
 62
     2
 10
109.7264835
 20
123.05
 30
0.0
 11
108.8764835
 21
123.05
 31
0.0
  0
LINE
  8
0
  6
CONTINUOUS
 62
     2
 10
108.8764835
 20
125.04995
 30
0.0
 11
109.7264835
 21
125.04995
 31
0.0
  0
LINE
  8
0
  6
CONTINUOUS
 62
     2
 10
110.0833
 20
122.0166925
 30
0.0
 11
110.34996
 21
122.2833525
 31
0.0
  0
LINE
  8
0
  6
CONTINUOUS
 62
     2
 10
110.0833
 20
122.0166925
 30
0.0
 11
108.75
 21
122.0166925
 31
0.0
  0
LINE
  8
0
  6
CONTINUOUS
 62
     2
 10
110.0833
 20
126.1499225
 30
0.0
 11
110.34996
 21
125.8832625
 31
0.0
  0
LINE
  8
0
  6
CONTINUOUS
 62
     2
 10
110.0499675
 20
125.04995
 30
0.0
 11
110.3166275
 21
125.31661
 31
0.0
  0
LINE
  8
0
  6
CONTINUOUS
 62
     2
 10
110.3166275
 20
124.78329
 30
0.0
 11
110.0499675
 21
125.04995
 31
0.0
  0
LINE
  8
0
  6
CONTINUOUS
 62
     2
 10
108.75
 20
125.04995
 30
0.0
 11
110.0499675
 21
125.04995
 31
0.0
  0
LINE
  8
0
  6
CONTINUOUS
 62
     2
 10
108.75
 20
126.1499225
 30
0.0
 11
110.0833
 21
126.1499225
 31
0.0
  0
LINE
  8
0
  6
CONTINUOUS
 62
     2
 10
110.34996
 20
125.8832625
 30
0.0
 11
110.34996
 21
122.2833525
 31
0.0
  0
LINE
  8
0
  6
CONTINUOUS
 62
     2
 10
110.0499675
 20
123.05
 30
0.0
 11
110.3166275
 21
123.31666
 31
0.0
  0
LINE
  8
0
  6
CONTINUOUS
 62
     2
 10
110.3166275
 20
122.78334
 30
0.0
 11
110.0499675
 21
123.05
 31
0.0
  0
LINE
  8
0
  6
CONTINUOUS
 62
     2
 10
108.75
 20
123.05
 30
0.0
 11
110.0499675
 21
123.05
 31
0.0
  0
LINE
  8
0
  6
CONTINUOUS
 62
     2
 10
108.75
 20
122.0166925
 30
0.0
 11
108.75
 21
126.1499225
 31
0.0
  0
LINE
  8
0
  6
CONTINUOUS
 62
     2
 10
110.74996
 20
126.396583
 30
0.0
 11
110.74996
 21
121.730033
 31
0.0
  0
LINE
  8
0
  6
CONTINUOUS
 62
     2
 10
114.15
 20
123.2699945
 30
0.0
 11
114.15
 21
123.0699995
 31
0.0
  0
LINE
  8
0
  6
CONTINUOUS
 62
     2
 10
114.15
 20
125.0832825
 30
0.0
 11
114.15
 21
123.2699945
 31
0.0
  0
LINE
  8
0
  6
CONTINUOUS
 62
     2
 10
113.2765185
 20
122.0166925
 30
0.0
 11
113.5431785
 21
122.2833525
 31
0.0
  0
LINE
  8
0
  6
CONTINUOUS
 62
     2
 10
113.2765185
 20
122.0166925
 30
0.0
 11
111.9432185
 21
122.0166925
 31
0.0
  0
LINE
  8
0
  6
CONTINUOUS
 62
     2
 10
113.243186
 20
123.05
 30
0.0
 11
113.509846
 21
123.31666
 31
0.0
  0
LINE
  8
0
  6
CONTINUOUS
 62
     2
 10
113.509846
 20
122.78334
 30
0.0
 11
113.243186
 21
123.05
 31
0.0
  0
LINE
  8
0
  6
CONTINUOUS
 62
     2
 10
111.9432185
 20
123.05
 30
0.0
 11
113.243186
 21
123.05
 31
0.0
  0
LINE
  8
0
  6
CONTINUOUS
 62
     2
 10
111.103272
 20
122.25002
 30
0.0
 11
111.569927
 21
122.25002
 31
0.0
  0
LINE
  8
0
  6
CONTINUOUS
 62
     2
 10
111.903252
 20
123.84998
 30
0.0
 11
111.489929
 21
123.84998
 31
0.0
  0
LINE
  8
0
  6
CONTINUOUS
 62
     2
 10
111.463263
 20
123.863313
 30
0.0
 11
111.103272
 21
122.25002
 31
0.0
  0
LINE
  8
0
  6
CONTINUOUS
 62
     2
 10
111.569927
 20
122.25002
 30
0.0
 11
111.903252
 21
123.84998
 31
0.0
  0
LINE
  8
0
  6
CONTINUOUS
 62
     2
 10
110.74996
 20
121.730033
 30
0.0
 11
111.083285
 21
121.730033
 31
0.0
  0
LINE
  8
0
  6
CONTINUOUS
 62
     2
 10
111.083285
 20
123.24995
 30
0.0
 11
111.333285
 21
123.24995
 31
0.0
  0
LINE
  8
0
  6
CONTINUOUS
 62
     2
 10
111.283285
 20
123.04995
 30
0.0
 11
111.083285
 21
123.04995
 31
0.0
  0
LINE
  8
0
  6
CONTINUOUS
 62
     2
 10
113.5431785
 20
123.249995
 30
0.0
 11
114.123334
 21
123.249995
 31
0.0
  0
LINE
  8
0
  6
CONTINUOUS
 62
     2
 10
113.5431785
 20
123.05
 30
0.0
 11
114.146735
 21
123.05
 31
0.0
  0
LINE
  8
0
  6
CONTINUOUS
 62
     2
 10
111.9432185
 20
123.05
 30
0.0
 11
111.7365895
 21
123.05
 31
0.0
  0
LINE
  8
0
  6
CONTINUOUS
 62
     2
 10
111.778255125
 20
123.249995
 30
0.0
 11
111.9432185
 21
123.249995
 31
0.0
  0
LINE
  8
0
  6
CONTINUOUS
 62
     2
 10
113.2765185
 20
126.1499225
 30
0.0
 11
113.5431785
 21
125.8832625
 31
0.0
  0
LINE
  8
0
  6
CONTINUOUS
 62
     2
 10
113.243186
 20
125.04995
 30
0.0
 11
113.509846
 21
125.31661
 31
0.0
  0
LINE
  8
0
  6
CONTINUOUS
 62
     2
 10
113.509846
 20
124.78329
 30
0.0
 11
113.243186
 21
125.04995
 31
0.0
  0
LINE
  8
0
  6
CONTINUOUS
 62
     2
 10
111.9432185
 20
125.04995
 30
0.0
 11
113.243186
 21
125.04995
 31
0.0
  0
LINE
  8
0
  6
CONTINUOUS
 62
     2
 10
111.9432185
 20
126.1499225
 30
0.0
 11
113.2765185
 21
126.1499225
 31
0.0
  0
LINE
  8
0
  6
CONTINUOUS
 62
     2
 10
111.476596
 20
125.84993
 30
0.0
 11
111.943251
 21
125.84993
 31
0.0
  0
LINE
  8
0
  6
CONTINUOUS
 62
     2
 10
111.943251
 20
125.84993
 30
0.0
 11
111.569927
 21
124.24997
 31
0.0
  0
LINE
  8
0
  6
CONTINUOUS
 62
     2
 10
111.103272
 20
124.24997
 30
0.0
 11
111.463263
 21
125.836597
 31
0.0
  0
LINE
  8
0
  6
CONTINUOUS
 62
     2
 10
111.569927
 20
124.24997
 30
0.0
 11
111.103272
 21
124.24997
 31
0.0
  0
LINE
  8
0
  6
CONTINUOUS
 62
     2
 10
111.083285
 20
125.04995
 30
0.0
 11
111.283285
 21
125.04995
 31
0.0
  0
LINE
  8
0
  6
CONTINUOUS
 62
     2
 10
111.233285
 20
124.84995
 30
0.0
 11
111.083285
 21
124.84995
 31
0.0
  0
LINE
  8
0
  6
CONTINUOUS
 62
     2
 10
113.5431785
 20
125.0832825
 30
0.0
 11
114.15
 21
125.0832825
 31
0.0
  0
LINE
  8
0
  6
CONTINUOUS
 62
     2
 10
114.123334
 20
124.849955
 30
0.0
 11
113.5431785
 21
124.849955
 31
0.0
  0
LINE
  8
0
  6
CONTINUOUS
 62
     2
 10
111.756589
 20
125.04995
 30
0.0
 11
111.9432185
 21
125.04995
 31
0.0
  0
LINE
  8
0
  6
CONTINUOUS
 62
     2
 10
111.9298855
 20
124.849955
 30
0.0
 11
111.7099235
 21
124.849955
 31
0.0
  0
LINE
  8
0
  6
CONTINUOUS
 62
     2
 10
111.083285
 20
126.396583
 30
0.0
 11
110.74996
 21
126.396583
 31
0.0
  0
LINE
  8
0
  6
CONTINUOUS
 62
     2
 10
111.9432185
 20
122.0166925
 30
0.0
 11
111.9432185
 21
126.1499225
 31
0.0
  0
LINE
  8
0
  6
CONTINUOUS
 62
     2
 10
113.5431785
 20
125.8832625
 30
0.0
 11
113.5431785
 21
122.2833525
 31
0.0
  0
LINE
  8
0
  6
CONTINUOUS
 62
     2
 10
111.083285
 20
121.730033
 30
0.0
 11
111.083285
 21
126.396583
 31
0.0
  0
LINE
  8
0
  6
CONTINUOUS
 62
     2
 10
112.75
 20
122.0
 30
0.0
 11
113.048358794
 21
119.517867443
 31
0.0
  0
LINE
  8
0
  6
CONTINUOUS
 62
     2
 10
112.75
 20
122.0
 30
0.0
 11
114.249452574
 21
119.999589547
 31
0.0
  0
LINE
  8
0
  6
CONTINUOUS
 62
     2
 10
112.75
 20
122.0
 30
0.0
 11
121.232620321
 21
100.85
 31
0.0
  0
TEXT
  8
0
  6
CONTINUOUS
 62
     2
 10
100.55
 20
122.675
 30
0.3
 40
3.0
  1
φ６５
 50
90.0
 41
0.6
 51
0.0
  7
KANJI0
  0
ARC
  8
0
  6
CONTINUOUS
 62
     2
 10
39.0
 20
129.0
 30
0.0
 40
14.75
 50
301.389828394
 51
238.610171606
  0
ARC
  8
0
  6
CONTINUOUS
 62
     2
 10
39.0
 20
129.0
 30
0.0
 40
17.0
 50
300.169733954
 51
239.830266046
  0
CIRCLE
  8
0
  6
CONTINUOUS
 62
     2
 10
39.0
 20
115.0
 30
0.0
 40
0.8256
  0
LINE
  8
0
  6
CONTINUOUS
 62
     2
 10
38.5184
 20
115.11008
 30
0.0
 11
38.77984
 21
115.11008
 31
0.0
  0
ARC
  8
0
  6
CONTINUOUS
 62
     2
 10
38.77984
 20
115.22016
 30
0.0
 40
0.11008
 50
270.0
 51
0.0
  0
LINE
  8
0
  6
CONTINUOUS
 62
     2
 10
38.88992
 20
115.22016
 30
0.0
 11
38.88992
 21
115.4816
 31
0.0
  0
LINE
  8
0
  6
CONTINUOUS
 62
     2
 10
38.88992
 20
115.4816
 30
0.0
 11
39.11008
 21
115.4816
 31
0.0
  0
LINE
  8
0
  6
CONTINUOUS
 62
     2
 10
39.11008
 20
115.4816
 30
0.0
 11
39.11008
 21
115.22016
 31
0.0
  0
ARC
  8
0
  6
CONTINUOUS
 62
     2
 10
39.22016
 20
115.22016
 30
0.0
 40
0.11008
 50
180.0
 51
270.0
  0
LINE
  8
0
  6
CONTINUOUS
 62
     2
 10
39.22016
 20
115.11008
 30
0.0
 11
39.4816
 21
115.11008
 31
0.0
  0
LINE
  8
0
  6
CONTINUOUS
 62
     2
 10
39.4816
 20
115.11008
 30
0.0
 11
39.4816
 21
114.88992
 31
0.0
  0
LINE
  8
0
  6
CONTINUOUS
 62
     2
 10
39.4816
 20
114.88992
 30
0.0
 11
39.22016
 21
114.88992
 31
0.0
  0
ARC
  8
0
  6
CONTINUOUS
 62
     2
 10
39.22016
 20
114.77984
 30
0.0
 40
0.11008
 50
90.0
 51
180.0
  0
LINE
  8
0
  6
CONTINUOUS
 62
     2
 10
39.11008
 20
114.77984
 30
0.0
 11
39.11008
 21
114.5184
 31
0.0
  0
LINE
  8
0
  6
CONTINUOUS
 62
     2
 10
39.11008
 20
114.5184
 30
0.0
 11
38.88992
 21
114.5184
 31
0.0
  0
LINE
  8
0
  6
CONTINUOUS
 62
     2
 10
38.88992
 20
114.5184
 30
0.0
 11
38.88992
 21
114.77984
 31
0.0
  0
ARC
  8
0
  6
CONTINUOUS
 62
     2
 10
38.77984
 20
114.77984
 30
0.0
 40
0.11008
 50
0.0
 51
90.0
  0
LINE
  8
0
  6
CONTINUOUS
 62
     2
 10
38.77984
 20
114.88992
 30
0.0
 11
38.5184
 21
114.88992
 31
0.0
  0
LINE
  8
0
  6
CONTINUOUS
 62
     2
 10
38.5184
 20
114.88992
 30
0.0
 11
38.5184
 21
115.11008
 31
0.0
  0
ARC
  8
0
  6
CONTINUOUS
 62
     2
 10
44.999806249
 20
118.5
 30
0.0
 40
0.75
 50
22.599372977
 51
90.0
  0
ARC
  8
0
  6
CONTINUOUS
 62
     2
 10
31.19561954
 20
114.175970623
 30
0.0
 40
0.75
 50
151.227860685
 51
247.400627023
  0
ARC
  8
0
  6
CONTINUOUS
 62
     2
 10
46.80438046
 20
114.175970623
 30
0.0
 40
0.75
 50
292.599372977
 51
28.772139315
  0
LINE
  8
0
  6
CONTINUOUS
 62
     2
 10
33.000193751
 20
119.25
 30
0.0
 11
44.999806249
 21
119.25
 31
0.0
  0
LINE
  8
0
  6
CONTINUOUS
 62
     2
 10
30.538213915
 20
114.536966251
 30
0.0
 11
32.307782934
 21
118.788213915
 31
0.0
  0
ARC
  8
0
  6
CONTINUOUS
 62
     2
 10
33.000193751
 20
118.5
 30
0.0
 40
0.75
 50
90.0
 51
157.400627023
  0
LINE
  8
0
  6
CONTINUOUS
 62
     2
 10
45.692217066
 20
118.788213915
 30
0.0
 11
47.461786085
 21
114.536966251
 31
0.0
  0
LINE
  8
0
  6
LTYPE4
 62
     5
 10
37.8992
 20
115.0
 30
0.0
 11
40.1008
 21
115.0
 31
0.0
  0
LINE
  8
0
  6
LTYPE4
 62
     5
 10
39.0
 20
116.1008
 30
0.0
 11
39.0
 21
113.8992
 31
0.0
  0
LINE
  8
0
  6
CONTINUOUS
 62
     2
 10
108.25
 20
129.25035
 30
0.0
 11
112.25
 21
129.25035
 31
0.0
  0
LINE
  8
0
  6
CONTINUOUS
 62
     2
 10
108.25
 20
125.74965
 30
0.0
 11
112.25
 21
125.74965
 31
0.0
  0
LINE
  8
0
  6
CONTINUOUS
 62
     2
 10
112.25
 20
129.25035
 30
0.0
 11
112.25
 21
125.74965
 31
0.0
  0
LINE
  8
0
  6
LTYPE1
 62
     2
 10
115.938
 20
127.48331
 30
0.0
 11
112.25
 21
127.48331
 31
0.0
  0
LINE
  8
0
  6
CONTINUOUS
 62
     2
 10
112.25
 20
129.23511
 30
0.0
 11
112.711
 21
129.23511
 31
0.0
  0
LINE
  8
0
  6
CONTINUOUS
 62
     2
 10
112.711
 20
129.23511
 30
0.0
 11
112.711
 21
125.73151
 31
0.0
  0
LINE
  8
0
  6
CONTINUOUS
 62
     2
 10
112.711
 20
125.73151
 30
0.0
 11
112.25
 21
125.73151
 31
0.0
  0
LINE
  8
0
  6
CONTINUOUS
 62
     2
 10
112.711
 20
127.48331
 30
0.0
 11
112.25
 21
127.749468474
 31
0.0
  0
LINE
  8
0
  6
CONTINUOUS
 62
     2
 10
112.25
 20
127.48331
 30
0.0
 11
112.711
 21
127.217151526
 31
0.0
  0
LINE
  8
0
  6
CONTINUOUS
 62
     2
 10
112.711
 20
129.09681
 30
0.0
 11
113.3103
 21
129.09681
 31
0.0
  0
LINE
  8
0
  6
CONTINUOUS
 62
     2
 10
113.9096
 20
128.49751
 30
0.0
 11
113.9096
 21
127.71381
 31
0.0
  0
LINE
  8
0
  6
CONTINUOUS
 62
     2
 10
113.9096
 20
127.71381
 30
0.0
 11
113.2642
 21
127.71381
 31
0.0
  0
LINE
  8
0
  6
CONTINUOUS
 62
     2
 10
113.2642
 20
127.71381
 30
0.0
 11
113.2642
 21
127.25281
 31
0.0
  0
LINE
  8
0
  6
CONTINUOUS
 62
     2
 10
113.2642
 20
127.25281
 30
0.0
 11
113.9096
 21
127.25281
 31
0.0
  0
LINE
  8
0
  6
CONTINUOUS
 62
     2
 10
113.9096
 20
127.25281
 30
0.0
 11
113.9096
 21
126.46911
 31
0.0
  0
ARC
  8
0
  6
CONTINUOUS
 62
     2
 10
113.3103
 20
126.46911
 30
0.0
 40
0.5993
 50
270.0
 51
0.0
  0
LINE
  8
0
  6
CONTINUOUS
 62
     2
 10
113.3103
 20
125.86981
 30
0.0
 11
112.711
 21
125.86981
 31
0.0
  0
ARC
  8
0
  6
CONTINUOUS
 62
     1
 10
190.75
 20
147.0
 30
0.0
 40
1.0
 50
0.0
 51
90.0
  0
LINE
  8
0
  6
CONTINUOUS
 62
     1
 10
190.75
 20
148.0
 30
0.0
 11
154.75
 21
148.0
 31
0.0
  0
ARC
  8
0
  6
CONTINUOUS
 62
     1
 10
154.75
 20
147.0
 30
0.0
 40
1.0
 50
90.0
 51
180.0
  0
LINE
  8
0
  6
CONTINUOUS
 62
     1
 10
153.75
 20
147.0
 30
0.0
 11
153.75
 21
111.0
 31
0.0
  0
ARC
  8
0
  6
CONTINUOUS
 62
     1
 10
154.75
 20
111.0
 30
0.0
 40
1.0
 50
180.0
 51
270.0
  0
LINE
  8
0
  6
CONTINUOUS
 62
     1
 10
191.75
 20
111.0
 30
0.0
 11
191.75
 21
147.0
 31
0.0
  0
LINE
  8
0
  6
CONTINUOUS
 62
     1
 10
154.75
 20
110.0
 30
0.0
 11
190.75
 21
110.0
 31
0.0
  0
ARC
  8
0
  6
CONTINUOUS
 62
     1
 10
190.75
 20
111.0
 30
0.0
 40
1.0
 50
270.0
 51
0.0
  0
ARC
  8
0
  6
CONTINUOUS
 62
     1
 10
190.75
 20
111.0
 30
0.0
 40
2.0
 50
270.0
 51
0.0
  0
LINE
  8
0
  6
CONTINUOUS
 62
     1
 10
154.75
 20
109.0
 30
0.0
 11
190.75
 21
109.0
 31
0.0
  0
ARC
  8
0
  6
CONTINUOUS
 62
     1
 10
154.75
 20
111.0
 30
0.0
 40
2.0
 50
180.0
 51
270.0
  0
LINE
  8
0
  6
CONTINUOUS
 62
     1
 10
152.75
 20
147.0
 30
0.0
 11
152.75
 21
111.0
 31
0.0
  0
ARC
  8
0
  6
CONTINUOUS
 62
     1
 10
154.75
 20
147.0
 30
0.0
 40
2.0
 50
90.0
 51
180.0
  0
LINE
  8
0
  6
CONTINUOUS
 62
     1
 10
192.75
 20
111.0
 30
0.0
 11
192.75
 21
147.0
 31
0.0
  0
LINE
  8
0
  6
CONTINUOUS
 62
     1
 10
190.75
 20
149.0
 30
0.0
 11
154.75
 21
149.0
 31
0.0
  0
ARC
  8
0
  6
CONTINUOUS
 62
     1
 10
190.75
 20
147.0
 30
0.0
 40
2.0
 50
0.0
 51
90.0
  0
CIRCLE
  8
0
  6
CONTINUOUS
 62
     1
 10
172.75
 20
129.0
 30
0.0
 40
16.25
  0
LINE
  8
0
  6
CONTINUOUS
 62
     1
 10
156.75
 20
115.025
 30
0.0
 11
154.996298557
 21
114.0125
 31
0.0
  0
LINE
  8
0
  6
CONTINUOUS
 62
     1
 10
154.996298557
 20
114.0125
 30
0.0
 11
154.996298557
 21
111.9875
 31
0.0
  0
LINE
  8
0
  6
CONTINUOUS
 62
     1
 10
154.996298557
 20
111.9875
 30
0.0
 11
156.75
 21
110.975
 31
0.0
  0
LINE
  8
0
  6
CONTINUOUS
 62
     1
 10
156.75
 20
110.975
 30
0.0
 11
158.503701443
 21
111.9875
 31
0.0
  0
LINE
  8
0
  6
CONTINUOUS
 62
     1
 10
158.503701443
 20
111.9875
 30
0.0
 11
158.503701443
 21
114.0125
 31
0.0
  0
LINE
  8
0
  6
CONTINUOUS
 62
     1
 10
158.503701443
 20
114.0125
 30
0.0
 11
156.75
 21
115.025
 31
0.0
  0
CIRCLE
  8
0
  6
CONTINUOUS
 62
     1
 10
156.75
 20
113.0
 30
0.0
 40
0.8
  0
CIRCLE
  8
0
  6
CONTINUOUS
 62
     1
 10
156.75
 20
113.0
 30
0.0
 40
1.0
  0
LINE
  8
0
  6
CONTINUOUS
 62
     1
 10
188.75
 20
115.025
 30
0.0
 11
186.996298557
 21
114.0125
 31
0.0
  0
LINE
  8
0
  6
CONTINUOUS
 62
     1
 10
186.996298557
 20
114.0125
 30
0.0
 11
186.996298557
 21
111.9875
 31
0.0
  0
LINE
  8
0
  6
CONTINUOUS
 62
     1
 10
186.996298557
 20
111.9875
 30
0.0
 11
188.75
 21
110.975
 31
0.0
  0
LINE
  8
0
  6
CONTINUOUS
 62
     1
 10
188.75
 20
110.975
 30
0.0
 11
190.503701443
 21
111.9875
 31
0.0
  0
LINE
  8
0
  6
CONTINUOUS
 62
     1
 10
190.503701443
 20
111.9875
 30
0.0
 11
190.503701443
 21
114.0125
 31
0.0
  0
LINE
  8
0
  6
CONTINUOUS
 62
     1
 10
190.503701443
 20
114.0125
 30
0.0
 11
188.75
 21
115.025
 31
0.0
  0
CIRCLE
  8
0
  6
CONTINUOUS
 62
     1
 10
188.75
 20
113.0
 30
0.0
 40
0.8
  0
CIRCLE
  8
0
  6
CONTINUOUS
 62
     1
 10
188.75
 20
113.0
 30
0.0
 40
1.0
  0
LINE
  8
0
  6
CONTINUOUS
 62
     1
 10
156.75
 20
147.025
 30
0.0
 11
154.996298557
 21
146.0125
 31
0.0
  0
LINE
  8
0
  6
CONTINUOUS
 62
     1
 10
154.996298557
 20
146.0125
 30
0.0
 11
154.996298557
 21
143.9875
 31
0.0
  0
LINE
  8
0
  6
CONTINUOUS
 62
     1
 10
154.996298557
 20
143.9875
 30
0.0
 11
156.75
 21
142.975
 31
0.0
  0
LINE
  8
0
  6
CONTINUOUS
 62
     1
 10
156.75
 20
142.975
 30
0.0
 11
158.503701443
 21
143.9875
 31
0.0
  0
LINE
  8
0
  6
CONTINUOUS
 62
     1
 10
158.503701443
 20
143.9875
 30
0.0
 11
158.503701443
 21
146.0125
 31
0.0
  0
LINE
  8
0
  6
CONTINUOUS
 62
     1
 10
158.503701443
 20
146.0125
 30
0.0
 11
156.75
 21
147.025
 31
0.0
  0
CIRCLE
  8
0
  6
CONTINUOUS
 62
     1
 10
156.75
 20
145.0
 30
0.0
 40
0.8
  0
CIRCLE
  8
0
  6
CONTINUOUS
 62
     1
 10
156.75
 20
145.0
 30
0.0
 40
1.0
  0
LINE
  8
0
  6
CONTINUOUS
 62
     1
 10
188.75
 20
147.025
 30
0.0
 11
186.996298557
 21
146.0125
 31
0.0
  0
LINE
  8
0
  6
CONTINUOUS
 62
     1
 10
186.996298557
 20
146.0125
 30
0.0
 11
186.996298557
 21
143.9875
 31
0.0
  0
LINE
  8
0
  6
CONTINUOUS
 62
     1
 10
186.996298557
 20
143.9875
 30
0.0
 11
188.75
 21
142.975
 31
0.0
  0
LINE
  8
0
  6
CONTINUOUS
 62
     1
 10
188.75
 20
142.975
 30
0.0
 11
190.503701443
 21
143.9875
 31
0.0
  0
LINE
  8
0
  6
CONTINUOUS
 62
     1
 10
190.503701443
 20
143.9875
 30
0.0
 11
190.503701443
 21
146.0125
 31
0.0
  0
LINE
  8
0
  6
CONTINUOUS
 62
     1
 10
190.503701443
 20
146.0125
 30
0.0
 11
188.75
 21
147.025
 31
0.0
  0
CIRCLE
  8
0
  6
CONTINUOUS
 62
     1
 10
188.75
 20
145.0
 30
0.0
 40
0.8
  0
CIRCLE
  8
0
  6
CONTINUOUS
 62
     1
 10
188.75
 20
145.0
 30
0.0
 40
1.0
  0
CIRCLE
  8
0
  6
CONTINUOUS
 62
     1
 10
179.0
 20
124.0
 30
0.0
 40
2.75
  0
CIRCLE
  8
0
  6
CONTINUOUS
 62
     1
 10
166.5
 20
124.0
 30
0.0
 40
2.75
  0
CIRCLE
  8
0
  6
CONTINUOUS
 62
     1
 10
156.75
 20
113.0
 30
0.0
 40
2.5
  0
CIRCLE
  8
0
  6
CONTINUOUS
 62
     1
 10
156.75
 20
145.0
 30
0.0
 40
2.5
  0
CIRCLE
  8
0
  6
CONTINUOUS
 62
     1
 10
188.75
 20
145.0
 30
0.0
 40
2.5
  0
CIRCLE
  8
0
  6
CONTINUOUS
 62
     1
 10
188.75
 20
113.0
 30
0.0
 40
2.5
  0
LINE
  8
0
  6
LTYPE2
 62
     2
 10
153.75
 20
113.0
 30
0.0
 11
159.75
 21
113.0
 31
0.0
  0
LINE
  8
0
  6
LTYPE2
 62
     2
 10
156.75
 20
116.0
 30
0.0
 11
156.75
 21
110.0
 31
0.0
  0
LINE
  8
0
  6
LTYPE2
 62
     2
 10
185.75
 20
113.0
 30
0.0
 11
191.75
 21
113.0
 31
0.0
  0
LINE
  8
0
  6
LTYPE2
 62
     2
 10
188.75
 20
116.0
 30
0.0
 11
188.75
 21
110.0
 31
0.0
  0
LINE
  8
0
  6
LTYPE2
 62
     2
 10
153.75
 20
145.0
 30
0.0
 11
159.75
 21
145.0
 31
0.0
  0
LINE
  8
0
  6
LTYPE2
 62
     2
 10
156.75
 20
148.0
 30
0.0
 11
156.75
 21
142.0
 31
0.0
  0
LINE
  8
0
  6
LTYPE2
 62
     2
 10
185.75
 20
145.0
 30
0.0
 11
191.75
 21
145.0
 31
0.0
  0
LINE
  8
0
  6
LTYPE2
 62
     2
 10
188.75
 20
148.0
 30
0.0
 11
188.75
 21
142.0
 31
0.0
  0
LINE
  8
0
  6
LTYPE2
 62
     2
 10
163.5
 20
124.0
 30
0.0
 11
169.5
 21
124.0
 31
0.0
  0
LINE
  8
0
  6
LTYPE2
 62
     2
 10
166.5
 20
127.0
 30
0.0
 11
166.5
 21
121.0
 31
0.0
  0
LINE
  8
0
  6
LTYPE2
 62
     2
 10
176.0
 20
124.0
 30
0.0
 11
182.0
 21
124.0
 31
0.0
  0
LINE
  8
0
  6
LTYPE2
 62
     2
 10
179.0
 20
127.0
 30
0.0
 11
179.0
 21
121.0
 31
0.0
  0
CIRCLE
  8
0
  6
CONTINUOUS
 62
     2
 10
166.5
 20
119.0
 30
0.0
 40
1.25
  0
LINE
  8
0
  6
CONTINUOUS
 62
     2
 10
165.5
 20
119.0
 30
0.0
 11
167.5
 21
119.0
 31
0.0
  0
LINE
  8
0
  6
CONTINUOUS
 62
     2
 10
166.5
 20
120.0
 30
0.0
 11
166.5
 21
118.0
 31
0.0
  0
LINE
  8
0
  6
CONTINUOUS
 62
     2
 10
152.75
 20
147.4
 30
0.0
 11
152.75
 21
171.0
 31
0.0
  0
LINE
  8
0
  6
CONTINUOUS
 62
     2
 10
152.75
 20
169.0
 30
0.0
 11
155.164814566
 21
168.352952387
 31
0.0
  0
LINE
  8
0
  6
CONTINUOUS
 62
     2
 10
152.75
 20
169.0
 30
0.0
 11
155.164814566
 21
169.647047613
 31
0.0
  0
LINE
  8
0
  6
CONTINUOUS
 62
     2
 10
152.75
 20
169.0
 30
0.0
 11
192.75
 21
169.0
 31
0.0
  0
LINE
  8
0
  6
CONTINUOUS
 62
     2
 10
192.75
 20
169.0
 30
0.0
 11
190.335185434
 21
169.647047613
 31
0.0
  0
LINE
  8
0
  6
CONTINUOUS
 62
     2
 10
192.75
 20
169.0
 30
0.0
 11
190.335185434
 21
168.352952387
 31
0.0
  0
LINE
  8
0
  6
CONTINUOUS
 62
     2
 10
192.75
 20
147.4
 30
0.0
 11
192.75
 21
171.0
 31
0.0
  0
TEXT
  8
0
  6
CONTINUOUS
 62
     2
 10
170.8
 20
170.0
 30
0.3
 40
3.0
  1
８０
 50
0.0
 41
0.6
 51
0.0
  7
KANJI0
  0
LINE
  8
0
  6
CONTINUOUS
 62
     2
 10
191.25
 20
149.0
 30
0.0
 11
214.75
 21
149.0
 31
0.0
  0
LINE
  8
0
  6
CONTINUOUS
 62
     2
 10
212.75
 20
149.0
 30
0.0
 11
212.102952387
 21
146.585185434
 31
0.0
  0
LINE
  8
0
  6
CONTINUOUS
 62
     2
 10
212.75
 20
149.0
 30
0.0
 11
213.397047613
 21
146.585185434
 31
0.0
  0
LINE
  8
0
  6
CONTINUOUS
 62
     2
 10
212.75
 20
149.0
 30
0.0
 11
212.75
 21
109.0
 31
0.0
  0
LINE
  8
0
  6
CONTINUOUS
 62
     2
 10
212.75
 20
109.0
 30
0.0
 11
213.397047613
 21
111.414814566
 31
0.0
  0
LINE
  8
0
  6
CONTINUOUS
 62
     2
 10
212.75
 20
109.0
 30
0.0
 11
212.102952387
 21
111.414814566
 31
0.0
  0
LINE
  8
0
  6
CONTINUOUS
 62
     2
 10
191.35
 20
109.0
 30
0.0
 11
214.75
 21
109.0
 31
0.0
  0
TEXT
  8
0
  6
CONTINUOUS
 62
     2
 10
211.75
 20
127.05
 30
0.3
 40
3.0
  1
８０
 50
90.0
 41
0.6
 51
0.0
  7
KANJI0
  0
LINE
  8
0
  6
CONTINUOUS
 62
     2
 10
191.75
 20
145.0
 30
0.0
 11
204.85
 21
145.0
 31
0.0
  0
LINE
  8
0
  6
CONTINUOUS
 62
     2
 10
202.85
 20
145.0
 30
0.0
 11
202.202952387
 21
142.585185434
 31
0.0
  0
LINE
  8
0
  6
CONTINUOUS
 62
     2
 10
202.85
 20
145.0
 30
0.0
 11
203.497047613
 21
142.585185434
 31
0.0
  0
LINE
  8
0
  6
CONTINUOUS
 62
     2
 10
202.85
 20
145.0
 30
0.0
 11
202.85
 21
129.0
 31
0.0
  0
LINE
  8
0
  6
CONTINUOUS
 62
     2
 10
202.85
 20
129.0
 30
0.0
 11
203.497047613
 21
131.414814566
 31
0.0
  0
LINE
  8
0
  6
CONTINUOUS
 62
     2
 10
202.85
 20
129.0
 30
0.0
 11
202.202952387
 21
131.414814566
 31
0.0
  0
LINE
  8
0
  6
CONTINUOUS
 62
     2
 10
199.75
 20
129.0
 30
0.0
 11
204.85
 21
129.0
 31
0.0
  0
TEXT
  8
0
  6
CONTINUOUS
 62
     2
 10
201.85
 20
132.62
 30
0.3
 40
3.0
  1
３２
 50
90.0
 41
0.6
 51
0.0
  7
KANJI0
  0
TEXT
  8
0
  6
CONTINUOUS
 62
     2
 10
201.85
 20
136.52
 30
0.18
 40
1.8
  1
±０．５
 50
90.0
 41
0.6
 51
0.0
  7
KANJI1
  0
LINE
  8
0
  6
CONTINUOUS
 62
     2
 10
202.85
 20
129.0
 30
0.0
 11
202.202952387
 21
126.585185434
 31
0.0
  0
LINE
  8
0
  6
CONTINUOUS
 62
     2
 10
202.85
 20
129.0
 30
0.0
 11
203.497047613
 21
126.585185434
 31
0.0
  0
LINE
  8
0
  6
CONTINUOUS
 62
     2
 10
202.85
 20
129.0
 30
0.0
 11
202.85
 21
113.0
 31
0.0
  0
LINE
  8
0
  6
CONTINUOUS
 62
     2
 10
202.85
 20
113.0
 30
0.0
 11
203.497047613
 21
115.414814566
 31
0.0
  0
LINE
  8
0
  6
CONTINUOUS
 62
     2
 10
202.85
 20
113.0
 30
0.0
 11
202.202952387
 21
115.414814566
 31
0.0
  0
LINE
  8
0
  6
CONTINUOUS
 62
     2
 10
191.75
 20
113.0
 30
0.0
 11
204.85
 21
113.0
 31
0.0
  0
TEXT
  8
0
  6
CONTINUOUS
 62
     2
 10
201.85
 20
116.62
 30
0.3
 40
3.0
  1
３２
 50
90.0
 41
0.6
 51
0.0
  7
KANJI0
  0
TEXT
  8
0
  6
CONTINUOUS
 62
     2
 10
201.85
 20
120.52
 30
0.18
 40
1.8
  1
±０．５
 50
90.0
 41
0.6
 51
0.0
  7
KANJI1
  0
LINE
  8
0
  6
CONTINUOUS
 62
     2
 10
156.75
 20
148.2
 30
0.0
 11
156.75
 21
161.0
 31
0.0
  0
LINE
  8
0
  6
CONTINUOUS
 62
     2
 10
156.75
 20
159.0
 30
0.0
 11
159.164814566
 21
158.352952387
 31
0.0
  0
LINE
  8
0
  6
CONTINUOUS
 62
     2
 10
156.75
 20
159.0
 30
0.0
 11
159.164814566
 21
159.647047613
 31
0.0
  0
LINE
  8
0
  6
CONTINUOUS
 62
     2
 10
156.75
 20
159.0
 30
0.0
 11
172.75
 21
159.0
 31
0.0
  0
LINE
  8
0
  6
CONTINUOUS
 62
     2
 10
172.75
 20
159.0
 30
0.0
 11
170.335185434
 21
159.647047613
 31
0.0
  0
LINE
  8
0
  6
CONTINUOUS
 62
     2
 10
172.75
 20
159.0
 30
0.0
 11
170.335185434
 21
158.352952387
 31
0.0
  0
LINE
  8
0
  6
CONTINUOUS
 62
     2
 10
172.75
 20
153.5
 30
0.0
 11
172.75
 21
161.0
 31
0.0
  0
TEXT
  8
0
  6
CONTINUOUS
 62
     2
 10
160.37
 20
160.0
 30
0.3
 40
3.0
  1
３２
 50
0.0
 41
0.6
 51
0.0
  7
KANJI0
  0
TEXT
  8
0
  6
CONTINUOUS
 62
     2
 10
164.27
 20
160.0
 30
0.18
 40
1.8
  1
±０．５
 50
0.0
 41
0.6
 51
0.0
  7
KANJI1
  0
LINE
  8
0
  6
CONTINUOUS
 62
     2
 10
172.75
 20
159.0
 30
0.0
 11
175.164814566
 21
158.352952387
 31
0.0
  0
LINE
  8
0
  6
CONTINUOUS
 62
     2
 10
172.75
 20
159.0
 30
0.0
 11
175.164814566
 21
159.647047613
 31
0.0
  0
LINE
  8
0
  6
CONTINUOUS
 62
     2
 10
172.75
 20
159.0
 30
0.0
 11
188.75
 21
159.0
 31
0.0
  0
LINE
  8
0
  6
CONTINUOUS
 62
     2
 10
188.75
 20
159.0
 30
0.0
 11
186.335185434
 21
159.647047613
 31
0.0
  0
LINE
  8
0
  6
CONTINUOUS
 62
     2
 10
188.75
 20
159.0
 30
0.0
 11
186.335185434
 21
158.352952387
 31
0.0
  0
LINE
  8
0
  6
CONTINUOUS
 62
     2
 10
188.75
 20
148.0
 30
0.0
 11
188.75
 21
161.0
 31
0.0
  0
TEXT
  8
0
  6
CONTINUOUS
 62
     2
 10
176.37
 20
160.0
 30
0.3
 40
3.0
  1
３２
 50
0.0
 41
0.6
 51
0.0
  7
KANJI0
  0
TEXT
  8
0
  6
CONTINUOUS
 62
     2
 10
180.27
 20
160.0
 30
0.18
 40
1.8
  1
±０．５
 50
0.0
 41
0.6
 51
0.0
  7
KANJI1
  0
LINE
  8
0
  6
CONTINUOUS
 62
     2
 10
166.5
 20
127.4
 30
0.0
 11
166.5
 21
136.0
 31
0.0
  0
LINE
  8
0
  6
CONTINUOUS
 62
     2
 10
166.5
 20
134.0
 30
0.0
 11
168.914814566
 21
133.352952387
 31
0.0
  0
LINE
  8
0
  6
CONTINUOUS
 62
     2
 10
166.5
 20
134.0
 30
0.0
 11
168.914814566
 21
134.647047613
 31
0.0
  0
LINE
  8
0
  6
CONTINUOUS
 62
     2
 10
166.5
 20
134.0
 30
0.0
 11
179.0
 21
134.0
 31
0.0
  0
LINE
  8
0
  6
CONTINUOUS
 62
     2
 10
179.0
 20
134.0
 30
0.0
 11
176.585185434
 21
134.647047613
 31
0.0
  0
LINE
  8
0
  6
CONTINUOUS
 62
     2
 10
179.0
 20
134.0
 30
0.0
 11
176.585185434
 21
133.352952387
 31
0.0
  0
LINE
  8
0
  6
CONTINUOUS
 62
     2
 10
179.0
 20
127.3
 30
0.0
 11
179.0
 21
136.0
 31
0.0
  0
POINT
  8
0
  6
LTYPE3
 62
     2
 10
167.75
 20
120.6
 30
0.0
  0
LINE
  8
0
  6
LTYPE3
 62
     2
 10
167.75
 20
120.6
 30
0.0
 11
165.25
 21
120.6
 31
0.0
  0
LINE
  8
0
  6
LTYPE3
 62
     2
 10
167.75
 20
120.6
 30
0.0
 11
167.75
 21
117.6
 31
0.0
  0
LINE
  8
0
  6
LTYPE3
 62
     2
 10
165.25
 20
120.6
 30
0.0
 11
165.25
 21
117.6
 31
0.0
  0
POINT
  8
0
  6
LTYPE3
 62
     2
 10
180.25
 20
120.6
 30
0.0
  0
LINE
  8
0
  6
LTYPE3
 62
     2
 10
180.25
 20
120.6
 30
0.0
 11
177.75
 21
120.6
 31
0.0
  0
LINE
  8
0
  6
LTYPE3
 62
     2
 10
180.25
 20
120.6
 30
0.0
 11
180.25
 21
117.6
 31
0.0
  0
LINE
  8
0
  6
LTYPE3
 62
     2
 10
177.75
 20
120.6
 30
0.0
 11
177.75
 21
117.6
 31
0.0
  0
ARC
  8
0
  6
LTYPE3
 62
     2
 10
166.0
 20
124.5
 30
0.0
 40
3.0
 50
90.0
 51
180.0
  0
LINE
  8
0
  6
LTYPE3
 62
     2
 10
163.0
 20
119.0
 30
0.0
 11
163.0
 21
124.5
 31
0.0
  0
LINE
  8
0
  6
LTYPE3
 62
     2
 10
179.5
 20
116.0
 30
0.0
 11
166.0
 21
116.0
 31
0.0
  0
ARC
  8
0
  6
LTYPE3
 62
     2
 10
166.0
 20
119.0
 30
0.0
 40
3.0
 50
180.0
 51
270.0
  0
LINE
  8
0
  6
LTYPE3
 62
     2
 10
166.025
 20
127.5
 30
0.0
 11
179.5
 21
127.5
 31
0.0
  0
ARC
  8
0
  6
LTYPE3
 62
     2
 10
179.5
 20
124.5
 30
0.0
 40
3.0
 50
0.0
 51
90.0
  0
ARC
  8
0
  6
LTYPE3
 62
     2
 10
179.5
 20
119.0
 30
0.0
 40
3.0
 50
270.0
 51
0.0
  0
LINE
  8
0
  6
LTYPE3
 62
     2
 10
182.5
 20
124.5
 30
0.0
 11
182.5
 21
119.0
 31
0.0
  0
ARC
  8
0
  6
LTYPE3
 62
     2
 10
166.5
 20
124.0
 30
0.0
 40
1.975
 50
328.025496594
 51
217.415803658
  0
LINE
  8
0
  6
LTYPE3
 62
     2
 10
164.931362056
 20
122.8
 30
0.0
 11
165.588529527
 21
121.850758098
 31
0.0
  0
ARC
  8
0
  6
LTYPE3
 62
     2
 10
163.944145143
 20
120.71233814
 30
0.0
 40
2.0
 50
10.612929601
 51
34.695153531
  0
ARC
  8
0
  6
LTYPE3
 62
     2
 10
169.055858303
 20
120.712343118
 30
0.0
 40
2.0
 50
145.304846469
 51
169.387402194
  0
LINE
  8
0
  6
LTYPE3
 62
     2
 10
167.090068544
 20
121.080678053
 30
0.0
 11
167.000002697
 21
120.6
 31
0.0
  0
LINE
  8
0
  6
LTYPE3
 62
     2
 10
165.909932769
 20
121.080684458
 30
0.0
 11
166.000002697
 21
120.6
 31
0.0
  0
CIRCLE
  8
0
  6
CONTINUOUS
 62
     2
 10
166.5
 20
124.0
 30
0.0
 40
2.25
  0
ARC
  8
0
  6
LTYPE3
 62
     2
 10
179.0
 20
124.0
 30
0.0
 40
1.975
 50
328.025496594
 51
217.415803658
  0
LINE
  8
0
  6
LTYPE3
 62
     2
 10
180.568637944
 20
122.8
 30
0.0
 11
179.91147392
 21
121.850763076
 31
0.0
  0
LINE
  8
0
  6
LTYPE3
 62
     2
 10
177.431362056
 20
122.8
 30
0.0
 11
178.088529527
 21
121.850758098
 31
0.0
  0
ARC
  8
0
  6
LTYPE3
 62
     2
 10
176.444145143
 20
120.71233814
 30
0.0
 40
2.0
 50
10.612929601
 51
34.695153531
  0
ARC
  8
0
  6
LTYPE3
 62
     2
 10
181.555858303
 20
120.712343118
 30
0.0
 40
2.0
 50
145.304846469
 51
169.387402194
  0
LINE
  8
0
  6
LTYPE3
 62
     2
 10
179.590068544
 20
121.080678053
 30
0.0
 11
179.500002697
 21
120.6
 31
0.0
  0
LINE
  8
0
  6
LTYPE3
 62
     2
 10
178.409932769
 20
121.080684458
 30
0.0
 11
178.500002697
 21
120.6
 31
0.0
  0
CIRCLE
  8
0
  6
CONTINUOUS
 62
     2
 10
179.0
 20
124.0
 30
0.0
 40
2.25
  0
LINE
  8
0
  6
LTYPE3
 62
     2
 10
168.068637944
 20
122.8
 30
0.0
 11
167.41147392
 21
121.850763076
 31
0.0
  0
LINE
  8
0
  6
LTYPE1
 62
     2
 10
172.75
 20
153.5
 30
0.0
 11
172.75
 21
105.4
 31
0.0
  0
LINE
  8
0
  6
CONTINUOUS
 62
     2
 10
166.5
 20
126.025
 30
0.0
 11
164.746298557
 21
125.0125
 31
0.0
  0
LINE
  8
0
  6
CONTINUOUS
 62
     2
 10
164.746298557
 20
125.0125
 30
0.0
 11
164.746298557
 21
122.9875
 31
0.0
  0
CIRCLE
  8
0
  6
CONTINUOUS
 62
     2
 10
166.5
 20
124.0
 30
0.0
 40
0.8
  0
LINE
  8
0
  6
CONTINUOUS
 62
     2
 10
164.746298557
 20
122.9875
 30
0.0
 11
166.5
 21
121.975
 31
0.0
  0
CIRCLE
  8
0
  6
CONTINUOUS
 62
     2
 10
166.5
 20
124.0
 30
0.0
 40
1.0
  0
LINE
  8
0
  6
CONTINUOUS
 62
     2
 10
166.5
 20
121.975
 30
0.0
 11
168.253701443
 21
122.9875
 31
0.0
  0
LINE
  8
0
  6
CONTINUOUS
 62
     2
 10
168.253701443
 20
125.0125
 30
0.0
 11
166.5
 21
126.025
 31
0.0
  0
LINE
  8
0
  6
CONTINUOUS
 62
     2
 10
168.253701443
 20
122.9875
 30
0.0
 11
168.253701443
 21
125.0125
 31
0.0
  0
LINE
  8
0
  6
CONTINUOUS
 62
     2
 10
177.246298557
 20
125.0125
 30
0.0
 11
177.246298557
 21
122.9875
 31
0.0
  0
CIRCLE
  8
0
  6
CONTINUOUS
 62
     2
 10
179.0
 20
124.0
 30
0.0
 40
1.0
  0
CIRCLE
  8
0
  6
CONTINUOUS
 62
     2
 10
179.0
 20
124.0
 30
0.0
 40
0.8
  0
LINE
  8
0
  6
CONTINUOUS
 62
     2
 10
177.246298557
 20
122.9875
 30
0.0
 11
179.0
 21
121.975
 31
0.0
  0
LINE
  8
0
  6
CONTINUOUS
 62
     2
 10
179.0
 20
121.975
 30
0.0
 11
180.753701443
 21
122.9875
 31
0.0
  0
LINE
  8
0
  6
CONTINUOUS
 62
     2
 10
179.0
 20
126.025
 30
0.0
 11
177.246298557
 21
125.0125
 31
0.0
  0
LINE
  8
0
  6
CONTINUOUS
 62
     2
 10
180.753701443
 20
125.0125
 30
0.0
 11
179.0
 21
126.025
 31
0.0
  0
LINE
  8
0
  6
CONTINUOUS
 62
     2
 10
180.753701443
 20
122.9875
 30
0.0
 11
180.753701443
 21
125.0125
 31
0.0
  0
LINE
  8
0
  6
CONTINUOUS
 62
     2
 10
185.1
 20
129.0
 30
0.0
 11
183.0
 21
129.0
 31
0.0
  0
LINE
  8
0
  6
CONTINUOUS
 62
     2
 10
197.8
 20
124.0
 30
0.0
 11
197.8
 21
129.0
 31
0.0
  0
LINE
  8
0
  6
CONTINUOUS
 62
     2
 10
197.8
 20
124.0
 30
0.0
 11
197.264101615
 21
126.0
 31
0.0
  0
LINE
  8
0
  6
CONTINUOUS
 62
     2
 10
197.8
 20
124.0
 30
0.0
 11
198.335898385
 21
126.0
 31
0.0
  0
TEXT
  8
0
  6
CONTINUOUS
 62
     2
 10
196.8
 20
124.55
 30
0.3
 40
3.0
  1
１０
 50
90.0
 41
0.6
 51
0.0
  7
KANJI0
  0
LINE
  8
0
  6
CONTINUOUS
 62
     2
 10
197.8
 20
129.0
 30
0.0
 11
198.335898385
 21
127.0
 31
0.0
  0
LINE
  8
0
  6
CONTINUOUS
 62
     2
 10
197.8
 20
129.0
 30
0.0
 11
197.264101615
 21
127.0
 31
0.0
  0
LINE
  8
0
  6
CONTINUOUS
 62
     2
 10
182.2
 20
124.0
 30
0.0
 11
199.0
 21
124.0
 31
0.0
  0
CIRCLE
  8
0
  6
CONTINUOUS
 62
     2
 10
185.0
 20
127.5
 30
0.0
 40
1.75
  0
ARC
  8
0
  6
CONTINUOUS
 62
     2
 10
184.53324
 20
127.96676
 30
0.0
 40
0.23338
 50
270.0
 51
0.0
  0
ARC
  8
0
  6
CONTINUOUS
 62
     2
 10
185.46676
 20
127.96676
 30
0.0
 40
0.23338
 50
180.0
 51
270.0
  0
ARC
  8
0
  6
CONTINUOUS
 62
     2
 10
185.46676
 20
127.03324
 30
0.0
 40
0.23338
 50
90.0
 51
180.0
  0
ARC
  8
0
  6
CONTINUOUS
 62
     2
 10
184.53324
 20
127.03324
 30
0.0
 40
0.23338
 50
0.0
 51
90.0
  0
LINE
  8
0
  6
CONTINUOUS
 62
     2
 10
185.46676
 20
127.73338
 30
0.0
 11
186.7378475
 21
127.73338
 31
0.0
  0
LINE
  8
0
  6
CONTINUOUS
 62
     2
 10
186.7378475
 20
127.26662
 30
0.0
 11
185.46676
 21
127.26662
 31
0.0
  0
LINE
  8
0
  6
CONTINUOUS
 62
     2
 10
183.2621525
 20
127.73338
 30
0.0
 11
184.53324
 21
127.73338
 31
0.0
  0
LINE
  8
0
  6
CONTINUOUS
 62
     2
 10
184.53324
 20
127.26662
 30
0.0
 11
183.2621525
 21
127.26662
 31
0.0
  0
LINE
  8
0
  6
CONTINUOUS
 62
     2
 10
184.76662
 20
128.5210375
 30
0.0
 11
185.23338
 21
128.5210375
 31
0.0
  0
LINE
  8
0
  6
CONTINUOUS
 62
     2
 10
185.23338
 20
126.4789625
 30
0.0
 11
184.76662
 21
126.4789625
 31
0.0
  0
LINE
  8
0
  6
CONTINUOUS
 62
     2
 10
184.76662
 20
127.96676
 30
0.0
 11
184.76662
 21
128.5210375
 31
0.0
  0
LINE
  8
0
  6
CONTINUOUS
 62
     2
 10
185.23338
 20
128.5210375
 30
0.0
 11
185.23338
 21
127.96676
 31
0.0
  0
LINE
  8
0
  6
CONTINUOUS
 62
     2
 10
185.23338
 20
127.03324
 30
0.0
 11
185.23338
 21
126.4789625
 31
0.0
  0
LINE
  8
0
  6
CONTINUOUS
 62
     2
 10
184.76662
 20
126.4789625
 30
0.0
 11
184.76662
 21
127.03324
 31
0.0
  0
CIRCLE
  8
0
  6
CONTINUOUS
 62
     2
 10
160.5
 20
127.5
 30
0.0
 40
1.75035
  0
ARC
  8
0
  6
CONTINUOUS
 62
     2
 10
160.03324
 20
127.96676
 30
0.0
 40
0.23338
 50
270.0
 51
0.0
  0
ARC
  8
0
  6
CONTINUOUS
 62
     2
 10
160.96676
 20
127.96676
 30
0.0
 40
0.23338
 50
180.0
 51
270.0
  0
ARC
  8
0
  6
CONTINUOUS
 62
     2
 10
160.96676
 20
127.03324
 30
0.0
 40
0.23338
 50
90.0
 51
180.0
  0
ARC
  8
0
  6
CONTINUOUS
 62
     2
 10
160.03324
 20
127.03324
 30
0.0
 40
0.23338
 50
0.0
 51
90.0
  0
LINE
  8
0
  6
CONTINUOUS
 62
     2
 10
160.96676
 20
127.73338
 30
0.0
 11
162.2378475
 21
127.73338
 31
0.0
  0
LINE
  8
0
  6
CONTINUOUS
 62
     2
 10
162.2378475
 20
127.26662
 30
0.0
 11
160.96676
 21
127.26662
 31
0.0
  0
LINE
  8
0
  6
CONTINUOUS
 62
     2
 10
158.7621525
 20
127.73338
 30
0.0
 11
160.03324
 21
127.73338
 31
0.0
  0
LINE
  8
0
  6
CONTINUOUS
 62
     2
 10
160.03324
 20
127.26662
 30
0.0
 11
158.7621525
 21
127.26662
 31
0.0
  0
LINE
  8
0
  6
CONTINUOUS
 62
     2
 10
160.26662
 20
128.5210375
 30
0.0
 11
160.73338
 21
128.5210375
 31
0.0
  0
LINE
  8
0
  6
CONTINUOUS
 62
     2
 10
160.73338
 20
126.4789625
 30
0.0
 11
160.26662
 21
126.4789625
 31
0.0
  0
LINE
  8
0
  6
CONTINUOUS
 62
     2
 10
160.73338
 20
128.5210375
 30
0.0
 11
160.73338
 21
127.96676
 31
0.0
  0
LINE
  8
0
  6
CONTINUOUS
 62
     2
 10
160.26662
 20
127.96676
 30
0.0
 11
160.26662
 21
128.5210375
 31
0.0
  0
LINE
  8
0
  6
CONTINUOUS
 62
     2
 10
160.73338
 20
127.03324
 30
0.0
 11
160.73338
 21
126.4789625
 31
0.0
  0
LINE
  8
0
  6
CONTINUOUS
 62
     2
 10
160.26662
 20
126.4789625
 30
0.0
 11
160.26662
 21
127.03324
 31
0.0
  0
LINE
  8
0
  6
LTYPE4
 62
     2
 10
148.9
 20
129.0
 30
0.0
 11
199.75
 21
129.0
 31
0.0
  0
CIRCLE
  8
0
  6
CONTINUOUS
 62
     1
 10
172.75
 20
64.0
 30
0.0
 40
16.75
  0
CIRCLE
  8
0
  6
CONTINUOUS
 62
     1
 10
188.75
 20
80.0
 30
0.0
 40
1.25
  0
CIRCLE
  8
0
  6
CONTINUOUS
 62
     1
 10
156.75
 20
80.0
 30
0.0
 40
1.25
  0
CIRCLE
  8
0
  6
CONTINUOUS
 62
     1
 10
156.75
 20
48.0
 30
0.0
 40
1.25
  0
CIRCLE
  8
0
  6
CONTINUOUS
 62
     1
 10
188.75
 20
48.0
 30
0.0
 40
1.25
  0
LINE
  8
0
  6
LTYPE1
 62
     2
 10
152.75
 20
48.0
 30
0.0
 11
160.25
 21
48.0
 31
0.0
  0
LINE
  8
0
  6
LTYPE1
 62
     2
 10
184.75
 20
48.0
 30
0.0
 11
193.75
 21
48.0
 31
0.0
  0
LINE
  8
0
  6
LTYPE1
 62
     2
 10
152.25
 20
80.0
 30
0.0
 11
160.75
 21
80.0
 31
0.0
  0
LINE
  8
0
  6
LTYPE1
 62
     2
 10
184.75
 20
80.0
 30
0.0
 11
193.75
 21
80.0
 31
0.0
  0
LINE
  8
0
  6
LTYPE1
 62
     2
 10
188.75
 20
84.0
 30
0.0
 11
188.75
 21
75.5
 31
0.0
  0
LINE
  8
0
  6
LTYPE1
 62
     2
 10
188.75
 20
52.0
 30
0.0
 11
188.75
 21
42.5
 31
0.0
  0
LINE
  8
0
  6
LTYPE1
 62
     2
 10
156.75
 20
42.5
 30
0.0
 11
156.75
 21
52.5
 31
0.0
  0
LINE
  8
0
  6
LTYPE1
 62
     2
 10
156.75
 20
75.5
 30
0.0
 11
156.75
 21
84.5
 31
0.0
  0
LINE
  8
0
  6
CONTINUOUS
 62
     2
 10
156.75
 20
84.5
 30
0.0
 11
156.75
 21
92.0
 31
0.0
  0
LINE
  8
0
  6
CONTINUOUS
 62
     2
 10
156.75
 20
90.0
 30
0.0
 11
159.164814566
 21
89.352952387
 31
0.0
  0
LINE
  8
0
  6
CONTINUOUS
 62
     2
 10
156.75
 20
90.0
 30
0.0
 11
159.164814566
 21
90.647047613
 31
0.0
  0
LINE
  8
0
  6
CONTINUOUS
 62
     2
 10
156.75
 20
90.0
 30
0.0
 11
172.75
 21
90.0
 31
0.0
  0
LINE
  8
0
  6
CONTINUOUS
 62
     2
 10
172.75
 20
90.0
 30
0.0
 11
170.335185434
 21
90.647047613
 31
0.0
  0
LINE
  8
0
  6
CONTINUOUS
 62
     2
 10
172.75
 20
90.0
 30
0.0
 11
170.335185434
 21
89.352952387
 31
0.0
  0
TEXT
  8
0
  6
CONTINUOUS
 62
     2
 10
160.37
 20
91.0
 30
0.3
 40
3.0
  1
３２
 50
0.0
 41
0.6
 51
0.0
  7
KANJI0
  0
TEXT
  8
0
  6
CONTINUOUS
 62
     2
 10
164.27
 20
91.0
 30
0.18
 40
1.8
  1
±０．５
 50
0.0
 41
0.6
 51
0.0
  7
KANJI1
  0
LINE
  8
0
  6
CONTINUOUS
 62
     2
 10
172.75
 20
90.0
 30
0.0
 11
175.164814566
 21
89.352952387
 31
0.0
  0
LINE
  8
0
  6
CONTINUOUS
 62
     2
 10
172.75
 20
90.0
 30
0.0
 11
175.164814566
 21
90.647047613
 31
0.0
  0
LINE
  8
0
  6
CONTINUOUS
 62
     2
 10
172.75
 20
90.0
 30
0.0
 11
188.75
 21
90.0
 31
0.0
  0
LINE
  8
0
  6
CONTINUOUS
 62
     2
 10
188.75
 20
90.0
 30
0.0
 11
186.335185434
 21
90.647047613
 31
0.0
  0
LINE
  8
0
  6
CONTINUOUS
 62
     2
 10
188.75
 20
90.0
 30
0.0
 11
186.335185434
 21
89.352952387
 31
0.0
  0
LINE
  8
0
  6
CONTINUOUS
 62
     2
 10
188.75
 20
84.0
 30
0.0
 11
188.75
 21
92.0
 31
0.0
  0
TEXT
  8
0
  6
CONTINUOUS
 62
     2
 10
176.37
 20
91.0
 30
0.3
 40
3.0
  1
３２
 50
0.0
 41
0.6
 51
0.0
  7
KANJI0
  0
TEXT
  8
0
  6
CONTINUOUS
 62
     2
 10
180.27
 20
91.0
 30
0.18
 40
1.8
  1
±０．５
 50
0.0
 41
0.6
 51
0.0
  7
KANJI1
  0
LINE
  8
0
  6
CONTINUOUS
 62
     2
 10
193.75
 20
80.0
 30
0.0
 11
200.75
 21
80.0
 31
0.0
  0
LINE
  8
0
  6
CONTINUOUS
 62
     2
 10
198.75
 20
80.0
 30
0.0
 11
198.102952387
 21
77.585185434
 31
0.0
  0
LINE
  8
0
  6
CONTINUOUS
 62
     2
 10
198.75
 20
80.0
 30
0.0
 11
199.397047613
 21
77.585185434
 31
0.0
  0
LINE
  8
0
  6
CONTINUOUS
 62
     2
 10
198.75
 20
80.0
 30
0.0
 11
198.75
 21
64.0
 31
0.0
  0
LINE
  8
0
  6
CONTINUOUS
 62
     2
 10
198.75
 20
64.0
 30
0.0
 11
199.397047613
 21
66.414814566
 31
0.0
  0
LINE
  8
0
  6
CONTINUOUS
 62
     2
 10
198.75
 20
64.0
 30
0.0
 11
198.102952387
 21
66.414814566
 31
0.0
  0
LINE
  8
0
  6
CONTINUOUS
 62
     2
 10
198.85
 20
64.0
 30
0.0
 11
196.75
 21
64.0
 31
0.0
  0
TEXT
  8
0
  6
CONTINUOUS
 62
     2
 10
197.75
 20
67.62
 30
0.3
 40
3.0
  1
３２
 50
90.0
 41
0.6
 51
0.0
  7
KANJI0
  0
TEXT
  8
0
  6
CONTINUOUS
 62
     2
 10
197.75
 20
71.52
 30
0.18
 40
1.8
  1
±０．５
 50
90.0
 41
0.6
 51
0.0
  7
KANJI1
  0
LINE
  8
0
  6
CONTINUOUS
 62
     2
 10
198.75
 20
64.0
 30
0.0
 11
198.102952387
 21
61.585185434
 31
0.0
  0
LINE
  8
0
  6
CONTINUOUS
 62
     2
 10
198.75
 20
64.0
 30
0.0
 11
199.397047613
 21
61.585185434
 31
0.0
  0
LINE
  8
0
  6
CONTINUOUS
 62
     2
 10
198.75
 20
64.0
 30
0.0
 11
198.75
 21
48.0
 31
0.0
  0
LINE
  8
0
  6
CONTINUOUS
 62
     2
 10
198.75
 20
48.0
 30
0.0
 11
199.397047613
 21
50.414814566
 31
0.0
  0
LINE
  8
0
  6
CONTINUOUS
 62
     2
 10
198.75
 20
48.0
 30
0.0
 11
198.102952387
 21
50.414814566
 31
0.0
  0
LINE
  8
0
  6
CONTINUOUS
 62
     2
 10
193.75
 20
48.0
 30
0.0
 11
200.75
 21
48.0
 31
0.0
  0
TEXT
  8
0
  6
CONTINUOUS
 62
     2
 10
197.75
 20
51.62
 30
0.3
 40
3.0
  1
３２
 50
90.0
 41
0.6
 51
0.0
  7
KANJI0
  0
TEXT
  8
0
  6
CONTINUOUS
 62
     2
 10
197.75
 20
55.52
 30
0.18
 40
1.8
  1
±０．５
 50
90.0
 41
0.6
 51
0.0
  7
KANJI1
  0
LINE
  8
0
  6
CONTINUOUS
 62
     2
 10
156.409055505
 20
60.320865182
 30
0.0
 11
158.907021247
 21
60.220032896
 31
0.0
  0
LINE
  8
0
  6
CONTINUOUS
 62
     2
 10
156.409055505
 20
60.320865182
 30
0.0
 11
158.622773438
 21
61.482524732
 31
0.0
  0
LINE
  8
0
  6
CONTINUOUS
 62
     2
 10
156.409055505
 20
60.320865182
 30
0.0
 11
189.090944495
 21
67.679134818
 31
0.0
  0
LINE
  8
0
  6
CONTINUOUS
 62
     2
 10
189.090944495
 20
67.679134818
 30
0.0
 11
186.592978753
 21
67.779967104
 31
0.0
  0
LINE
  8
0
  6
CONTINUOUS
 62
     2
 10
189.090944495
 20
67.679134818
 30
0.0
 11
186.877226562
 21
66.517475268
 31
0.0
  0
TEXT
  8
0
  6
CONTINUOUS
 62
     2
 10
163.536275673
 20
62.950578776
 30
0.3
 40
3.0
  1
φ６７
 50
12.688467247
 41
0.6
 51
0.0
  7
KANJI0
  0
TEXT
  8
0
  6
CONTINUOUS
 62
     2
 10
169.389748328
 20
64.268477815
 30
0.18
 40
1.8
  1
±１
 50
12.688467247
 41
0.6
 51
0.0
  7
KANJI1
  0
LINE
  8
0
  6
CONTINUOUS
 62
     2
 10
155.667468245
 20
47.375
 30
0.0
 11
153.253614165
 21
46.724378389
 31
0.0
  0
LINE
  8
0
  6
CONTINUOUS
 62
     2
 10
155.667468245
 20
47.375
 30
0.0
 11
153.902320097
 21
45.604618117
 31
0.0
  0
LINE
  8
0
  6
CONTINUOUS
 62
     2
 10
155.667468245
 20
47.375
 30
0.0
 11
142.030925513
 21
39.475
 31
0.0
  0
LINE
  8
0
  6
CONTINUOUS
 62
     2
 10
142.030925513
 20
39.475
 30
0.0
 11
129.530925513
 21
39.475
 31
0.0
  0
LINE
  8
0
  6
CONTINUOUS
 62
     1
 10
160.855925513
 20
29.275
 30
0.0
 11
190.5
 21
29.275
 31
0.0
  0
TEXT
  8
0
  6
CONTINUOUS
 62
     2
 10
130.530925513
 20
40.475
 30
0.0
 40
3.0
  1
４－φ５
 50
0.0
 41
0.833333333
 51
0.0
  7
KANJI2
  0
LINE
  8
0
  6
CONTINUOUS
 62
     2
 10
172.75
 20
90.0
 30
0.0
 11
172.75
 21
93.1
 31
0.0
  0
LINE
  8
0
  6
LTYPE1
 62
     2
 10
151.9
 20
64.0
 30
0.0
 11
202.75
 21
64.0
 31
0.0
  0
LINE
  8
0
  6
LTYPE1
 62
     2
 10
172.75
 20
92.0
 30
0.0
 11
172.75
 21
43.4
 31
0.0
  0
ARC
  8
0
  6
CONTINUOUS
 62
     2
 10
113.3103
 20
128.49751
 30
0.0
 40
0.5993
 50
0.0
 51
90.0
  0
TEXT
  8
0
  6
CONTINUOUS
 62
     2
 10
116.95
 20
111.5
 30
0.3
 40
3.0
  1
（オプション）
 50
0.0
 41
0.9
 51
0.0
  7
KANJI3
  0
TEXT
  8
0
  6
CONTINUOUS
 62
     2
 10
122.029411765
 20
101.85
 30
0.3
 40
3.0
  1
Ｍ４　ターミナルネジ
 50
0.0
 41
0.9
 51
0.0
  7
KANJI3
  0
TEXT
  8
0
  6
CONTINUOUS
 62
     2
 10
104.25
 20
95.65
 30
0.3
 40
3.0
  1
Ｍ４　取付ボルト
 50
0.0
 41
0.9
 51
0.0
  7
KANJI3
  0
TEXT
  8
0
  6
CONTINUOUS
 62
     2
 10
49.45
 20
97.5
 30
0.3
 40
3.0
  1
機械的零位調整器
 50
0.0
 41
0.9
 51
0.0
  7
KANJI3
  0
LINE
  8
0
  6
CONTINUOUS
 62
     2
 10
48.72028754
 20
96.5
 30
0.0
 11
74.12028754
 21
96.5
 31
0.0
  0
LINE
  8
0
  6
CONTINUOUS
 62
     2
 10
103.407142857
 20
94.65
 30
0.0
 11
127.02028754
 21
94.65
 31
0.0
  0
LINE
  8
0
  6
CONTINUOUS
 62
     2
 10
121.232620321
 20
100.85
 30
0.0
 11
150.72028754
 21
100.85
 31
0.0
  0
TEXT
  8
0
  6
CONTINUOUS
 62
     1
 10
164.055925513
 20
30.275
 30
0.4
 40
4.0
  1
パネルカット
 50
0.0
 41
0.9
 51
0.0
  7
KANJI4
  0
TEXT
  8
0
  6
CONTINUOUS
 62
     2
 10
13.97
 20
97.45
 30
0.3
 40
3.0
  1
指針
 50
0.0
 41
0.9
 51
0.0
  7
KANJI3
  0
LINE
  8
0
  6
CONTINUOUS
 62
     2
 10
21.95
 20
96.45
 30
0.0
 11
13.54
 21
96.45
 31
0.0
  0
TEXT
  8
0
  6
CONTINUOUS
 62
     2
 10
170.8
 20
135.0
 30
0.3
 40
3.0
  1
２５
 50
0.0
 41
0.6
 51
0.0
  7
KANJI0
  0
TEXT
  8
0
  6
CONTINUOUS
 62
     2
 10
159.6
 20
130.0
 30
0.3
 40
3.0
  1
Ｌ
 50
0.0
 41
0.6
 51
0.0
  7
KANJI0
  0
TEXT
  8
0
  6
CONTINUOUS
 62
     2
 10
184.1
 20
130.0
 30
0.3
 40
3.0
  1
Ｌ
 50
0.0
 41
0.6
 51
0.0
  7
KANJI0
  0
LINE
  8
0
  6
LTYPE5
 62
     2
 10
157.173076211
 20
115.737598965
 30
0.0
 11
163.198076224
 21
126.173205103
 31
0.0
  0
ARC
  8
0
  6
LTYPE5
 62
     2
 10
160.14330127
 20
126.782179677
 30
0.0
 40
2.95
 50
150.0
 51
330.0
  0
ARC
  8
0
  6
LTYPE5
 62
     2
 10
160.64330127
 20
127.648205081
 30
0.0
 40
2.95
 50
330.0
 51
150.0
  0
LINE
  8
0
  6
LTYPE5
 62
     2
 10
152.063526329
 20
118.687598965
 30
0.0
 11
157.173076211
 21
115.737598965
 31
0.0
  0
LINE
  8
0
  6
LTYPE5
 62
     2
 10
158.088526342
 20
129.123205103
 30
0.0
 11
152.063526329
 21
118.687598965
 31
0.0
  0
LINE
  8
0
  6
LTYPE5
 62
     2
 10
193.436473671
 20
118.687598965
 30
0.0
 11
188.326923789
 21
115.737598965
 31
0.0
  0
LINE
  8
0
  6
LTYPE5
 62
     2
 10
187.411473658
 20
129.123205103
 30
0.0
 11
193.436473671
 21
118.687598965
 31
0.0
  0
ARC
  8
0
  6
LTYPE5
 62
     2
 10
184.85669873
 20
127.648205081
 30
0.0
 40
2.95
 50
30.0
 51
210.0
  0
LINE
  8
0
  6
LTYPE5
 62
     2
 10
188.326923789
 20
115.737598965
 30
0.0
 11
182.301923776
 21
126.173205103
 31
0.0
  0
ARC
  8
0
  6
LTYPE5
 62
     2
 10
185.35669873
 20
126.782179677
 30
0.0
 40
2.95
 50
210.0
 51
30.0
  0
ARC
  8
0
  6
LTYPE6
 62
     2
 10
114.5
 20
128.65035
 30
0.0
 40
2.25
 50
0.0
 51
90.0
  0
LINE
  8
0
  6
LTYPE6
 62
     2
 10
116.75
 20
128.65035
 30
0.0
 11
116.75
 21
126.25035
 31
0.0
  0
ARC
  8
0
  6
LTYPE6
 62
     2
 10
114.5
 20
126.25035
 30
0.0
 40
2.25
 50
303.748988596
 51
0.0
  0
ARC
  8
0
  6
LTYPE6
 62
     2
 10
113.543240868
 20
124.818513486
 30
0.0
 40
2.25
 50
348.748988596
 51
45.0
  0
LINE
  8
0
  6
LTYPE6
 62
     2
 10
108.25
 20
130.90035
 30
0.0
 11
114.5
 21
130.90035
 31
0.0
  0
LINE
  8
0
  6
LTYPE6
 62
     2
 10
115.75
 20
124.379521307
 30
0.0
 11
115.75
 21
118.937948965
 31
0.0
  0
LINE
  8
0
  6
LTYPE7
 62
     2
 10
108.25
 20
118.937948965
 30
0.0
 11
114.75
 21
118.937948965
 31
0.0
  0
ARC
  8
0
  6
LTYPE7
 62
     2
 10
114.75
 20
117.937948965
 30
0.0
 40
1.0
 50
360.0
 51
90.0
  0
LINE
  8
0
  6
LTYPE6
 62
     2
 10
114.75
 20
115.90035
 30
0.0
 11
108.25
 21
115.90035
 31
0.0
  0
LINE
  8
0
  6
LTYPE6
 62
     2
 10
115.75
 20
117.937948965
 30
0.0
 11
115.75
 21
116.90035
 31
0.0
  0
ARC
  8
0
  6
LTYPE6
 62
     2
 10
114.75
 20
116.90035
 30
0.0
 40
1.0
 50
270.0
 51
0.0
  0
TEXT
  8
0
  6
CONTINUOUS
 62
     2
 10
204.2
 20
160.6
 30
0.3
 40
3.0
  1
ランプ電源端子キャップ（オプション）
 50
0.0
 41
0.9
 51
0.0
  7
KANJI3
  0
TEXT
  8
0
  6
CONTINUOUS
 62
     2
 10
118.95
 20
116.3
 30
0.3
 40
3.0
  1
計器入力端子キャップ
 50
0.0
 41
0.9
 51
0.0
  7
KANJI3
  0
LINE
  8
0
  6
CONTINUOUS
 62
     2
 10
117.086363636
 20
115.3
 30
0.0
 11
149.2
 21
115.3
 31
0.0
  0
LINE
  8
0
  6
CONTINUOUS
 62
     2
 10
36.7
 20
113.3
 30
0.0
 11
35.672438211
 21
111.020939498
 31
0.0
  0
LINE
  8
0
  6
CONTINUOUS
 62
     2
 10
36.7
 20
113.3
 30
0.0
 11
36.949635638
 21
110.812494814
 31
0.0
  0
LINE
  8
0
  6
CONTINUOUS
 62
     2
 10
33.95
 20
96.45
 30
0.0
 11
24.95
 21
96.45
 31
0.0
  0
TEXT
  8
0
  6
CONTINUOUS
 62
     2
 10
25.35
 20
97.45
 30
0.3
 40
3.0
  1
フード
 50
0.0
 41
0.9
 51
0.0
  7
KANJI3
  0
LINE
  8
0
  6
CONTINUOUS
 62
     2
 10
36.7
 20
113.3
 30
0.0
 11
33.95
 21
96.45
 31
0.0
  0
TEXT
  8
0
  6
CONTINUOUS
 62
     2
 10
59.72028754
 20
91.5
 30
0.3
 40
3.0
  1
フランジ六角ナット
 50
0.0
 41
0.9
 51
0.0
  7
KANJI3
  0
LINE
  8
0
  6
CONTINUOUS
 62
     2
 10
58.92028754
 20
90.5
 30
0.0
 11
87.02028754
 21
90.5
 31
0.0
  0
LINE
  8
0
  6
CONTINUOUS
 62
     2
 10
94.72028754
 20
110.9
 30
0.0
 11
93.262176475
 21
108.869258234
 31
0.0
  0
LINE
  8
0
  6
CONTINUOUS
 62
     2
 10
94.72028754
 20
110.9
 30
0.0
 11
94.472897199
 21
108.412270509
 31
0.0
  0
LINE
  8
0
  6
CONTINUOUS
 62
     2
 10
94.72028754
 20
110.9
 30
0.0
 11
87.02028754
 21
90.5
 31
0.0
  0
LINE
  8
0
  6
CONTINUOUS
 62
     2
 10
114.25
 20
125.2832825
 30
0.0
 11
114.25
 21
171.0
 31
0.0
  0
LINE
  8
2
  6
CONTINUOUS
 62
     2
 10
113.545989274
 20
129.0
 30
0.0
 11
114.762970121
 21
131.183794317
 31
0.0
  0
LINE
  8
2
  6
CONTINUOUS
 62
     2
 10
113.545989274
 20
129.0
 30
0.0
 11
113.508028445
 21
131.499711778
 31
0.0
  0
LINE
  8
2
  6
CONTINUOUS
 62
     2
 10
113.545989274
 20
129.0
 30
0.0
 11
119.624853508
 21
153.14751
 31
0.0
  0
TEXT
  8
0
  6
CONTINUOUS
 62
     2
 10
120.2896
 20
154.14751
 30
0.3
 40
3.0
  1
Ｍ４　ターミナルネジ
 50
0.0
 41
0.9
 51
0.0
  7
KANJI3
  0
TEXT
  8
0
  6
CONTINUOUS
 62
     2
 10
120.7646
 20
149.14751
 30
0.3
 40
3.0
  1
（ランプターミナル）
 50
0.0
 41
0.9
 51
0.0
  7
KANJI3
  0
LINE
  8
0
  6
CONTINUOUS
 62
     2
 10
119.624853508
 20
153.14751
 30
0.0
 11
151.12028754
 21
153.14751
 31
0.0
  0
LINE
  8
0
  6
CONTINUOUS
 62
     2
 10
204.2
 20
159.6
 30
0.0
 11
255.2
 21
159.6
 31
0.0
  0
LINE
  8
0
  6
CONTINUOUS
 62
     2
 10
189.5
 20
125.3
 30
0.0
 11
191.045972657
 21
127.264680265
 31
0.0
  0
LINE
  8
0
  6
CONTINUOUS
 62
     2
 10
189.5
 20
125.3
 30
0.0
 11
189.856511462
 21
127.774449348
 31
0.0
  0
LINE
  8
0
  6
CONTINUOUS
 62
     2
 10
189.5
 20
125.3
 30
0.0
 11
204.2
 21
159.6
 31
0.0
  0
LINE
  8
0
  6
LTYPE2
 62
     2
 10
182.6662
 20
127.5
 30
0.0
 11
187.3338
 21
127.5
 31
0.0
  0
LINE
  8
0
  6
LTYPE2
 62
     2
 10
185.0
 20
129.8338
 30
0.0
 11
185.0
 21
125.1662
 31
0.0
  0
LINE
  8
0
  6
LTYPE2
 62
     2
 10
158.1662
 20
127.5
 30
0.0
 11
162.8338
 21
127.5
 31
0.0
  0
LINE
  8
0
  6
LTYPE2
 62
     2
 10
160.5
 20
129.8338
 30
0.0
 11
160.5
 21
125.1662
 31
0.0
  0
TEXT
  8
0
  6
CONTINUOUS
 62
     6
 10
41.45
 20
67.45
 30
1.0
 40
5.0
  1
□ＶＦ－８Ｌ
 50
0.0
 41
0.9
 51
0.0
  7
KANJI5
  0
TEXT
  8
0
  6
CONTINUOUS
 62
     2
 10
39.8
 20
61.95
 30
0.3
 40
3.0
  1
ランプ付
 50
0.0
 41
0.9
 51
0.0
  7
KANJI3
  0
TEXT
  8
0
  6
CONTINUOUS
 62
     1
 10
39.8
 20
56.95
 30
0.4
 40
4.0
  1
広角度計器　外形図
 50
0.0
 41
0.9
 51
0.0
  7
KANJI4
  0
TEXT
  8
0
  6
CONTINUOUS
 62
     3
 10
38.2
 20
40.49
 30
0.6
 40
6.0
  1
ＭＳ－１０５６１Ａ
 50
0.0
 41
0.9
 51
0.0
  7
KANJI6
  0
ENDSEC
  0
EOF
