  0
SECTION
  2
HEADER
  9
$ACADVER
  1
AC1009
  9
$DWGCODEPAGE
  3
dos932
  9
$EXTMIN
 10
0.0
 20
0.0
 30
0.0
  9
$EXTMAX
 10
297.0
 20
210.0
 30
0.0
  9
$LIMMIN
 10
0.0
 20
0.0
  9
$LIMMAX
 10
297.0
 20
210.0
  9
$LTSCALE
 40
1.0
  9
$PDMODE
 70
     0
  0
ENDSEC
  0
SECTION
  2
TABLES
  0
TABLE
  2
VPORT
 70
     1
  0
VPORT
  2
*ACTIVE
 70
     0
 10
0.0
 20
0.0
 11
1.0
 21
1.0
 12
148.5
 22
105.0
 13
0.0
 23
0.0
 14
10.0
 24
10.0
 15
10.0
 25
10.0
 16
0.0
 26
0.0
 36
1.0
 17
0.0
 27
0.0
 37
0.0
 40
297.0
 41
1.414285714
 42
50.0
 43
0.0
 44
0.0
 50
0.0
 51
0.0
 71
     0
 72
  1000
 73
     1
 74
     3
 75
     0
 76
     0
 77
     0
 78
     0
  0
ENDTAB
  0
TABLE
  2
LTYPE
 70
     6
  0
LTYPE
  2
CONTINUOUS
 70
    64
  3
Solid line
 72
    65
 73
     0
 40
0.0
  0
LTYPE
  2
LTYPE1
 70
    64
  3
CENTER
 72
    65
 73
     4
 40
15.0
 49
10.5
 49
-1.5
 49
1.5
 49
-1.5
  0
LTYPE
  2
LTYPE2
 70
    64
  3
CENTER
 72
    65
 73
     4
 40
5.0
 49
3.5
 49
-0.5
 49
0.5
 49
-0.5
  0
LTYPE
  2
LTYPE3
 70
    64
  3
PHANTOM
 72
    65
 73
     6
 40
8.0
 49
6.0
 49
-0.4
 49
0.4
 49
-0.4
 49
0.4
 49
-0.4
  0
LTYPE
  2
LTYPE4
 70
    64
  3
HIDDEN
 72
    65
 73
     2
 40
2.0
 49
1.2
 49
-0.8
  0
LTYPE
  2
LTYPE5
 70
    64
  3
HIDDEN
 72
    65
 73
     2
 40
3.0
 49
1.8
 49
-1.2
  0
ENDTAB
  0
TABLE
  2
LAYER
 70
   128
  0
LAYER
  2
0
 70
     0
 62
     7
  6
CONTINUOUS
  0
LAYER
  2
2
 70
     0
 62
     7
  6
CONTINUOUS
  0
LAYER
  2
3
 70
     0
 62
     7
  6
CONTINUOUS
  0
LAYER
  2
4
 70
     0
 62
     7
  6
CONTINUOUS
  0
LAYER
  2
5
 70
     0
 62
     7
  6
CONTINUOUS
  0
LAYER
  2
6
 70
     0
 62
     7
  6
CONTINUOUS
  0
LAYER
  2
7
 70
     0
 62
     7
  6
CONTINUOUS
  0
LAYER
  2
8
 70
     0
 62
     7
  6
CONTINUOUS
  0
LAYER
  2
9
 70
     0
 62
     7
  6
CONTINUOUS
  0
LAYER
  2
10
 70
     0
 62
     7
  6
CONTINUOUS
  0
LAYER
  2
11
 70
     0
 62
     7
  6
CONTINUOUS
  0
LAYER
  2
12
 70
     0
 62
     7
  6
CONTINUOUS
  0
LAYER
  2
13
 70
     0
 62
     7
  6
CONTINUOUS
  0
LAYER
  2
14
 70
     0
 62
     7
  6
CONTINUOUS
  0
LAYER
  2
15
 70
     0
 62
     7
  6
CONTINUOUS
  0
LAYER
  2
16
 70
     0
 62
     7
  6
CONTINUOUS
  0
LAYER
  2
17
 70
     0
 62
     7
  6
CONTINUOUS
  0
LAYER
  2
18
 70
     0
 62
     7
  6
CONTINUOUS
  0
LAYER
  2
19
 70
     0
 62
     7
  6
CONTINUOUS
  0
LAYER
  2
20
 70
     0
 62
     7
  6
CONTINUOUS
  0
LAYER
  2
21
 70
     0
 62
     7
  6
CONTINUOUS
  0
LAYER
  2
22
 70
     0
 62
     7
  6
CONTINUOUS
  0
LAYER
  2
23
 70
     0
 62
     7
  6
CONTINUOUS
  0
LAYER
  2
24
 70
     0
 62
     7
  6
CONTINUOUS
  0
LAYER
  2
25
 70
     0
 62
     7
  6
CONTINUOUS
  0
LAYER
  2
26
 70
     0
 62
     7
  6
CONTINUOUS
  0
LAYER
  2
27
 70
     0
 62
     7
  6
CONTINUOUS
  0
LAYER
  2
28
 70
     0
 62
     7
  6
CONTINUOUS
  0
LAYER
  2
29
 70
     0
 62
     7
  6
CONTINUOUS
  0
LAYER
  2
30
 70
     0
 62
     7
  6
CONTINUOUS
  0
LAYER
  2
31
 70
     0
 62
     7
  6
CONTINUOUS
  0
LAYER
  2
32
 70
     0
 62
     7
  6
CONTINUOUS
  0
LAYER
  2
33
 70
     0
 62
     7
  6
CONTINUOUS
  0
LAYER
  2
34
 70
     0
 62
     7
  6
CONTINUOUS
  0
LAYER
  2
35
 70
     0
 62
     7
  6
CONTINUOUS
  0
LAYER
  2
36
 70
     0
 62
     7
  6
CONTINUOUS
  0
LAYER
  2
37
 70
     0
 62
     7
  6
CONTINUOUS
  0
LAYER
  2
38
 70
     0
 62
     7
  6
CONTINUOUS
  0
LAYER
  2
39
 70
     0
 62
     7
  6
CONTINUOUS
  0
LAYER
  2
40
 70
     0
 62
     7
  6
CONTINUOUS
  0
LAYER
  2
41
 70
     0
 62
     7
  6
CONTINUOUS
  0
LAYER
  2
42
 70
     0
 62
     7
  6
CONTINUOUS
  0
LAYER
  2
43
 70
     0
 62
     7
  6
CONTINUOUS
  0
LAYER
  2
44
 70
     0
 62
     7
  6
CONTINUOUS
  0
LAYER
  2
45
 70
     0
 62
     7
  6
CONTINUOUS
  0
LAYER
  2
46
 70
     0
 62
     7
  6
CONTINUOUS
  0
LAYER
  2
47
 70
     0
 62
     7
  6
CONTINUOUS
  0
LAYER
  2
48
 70
     0
 62
     7
  6
CONTINUOUS
  0
LAYER
  2
49
 70
     0
 62
     7
  6
CONTINUOUS
  0
LAYER
  2
50
 70
     0
 62
     7
  6
CONTINUOUS
  0
LAYER
  2
51
 70
     0
 62
     7
  6
CONTINUOUS
  0
LAYER
  2
52
 70
     0
 62
     7
  6
CONTINUOUS
  0
LAYER
  2
53
 70
     0
 62
     7
  6
CONTINUOUS
  0
LAYER
  2
54
 70
     0
 62
     7
  6
CONTINUOUS
  0
LAYER
  2
55
 70
     0
 62
     7
  6
CONTINUOUS
  0
LAYER
  2
56
 70
     0
 62
     7
  6
CONTINUOUS
  0
LAYER
  2
57
 70
     0
 62
     7
  6
CONTINUOUS
  0
LAYER
  2
58
 70
     0
 62
     7
  6
CONTINUOUS
  0
LAYER
  2
59
 70
     0
 62
     7
  6
CONTINUOUS
  0
LAYER
  2
60
 70
     0
 62
     7
  6
CONTINUOUS
  0
LAYER
  2
61
 70
     0
 62
     7
  6
CONTINUOUS
  0
LAYER
  2
62
 70
     0
 62
     7
  6
CONTINUOUS
  0
LAYER
  2
63
 70
     0
 62
     7
  6
CONTINUOUS
  0
LAYER
  2
64
 70
     0
 62
     7
  6
CONTINUOUS
  0
LAYER
  2
65
 70
     0
 62
     7
  6
CONTINUOUS
  0
LAYER
  2
66
 70
     0
 62
     7
  6
CONTINUOUS
  0
LAYER
  2
67
 70
     0
 62
     7
  6
CONTINUOUS
  0
LAYER
  2
68
 70
     0
 62
     7
  6
CONTINUOUS
  0
LAYER
  2
69
 70
     0
 62
     7
  6
CONTINUOUS
  0
LAYER
  2
70
 70
     0
 62
     7
  6
CONTINUOUS
  0
LAYER
  2
71
 70
     0
 62
     7
  6
CONTINUOUS
  0
LAYER
  2
72
 70
     0
 62
     7
  6
CONTINUOUS
  0
LAYER
  2
73
 70
     0
 62
     7
  6
CONTINUOUS
  0
LAYER
  2
74
 70
     0
 62
     7
  6
CONTINUOUS
  0
LAYER
  2
75
 70
     0
 62
     7
  6
CONTINUOUS
  0
LAYER
  2
76
 70
     0
 62
     7
  6
CONTINUOUS
  0
LAYER
  2
77
 70
     0
 62
     7
  6
CONTINUOUS
  0
LAYER
  2
78
 70
     0
 62
     7
  6
CONTINUOUS
  0
LAYER
  2
79
 70
     0
 62
     7
  6
CONTINUOUS
  0
LAYER
  2
80
 70
     0
 62
     7
  6
CONTINUOUS
  0
LAYER
  2
81
 70
     0
 62
     7
  6
CONTINUOUS
  0
LAYER
  2
82
 70
     0
 62
     7
  6
CONTINUOUS
  0
LAYER
  2
83
 70
     0
 62
     7
  6
CONTINUOUS
  0
LAYER
  2
84
 70
     0
 62
     7
  6
CONTINUOUS
  0
LAYER
  2
85
 70
     0
 62
     7
  6
CONTINUOUS
  0
LAYER
  2
86
 70
     0
 62
     7
  6
CONTINUOUS
  0
LAYER
  2
87
 70
     0
 62
     7
  6
CONTINUOUS
  0
LAYER
  2
88
 70
     0
 62
     7
  6
CONTINUOUS
  0
LAYER
  2
89
 70
     0
 62
     7
  6
CONTINUOUS
  0
LAYER
  2
90
 70
     0
 62
     7
  6
CONTINUOUS
  0
LAYER
  2
91
 70
     0
 62
     7
  6
CONTINUOUS
  0
LAYER
  2
92
 70
     0
 62
     7
  6
CONTINUOUS
  0
LAYER
  2
93
 70
     0
 62
     7
  6
CONTINUOUS
  0
LAYER
  2
94
 70
     0
 62
     7
  6
CONTINUOUS
  0
LAYER
  2
95
 70
     0
 62
     7
  6
CONTINUOUS
  0
LAYER
  2
96
 70
     0
 62
     7
  6
CONTINUOUS
  0
LAYER
  2
97
 70
     0
 62
     7
  6
CONTINUOUS
  0
LAYER
  2
98
 70
     0
 62
     7
  6
CONTINUOUS
  0
LAYER
  2
99
 70
     0
 62
     7
  6
CONTINUOUS
  0
LAYER
  2
100
 70
     0
 62
     7
  6
CONTINUOUS
  0
LAYER
  2
101
 70
     0
 62
     7
  6
CONTINUOUS
  0
LAYER
  2
102
 70
     0
 62
     7
  6
CONTINUOUS
  0
LAYER
  2
103
 70
     0
 62
     7
  6
CONTINUOUS
  0
LAYER
  2
104
 70
     0
 62
     7
  6
CONTINUOUS
  0
LAYER
  2
105
 70
     0
 62
     7
  6
CONTINUOUS
  0
LAYER
  2
106
 70
     0
 62
     7
  6
CONTINUOUS
  0
LAYER
  2
107
 70
     0
 62
     7
  6
CONTINUOUS
  0
LAYER
  2
108
 70
     0
 62
     7
  6
CONTINUOUS
  0
LAYER
  2
109
 70
     0
 62
     7
  6
CONTINUOUS
  0
LAYER
  2
110
 70
     0
 62
     7
  6
CONTINUOUS
  0
LAYER
  2
111
 70
     0
 62
     7
  6
CONTINUOUS
  0
LAYER
  2
112
 70
     0
 62
     7
  6
CONTINUOUS
  0
LAYER
  2
113
 70
     0
 62
     7
  6
CONTINUOUS
  0
LAYER
  2
114
 70
     0
 62
     7
  6
CONTINUOUS
  0
LAYER
  2
115
 70
     0
 62
     7
  6
CONTINUOUS
  0
LAYER
  2
116
 70
     0
 62
     7
  6
CONTINUOUS
  0
LAYER
  2
117
 70
     0
 62
     7
  6
CONTINUOUS
  0
LAYER
  2
118
 70
     0
 62
     7
  6
CONTINUOUS
  0
LAYER
  2
119
 70
     0
 62
     7
  6
CONTINUOUS
  0
LAYER
  2
120
 70
     0
 62
     7
  6
CONTINUOUS
  0
LAYER
  2
121
 70
     0
 62
     7
  6
CONTINUOUS
  0
LAYER
  2
122
 70
     0
 62
     7
  6
CONTINUOUS
  0
LAYER
  2
123
 70
     0
 62
     7
  6
CONTINUOUS
  0
LAYER
  2
124
 70
     0
 62
     7
  6
CONTINUOUS
  0
LAYER
  2
125
 70
     0
 62
     7
  6
CONTINUOUS
  0
LAYER
  2
126
 70
     0
 62
     7
  6
CONTINUOUS
  0
LAYER
  2
127
 70
     0
 62
     7
  6
CONTINUOUS
  0
LAYER
  2
128
 70
     0
 62
     7
  6
CONTINUOUS
  0
ENDTAB
  0
TABLE
  2
STYLE
 70
    11
  0
STYLE
  2
STANDARD
 70
     0
 40
0.0
 41
1.0
 50
0.0
 71
     0
 42
0.2
  3
txt.shx
  4
extfont.shx
  0
STYLE
  2
KANJI0
 70
     0
 40
3.0
 41
0.6
 50
0.0
 71
     0
 42
3.0
  3
txt.shx
  4
extfont.shx
  0
STYLE
  2
KANJI1
 70
     0
 40
1.8
 41
0.6
 50
0.0
 71
     0
 42
1.8
  3
txt.shx
  4
extfont.shx
  0
STYLE
  2
KANJI2
 70
     0
 40
3.0
 41
0.833333333
 50
0.0
 71
     0
 42
3.0
  3
txt.shx
  4
extfont.shx
  0
STYLE
  2
KANJI3
 70
     0
 40
3.0
 41
0.833333333
 50
0.0
 71
     0
 42
3.0
  3
txt.shx
  4
extfont.shx
  0
STYLE
  2
KANJI4
 70
     0
 40
3.0
 41
0.833333333
 50
0.0
 71
     0
 42
3.0
  3
txt.shx
  4
extfont.shx
  0
STYLE
  2
KANJI5
 70
     0
 40
5.8
 41
0.827586207
 50
0.0
 71
     0
 42
5.8
  3
txt.shx
  4
extfont.shx
  0
STYLE
  2
KANJI6
 70
     0
 40
3.0
 41
0.9
 50
0.0
 71
     0
 42
3.0
  3
txt.shx
  4
extfont.shx
  0
STYLE
  2
KANJI7
 70
     0
 40
4.0
 41
0.9
 50
0.0
 71
     0
 42
4.0
  3
txt.shx
  4
extfont.shx
  0
STYLE
  2
KANJI8
 70
     0
 40
4.0
 41
0.9
 50
0.0
 71
     0
 42
4.0
  3
txt.shx
  4
extfont.shx
  0
STYLE
  2
KANJI9
 70
     0
 40
3.0
 41
0.9
 50
0.0
 71
     0
 42
3.0
  3
txt.shx
  4
extfont.shx
  0
ENDTAB
  0
TABLE
  2
VIEW
 70
     0
  0
ENDTAB
  0
ENDSEC
  0
SECTION
  2
BLOCKS
  0
ENDSEC
  0
SECTION
  2
ENTITIES
  0
ARC
  8
0
  6
CONTINUOUS
 62
     1
 10
193.0
 20
153.0
 30
0.0
 40
1.0
 50
0.0
 51
90.0
  0
LINE
  8
0
  6
CONTINUOUS
 62
     1
 10
193.0
 20
154.0
 30
0.0
 11
157.0
 21
154.0
 31
0.0
  0
ARC
  8
0
  6
CONTINUOUS
 62
     1
 10
157.0
 20
153.0
 30
0.0
 40
1.0
 50
90.0
 51
180.0
  0
LINE
  8
0
  6
CONTINUOUS
 62
     1
 10
156.0
 20
153.0
 30
0.0
 11
156.0
 21
117.0
 31
0.0
  0
ARC
  8
0
  6
CONTINUOUS
 62
     1
 10
157.0
 20
117.0
 30
0.0
 40
1.0
 50
180.0
 51
270.0
  0
LINE
  8
0
  6
CONTINUOUS
 62
     1
 10
194.0
 20
117.0
 30
0.0
 11
194.0
 21
153.0
 31
0.0
  0
LINE
  8
0
  6
CONTINUOUS
 62
     1
 10
157.0
 20
116.0
 30
0.0
 11
193.0
 21
116.0
 31
0.0
  0
ARC
  8
0
  6
CONTINUOUS
 62
     1
 10
193.0
 20
117.0
 30
0.0
 40
1.0
 50
270.0
 51
0.0
  0
ARC
  8
0
  6
CONTINUOUS
 62
     1
 10
193.0
 20
117.0
 30
0.0
 40
2.0
 50
270.0
 51
0.0
  0
LINE
  8
0
  6
CONTINUOUS
 62
     1
 10
157.0
 20
115.0
 30
0.0
 11
193.0
 21
115.0
 31
0.0
  0
ARC
  8
0
  6
CONTINUOUS
 62
     1
 10
157.0
 20
117.0
 30
0.0
 40
2.0
 50
180.0
 51
270.0
  0
LINE
  8
0
  6
CONTINUOUS
 62
     1
 10
155.0
 20
153.0
 30
0.0
 11
155.0
 21
117.0
 31
0.0
  0
ARC
  8
0
  6
CONTINUOUS
 62
     1
 10
157.0
 20
153.0
 30
0.0
 40
2.0
 50
90.0
 51
180.0
  0
LINE
  8
0
  6
CONTINUOUS
 62
     1
 10
195.0
 20
117.0
 30
0.0
 11
195.0
 21
153.0
 31
0.0
  0
LINE
  8
0
  6
CONTINUOUS
 62
     1
 10
193.0
 20
155.0
 30
0.0
 11
157.0
 21
155.0
 31
0.0
  0
ARC
  8
0
  6
CONTINUOUS
 62
     1
 10
193.0
 20
153.0
 30
0.0
 40
2.0
 50
0.0
 51
90.0
  0
LINE
  8
0
  6
CONTINUOUS
 62
     1
 10
159.0
 20
121.025
 30
0.0
 11
157.246298557
 21
120.0125
 31
0.0
  0
LINE
  8
0
  6
CONTINUOUS
 62
     1
 10
157.246298557
 20
120.0125
 30
0.0
 11
157.246298557
 21
117.9875
 31
0.0
  0
LINE
  8
0
  6
CONTINUOUS
 62
     1
 10
157.246298557
 20
117.9875
 30
0.0
 11
159.0
 21
116.975
 31
0.0
  0
LINE
  8
0
  6
CONTINUOUS
 62
     1
 10
159.0
 20
116.975
 30
0.0
 11
160.753701443
 21
117.9875
 31
0.0
  0
LINE
  8
0
  6
CONTINUOUS
 62
     1
 10
160.753701443
 20
117.9875
 30
0.0
 11
160.753701443
 21
120.0125
 31
0.0
  0
LINE
  8
0
  6
CONTINUOUS
 62
     1
 10
160.753701443
 20
120.0125
 30
0.0
 11
159.0
 21
121.025
 31
0.0
  0
CIRCLE
  8
0
  6
CONTINUOUS
 62
     1
 10
159.0
 20
119.0
 30
0.0
 40
0.8
  0
CIRCLE
  8
0
  6
CONTINUOUS
 62
     1
 10
159.0
 20
119.0
 30
0.0
 40
1.0
  0
LINE
  8
0
  6
CONTINUOUS
 62
     1
 10
191.0
 20
121.025
 30
0.0
 11
189.246298557
 21
120.0125
 31
0.0
  0
LINE
  8
0
  6
CONTINUOUS
 62
     1
 10
189.246298557
 20
120.0125
 30
0.0
 11
189.246298557
 21
117.9875
 31
0.0
  0
LINE
  8
0
  6
CONTINUOUS
 62
     1
 10
189.246298557
 20
117.9875
 30
0.0
 11
191.0
 21
116.975
 31
0.0
  0
LINE
  8
0
  6
CONTINUOUS
 62
     1
 10
191.0
 20
116.975
 30
0.0
 11
192.753701443
 21
117.9875
 31
0.0
  0
LINE
  8
0
  6
CONTINUOUS
 62
     1
 10
192.753701443
 20
117.9875
 30
0.0
 11
192.753701443
 21
120.0125
 31
0.0
  0
LINE
  8
0
  6
CONTINUOUS
 62
     1
 10
192.753701443
 20
120.0125
 30
0.0
 11
191.0
 21
121.025
 31
0.0
  0
CIRCLE
  8
0
  6
CONTINUOUS
 62
     1
 10
191.0
 20
119.0
 30
0.0
 40
0.8
  0
CIRCLE
  8
0
  6
CONTINUOUS
 62
     1
 10
191.0
 20
119.0
 30
0.0
 40
1.0
  0
LINE
  8
0
  6
CONTINUOUS
 62
     1
 10
159.0
 20
153.025
 30
0.0
 11
157.246298557
 21
152.0125
 31
0.0
  0
LINE
  8
0
  6
CONTINUOUS
 62
     1
 10
157.246298557
 20
152.0125
 30
0.0
 11
157.246298557
 21
149.9875
 31
0.0
  0
LINE
  8
0
  6
CONTINUOUS
 62
     1
 10
157.246298557
 20
149.9875
 30
0.0
 11
159.0
 21
148.975
 31
0.0
  0
LINE
  8
0
  6
CONTINUOUS
 62
     1
 10
159.0
 20
148.975
 30
0.0
 11
160.753701443
 21
149.9875
 31
0.0
  0
LINE
  8
0
  6
CONTINUOUS
 62
     1
 10
160.753701443
 20
149.9875
 30
0.0
 11
160.753701443
 21
152.0125
 31
0.0
  0
LINE
  8
0
  6
CONTINUOUS
 62
     1
 10
160.753701443
 20
152.0125
 30
0.0
 11
159.0
 21
153.025
 31
0.0
  0
CIRCLE
  8
0
  6
CONTINUOUS
 62
     1
 10
159.0
 20
151.0
 30
0.0
 40
0.8
  0
CIRCLE
  8
0
  6
CONTINUOUS
 62
     1
 10
159.0
 20
151.0
 30
0.0
 40
1.0
  0
LINE
  8
0
  6
CONTINUOUS
 62
     1
 10
191.0
 20
153.025
 30
0.0
 11
189.246298557
 21
152.0125
 31
0.0
  0
LINE
  8
0
  6
CONTINUOUS
 62
     1
 10
189.246298557
 20
152.0125
 30
0.0
 11
189.246298557
 21
149.9875
 31
0.0
  0
LINE
  8
0
  6
CONTINUOUS
 62
     1
 10
189.246298557
 20
149.9875
 30
0.0
 11
191.0
 21
148.975
 31
0.0
  0
LINE
  8
0
  6
CONTINUOUS
 62
     1
 10
191.0
 20
148.975
 30
0.0
 11
192.753701443
 21
149.9875
 31
0.0
  0
LINE
  8
0
  6
CONTINUOUS
 62
     1
 10
192.753701443
 20
149.9875
 30
0.0
 11
192.753701443
 21
152.0125
 31
0.0
  0
LINE
  8
0
  6
CONTINUOUS
 62
     1
 10
192.753701443
 20
152.0125
 30
0.0
 11
191.0
 21
153.025
 31
0.0
  0
CIRCLE
  8
0
  6
CONTINUOUS
 62
     1
 10
191.0
 20
151.0
 30
0.0
 40
0.8
  0
CIRCLE
  8
0
  6
CONTINUOUS
 62
     1
 10
191.0
 20
151.0
 30
0.0
 40
1.0
  0
CIRCLE
  8
0
  6
CONTINUOUS
 62
     1
 10
159.0
 20
119.0
 30
0.0
 40
2.5
  0
CIRCLE
  8
0
  6
CONTINUOUS
 62
     1
 10
159.0
 20
151.0
 30
0.0
 40
2.5
  0
CIRCLE
  8
0
  6
CONTINUOUS
 62
     1
 10
191.0
 20
151.0
 30
0.0
 40
2.5
  0
CIRCLE
  8
0
  6
CONTINUOUS
 62
     1
 10
191.0
 20
119.0
 30
0.0
 40
2.5
  0
CIRCLE
  8
0
  6
CONTINUOUS
 62
     1
 10
175.0
 20
70.0
 30
0.0
 40
16.75
  0
CIRCLE
  8
0
  6
CONTINUOUS
 62
     1
 10
191.0
 20
86.0
 30
0.0
 40
1.25
  0
CIRCLE
  8
0
  6
CONTINUOUS
 62
     1
 10
159.0
 20
86.0
 30
0.0
 40
1.25
  0
CIRCLE
  8
0
  6
CONTINUOUS
 62
     1
 10
159.0
 20
54.0
 30
0.0
 40
1.25
  0
CIRCLE
  8
0
  6
CONTINUOUS
 62
     1
 10
191.0
 20
54.0
 30
0.0
 40
1.25
  0
CIRCLE
  8
0
  6
CONTINUOUS
 62
     1
 10
175.0
 20
135.0
 30
0.0
 40
16.0
  0
CIRCLE
  8
0
  6
CONTINUOUS
 62
     1
 10
175.0
 20
121.0
 30
0.0
 40
1.5
  0
ARC
  8
0
  6
CONTINUOUS
 62
     1
 10
172.75
 20
119.916896871
 30
0.0
 40
0.75
 50
261.515550259
 51
0.0
  0
LINE
  8
0
  6
CONTINUOUS
 62
     1
 10
173.5
 20
121.0
 30
0.0
 11
173.5
 21
119.916896871
 31
0.0
  0
ARC
  8
0
  6
CONTINUOUS
 62
     1
 10
177.25
 20
119.916896871
 30
0.0
 40
0.75
 50
180.0
 51
278.484449741
  0
LINE
  8
0
  6
CONTINUOUS
 62
     1
 10
176.5
 20
121.0
 30
0.0
 11
176.5
 21
119.916896871
 31
0.0
  0
LINE
  8
0
  6
CONTINUOUS
 62
     1
 10
174.0
 20
121.0
 30
0.0
 11
176.0
 21
121.0
 31
0.0
  0
LINE
  8
0
  6
CONTINUOUS
 62
     1
 10
175.0
 20
122.0
 30
0.0
 11
175.0
 21
120.0
 31
0.0
  0
CIRCLE
  8
0
  6
CONTINUOUS
 62
     1
 10
187.124355653
 20
142.0
 30
0.0
 40
1.5
  0
ARC
  8
0
  6
CONTINUOUS
 62
     1
 10
189.187350478
 20
140.592994406
 30
0.0
 40
0.75
 50
21.515550259
 51
120.0
  0
LINE
  8
0
  6
CONTINUOUS
 62
     1
 10
187.874355653
 20
140.700961894
 30
0.0
 11
188.812350478
 21
141.242513459
 31
0.0
  0
ARC
  8
0
  6
CONTINUOUS
 62
     1
 10
186.937350478
 20
144.490108723
 30
0.0
 40
0.75
 50
300.0
 51
38.484449741
  0
LINE
  8
0
  6
CONTINUOUS
 62
     1
 10
186.374355653
 20
143.299038106
 30
0.0
 11
187.312350478
 21
143.84058967
 31
0.0
  0
LINE
  8
0
  6
CONTINUOUS
 62
     1
 10
187.624355653
 20
141.133974596
 30
0.0
 11
186.624355653
 21
142.866025404
 31
0.0
  0
LINE
  8
0
  6
CONTINUOUS
 62
     1
 10
186.258330249
 20
141.5
 30
0.0
 11
187.990381057
 21
142.5
 31
0.0
  0
CIRCLE
  8
0
  6
CONTINUOUS
 62
     1
 10
162.875644347
 20
142.0
 30
0.0
 40
1.5
  0
ARC
  8
0
  6
CONTINUOUS
 62
     1
 10
163.062649522
 20
144.490108723
 30
0.0
 40
0.75
 50
141.515550259
 51
240.0
  0
LINE
  8
0
  6
CONTINUOUS
 62
     1
 10
163.625644347
 20
143.299038106
 30
0.0
 11
162.687649522
 21
143.84058967
 31
0.0
  0
ARC
  8
0
  6
CONTINUOUS
 62
     1
 10
160.812649522
 20
140.592994406
 30
0.0
 40
0.75
 50
60.0
 51
158.484449741
  0
LINE
  8
0
  6
CONTINUOUS
 62
     1
 10
162.125644347
 20
140.700961894
 30
0.0
 11
161.187649522
 21
141.242513459
 31
0.0
  0
LINE
  8
0
  6
CONTINUOUS
 62
     1
 10
163.375644347
 20
142.866025404
 30
0.0
 11
162.375644347
 21
141.133974596
 31
0.0
  0
LINE
  8
0
  6
CONTINUOUS
 62
     1
 10
163.741669751
 20
141.5
 30
0.0
 11
162.009618943
 21
142.5
 31
0.0
  0
CIRCLE
  8
0
  6
CONTINUOUS
 62
     1
 10
45.5
 20
135.0
 30
0.0
 40
18.75
  0
CIRCLE
  8
0
  6
CONTINUOUS
 62
     1
 10
45.5
 20
135.0
 30
0.0
 40
3.0
  0
LINE
  8
0
  6
CONTINUOUS
 62
     1
 10
32.638342919
 20
128.304645108
 30
0.0
 11
33.53447535
 21
128.207451151
 31
0.0
  0
LINE
  8
0
  6
CONTINUOUS
 62
     1
 10
32.638342919
 20
128.304645108
 30
0.0
 11
33.072726737
 21
129.094461985
 31
0.0
  0
LINE
  8
0
  6
CONTINUOUS
 62
     1
 10
33.072726737
 20
129.094461985
 30
0.0
 11
38.501107291
 21
132.202143526
 31
0.0
  0
LINE
  8
0
  6
CONTINUOUS
 62
     1
 10
39.193730211
 20
130.871627276
 30
0.0
 11
33.53447535
 21
128.207451151
 31
0.0
  0
LINE
  8
0
  6
CONTINUOUS
 62
     1
 10
43.15
 20
135.45
 30
0.0
 11
47.85
 21
135.45
 31
0.0
  0
LINE
  8
0
  6
CONTINUOUS
 62
     1
 10
47.85
 20
134.6
 30
0.0
 11
43.15
 21
134.6
 31
0.0
  0
CIRCLE
  8
0
  6
CONTINUOUS
 62
     1
 10
45.5
 20
135.0
 30
0.0
 40
2.4
  0
ARC
  8
0
  6
CONTINUOUS
 62
     1
 10
27.5
 20
153.0
 30
0.0
 40
2.0
 50
90.0
 51
180.0
  0
LINE
  8
0
  6
CONTINUOUS
 62
     1
 10
63.5
 20
155.0
 30
0.0
 11
27.5
 21
155.0
 31
0.0
  0
ARC
  8
0
  6
CONTINUOUS
 62
     1
 10
63.5
 20
153.0
 30
0.0
 40
2.0
 50
0.0
 51
90.0
  0
LINE
  8
0
  6
CONTINUOUS
 62
     1
 10
65.5
 20
117.0
 30
0.0
 11
65.5
 21
153.0
 31
0.0
  0
ARC
  8
0
  6
CONTINUOUS
 62
     1
 10
63.5
 20
117.0
 30
0.0
 40
2.0
 50
270.0
 51
0.0
  0
LINE
  8
0
  6
CONTINUOUS
 62
     1
 10
25.5
 20
153.0
 30
0.0
 11
25.5
 21
117.0
 31
0.0
  0
LINE
  8
0
  6
CONTINUOUS
 62
     1
 10
27.5
 20
115.0
 30
0.0
 11
63.5
 21
115.0
 31
0.0
  0
ARC
  8
0
  6
CONTINUOUS
 62
     1
 10
27.5
 20
117.0
 30
0.0
 40
2.0
 50
180.0
 51
270.0
  0
CIRCLE
  8
0
  6
CONTINUOUS
 62
     1
 10
61.5
 20
119.0
 30
0.0
 40
1.2
  0
LINE
  8
0
  6
CONTINUOUS
 62
     1
 10
60.8
 20
119.16
 30
0.0
 11
61.18
 21
119.16
 31
0.0
  0
ARC
  8
0
  6
CONTINUOUS
 62
     1
 10
61.18
 20
119.32
 30
0.0
 40
0.16
 50
270.0
 51
0.0
  0
LINE
  8
0
  6
CONTINUOUS
 62
     1
 10
61.34
 20
119.32
 30
0.0
 11
61.34
 21
119.7
 31
0.0
  0
LINE
  8
0
  6
CONTINUOUS
 62
     1
 10
61.34
 20
119.7
 30
0.0
 11
61.66
 21
119.7
 31
0.0
  0
LINE
  8
0
  6
CONTINUOUS
 62
     1
 10
61.66
 20
119.7
 30
0.0
 11
61.66
 21
119.32
 31
0.0
  0
ARC
  8
0
  6
CONTINUOUS
 62
     1
 10
61.82
 20
119.32
 30
0.0
 40
0.16
 50
180.0
 51
270.0
  0
LINE
  8
0
  6
CONTINUOUS
 62
     1
 10
61.82
 20
119.16
 30
0.0
 11
62.2
 21
119.16
 31
0.0
  0
LINE
  8
0
  6
CONTINUOUS
 62
     1
 10
62.2
 20
119.16
 30
0.0
 11
62.2
 21
118.84
 31
0.0
  0
LINE
  8
0
  6
CONTINUOUS
 62
     1
 10
62.2
 20
118.84
 30
0.0
 11
61.82
 21
118.84
 31
0.0
  0
ARC
  8
0
  6
CONTINUOUS
 62
     1
 10
61.82
 20
118.68
 30
0.0
 40
0.16
 50
90.0
 51
180.0
  0
LINE
  8
0
  6
CONTINUOUS
 62
     1
 10
61.66
 20
118.68
 30
0.0
 11
61.66
 21
118.3
 31
0.0
  0
LINE
  8
0
  6
CONTINUOUS
 62
     1
 10
61.66
 20
118.3
 30
0.0
 11
61.34
 21
118.3
 31
0.0
  0
LINE
  8
0
  6
CONTINUOUS
 62
     1
 10
61.34
 20
118.3
 30
0.0
 11
61.34
 21
118.68
 31
0.0
  0
ARC
  8
0
  6
CONTINUOUS
 62
     1
 10
61.18
 20
118.68
 30
0.0
 40
0.16
 50
0.0
 51
90.0
  0
LINE
  8
0
  6
CONTINUOUS
 62
     1
 10
61.18
 20
118.84
 30
0.0
 11
60.8
 21
118.84
 31
0.0
  0
LINE
  8
0
  6
CONTINUOUS
 62
     1
 10
60.8
 20
118.84
 30
0.0
 11
60.8
 21
119.16
 31
0.0
  0
CIRCLE
  8
0
  6
CONTINUOUS
 62
     1
 10
61.5
 20
151.0
 30
0.0
 40
1.2
  0
LINE
  8
0
  6
CONTINUOUS
 62
     1
 10
60.8
 20
151.16
 30
0.0
 11
61.18
 21
151.16
 31
0.0
  0
ARC
  8
0
  6
CONTINUOUS
 62
     1
 10
61.18
 20
151.32
 30
0.0
 40
0.16
 50
270.0
 51
0.0
  0
LINE
  8
0
  6
CONTINUOUS
 62
     1
 10
61.34
 20
151.32
 30
0.0
 11
61.34
 21
151.7
 31
0.0
  0
LINE
  8
0
  6
CONTINUOUS
 62
     1
 10
61.34
 20
151.7
 30
0.0
 11
61.66
 21
151.7
 31
0.0
  0
LINE
  8
0
  6
CONTINUOUS
 62
     1
 10
61.66
 20
151.7
 30
0.0
 11
61.66
 21
151.32
 31
0.0
  0
ARC
  8
0
  6
CONTINUOUS
 62
     1
 10
61.82
 20
151.32
 30
0.0
 40
0.16
 50
180.0
 51
270.0
  0
LINE
  8
0
  6
CONTINUOUS
 62
     1
 10
61.82
 20
151.16
 30
0.0
 11
62.2
 21
151.16
 31
0.0
  0
LINE
  8
0
  6
CONTINUOUS
 62
     1
 10
62.2
 20
151.16
 30
0.0
 11
62.2
 21
150.84
 31
0.0
  0
LINE
  8
0
  6
CONTINUOUS
 62
     1
 10
62.2
 20
150.84
 30
0.0
 11
61.82
 21
150.84
 31
0.0
  0
ARC
  8
0
  6
CONTINUOUS
 62
     1
 10
61.82
 20
150.68
 30
0.0
 40
0.16
 50
90.0
 51
180.0
  0
LINE
  8
0
  6
CONTINUOUS
 62
     1
 10
61.66
 20
150.68
 30
0.0
 11
61.66
 21
150.3
 31
0.0
  0
LINE
  8
0
  6
CONTINUOUS
 62
     1
 10
61.66
 20
150.3
 30
0.0
 11
61.34
 21
150.3
 31
0.0
  0
LINE
  8
0
  6
CONTINUOUS
 62
     1
 10
61.34
 20
150.3
 30
0.0
 11
61.34
 21
150.68
 31
0.0
  0
ARC
  8
0
  6
CONTINUOUS
 62
     1
 10
61.18
 20
150.68
 30
0.0
 40
0.16
 50
0.0
 51
90.0
  0
LINE
  8
0
  6
CONTINUOUS
 62
     1
 10
61.18
 20
150.84
 30
0.0
 11
60.8
 21
150.84
 31
0.0
  0
LINE
  8
0
  6
CONTINUOUS
 62
     1
 10
60.8
 20
150.84
 30
0.0
 11
60.8
 21
151.16
 31
0.0
  0
CIRCLE
  8
0
  6
CONTINUOUS
 62
     1
 10
29.5
 20
151.0
 30
0.0
 40
1.2
  0
LINE
  8
0
  6
CONTINUOUS
 62
     1
 10
28.8
 20
151.16
 30
0.0
 11
29.18
 21
151.16
 31
0.0
  0
ARC
  8
0
  6
CONTINUOUS
 62
     1
 10
29.18
 20
151.32
 30
0.0
 40
0.16
 50
270.0
 51
0.0
  0
LINE
  8
0
  6
CONTINUOUS
 62
     1
 10
29.34
 20
151.32
 30
0.0
 11
29.34
 21
151.7
 31
0.0
  0
LINE
  8
0
  6
CONTINUOUS
 62
     1
 10
29.34
 20
151.7
 30
0.0
 11
29.66
 21
151.7
 31
0.0
  0
LINE
  8
0
  6
CONTINUOUS
 62
     1
 10
29.66
 20
151.7
 30
0.0
 11
29.66
 21
151.32
 31
0.0
  0
ARC
  8
0
  6
CONTINUOUS
 62
     1
 10
29.82
 20
151.32
 30
0.0
 40
0.16
 50
180.0
 51
270.0
  0
LINE
  8
0
  6
CONTINUOUS
 62
     1
 10
29.82
 20
151.16
 30
0.0
 11
30.2
 21
151.16
 31
0.0
  0
LINE
  8
0
  6
CONTINUOUS
 62
     1
 10
30.2
 20
151.16
 30
0.0
 11
30.2
 21
150.84
 31
0.0
  0
LINE
  8
0
  6
CONTINUOUS
 62
     1
 10
30.2
 20
150.84
 30
0.0
 11
29.82
 21
150.84
 31
0.0
  0
ARC
  8
0
  6
CONTINUOUS
 62
     1
 10
29.82
 20
150.68
 30
0.0
 40
0.16
 50
90.0
 51
180.0
  0
LINE
  8
0
  6
CONTINUOUS
 62
     1
 10
29.66
 20
150.68
 30
0.0
 11
29.66
 21
150.3
 31
0.0
  0
LINE
  8
0
  6
CONTINUOUS
 62
     1
 10
29.66
 20
150.3
 30
0.0
 11
29.34
 21
150.3
 31
0.0
  0
LINE
  8
0
  6
CONTINUOUS
 62
     1
 10
29.34
 20
150.3
 30
0.0
 11
29.34
 21
150.68
 31
0.0
  0
ARC
  8
0
  6
CONTINUOUS
 62
     1
 10
29.18
 20
150.68
 30
0.0
 40
0.16
 50
0.0
 51
90.0
  0
LINE
  8
0
  6
CONTINUOUS
 62
     1
 10
29.18
 20
150.84
 30
0.0
 11
28.8
 21
150.84
 31
0.0
  0
LINE
  8
0
  6
CONTINUOUS
 62
     1
 10
28.8
 20
150.84
 30
0.0
 11
28.8
 21
151.16
 31
0.0
  0
CIRCLE
  8
0
  6
CONTINUOUS
 62
     1
 10
29.5
 20
119.0
 30
0.0
 40
1.2
  0
LINE
  8
0
  6
CONTINUOUS
 62
     1
 10
28.8
 20
119.16
 30
0.0
 11
29.18
 21
119.16
 31
0.0
  0
ARC
  8
0
  6
CONTINUOUS
 62
     1
 10
29.18
 20
119.32
 30
0.0
 40
0.16
 50
270.0
 51
0.0
  0
LINE
  8
0
  6
CONTINUOUS
 62
     1
 10
29.34
 20
119.32
 30
0.0
 11
29.34
 21
119.7
 31
0.0
  0
LINE
  8
0
  6
CONTINUOUS
 62
     1
 10
29.34
 20
119.7
 30
0.0
 11
29.66
 21
119.7
 31
0.0
  0
LINE
  8
0
  6
CONTINUOUS
 62
     1
 10
29.66
 20
119.7
 30
0.0
 11
29.66
 21
119.32
 31
0.0
  0
ARC
  8
0
  6
CONTINUOUS
 62
     1
 10
29.82
 20
119.32
 30
0.0
 40
0.16
 50
180.0
 51
270.0
  0
LINE
  8
0
  6
CONTINUOUS
 62
     1
 10
29.82
 20
119.16
 30
0.0
 11
30.2
 21
119.16
 31
0.0
  0
LINE
  8
0
  6
CONTINUOUS
 62
     1
 10
30.2
 20
119.16
 30
0.0
 11
30.2
 21
118.84
 31
0.0
  0
LINE
  8
0
  6
CONTINUOUS
 62
     1
 10
30.2
 20
118.84
 30
0.0
 11
29.82
 21
118.84
 31
0.0
  0
ARC
  8
0
  6
CONTINUOUS
 62
     1
 10
29.82
 20
118.68
 30
0.0
 40
0.16
 50
90.0
 51
180.0
  0
LINE
  8
0
  6
CONTINUOUS
 62
     1
 10
29.66
 20
118.68
 30
0.0
 11
29.66
 21
118.3
 31
0.0
  0
LINE
  8
0
  6
CONTINUOUS
 62
     1
 10
29.66
 20
118.3
 30
0.0
 11
29.34
 21
118.3
 31
0.0
  0
LINE
  8
0
  6
CONTINUOUS
 62
     1
 10
29.34
 20
118.3
 30
0.0
 11
29.34
 21
118.68
 31
0.0
  0
ARC
  8
0
  6
CONTINUOUS
 62
     1
 10
29.18
 20
118.68
 30
0.0
 40
0.16
 50
0.0
 51
90.0
  0
LINE
  8
0
  6
CONTINUOUS
 62
     1
 10
29.18
 20
118.84
 30
0.0
 11
28.8
 21
118.84
 31
0.0
  0
LINE
  8
0
  6
CONTINUOUS
 62
     1
 10
28.8
 20
118.84
 30
0.0
 11
28.8
 21
119.16
 31
0.0
  0
LINE
  8
0
  6
CONTINUOUS
 62
     1
 10
95.0
 20
115.0
 30
0.0
 11
95.0
 21
155.0
 31
0.0
  0
LINE
  8
0
  6
CONTINUOUS
 62
     1
 10
92.5
 20
115.0
 30
0.0
 11
95.0
 21
115.0
 31
0.0
  0
ARC
  8
0
  6
CONTINUOUS
 62
     1
 10
92.5
 20
116.0
 30
0.0
 40
1.0
 50
180.0
 51
270.0
  0
LINE
  8
0
  6
CONTINUOUS
 62
     1
 10
95.0
 20
155.0
 30
0.0
 11
92.5
 21
155.0
 31
0.0
  0
LINE
  8
0
  6
CONTINUOUS
 62
     1
 10
91.5
 20
154.0
 30
0.0
 11
91.5
 21
116.0
 31
0.0
  0
ARC
  8
0
  6
CONTINUOUS
 62
     1
 10
92.5
 20
154.0
 30
0.0
 40
1.0
 50
90.0
 51
180.0
  0
LINE
  8
0
  6
CONTINUOUS
 62
     1
 10
87.5
 20
137.4
 30
0.0
 11
87.5
 21
132.6
 31
0.0
  0
LINE
  8
0
  6
CONTINUOUS
 62
     1
 10
86.8
 20
135.45
 30
0.0
 11
87.5
 21
135.45
 31
0.0
  0
LINE
  8
0
  6
CONTINUOUS
 62
     1
 10
86.8
 20
134.6
 30
0.0
 11
87.5
 21
134.6
 31
0.0
  0
LINE
  8
0
  6
CONTINUOUS
 62
     1
 10
87.5
 20
137.4
 30
0.0
 11
87.5
 21
137.75
 31
0.0
  0
ARC
  8
0
  6
CONTINUOUS
 62
     1
 10
87.75
 20
137.75
 30
0.0
 40
0.25
 50
90.0
 51
180.0
  0
LINE
  8
0
  6
CONTINUOUS
 62
     1
 10
87.5
 20
132.6
 30
0.0
 11
87.5
 21
132.25
 31
0.0
  0
ARC
  8
0
  6
CONTINUOUS
 62
     1
 10
87.75
 20
132.25
 30
0.0
 40
0.25
 50
180.0
 51
270.0
  0
LINE
  8
0
  6
CONTINUOUS
 62
     1
 10
87.75
 20
132.0
 30
0.0
 11
87.9
 21
132.0
 31
0.0
  0
ARC
  8
0
  6
CONTINUOUS
 62
     1
 10
87.9
 20
132.1
 30
0.0
 40
0.1
 50
270.0
 51
0.0
  0
LINE
  8
0
  6
CONTINUOUS
 62
     1
 10
87.9
 20
138.0
 30
0.0
 11
87.75
 21
138.0
 31
0.0
  0
LINE
  8
0
  6
CONTINUOUS
 62
     1
 10
88.0
 20
132.1
 30
0.0
 11
88.0
 21
137.9
 31
0.0
  0
ARC
  8
0
  6
CONTINUOUS
 62
     1
 10
87.9
 20
137.9
 30
0.0
 40
0.1
 50
0.0
 51
90.0
  0
ARC
  8
0
  6
CONTINUOUS
 62
     1
 10
91.25
 20
135.0
 30
0.0
 40
4.5
 50
185.07960786
 51
212.619243071
  0
ARC
  8
0
  6
CONTINUOUS
 62
     1
 10
91.25
 20
135.0
 30
0.0
 40
4.5
 50
147.380756929
 51
174.289406862
  0
LINE
  8
0
  6
CONTINUOUS
 62
     1
 10
88.35
 20
132.75
 30
0.0
 11
88.05
 21
132.75
 31
0.0
  0
LINE
  8
0
  6
CONTINUOUS
 62
     1
 10
88.35
 20
137.3
 30
0.0
 11
88.05
 21
137.3
 31
0.0
  0
LINE
  8
0
  6
CONTINUOUS
 62
     1
 10
88.35
 20
137.3
 30
0.0
 11
88.35
 21
132.75
 31
0.0
  0
LINE
  8
0
  6
CONTINUOUS
 62
     1
 10
91.5
 20
153.75
 30
0.0
 11
89.961266683
 21
153.75
 31
0.0
  0
LINE
  8
0
  6
CONTINUOUS
 62
     1
 10
88.35
 20
137.3
 30
0.0
 11
88.962046435
 21
152.789482867
 31
0.0
  0
ARC
  8
0
  6
CONTINUOUS
 62
     1
 10
89.961266683
 20
152.75
 30
0.0
 40
1.0
 50
90.0
 51
177.737210193
  0
LINE
  8
0
  6
CONTINUOUS
 62
     1
 10
91.5
 20
116.25
 30
0.0
 11
89.961381701
 21
116.25
 31
0.0
  0
LINE
  8
0
  6
CONTINUOUS
 62
     1
 10
88.35
 20
132.75
 30
0.0
 11
88.96215674
 21
117.210636592
 31
0.0
  0
ARC
  8
0
  6
CONTINUOUS
 62
     1
 10
89.961381701
 20
117.25
 30
0.0
 40
1.0
 50
182.255939964
 51
270.0
  0
LINE
  8
0
  6
CONTINUOUS
 62
     1
 10
95.0
 20
153.5
 30
0.0
 11
95.25
 21
153.5
 31
0.0
  0
LINE
  8
0
  6
CONTINUOUS
 62
     1
 10
95.25
 20
153.5
 30
0.0
 11
95.25
 21
148.5
 31
0.0
  0
LINE
  8
0
  6
CONTINUOUS
 62
     1
 10
95.25
 20
148.5
 30
0.0
 11
95.0
 21
148.5
 31
0.0
  0
POINT
  8
0
  6
CONTINUOUS
 62
     1
 10
95.0
 20
116.5
 30
0.0
  0
LINE
  8
0
  6
CONTINUOUS
 62
     1
 10
95.0
 20
116.5
 30
0.0
 11
95.25
 21
116.5
 31
0.0
  0
LINE
  8
0
  6
CONTINUOUS
 62
     1
 10
95.25
 20
116.5
 30
0.0
 11
95.25
 21
121.5
 31
0.0
  0
LINE
  8
0
  6
CONTINUOUS
 62
     1
 10
95.25
 20
121.5
 30
0.0
 11
95.0
 21
121.5
 31
0.0
  0
ARC
  8
0
  6
CONTINUOUS
 62
     1
 10
91.45834
 20
152.20814
 30
0.0
 40
0.04166
 50
0.0
 51
90.0
  0
LINE
  8
0
  6
CONTINUOUS
 62
     1
 10
91.5
 20
149.79186
 30
0.0
 11
91.5
 21
152.20814
 31
0.0
  0
ARC
  8
0
  6
CONTINUOUS
 62
     1
 10
91.45834
 20
149.79186
 30
0.0
 40
0.04166
 50
270.0
 51
0.0
  0
LINE
  8
0
  6
CONTINUOUS
 62
     1
 10
91.0834
 20
149.7502
 30
0.0
 11
91.45834
 21
149.7502
 31
0.0
  0
ARC
  8
0
  6
CONTINUOUS
 62
     1
 10
91.0834
 20
149.83352
 30
0.0
 40
0.08332
 50
180.0
 51
270.0
  0
LINE
  8
0
  6
CONTINUOUS
 62
     1
 10
91.45834
 20
152.2498
 30
0.0
 11
91.0834
 21
152.2498
 31
0.0
  0
ARC
  8
0
  6
CONTINUOUS
 62
     1
 10
91.0834
 20
152.16648
 30
0.0
 40
0.08332
 50
90.0
 51
180.0
  0
LINE
  8
0
  6
CONTINUOUS
 62
     1
 10
91.04174
 20
149.770336245
 30
0.0
 11
91.04174
 21
152.217861245
 31
0.0
  0
LINE
  8
0
  6
CONTINUOUS
 62
     1
 10
90.70846
 20
150.89585
 30
0.0
 11
90.79178
 21
150.89585
 31
0.0
  0
LINE
  8
0
  6
CONTINUOUS
 62
     1
 10
90.79178
 20
150.89585
 30
0.0
 11
90.79178
 21
151.10415
 31
0.0
  0
LINE
  8
0
  6
CONTINUOUS
 62
     1
 10
90.79178
 20
151.10415
 30
0.0
 11
90.70846
 21
151.10415
 31
0.0
  0
ARC
  8
0
  6
CONTINUOUS
 62
     1
 10
93.20806
 20
151.0
 30
0.0
 40
2.4996
 50
151.294758009
 51
177.611984537
  0
ARC
  8
0
  6
CONTINUOUS
 62
     1
 10
93.20806
 20
151.0
 30
0.0
 40
2.4996
 50
182.388015463
 51
208.942689997
  0
ARC
  8
0
  6
CONTINUOUS
 62
     1
 10
91.45834
 20
120.20814
 30
0.0
 40
0.04166
 50
0.0
 51
90.0
  0
LINE
  8
0
  6
CONTINUOUS
 62
     1
 10
91.5
 20
117.79186
 30
0.0
 11
91.5
 21
120.20814
 31
0.0
  0
ARC
  8
0
  6
CONTINUOUS
 62
     1
 10
91.45834
 20
117.79186
 30
0.0
 40
0.04166
 50
270.0
 51
0.0
  0
LINE
  8
0
  6
CONTINUOUS
 62
     1
 10
91.0834
 20
117.7502
 30
0.0
 11
91.45834
 21
117.7502
 31
0.0
  0
ARC
  8
0
  6
CONTINUOUS
 62
     1
 10
91.0834
 20
117.83352
 30
0.0
 40
0.08332
 50
180.0
 51
270.0
  0
LINE
  8
0
  6
CONTINUOUS
 62
     1
 10
91.45834
 20
120.2498
 30
0.0
 11
91.0834
 21
120.2498
 31
0.0
  0
ARC
  8
0
  6
CONTINUOUS
 62
     1
 10
91.0834
 20
120.16648
 30
0.0
 40
0.08332
 50
90.0
 51
180.0
  0
LINE
  8
0
  6
CONTINUOUS
 62
     1
 10
91.04174
 20
117.770336245
 30
0.0
 11
91.04174
 21
120.217861245
 31
0.0
  0
LINE
  8
0
  6
CONTINUOUS
 62
     1
 10
90.70846
 20
118.89585
 30
0.0
 11
90.79178
 21
118.89585
 31
0.0
  0
LINE
  8
0
  6
CONTINUOUS
 62
     1
 10
90.79178
 20
118.89585
 30
0.0
 11
90.79178
 21
119.10415
 31
0.0
  0
LINE
  8
0
  6
CONTINUOUS
 62
     1
 10
90.79178
 20
119.10415
 30
0.0
 11
90.70846
 21
119.10415
 31
0.0
  0
ARC
  8
0
  6
CONTINUOUS
 62
     1
 10
93.20806
 20
119.0
 30
0.0
 40
2.4996
 50
151.294758009
 51
177.611984537
  0
ARC
  8
0
  6
CONTINUOUS
 62
     1
 10
93.20806
 20
119.0
 30
0.0
 40
2.4996
 50
182.388015463
 51
208.942689997
  0
LINE
  8
0
  6
CONTINUOUS
 62
     1
 10
95.3
 20
152.00664
 30
0.0
 11
98.85
 21
152.00664
 31
0.0
  0
LINE
  8
0
  6
CONTINUOUS
 62
     1
 10
98.85
 20
151.806645
 30
0.0
 11
95.3
 21
151.806645
 31
0.0
  0
LINE
  8
0
  6
CONTINUOUS
 62
     1
 10
95.25
 20
150.206685
 30
0.0
 11
98.85
 21
150.206685
 31
0.0
  0
LINE
  8
0
  6
CONTINUOUS
 62
     1
 10
98.85
 20
150.00669
 30
0.0
 11
95.3
 21
150.00669
 31
0.0
  0
LINE
  8
0
  6
CONTINUOUS
 62
     1
 10
102.75
 20
152.00664
 30
0.0
 11
100.75
 21
152.00664
 31
0.0
  0
LINE
  8
0
  6
CONTINUOUS
 62
     1
 10
100.75
 20
150.00669
 30
0.0
 11
102.746735
 21
150.00669
 31
0.0
  0
LINE
  8
0
  6
CONTINUOUS
 62
     1
 10
102.75
 20
151.806645
 30
0.0
 11
100.75
 21
151.806645
 31
0.0
  0
LINE
  8
0
  6
CONTINUOUS
 62
     1
 10
100.75
 20
150.206685
 30
0.0
 11
102.75
 21
150.206685
 31
0.0
  0
LINE
  8
0
  6
CONTINUOUS
 62
     1
 10
102.75
 20
152.00664
 30
0.0
 11
102.75
 21
150.00669
 31
0.0
  0
LINE
  8
0
  6
CONTINUOUS
 62
     1
 10
100.5
 20
153.1
 30
0.0
 11
99.25
 21
153.1
 31
0.0
  0
LINE
  8
0
  6
CONTINUOUS
 62
     1
 10
100.5
 20
153.1
 30
0.0
 11
100.75
 21
152.85
 31
0.0
  0
LINE
  8
0
  6
CONTINUOUS
 62
     1
 10
100.49
 20
152.035
 30
0.0
 11
100.75
 21
152.335
 31
0.0
  0
LINE
  8
0
  6
CONTINUOUS
 62
     1
 10
100.75
 20
149.75
 30
0.0
 11
100.45
 21
150.02
 31
0.0
  0
LINE
  8
0
  6
CONTINUOUS
 62
     1
 10
100.75
 20
150.325
 30
0.0
 11
100.45
 21
150.055
 31
0.0
  0
LINE
  8
0
  6
CONTINUOUS
 62
     1
 10
100.45
 20
149.025
 30
0.0
 11
100.75
 21
149.325
 31
0.0
  0
LINE
  8
0
  6
CONTINUOUS
 62
     1
 10
99.25
 20
149.05
 30
0.0
 11
100.5
 21
149.05
 31
0.0
  0
LINE
  8
0
  6
CONTINUOUS
 62
     1
 10
99.25
 20
153.1
 30
0.0
 11
99.25
 21
149.05
 31
0.0
  0
LINE
  8
0
  6
CONTINUOUS
 62
     1
 10
100.75
 20
149.305
 30
0.0
 11
100.75
 21
152.85
 31
0.0
  0
LINE
  8
0
  6
CONTINUOUS
 62
     1
 10
100.503
 20
152.05
 30
0.0
 11
100.753
 21
151.85
 31
0.0
  0
LINE
  8
0
  6
CONTINUOUS
 62
     1
 10
100.503
 20
152.05
 30
0.0
 11
99.25
 21
152.05
 31
0.0
  0
LINE
  8
0
  6
CONTINUOUS
 62
     1
 10
99.25
 20
150.05
 30
0.0
 11
100.466666667
 21
150.05
 31
0.0
  0
LINE
  8
0
  6
CONTINUOUS
 62
     1
 10
99.25
 20
153.1
 30
0.0
 11
98.85
 21
153.5
 31
0.0
  0
LINE
  8
0
  6
CONTINUOUS
 62
     1
 10
98.85
 20
153.5
 30
0.0
 11
98.85
 21
148.65
 31
0.0
  0
LINE
  8
0
  6
CONTINUOUS
 62
     1
 10
99.25
 20
149.05
 30
0.0
 11
98.85
 21
148.65
 31
0.0
  0
LINE
  8
0
  6
CONTINUOUS
 62
     1
 10
95.0
 20
121.5
 30
0.0
 11
95.25
 21
121.5
 31
0.0
  0
LINE
  8
0
  6
CONTINUOUS
 62
     1
 10
95.25
 20
121.5
 30
0.0
 11
95.25
 21
116.5
 31
0.0
  0
LINE
  8
0
  6
CONTINUOUS
 62
     1
 10
95.25
 20
116.5
 30
0.0
 11
95.0
 21
116.5
 31
0.0
  0
LINE
  8
0
  6
CONTINUOUS
 62
     1
 10
95.3
 20
120.00664
 30
0.0
 11
98.85
 21
120.00664
 31
0.0
  0
LINE
  8
0
  6
CONTINUOUS
 62
     1
 10
98.85
 20
119.806645
 30
0.0
 11
95.3
 21
119.806645
 31
0.0
  0
LINE
  8
0
  6
CONTINUOUS
 62
     1
 10
95.25
 20
118.206685
 30
0.0
 11
98.85
 21
118.206685
 31
0.0
  0
LINE
  8
0
  6
CONTINUOUS
 62
     1
 10
98.85
 20
118.00669
 30
0.0
 11
95.3
 21
118.00669
 31
0.0
  0
LINE
  8
0
  6
CONTINUOUS
 62
     1
 10
102.75
 20
120.00664
 30
0.0
 11
100.75
 21
120.00664
 31
0.0
  0
LINE
  8
0
  6
CONTINUOUS
 62
     1
 10
100.75
 20
118.00669
 30
0.0
 11
102.746735
 21
118.00669
 31
0.0
  0
LINE
  8
0
  6
CONTINUOUS
 62
     1
 10
102.75
 20
119.806645
 30
0.0
 11
100.75
 21
119.806645
 31
0.0
  0
LINE
  8
0
  6
CONTINUOUS
 62
     1
 10
100.75
 20
118.206685
 30
0.0
 11
102.75
 21
118.206685
 31
0.0
  0
LINE
  8
0
  6
CONTINUOUS
 62
     1
 10
102.75
 20
120.00664
 30
0.0
 11
102.75
 21
118.00669
 31
0.0
  0
LINE
  8
0
  6
CONTINUOUS
 62
     1
 10
100.5
 20
121.1
 30
0.0
 11
99.25
 21
121.1
 31
0.0
  0
LINE
  8
0
  6
CONTINUOUS
 62
     1
 10
100.5
 20
121.1
 30
0.0
 11
100.75
 21
120.85
 31
0.0
  0
LINE
  8
0
  6
CONTINUOUS
 62
     1
 10
100.49
 20
120.035
 30
0.0
 11
100.75
 21
120.335
 31
0.0
  0
LINE
  8
0
  6
CONTINUOUS
 62
     1
 10
100.75
 20
117.75
 30
0.0
 11
100.45
 21
118.02
 31
0.0
  0
LINE
  8
0
  6
CONTINUOUS
 62
     1
 10
100.75
 20
118.325
 30
0.0
 11
100.45
 21
118.055
 31
0.0
  0
LINE
  8
0
  6
CONTINUOUS
 62
     1
 10
100.45
 20
117.025
 30
0.0
 11
100.75
 21
117.325
 31
0.0
  0
LINE
  8
0
  6
CONTINUOUS
 62
     1
 10
99.25
 20
117.05
 30
0.0
 11
100.5
 21
117.05
 31
0.0
  0
LINE
  8
0
  6
CONTINUOUS
 62
     1
 10
99.25
 20
121.1
 30
0.0
 11
99.25
 21
117.05
 31
0.0
  0
LINE
  8
0
  6
CONTINUOUS
 62
     1
 10
100.75
 20
117.305
 30
0.0
 11
100.75
 21
120.85
 31
0.0
  0
LINE
  8
0
  6
CONTINUOUS
 62
     1
 10
100.503
 20
120.05
 30
0.0
 11
100.753
 21
119.85
 31
0.0
  0
LINE
  8
0
  6
CONTINUOUS
 62
     1
 10
100.503
 20
120.05
 30
0.0
 11
99.25
 21
120.05
 31
0.0
  0
LINE
  8
0
  6
CONTINUOUS
 62
     1
 10
99.25
 20
118.05
 30
0.0
 11
100.466666667
 21
118.05
 31
0.0
  0
LINE
  8
0
  6
CONTINUOUS
 62
     1
 10
99.25
 20
121.1
 30
0.0
 11
98.85
 21
121.5
 31
0.0
  0
LINE
  8
0
  6
CONTINUOUS
 62
     1
 10
98.85
 20
121.5
 30
0.0
 11
98.85
 21
116.65
 31
0.0
  0
LINE
  8
0
  6
CONTINUOUS
 62
     1
 10
99.25
 20
117.05
 30
0.0
 11
98.85
 21
116.65
 31
0.0
  0
LINE
  8
0
  6
CONTINUOUS
 62
     1
 10
135.5
 20
151.0
 30
0.0
 11
138.0
 21
150.75
 31
0.0
  0
LINE
  8
0
  6
CONTINUOUS
 62
     1
 10
138.0
 20
150.75
 30
0.0
 11
138.0
 21
119.25
 31
0.0
  0
LINE
  8
0
  6
CONTINUOUS
 62
     1
 10
138.0
 20
119.25
 30
0.0
 11
135.5
 21
119.0
 31
0.0
  0
LINE
  8
0
  6
CONTINUOUS
 62
     1
 10
135.5
 20
119.0
 30
0.0
 11
135.5
 21
151.0
 31
0.0
  0
LINE
  8
0
  6
LTYPE1
 62
     2
 10
156.0
 20
119.0
 30
0.0
 11
162.0
 21
119.0
 31
0.0
  0
LINE
  8
0
  6
LTYPE1
 62
     2
 10
159.0
 20
122.0
 30
0.0
 11
159.0
 21
116.0
 31
0.0
  0
LINE
  8
0
  6
LTYPE1
 62
     2
 10
188.0
 20
119.0
 30
0.0
 11
194.0
 21
119.0
 31
0.0
  0
LINE
  8
0
  6
LTYPE1
 62
     2
 10
191.0
 20
122.0
 30
0.0
 11
191.0
 21
116.0
 31
0.0
  0
LINE
  8
0
  6
LTYPE1
 62
     2
 10
156.0
 20
151.0
 30
0.0
 11
162.0
 21
151.0
 31
0.0
  0
LINE
  8
0
  6
LTYPE1
 62
     2
 10
159.0
 20
154.0
 30
0.0
 11
159.0
 21
148.0
 31
0.0
  0
LINE
  8
0
  6
LTYPE1
 62
     2
 10
188.0
 20
151.0
 30
0.0
 11
194.0
 21
151.0
 31
0.0
  0
LINE
  8
0
  6
LTYPE1
 62
     2
 10
191.0
 20
154.0
 30
0.0
 11
191.0
 21
148.0
 31
0.0
  0
LINE
  8
0
  6
CONTINUOUS
 62
     2
 10
155.0
 20
153.4
 30
0.0
 11
155.0
 21
177.0
 31
0.0
  0
LINE
  8
0
  6
CONTINUOUS
 62
     2
 10
155.0
 20
175.0
 30
0.0
 11
157.414814566
 21
174.352952387
 31
0.0
  0
LINE
  8
0
  6
CONTINUOUS
 62
     2
 10
155.0
 20
175.0
 30
0.0
 11
157.414814566
 21
175.647047613
 31
0.0
  0
LINE
  8
0
  6
CONTINUOUS
 62
     2
 10
155.0
 20
175.0
 30
0.0
 11
195.0
 21
175.0
 31
0.0
  0
LINE
  8
0
  6
CONTINUOUS
 62
     2
 10
195.0
 20
175.0
 30
0.0
 11
192.585185434
 21
175.647047613
 31
0.0
  0
LINE
  8
0
  6
CONTINUOUS
 62
     2
 10
195.0
 20
175.0
 30
0.0
 11
192.585185434
 21
174.352952387
 31
0.0
  0
LINE
  8
0
  6
CONTINUOUS
 62
     2
 10
195.0
 20
153.4
 30
0.0
 11
195.0
 21
177.0
 31
0.0
  0
TEXT
  8
0
  6
CONTINUOUS
 62
     2
 10
173.05
 20
176.0
 30
0.3
 40
3.0
  1
８０
 50
0.0
 41
0.6
 51
0.0
  7
KANJI0
  0
LINE
  8
0
  6
CONTINUOUS
 62
     2
 10
193.5
 20
155.0
 30
0.0
 11
217.0
 21
155.0
 31
0.0
  0
LINE
  8
0
  6
CONTINUOUS
 62
     2
 10
215.0
 20
155.0
 30
0.0
 11
214.352952387
 21
152.585185434
 31
0.0
  0
LINE
  8
0
  6
CONTINUOUS
 62
     2
 10
215.0
 20
155.0
 30
0.0
 11
215.647047613
 21
152.585185434
 31
0.0
  0
LINE
  8
0
  6
CONTINUOUS
 62
     2
 10
215.0
 20
155.0
 30
0.0
 11
215.0
 21
115.0
 31
0.0
  0
LINE
  8
0
  6
CONTINUOUS
 62
     2
 10
215.0
 20
115.0
 30
0.0
 11
215.647047613
 21
117.414814566
 31
0.0
  0
LINE
  8
0
  6
CONTINUOUS
 62
     2
 10
215.0
 20
115.0
 30
0.0
 11
214.352952387
 21
117.414814566
 31
0.0
  0
LINE
  8
0
  6
CONTINUOUS
 62
     2
 10
193.6
 20
115.0
 30
0.0
 11
217.0
 21
115.0
 31
0.0
  0
TEXT
  8
0
  6
CONTINUOUS
 62
     2
 10
214.0
 20
133.05
 30
0.3
 40
3.0
  1
８０
 50
90.0
 41
0.6
 51
0.0
  7
KANJI0
  0
LINE
  8
0
  6
CONTINUOUS
 62
     2
 10
194.0
 20
151.0
 30
0.0
 11
207.1
 21
151.0
 31
0.0
  0
LINE
  8
0
  6
CONTINUOUS
 62
     2
 10
205.1
 20
151.0
 30
0.0
 11
204.452952387
 21
148.585185434
 31
0.0
  0
LINE
  8
0
  6
CONTINUOUS
 62
     2
 10
205.1
 20
151.0
 30
0.0
 11
205.747047613
 21
148.585185434
 31
0.0
  0
LINE
  8
0
  6
CONTINUOUS
 62
     2
 10
205.1
 20
151.0
 30
0.0
 11
205.1
 21
135.0
 31
0.0
  0
LINE
  8
0
  6
CONTINUOUS
 62
     2
 10
205.1
 20
135.0
 30
0.0
 11
205.747047613
 21
137.414814566
 31
0.0
  0
LINE
  8
0
  6
CONTINUOUS
 62
     2
 10
205.1
 20
135.0
 30
0.0
 11
204.452952387
 21
137.414814566
 31
0.0
  0
LINE
  8
0
  6
CONTINUOUS
 62
     2
 10
202.0
 20
135.0
 30
0.0
 11
207.1
 21
135.0
 31
0.0
  0
TEXT
  8
0
  6
CONTINUOUS
 62
     2
 10
204.1
 20
138.62
 30
0.3
 40
3.0
  1
３２
 50
90.0
 41
0.6
 51
0.0
  7
KANJI0
  0
TEXT
  8
0
  6
CONTINUOUS
 62
     2
 10
204.1
 20
142.52
 30
0.18
 40
1.8
  1
±０．５
 50
90.0
 41
0.6
 51
0.0
  7
KANJI1
  0
LINE
  8
0
  6
CONTINUOUS
 62
     2
 10
205.1
 20
135.0
 30
0.0
 11
204.452952387
 21
132.585185434
 31
0.0
  0
LINE
  8
0
  6
CONTINUOUS
 62
     2
 10
205.1
 20
135.0
 30
0.0
 11
205.747047613
 21
132.585185434
 31
0.0
  0
LINE
  8
0
  6
CONTINUOUS
 62
     2
 10
205.1
 20
135.0
 30
0.0
 11
205.1
 21
119.0
 31
0.0
  0
LINE
  8
0
  6
CONTINUOUS
 62
     2
 10
205.1
 20
119.0
 30
0.0
 11
205.747047613
 21
121.414814566
 31
0.0
  0
LINE
  8
0
  6
CONTINUOUS
 62
     2
 10
205.1
 20
119.0
 30
0.0
 11
204.452952387
 21
121.414814566
 31
0.0
  0
LINE
  8
0
  6
CONTINUOUS
 62
     2
 10
194.0
 20
119.0
 30
0.0
 11
207.1
 21
119.0
 31
0.0
  0
TEXT
  8
0
  6
CONTINUOUS
 62
     2
 10
204.1
 20
122.62
 30
0.3
 40
3.0
  1
３２
 50
90.0
 41
0.6
 51
0.0
  7
KANJI0
  0
TEXT
  8
0
  6
CONTINUOUS
 62
     2
 10
204.1
 20
126.52
 30
0.18
 40
1.8
  1
±０．５
 50
90.0
 41
0.6
 51
0.0
  7
KANJI1
  0
LINE
  8
0
  6
CONTINUOUS
 62
     2
 10
159.0
 20
154.2
 30
0.0
 11
159.0
 21
167.0
 31
0.0
  0
LINE
  8
0
  6
CONTINUOUS
 62
     2
 10
159.0
 20
165.0
 30
0.0
 11
161.414814566
 21
164.352952387
 31
0.0
  0
LINE
  8
0
  6
CONTINUOUS
 62
     2
 10
159.0
 20
165.0
 30
0.0
 11
161.414814566
 21
165.647047613
 31
0.0
  0
LINE
  8
0
  6
CONTINUOUS
 62
     2
 10
159.0
 20
165.0
 30
0.0
 11
175.0
 21
165.0
 31
0.0
  0
LINE
  8
0
  6
CONTINUOUS
 62
     2
 10
175.0
 20
165.0
 30
0.0
 11
172.585185434
 21
165.647047613
 31
0.0
  0
LINE
  8
0
  6
CONTINUOUS
 62
     2
 10
175.0
 20
165.0
 30
0.0
 11
172.585185434
 21
164.352952387
 31
0.0
  0
LINE
  8
0
  6
CONTINUOUS
 62
     2
 10
175.0
 20
159.5
 30
0.0
 11
175.0
 21
167.0
 31
0.0
  0
TEXT
  8
0
  6
CONTINUOUS
 62
     2
 10
162.62
 20
166.0
 30
0.3
 40
3.0
  1
３２
 50
0.0
 41
0.6
 51
0.0
  7
KANJI0
  0
TEXT
  8
0
  6
CONTINUOUS
 62
     2
 10
166.52
 20
166.0
 30
0.18
 40
1.8
  1
±０．５
 50
0.0
 41
0.6
 51
0.0
  7
KANJI1
  0
LINE
  8
0
  6
CONTINUOUS
 62
     2
 10
175.0
 20
165.0
 30
0.0
 11
177.414814566
 21
164.352952387
 31
0.0
  0
LINE
  8
0
  6
CONTINUOUS
 62
     2
 10
175.0
 20
165.0
 30
0.0
 11
177.414814566
 21
165.647047613
 31
0.0
  0
LINE
  8
0
  6
CONTINUOUS
 62
     2
 10
175.0
 20
165.0
 30
0.0
 11
191.0
 21
165.0
 31
0.0
  0
LINE
  8
0
  6
CONTINUOUS
 62
     2
 10
191.0
 20
165.0
 30
0.0
 11
188.585185434
 21
165.647047613
 31
0.0
  0
LINE
  8
0
  6
CONTINUOUS
 62
     2
 10
191.0
 20
165.0
 30
0.0
 11
188.585185434
 21
164.352952387
 31
0.0
  0
LINE
  8
0
  6
CONTINUOUS
 62
     2
 10
191.0
 20
154.0
 30
0.0
 11
191.0
 21
167.0
 31
0.0
  0
TEXT
  8
0
  6
CONTINUOUS
 62
     2
 10
178.62
 20
166.0
 30
0.3
 40
3.0
  1
３２
 50
0.0
 41
0.6
 51
0.0
  7
KANJI0
  0
TEXT
  8
0
  6
CONTINUOUS
 62
     2
 10
182.52
 20
166.0
 30
0.18
 40
1.8
  1
±０．５
 50
0.0
 41
0.6
 51
0.0
  7
KANJI1
  0
LINE
  8
0
  6
CONTINUOUS
 62
     2
 10
187.35
 20
135.0
 30
0.0
 11
185.25
 21
135.0
 31
0.0
  0
LINE
  8
0
  6
LTYPE2
 62
     2
 10
155.0
 20
54.0
 30
0.0
 11
162.5
 21
54.0
 31
0.0
  0
LINE
  8
0
  6
LTYPE2
 62
     2
 10
187.0
 20
54.0
 30
0.0
 11
196.0
 21
54.0
 31
0.0
  0
LINE
  8
0
  6
LTYPE2
 62
     2
 10
154.5
 20
86.0
 30
0.0
 11
163.0
 21
86.0
 31
0.0
  0
LINE
  8
0
  6
LTYPE2
 62
     2
 10
187.0
 20
86.0
 30
0.0
 11
196.0
 21
86.0
 31
0.0
  0
LINE
  8
0
  6
LTYPE2
 62
     2
 10
191.0
 20
90.0
 30
0.0
 11
191.0
 21
81.5
 31
0.0
  0
LINE
  8
0
  6
LTYPE2
 62
     2
 10
191.0
 20
58.0
 30
0.0
 11
191.0
 21
48.5
 31
0.0
  0
LINE
  8
0
  6
LTYPE2
 62
     2
 10
159.0
 20
48.5
 30
0.0
 11
159.0
 21
58.5
 31
0.0
  0
LINE
  8
0
  6
LTYPE2
 62
     2
 10
159.0
 20
81.5
 30
0.0
 11
159.0
 21
90.5
 31
0.0
  0
LINE
  8
0
  6
CONTINUOUS
 62
     2
 10
159.0
 20
90.5
 30
0.0
 11
159.0
 21
98.0
 31
0.0
  0
LINE
  8
0
  6
CONTINUOUS
 62
     2
 10
159.0
 20
96.0
 30
0.0
 11
161.414814566
 21
95.352952387
 31
0.0
  0
LINE
  8
0
  6
CONTINUOUS
 62
     2
 10
159.0
 20
96.0
 30
0.0
 11
161.414814566
 21
96.647047613
 31
0.0
  0
LINE
  8
0
  6
CONTINUOUS
 62
     2
 10
159.0
 20
96.0
 30
0.0
 11
175.0
 21
96.0
 31
0.0
  0
LINE
  8
0
  6
CONTINUOUS
 62
     2
 10
175.0
 20
96.0
 30
0.0
 11
172.585185434
 21
96.647047613
 31
0.0
  0
LINE
  8
0
  6
CONTINUOUS
 62
     2
 10
175.0
 20
96.0
 30
0.0
 11
172.585185434
 21
95.352952387
 31
0.0
  0
LINE
  8
0
  6
CONTINUOUS
 62
     2
 10
175.0
 20
96.0
 30
0.0
 11
175.0
 21
98.0
 31
0.0
  0
TEXT
  8
0
  6
CONTINUOUS
 62
     2
 10
162.62
 20
97.0
 30
0.3
 40
3.0
  1
３２
 50
0.0
 41
0.6
 51
0.0
  7
KANJI0
  0
TEXT
  8
0
  6
CONTINUOUS
 62
     2
 10
166.52
 20
97.0
 30
0.18
 40
1.8
  1
±０．５
 50
0.0
 41
0.6
 51
0.0
  7
KANJI1
  0
LINE
  8
0
  6
CONTINUOUS
 62
     2
 10
175.0
 20
96.0
 30
0.0
 11
177.414814566
 21
95.352952387
 31
0.0
  0
LINE
  8
0
  6
CONTINUOUS
 62
     2
 10
175.0
 20
96.0
 30
0.0
 11
177.414814566
 21
96.647047613
 31
0.0
  0
LINE
  8
0
  6
CONTINUOUS
 62
     2
 10
175.0
 20
96.0
 30
0.0
 11
191.0
 21
96.0
 31
0.0
  0
LINE
  8
0
  6
CONTINUOUS
 62
     2
 10
191.0
 20
96.0
 30
0.0
 11
188.585185434
 21
96.647047613
 31
0.0
  0
LINE
  8
0
  6
CONTINUOUS
 62
     2
 10
191.0
 20
96.0
 30
0.0
 11
188.585185434
 21
95.352952387
 31
0.0
  0
LINE
  8
0
  6
CONTINUOUS
 62
     2
 10
191.0
 20
90.0
 30
0.0
 11
191.0
 21
98.0
 31
0.0
  0
TEXT
  8
0
  6
CONTINUOUS
 62
     2
 10
178.62
 20
97.0
 30
0.3
 40
3.0
  1
３２
 50
0.0
 41
0.6
 51
0.0
  7
KANJI0
  0
TEXT
  8
0
  6
CONTINUOUS
 62
     2
 10
182.52
 20
97.0
 30
0.18
 40
1.8
  1
±０．５
 50
0.0
 41
0.6
 51
0.0
  7
KANJI1
  0
LINE
  8
0
  6
CONTINUOUS
 62
     2
 10
196.0
 20
86.0
 30
0.0
 11
203.0
 21
86.0
 31
0.0
  0
LINE
  8
0
  6
CONTINUOUS
 62
     2
 10
201.0
 20
86.0
 30
0.0
 11
200.352952387
 21
83.585185434
 31
0.0
  0
LINE
  8
0
  6
CONTINUOUS
 62
     2
 10
201.0
 20
86.0
 30
0.0
 11
201.647047613
 21
83.585185434
 31
0.0
  0
LINE
  8
0
  6
CONTINUOUS
 62
     2
 10
201.0
 20
86.0
 30
0.0
 11
201.0
 21
70.0
 31
0.0
  0
LINE
  8
0
  6
CONTINUOUS
 62
     2
 10
201.0
 20
70.0
 30
0.0
 11
201.647047613
 21
72.414814566
 31
0.0
  0
LINE
  8
0
  6
CONTINUOUS
 62
     2
 10
201.0
 20
70.0
 30
0.0
 11
200.352952387
 21
72.414814566
 31
0.0
  0
LINE
  8
0
  6
CONTINUOUS
 62
     2
 10
201.1
 20
70.0
 30
0.0
 11
199.0
 21
70.0
 31
0.0
  0
TEXT
  8
0
  6
CONTINUOUS
 62
     2
 10
200.0
 20
73.62
 30
0.3
 40
3.0
  1
３２
 50
90.0
 41
0.6
 51
0.0
  7
KANJI0
  0
TEXT
  8
0
  6
CONTINUOUS
 62
     2
 10
200.0
 20
77.52
 30
0.18
 40
1.8
  1
±０．５
 50
90.0
 41
0.6
 51
0.0
  7
KANJI1
  0
LINE
  8
0
  6
CONTINUOUS
 62
     2
 10
201.0
 20
70.0
 30
0.0
 11
200.352952387
 21
67.585185434
 31
0.0
  0
LINE
  8
0
  6
CONTINUOUS
 62
     2
 10
201.0
 20
70.0
 30
0.0
 11
201.647047613
 21
67.585185434
 31
0.0
  0
LINE
  8
0
  6
CONTINUOUS
 62
     2
 10
201.0
 20
70.0
 30
0.0
 11
201.0
 21
54.0
 31
0.0
  0
LINE
  8
0
  6
CONTINUOUS
 62
     2
 10
201.0
 20
54.0
 30
0.0
 11
201.647047613
 21
56.414814566
 31
0.0
  0
LINE
  8
0
  6
CONTINUOUS
 62
     2
 10
201.0
 20
54.0
 30
0.0
 11
200.352952387
 21
56.414814566
 31
0.0
  0
LINE
  8
0
  6
CONTINUOUS
 62
     2
 10
196.0
 20
54.0
 30
0.0
 11
203.0
 21
54.0
 31
0.0
  0
TEXT
  8
0
  6
CONTINUOUS
 62
     2
 10
200.0
 20
57.62
 30
0.3
 40
3.0
  1
３２
 50
90.0
 41
0.6
 51
0.0
  7
KANJI0
  0
TEXT
  8
0
  6
CONTINUOUS
 62
     2
 10
200.0
 20
61.52
 30
0.18
 40
1.8
  1
±０．５
 50
90.0
 41
0.6
 51
0.0
  7
KANJI1
  0
LINE
  8
0
  6
CONTINUOUS
 62
     2
 10
158.659055505
 20
66.320865182
 30
0.0
 11
161.157021247
 21
66.220032896
 31
0.0
  0
LINE
  8
0
  6
CONTINUOUS
 62
     2
 10
158.659055505
 20
66.320865182
 30
0.0
 11
160.872773438
 21
67.482524732
 31
0.0
  0
LINE
  8
0
  6
CONTINUOUS
 62
     2
 10
158.659055505
 20
66.320865182
 30
0.0
 11
191.340944495
 21
73.679134818
 31
0.0
  0
LINE
  8
0
  6
CONTINUOUS
 62
     2
 10
191.340944495
 20
73.679134818
 30
0.0
 11
188.842978753
 21
73.779967104
 31
0.0
  0
LINE
  8
0
  6
CONTINUOUS
 62
     2
 10
191.340944495
 20
73.679134818
 30
0.0
 11
189.127226562
 21
72.517475268
 31
0.0
  0
TEXT
  8
0
  6
CONTINUOUS
 62
     2
 10
165.786275673
 20
68.950578776
 30
0.3
 40
3.0
  1
φ６７
 50
12.688467247
 41
0.6
 51
0.0
  7
KANJI0
  0
TEXT
  8
0
  6
CONTINUOUS
 62
     2
 10
171.639748328
 20
70.268477815
 30
0.18
 40
1.8
  1
±１
 50
12.688467247
 41
0.6
 51
0.0
  7
KANJI1
  0
LINE
  8
0
  6
LTYPE2
 62
     2
 10
168.75
 20
145.0
 30
0.0
 11
168.75
 21
140.0
 31
0.0
  0
CIRCLE
  8
0
  6
CONTINUOUS
 62
     2
 10
168.75
 20
142.5
 30
0.0
 40
1.75
  0
LINE
  8
0
  6
CONTINUOUS
 62
     2
 10
168.5
 20
144.232050808
 30
0.0
 11
168.5
 21
143.0
 31
0.0
  0
ARC
  8
0
  6
CONTINUOUS
 62
     2
 10
168.25
 20
143.0
 30
0.0
 40
0.25
 50
270.0
 51
0.0
  0
LINE
  8
0
  6
CONTINUOUS
 62
     2
 10
168.25
 20
142.75
 30
0.0
 11
167.725
 21
142.75
 31
0.0
  0
LINE
  8
0
  6
CONTINUOUS
 62
     2
 10
167.725
 20
142.75
 30
0.0
 11
167.725
 21
142.25
 31
0.0
  0
LINE
  8
0
  6
CONTINUOUS
 62
     2
 10
167.725
 20
142.25
 30
0.0
 11
168.25
 21
142.25
 31
0.0
  0
ARC
  8
0
  6
CONTINUOUS
 62
     2
 10
168.25
 20
142.0
 30
0.0
 40
0.25
 50
0.0
 51
90.0
  0
LINE
  8
0
  6
CONTINUOUS
 62
     2
 10
168.5
 20
142.0
 30
0.0
 11
168.5
 21
140.767949192
 31
0.0
  0
LINE
  8
0
  6
CONTINUOUS
 62
     2
 10
169.0
 20
142.0
 30
0.0
 11
169.0
 21
140.767949192
 31
0.0
  0
ARC
  8
0
  6
CONTINUOUS
 62
     2
 10
169.25
 20
142.0
 30
0.0
 40
0.25
 50
90.0
 51
180.0
  0
LINE
  8
0
  6
CONTINUOUS
 62
     2
 10
169.775
 20
142.25
 30
0.0
 11
169.25
 21
142.25
 31
0.0
  0
LINE
  8
0
  6
CONTINUOUS
 62
     2
 10
169.775
 20
142.75
 30
0.0
 11
169.775
 21
142.25
 31
0.0
  0
LINE
  8
0
  6
CONTINUOUS
 62
     2
 10
169.25
 20
142.75
 30
0.0
 11
169.775
 21
142.75
 31
0.0
  0
ARC
  8
0
  6
CONTINUOUS
 62
     2
 10
169.25
 20
143.0
 30
0.0
 40
0.25
 50
180.0
 51
270.0
  0
LINE
  8
0
  6
CONTINUOUS
 62
     2
 10
169.0
 20
144.232050808
 30
0.0
 11
169.0
 21
143.0
 31
0.0
  0
LINE
  8
0
  6
LTYPE2
 62
     2
 10
181.25
 20
145.0
 30
0.0
 11
181.25
 21
140.0
 31
0.0
  0
CIRCLE
  8
0
  6
CONTINUOUS
 62
     2
 10
181.25
 20
142.5
 30
0.0
 40
1.75
  0
LINE
  8
0
  6
CONTINUOUS
 62
     2
 10
181.0
 20
144.232050808
 30
0.0
 11
181.0
 21
143.0
 31
0.0
  0
ARC
  8
0
  6
CONTINUOUS
 62
     2
 10
180.75
 20
143.0
 30
0.0
 40
0.25
 50
270.0
 51
0.0
  0
LINE
  8
0
  6
CONTINUOUS
 62
     2
 10
180.75
 20
142.75
 30
0.0
 11
180.225
 21
142.75
 31
0.0
  0
LINE
  8
0
  6
CONTINUOUS
 62
     2
 10
180.225
 20
142.75
 30
0.0
 11
180.225
 21
142.25
 31
0.0
  0
LINE
  8
0
  6
CONTINUOUS
 62
     2
 10
180.225
 20
142.25
 30
0.0
 11
180.75
 21
142.25
 31
0.0
  0
ARC
  8
0
  6
CONTINUOUS
 62
     2
 10
180.75
 20
142.0
 30
0.0
 40
0.25
 50
0.0
 51
90.0
  0
LINE
  8
0
  6
CONTINUOUS
 62
     2
 10
181.0
 20
142.0
 30
0.0
 11
181.0
 21
140.767949192
 31
0.0
  0
LINE
  8
0
  6
CONTINUOUS
 62
     2
 10
181.5
 20
142.0
 30
0.0
 11
181.5
 21
140.767949192
 31
0.0
  0
ARC
  8
0
  6
CONTINUOUS
 62
     2
 10
181.75
 20
142.0
 30
0.0
 40
0.25
 50
90.0
 51
180.0
  0
LINE
  8
0
  6
CONTINUOUS
 62
     2
 10
182.275
 20
142.25
 30
0.0
 11
181.75
 21
142.25
 31
0.0
  0
LINE
  8
0
  6
CONTINUOUS
 62
     2
 10
182.275
 20
142.75
 30
0.0
 11
182.275
 21
142.25
 31
0.0
  0
LINE
  8
0
  6
CONTINUOUS
 62
     2
 10
181.75
 20
142.75
 30
0.0
 11
182.275
 21
142.75
 31
0.0
  0
ARC
  8
0
  6
CONTINUOUS
 62
     2
 10
181.75
 20
143.0
 30
0.0
 40
0.25
 50
180.0
 51
270.0
  0
LINE
  8
0
  6
CONTINUOUS
 62
     2
 10
181.5
 20
144.232050808
 30
0.0
 11
181.5
 21
143.0
 31
0.0
  0
CIRCLE
  8
0
  6
CONTINUOUS
 62
     2
 10
45.5
 20
135.0
 30
0.0
 40
7.5
  0
CIRCLE
  8
0
  6
CONTINUOUS
 62
     2
 10
45.5
 20
135.0
 30
0.0
 40
7.0
  0
CIRCLE
  8
0
  6
CONTINUOUS
 62
     2
 10
45.5
 20
135.0
 30
0.0
 40
6.5
  0
CIRCLE
  8
0
  6
CONTINUOUS
 62
     2
 10
45.5
 20
135.0
 30
0.0
 40
6.0
  0
CIRCLE
  8
0
  6
CONTINUOUS
 62
     2
 10
45.5
 20
135.0
 30
0.0
 40
5.5
  0
CIRCLE
  8
0
  6
CONTINUOUS
 62
     2
 10
45.5
 20
135.0
 30
0.0
 40
5.0
  0
CIRCLE
  8
0
  6
CONTINUOUS
 62
     2
 10
45.5
 20
135.0
 30
0.0
 40
4.5
  0
CIRCLE
  8
0
  6
CONTINUOUS
 62
     2
 10
45.5
 20
135.0
 30
0.0
 40
4.0
  0
CIRCLE
  8
0
  6
CONTINUOUS
 62
     2
 10
45.5
 20
135.0
 30
0.0
 40
3.5
  0
CIRCLE
  8
0
  6
CONTINUOUS
 62
     2
 10
45.5
 20
135.0
 30
0.0
 40
17.5
  0
CIRCLE
  8
0
  6
CONTINUOUS
 62
     2
 10
45.5
 20
135.0
 30
0.0
 40
17.0
  0
CIRCLE
  8
0
  6
CONTINUOUS
 62
     2
 10
45.5
 20
135.0
 30
0.0
 40
14.75
  0
LINE
  8
0
  6
CONTINUOUS
 62
     2
 10
39.829225
 20
128.65332
 30
0.0
 11
40.19336
 21
128.65332
 31
0.0
  0
ARC
  8
0
  6
CONTINUOUS
 62
     2
 10
40.19336
 20
128.80664
 30
0.0
 40
0.15332
 50
270.0
 51
0.0
  0
LINE
  8
0
  6
CONTINUOUS
 62
     2
 10
40.34668
 20
128.80664
 30
0.0
 11
40.34668
 21
129.170775
 31
0.0
  0
LINE
  8
0
  6
CONTINUOUS
 62
     2
 10
40.34668
 20
129.170775
 30
0.0
 11
40.65332
 21
129.170775
 31
0.0
  0
LINE
  8
0
  6
CONTINUOUS
 62
     2
 10
40.65332
 20
129.170775
 30
0.0
 11
40.65332
 21
128.80664
 31
0.0
  0
ARC
  8
0
  6
CONTINUOUS
 62
     2
 10
40.80664
 20
128.80664
 30
0.0
 40
0.15332
 50
180.0
 51
270.0
  0
LINE
  8
0
  6
CONTINUOUS
 62
     2
 10
40.80664
 20
128.65332
 30
0.0
 11
41.170775
 21
128.65332
 31
0.0
  0
LINE
  8
0
  6
CONTINUOUS
 62
     2
 10
41.170775
 20
128.65332
 30
0.0
 11
41.170775
 21
128.34668
 31
0.0
  0
LINE
  8
0
  6
CONTINUOUS
 62
     2
 10
41.170775
 20
128.34668
 30
0.0
 11
40.80664
 21
128.34668
 31
0.0
  0
ARC
  8
0
  6
CONTINUOUS
 62
     2
 10
40.80664
 20
128.19336
 30
0.0
 40
0.15332
 50
90.0
 51
180.0
  0
LINE
  8
0
  6
CONTINUOUS
 62
     2
 10
40.65332
 20
128.19336
 30
0.0
 11
40.65332
 21
127.829225
 31
0.0
  0
LINE
  8
0
  6
CONTINUOUS
 62
     2
 10
40.65332
 20
127.829225
 30
0.0
 11
40.34668
 21
127.829225
 31
0.0
  0
LINE
  8
0
  6
CONTINUOUS
 62
     2
 10
40.34668
 20
127.829225
 30
0.0
 11
40.34668
 21
128.19336
 31
0.0
  0
ARC
  8
0
  6
CONTINUOUS
 62
     2
 10
40.19336
 20
128.19336
 30
0.0
 40
0.15332
 50
0.0
 51
90.0
  0
LINE
  8
0
  6
CONTINUOUS
 62
     2
 10
40.19336
 20
128.34668
 30
0.0
 11
39.829225
 21
128.34668
 31
0.0
  0
LINE
  8
0
  6
CONTINUOUS
 62
     2
 10
39.829225
 20
128.34668
 30
0.0
 11
39.829225
 21
128.65332
 31
0.0
  0
LINE
  8
0
  6
LTYPE2
 62
     2
 10
38.9668
 20
128.5
 30
0.0
 11
42.0332
 21
128.5
 31
0.0
  0
LINE
  8
0
  6
LTYPE2
 62
     2
 10
40.5
 20
130.0332
 30
0.0
 11
40.5
 21
126.9668
 31
0.0
  0
LINE
  8
0
  6
CONTINUOUS
 62
     2
 10
49.829225
 20
128.65332
 30
0.0
 11
50.19336
 21
128.65332
 31
0.0
  0
ARC
  8
0
  6
CONTINUOUS
 62
     2
 10
50.19336
 20
128.80664
 30
0.0
 40
0.15332
 50
270.0
 51
0.0
  0
LINE
  8
0
  6
CONTINUOUS
 62
     2
 10
50.34668
 20
128.80664
 30
0.0
 11
50.34668
 21
129.170775
 31
0.0
  0
LINE
  8
0
  6
CONTINUOUS
 62
     2
 10
50.34668
 20
129.170775
 30
0.0
 11
50.65332
 21
129.170775
 31
0.0
  0
LINE
  8
0
  6
CONTINUOUS
 62
     2
 10
50.65332
 20
129.170775
 30
0.0
 11
50.65332
 21
128.80664
 31
0.0
  0
ARC
  8
0
  6
CONTINUOUS
 62
     2
 10
50.80664
 20
128.80664
 30
0.0
 40
0.15332
 50
180.0
 51
270.0
  0
LINE
  8
0
  6
CONTINUOUS
 62
     2
 10
50.80664
 20
128.65332
 30
0.0
 11
51.170775
 21
128.65332
 31
0.0
  0
LINE
  8
0
  6
CONTINUOUS
 62
     2
 10
51.170775
 20
128.65332
 30
0.0
 11
51.170775
 21
128.34668
 31
0.0
  0
LINE
  8
0
  6
CONTINUOUS
 62
     2
 10
51.170775
 20
128.34668
 30
0.0
 11
50.80664
 21
128.34668
 31
0.0
  0
ARC
  8
0
  6
CONTINUOUS
 62
     2
 10
50.80664
 20
128.19336
 30
0.0
 40
0.15332
 50
90.0
 51
180.0
  0
LINE
  8
0
  6
CONTINUOUS
 62
     2
 10
50.65332
 20
128.19336
 30
0.0
 11
50.65332
 21
127.829225
 31
0.0
  0
LINE
  8
0
  6
CONTINUOUS
 62
     2
 10
50.65332
 20
127.829225
 30
0.0
 11
50.34668
 21
127.829225
 31
0.0
  0
LINE
  8
0
  6
CONTINUOUS
 62
     2
 10
50.34668
 20
127.829225
 30
0.0
 11
50.34668
 21
128.19336
 31
0.0
  0
ARC
  8
0
  6
CONTINUOUS
 62
     2
 10
50.19336
 20
128.19336
 30
0.0
 40
0.15332
 50
0.0
 51
90.0
  0
LINE
  8
0
  6
CONTINUOUS
 62
     2
 10
50.19336
 20
128.34668
 30
0.0
 11
49.829225
 21
128.34668
 31
0.0
  0
LINE
  8
0
  6
CONTINUOUS
 62
     2
 10
49.829225
 20
128.34668
 30
0.0
 11
49.829225
 21
128.65332
 31
0.0
  0
LINE
  8
0
  6
LTYPE2
 62
     2
 10
48.9668
 20
128.5
 30
0.0
 11
52.0332
 21
128.5
 31
0.0
  0
LINE
  8
0
  6
LTYPE2
 62
     2
 10
50.5
 20
130.0332
 30
0.0
 11
50.5
 21
126.9668
 31
0.0
  0
ARC
  8
0
  6
CONTINUOUS
 62
     2
 10
50.5
 20
128.5
 30
0.0
 40
1.1499
 50
176.772955224
 51
0.0
  0
ARC
  8
0
  6
CONTINUOUS
 62
     2
 10
50.5
 20
128.5
 30
0.0
 40
1.1499
 50
0.0
 51
78.364228834
  0
ARC
  8
0
  6
CONTINUOUS
 62
     2
 10
40.5
 20
128.5
 30
0.0
 40
1.1499
 50
101.635771167
 51
0.0
  0
ARC
  8
0
  6
CONTINUOUS
 62
     2
 10
40.5
 20
128.5
 30
0.0
 40
1.1499
 50
0.0
 51
5.706808691
  0
LINE
  8
0
  6
LTYPE2
 62
     2
 10
27.9
 20
119.0
 30
0.0
 11
31.1
 21
119.0
 31
0.0
  0
LINE
  8
0
  6
LTYPE2
 62
     2
 10
29.5
 20
120.6
 30
0.0
 11
29.5
 21
117.4
 31
0.0
  0
LINE
  8
0
  6
LTYPE2
 62
     2
 10
27.9
 20
151.0
 30
0.0
 11
31.1
 21
151.0
 31
0.0
  0
LINE
  8
0
  6
LTYPE2
 62
     2
 10
29.5
 20
152.6
 30
0.0
 11
29.5
 21
149.4
 31
0.0
  0
LINE
  8
0
  6
LTYPE2
 62
     2
 10
59.9
 20
151.0
 30
0.0
 11
63.1
 21
151.0
 31
0.0
  0
LINE
  8
0
  6
LTYPE2
 62
     2
 10
61.5
 20
152.6
 30
0.0
 11
61.5
 21
149.4
 31
0.0
  0
LINE
  8
0
  6
LTYPE2
 62
     2
 10
59.9
 20
119.0
 30
0.0
 11
63.1
 21
119.0
 31
0.0
  0
LINE
  8
0
  6
LTYPE2
 62
     2
 10
61.5
 20
120.6
 30
0.0
 11
61.5
 21
117.4
 31
0.0
  0
LINE
  8
0
  6
CONTINUOUS
 62
     2
 10
45.95
 20
133.7
 30
0.0
 11
46.017535139
 21
131.200912365
 31
0.0
  0
LINE
  8
0
  6
CONTINUOUS
 62
     2
 10
45.95
 20
133.7
 30
0.0
 11
47.258030964
 21
131.569494192
 31
0.0
  0
LINE
  8
0
  6
CONTINUOUS
 62
     2
 10
45.95
 20
133.7
 30
0.0
 11
55.25
 21
102.4
 31
0.0
  0
LINE
  8
0
  6
CONTINUOUS
 62
     2
 10
55.25
 20
102.4
 30
0.0
 11
71.75
 21
102.4
 31
0.0
  0
TEXT
  8
0
  6
CONTINUOUS
 62
     2
 10
55.25
 20
103.4
 30
1.0
 40
3.0
  1
零位調整器
 50
0.0
 41
0.833333333
 51
0.0
  7
KANJI2
  0
LINE
  8
0
  6
CONTINUOUS
 62
     2
 10
33.85
 20
128.7
 30
0.0
 11
32.729650587
 21
126.465091234
 31
0.0
  0
LINE
  8
0
  6
CONTINUOUS
 62
     2
 10
33.85
 20
128.7
 30
0.0
 11
33.99720333
 21
126.204337527
 31
0.0
  0
LINE
  8
0
  6
CONTINUOUS
 62
     2
 10
33.85
 20
128.7
 30
0.0
 11
28.45
 21
102.45
 31
0.0
  0
LINE
  8
0
  6
CONTINUOUS
 62
     2
 10
28.45
 20
102.45
 30
0.0
 11
20.45
 21
102.45
 31
0.0
  0
TEXT
  8
0
  6
CONTINUOUS
 62
     2
 10
20.45
 20
103.45
 30
3.0
 40
3.0
  1
指針
 50
0.0
 41
0.833333333
 51
0.0
  7
KANJI3
  0
LINE
  8
0
  6
LTYPE1
 62
     2
 10
90.08
 20
119.0
 30
0.0
 11
104.549955
 21
119.0
 31
0.0
  0
LINE
  8
0
  6
LTYPE1
 62
     2
 10
90.06
 20
151.0
 30
0.0
 11
104.549955
 21
151.0
 31
0.0
  0
LINE
  8
0
  6
CONTINUOUS
 62
     2
 10
89.6
 20
153.75
 30
0.0
 11
76.5
 21
153.75
 31
0.0
  0
LINE
  8
0
  6
CONTINUOUS
 62
     2
 10
78.5
 20
153.75
 30
0.0
 11
77.852952387
 21
151.335185434
 31
0.0
  0
LINE
  8
0
  6
CONTINUOUS
 62
     2
 10
78.5
 20
153.75
 30
0.0
 11
79.147047613
 21
151.335185434
 31
0.0
  0
LINE
  8
0
  6
CONTINUOUS
 62
     2
 10
78.5
 20
153.75
 30
0.0
 11
78.5
 21
116.25
 31
0.0
  0
LINE
  8
0
  6
CONTINUOUS
 62
     2
 10
78.5
 20
116.25
 30
0.0
 11
79.147047613
 21
118.664814566
 31
0.0
  0
LINE
  8
0
  6
CONTINUOUS
 62
     2
 10
78.5
 20
116.25
 30
0.0
 11
77.852952387
 21
118.664814566
 31
0.0
  0
LINE
  8
0
  6
CONTINUOUS
 62
     2
 10
89.561381701
 20
116.25
 30
0.0
 11
76.5
 21
116.25
 31
0.0
  0
TEXT
  8
0
  6
CONTINUOUS
 62
     2
 10
77.5
 20
132.0
 30
0.3
 40
3.0
  1
φ７５
 50
90.0
 41
0.6
 51
0.0
  7
KANJI0
  0
LINE
  8
0
  6
CONTINUOUS
 62
     2
 10
95.25
 20
153.7
 30
0.0
 11
95.25
 21
163.0
 31
0.0
  0
LINE
  8
0
  6
CONTINUOUS
 62
     2
 10
95.25
 20
161.0
 30
0.0
 11
97.664814566
 21
160.352952387
 31
0.0
  0
LINE
  8
0
  6
CONTINUOUS
 62
     2
 10
95.25
 20
161.0
 30
0.0
 11
97.664814566
 21
161.647047613
 31
0.0
  0
LINE
  8
0
  6
CONTINUOUS
 62
     2
 10
95.25
 20
161.0
 30
0.0
 11
102.75
 21
161.0
 31
0.0
  0
LINE
  8
0
  6
CONTINUOUS
 62
     2
 10
102.75
 20
161.0
 30
0.0
 11
100.335185434
 21
161.647047613
 31
0.0
  0
LINE
  8
0
  6
CONTINUOUS
 62
     2
 10
102.75
 20
161.0
 30
0.0
 11
100.335185434
 21
160.352952387
 31
0.0
  0
LINE
  8
0
  6
CONTINUOUS
 62
     2
 10
102.75
 20
152.2399725
 30
0.0
 11
102.75
 21
163.0
 31
0.0
  0
TEXT
  8
0
  6
CONTINUOUS
 62
     2
 10
97.05
 20
162.0
 30
0.3
 40
3.0
  1
１５
 50
0.0
 41
0.6
 51
0.0
  7
KANJI0
  0
LINE
  8
0
  6
CONTINUOUS
 62
     2
 10
95.25
 20
161.0
 30
0.0
 11
97.664814566
 21
160.352952387
 31
0.0
  0
LINE
  8
0
  6
CONTINUOUS
 62
     2
 10
95.25
 20
161.0
 30
0.0
 11
97.664814566
 21
161.647047613
 31
0.0
  0
LINE
  8
0
  6
CONTINUOUS
 62
     2
 10
95.0
 20
161.0
 30
0.0
 11
92.585185434
 21
161.647047613
 31
0.0
  0
LINE
  8
0
  6
CONTINUOUS
 62
     2
 10
95.0
 20
161.0
 30
0.0
 11
92.585185434
 21
160.352952387
 31
0.0
  0
LINE
  8
0
  6
CONTINUOUS
 62
     2
 10
86.772556533
 20
175.0
 30
0.0
 11
89.187371099
 21
174.352952387
 31
0.0
  0
LINE
  8
0
  6
CONTINUOUS
 62
     2
 10
86.772556533
 20
175.0
 30
0.0
 11
89.187371099
 21
175.647047613
 31
0.0
  0
LINE
  8
0
  6
CONTINUOUS
 62
     2
 10
86.772556533
 20
135.85
 30
0.0
 11
86.772556533
 21
177.0
 31
0.0
  0
TEXT
  8
0
  6
CONTINUOUS
 62
     2
 10
89.061278267
 20
176.0
 30
0.3
 40
3.0
  1
１７
 50
0.0
 41
0.6
 51
0.0
  7
KANJI0
  0
LINE
  8
0
  6
CONTINUOUS
 62
     2
 10
107.55
 20
118.7
 30
0.0
 11
108.197047613
 21
121.114814566
 31
0.0
  0
LINE
  8
0
  6
CONTINUOUS
 62
     2
 10
107.55
 20
118.7
 30
0.0
 11
106.902952387
 21
121.114814566
 31
0.0
  0
LINE
  8
0
  6
CONTINUOUS
 62
     2
 10
107.55
 20
118.7
 30
0.0
 11
107.55
 21
151.25
 31
0.0
  0
LINE
  8
0
  6
CONTINUOUS
 62
     2
 10
107.55
 20
151.25
 30
0.0
 11
106.902952387
 21
148.835185434
 31
0.0
  0
LINE
  8
0
  6
CONTINUOUS
 62
     2
 10
107.55
 20
151.25
 30
0.0
 11
108.197047613
 21
148.835185434
 31
0.0
  0
TEXT
  8
0
  6
CONTINUOUS
 62
     2
 10
106.55
 20
131.975
 30
0.3
 40
3.0
  1
φ６５
 50
90.0
 41
0.6
 51
0.0
  7
KANJI0
  0
LINE
  8
0
  6
CONTINUOUS
 62
     2
 10
101.95
 20
118.05
 30
0.0
 11
102.306511462
 21
115.575550652
 31
0.0
  0
LINE
  8
0
  6
CONTINUOUS
 62
     2
 10
101.95
 20
118.05
 30
0.0
 11
103.495972657
 21
116.085319735
 31
0.0
  0
LINE
  8
0
  6
CONTINUOUS
 62
     2
 10
101.95
 20
118.05
 30
0.0
 11
108.55
 21
102.65
 31
0.0
  0
LINE
  8
0
  6
CONTINUOUS
 62
     2
 10
108.55
 20
102.65
 30
0.0
 11
126.05
 21
102.65
 31
0.0
  0
TEXT
  8
0
  6
CONTINUOUS
 62
     2
 10
108.55
 20
103.65
 30
0.0
 40
3.0
  1
Ｍ４取付ボルト
 50
0.0
 41
0.833333333
 51
0.0
  7
KANJI4
  0
TEXT
  8
0
  6
CONTINUOUS
 62
     2
 10
88.1
 20
162.0
 30
0.3
 40
3.0
  1
０．５
 50
0.0
 41
0.6
 51
0.0
  7
KANJI0
  0
LINE
  8
0
  6
CONTINUOUS
 62
     2
 10
95.0
 20
161.0
 30
0.0
 11
87.75
 21
161.0
 31
0.0
  0
LINE
  8
0
  6
CONTINUOUS
 62
     2
 10
95.0
 20
155.2
 30
0.0
 11
95.0
 21
177.0
 31
0.0
  0
LINE
  8
0
  6
CONTINUOUS
 62
     2
 10
95.0
 20
175.066987298
 30
0.0
 11
92.585185434
 21
175.714034911
 31
0.0
  0
LINE
  8
0
  6
CONTINUOUS
 62
     2
 10
95.0
 20
175.066987298
 30
0.0
 11
92.585185434
 21
174.419939685
 31
0.0
  0
LINE
  8
0
  6
CONTINUOUS
 62
     2
 10
95.0
 20
175.0
 30
0.0
 11
86.772556533
 21
175.0
 31
0.0
  0
LINE
  8
0
  6
CONTINUOUS
 62
     2
 10
95.0
 20
175.066987298
 30
0.0
 11
97.414814566
 21
174.419939685
 31
0.0
  0
LINE
  8
0
  6
CONTINUOUS
 62
     2
 10
95.0
 20
175.066987298
 30
0.0
 11
97.414814566
 21
175.714034911
 31
0.0
  0
LINE
  8
0
  6
CONTINUOUS
 62
     2
 10
95.0
 20
175.066987298
 30
0.0
 11
138.0
 21
175.066987298
 31
0.0
  0
LINE
  8
0
  6
CONTINUOUS
 62
     2
 10
138.0
 20
175.066987298
 30
0.0
 11
135.585185434
 21
175.714034911
 31
0.0
  0
LINE
  8
0
  6
CONTINUOUS
 62
     2
 10
138.0
 20
175.066987298
 30
0.0
 11
135.585185434
 21
174.419939685
 31
0.0
  0
LINE
  8
0
  6
CONTINUOUS
 62
     2
 10
138.0
 20
151.75
 30
0.0
 11
138.0
 21
177.066987298
 31
0.0
  0
TEXT
  8
0
  6
CONTINUOUS
 62
     2
 10
114.55
 20
176.066987298
 30
0.3
 40
3.0
  1
８６
 50
0.0
 41
0.6
 51
0.0
  7
KANJI0
  0
LINE
  8
0
  6
LTYPE2
 62
     2
 10
145.0
 20
142.5
 30
0.0
 11
141.0
 21
142.5
 31
0.0
  0
LINE
  8
0
  6
CONTINUOUS
 62
     2
 10
141.0
 20
144.4
 30
0.0
 11
141.5
 21
144.4
 31
0.0
  0
LINE
  8
0
  6
CONTINUOUS
 62
     2
 10
141.5
 20
144.4
 30
0.0
 11
141.5
 21
140.6
 31
0.0
  0
LINE
  8
0
  6
CONTINUOUS
 62
     2
 10
141.5
 20
140.6
 30
0.0
 11
141.0
 21
140.6
 31
0.0
  0
LINE
  8
0
  6
CONTINUOUS
 62
     2
 10
141.5
 20
142.5
 30
0.0
 11
141.0
 21
142.788675135
 31
0.0
  0
LINE
  8
0
  6
CONTINUOUS
 62
     2
 10
141.0
 20
142.5
 30
0.0
 11
141.5
 21
142.211324865
 31
0.0
  0
LINE
  8
0
  6
CONTINUOUS
 62
     2
 10
141.5
 20
144.25
 30
0.0
 11
142.15
 21
144.25
 31
0.0
  0
ARC
  8
0
  6
CONTINUOUS
 62
     2
 10
142.15
 20
143.6
 30
0.0
 40
0.65
 50
0.0
 51
90.0
  0
LINE
  8
0
  6
CONTINUOUS
 62
     2
 10
142.8
 20
143.6
 30
0.0
 11
142.8
 21
142.75
 31
0.0
  0
LINE
  8
0
  6
CONTINUOUS
 62
     2
 10
142.8
 20
142.75
 30
0.0
 11
142.1
 21
142.75
 31
0.0
  0
LINE
  8
0
  6
CONTINUOUS
 62
     2
 10
142.1
 20
142.75
 30
0.0
 11
142.1
 21
142.25
 31
0.0
  0
LINE
  8
0
  6
CONTINUOUS
 62
     2
 10
142.1
 20
142.25
 30
0.0
 11
142.8
 21
142.25
 31
0.0
  0
LINE
  8
0
  6
CONTINUOUS
 62
     2
 10
142.8
 20
142.25
 30
0.0
 11
142.8
 21
141.4
 31
0.0
  0
ARC
  8
0
  6
CONTINUOUS
 62
     2
 10
142.15
 20
141.4
 30
0.0
 40
0.65
 50
270.0
 51
0.0
  0
LINE
  8
0
  6
CONTINUOUS
 62
     2
 10
142.15
 20
140.75
 30
0.0
 11
141.5
 21
140.75
 31
0.0
  0
LINE
  8
0
  6
CONTINUOUS
 62
     2
 10
138.0
 20
144.0
 30
0.0
 11
141.0
 21
144.0
 31
0.0
  0
LINE
  8
0
  6
CONTINUOUS
 62
     2
 10
141.0
 20
144.4
 30
0.0
 11
141.0
 21
144.0
 31
0.0
  0
LINE
  8
0
  6
CONTINUOUS
 62
     2
 10
141.0
 20
141.0
 30
0.0
 11
138.0
 21
141.0
 31
0.0
  0
LINE
  8
0
  6
CONTINUOUS
 62
     2
 10
141.0
 20
141.0
 30
0.0
 11
141.0
 21
140.6
 31
0.0
  0
LINE
  8
0
  6
CONTINUOUS
 62
     2
 10
141.0
 20
144.0
 30
0.0
 11
141.0
 21
141.0
 31
0.0
  0
LINE
  8
0
  6
CONTINUOUS
 62
     2
 10
142.8
 20
144.6
 30
0.0
 11
142.8
 21
177.066987298
 31
0.0
  0
TEXT
  8
0
  6
CONTINUOUS
 62
     2
 10
138.45
 20
176.066987298
 30
0.3
 40
3.0
  1
１０
 50
0.0
 41
0.6
 51
0.0
  7
KANJI0
  0
LINE
  8
0
  6
CONTINUOUS
 62
     2
 10
142.8
 20
175.066987298
 30
0.0
 11
145.214814566
 21
175.714034911
 31
0.0
  0
LINE
  8
0
  6
CONTINUOUS
 62
     2
 10
142.8
 20
175.066987298
 30
0.0
 11
145.214814566
 21
174.419939685
 31
0.0
  0
LINE
  8
0
  6
CONTINUOUS
 62
     2
 10
138.0
 20
175.066987298
 30
0.0
 11
147.8
 21
175.066987298
 31
0.0
  0
LINE
  8
0
  6
LTYPE3
 62
     2
 10
166.0
 20
142.5
 30
0.0
 11
171.5
 21
142.5
 31
0.0
  0
LINE
  8
0
  6
LTYPE3
 62
     2
 10
184.0
 20
142.5
 30
0.0
 11
178.5
 21
142.5
 31
0.0
  0
LINE
  8
0
  6
LTYPE4
 62
     2
 10
138.0
 20
130.65
 30
0.0
 11
138.0
 21
145.65
 31
0.0
  0
ARC
  8
0
  6
LTYPE4
 62
     2
 10
144.25
 20
143.4
 30
0.0
 40
2.25
 50
0.0
 51
90.0
  0
LINE
  8
0
  6
LTYPE4
 62
     2
 10
146.5
 20
143.4
 30
0.0
 11
146.5
 21
141.0
 31
0.0
  0
LINE
  8
0
  6
LTYPE4
 62
     2
 10
145.5
 20
139.129171307
 30
0.0
 11
145.5
 21
130.65
 31
0.0
  0
ARC
  8
0
  6
LTYPE4
 62
     2
 10
144.25
 20
141.0
 30
0.0
 40
2.25
 50
303.748988596
 51
0.0
  0
ARC
  8
0
  6
LTYPE4
 62
     2
 10
143.293240868
 20
139.568163486
 30
0.0
 40
2.25
 50
348.748988596
 51
45.0
  0
LINE
  8
0
  6
LTYPE4
 62
     2
 10
138.0
 20
145.65
 30
0.0
 11
144.25
 21
145.65
 31
0.0
  0
LINE
  8
0
  6
LTYPE4
 62
     2
 10
145.5
 20
130.65
 30
0.0
 11
138.0
 21
130.65
 31
0.0
  0
LINE
  8
0
  6
LTYPE5
 62
     2
 10
165.8
 20
130.65
 30
0.0
 11
171.7
 21
130.65
 31
0.0
  0
ARC
  8
0
  6
LTYPE5
 62
     2
 10
168.75
 20
142.7
 30
0.0
 40
2.95
 50
0.0
 51
180.0
  0
LINE
  8
0
  6
LTYPE5
 62
     2
 10
165.8
 20
142.700000026
 30
0.0
 11
165.8
 21
130.65
 31
0.0
  0
LINE
  8
0
  6
LTYPE5
 62
     2
 10
171.7
 20
130.65
 30
0.0
 11
171.7
 21
142.700000026
 31
0.0
  0
ARC
  8
0
  6
LTYPE5
 62
     2
 10
168.75
 20
141.7
 30
0.0
 40
2.95
 50
180.0
 51
0.0
  0
LINE
  8
0
  6
LTYPE5
 62
     2
 10
178.3
 20
130.65
 30
0.0
 11
184.2
 21
130.65
 31
0.0
  0
ARC
  8
0
  6
LTYPE5
 62
     2
 10
181.25
 20
142.7
 30
0.0
 40
2.95
 50
0.0
 51
180.0
  0
LINE
  8
0
  6
LTYPE5
 62
     2
 10
178.3
 20
142.700000026
 30
0.0
 11
178.3
 21
130.65
 31
0.0
  0
LINE
  8
0
  6
LTYPE5
 62
     2
 10
184.2
 20
130.65
 30
0.0
 11
184.2
 21
142.700000026
 31
0.0
  0
ARC
  8
0
  6
LTYPE5
 62
     2
 10
181.25
 20
141.7
 30
0.0
 40
2.95
 50
180.0
 51
0.0
  0
LINE
  8
0
  6
CONTINUOUS
 62
     1
 10
135.5
 20
119.0
 30
0.0
 11
102.75
 21
118.797839506
 31
0.0
  0
LINE
  8
0
  6
CONTINUOUS
 62
     1
 10
135.5
 20
151.0
 30
0.0
 11
102.75
 21
151.202160494
 31
0.0
  0
TEXT
  8
0
  6
CONTINUOUS
 62
     3
 10
234.0
 20
17.0
 30
0.2
 40
5.8
  1
ＭＳ－１０３３９　Ａ
 50
0.0
 41
0.827586207
 51
0.0
  7
KANJI5
  0
CIRCLE
  8
0
  6
CONTINUOUS
 62
     2
 10
175.0
 20
141.425
 30
0.0
 40
1.25
  0
TEXT
  8
0
  6
CONTINUOUS
 62
     2
 10
198.0
 20
168.8
 30
0.3
 40
3.0
  1
感度調整付の場合：感度調整用抵抗器
 50
0.0
 41
0.9
 51
0.0
  7
KANJI6
  0
LINE
  8
0
  6
CONTINUOUS
 62
     2
 10
198.0
 20
168.0
 30
0.0
 11
249.0
 21
168.0
 31
0.0
  0
LINE
  8
0
  6
CONTINUOUS
 62
     2
 10
175.818019815
 20
142.370168547
 30
0.0
 11
177.887567988
 21
143.772655752
 31
0.0
  0
LINE
  8
0
  6
CONTINUOUS
 62
     2
 10
175.818019815
 20
142.370168547
 30
0.0
 11
176.909057505
 21
144.619532181
 31
0.0
  0
LINE
  8
0
  6
CONTINUOUS
 62
     2
 10
175.818019815
 20
142.370168547
 30
0.0
 11
198.0
 21
168.0
 31
0.0
  0
TEXT
  8
0
  6
CONTINUOUS
 62
     2
 10
109.5
 20
93.0
 30
0.0
 40
3.0
  1
フランジ付六角ナット
 50
0.0
 41
0.833333333
 51
0.0
  7
KANJI4
  0
LINE
  8
0
  6
CONTINUOUS
 62
     2
 10
108.5
 20
92.0
 30
0.0
 11
134.0
 21
92.0
 31
0.0
  0
LINE
  8
0
  6
CONTINUOUS
 62
     2
 10
100.0
 20
116.5
 30
0.0
 11
100.180207785
 21
114.006503428
 31
0.0
  0
LINE
  8
0
  6
CONTINUOUS
 62
     2
 10
100.0
 20
116.5
 30
0.0
 11
101.402812806
 21
114.430672517
 31
0.0
  0
LINE
  8
0
  6
CONTINUOUS
 62
     2
 10
100.0
 20
116.5
 30
0.0
 11
108.5
 21
92.0
 31
0.0
  0
LINE
  8
0
  6
CONTINUOUS
 62
     2
 10
154.5
 20
109.0
 30
0.0
 11
177.0
 21
109.0
 31
0.0
  0
TEXT
  8
0
  6
CONTINUOUS
 62
     2
 10
154.5
 20
110.0
 30
0.0
 40
3.0
  1
Ｍ４ターミナルネジ
 50
0.0
 41
0.833333333
 51
0.0
  7
KANJI4
  0
LINE
  8
0
  6
CONTINUOUS
 62
     2
 10
142.2
 20
140.5
 30
0.0
 11
142.475613479
 21
138.015239003
 31
0.0
  0
LINE
  8
0
  6
CONTINUOUS
 62
     2
 10
142.2
 20
140.5
 30
0.0
 11
143.681068773
 21
138.485940594
 31
0.0
  0
LINE
  8
0
  6
CONTINUOUS
 62
     2
 10
142.2
 20
140.5
 30
0.0
 11
154.5
 21
109.0
 31
0.0
  0
TEXT
  8
0
  6
CONTINUOUS
 62
     1
 10
164.1
 20
36.0
 30
1.0
 40
4.0
  1
パネルカット
 50
0.0
 41
0.9
 51
0.0
  7
KANJI7
  0
LINE
  8
0
  6
CONTINUOUS
 62
     1
 10
163.0
 20
35.0
 30
0.0
 11
191.0
 21
35.0
 31
0.0
  0
LINE
  8
0
  6
CONTINUOUS
 62
     2
 10
144.5
 20
45.0
 30
0.0
 11
132.0
 21
45.0
 31
0.0
  0
TEXT
  8
0
  6
CONTINUOUS
 62
     2
 10
132.0
 20
46.0
 30
0.0
 40
3.0
  1
４－φ５穴
 50
0.0
 41
0.833333333
 51
0.0
  7
KANJI4
  0
LINE
  8
0
  6
CONTINUOUS
 62
     2
 10
157.937949792
 20
53.340796423
 30
0.0
 11
155.544997463
 21
52.617070544
 31
0.0
  0
LINE
  8
0
  6
CONTINUOUS
 62
     2
 10
157.937949792
 20
53.340796423
 30
0.0
 11
156.227455224
 21
51.517555261
 31
0.0
  0
LINE
  8
0
  6
CONTINUOUS
 62
     2
 10
157.937949792
 20
53.340796423
 30
0.0
 11
144.5
 21
45.0
 31
0.0
  0
LINE
  8
0
  6
LTYPE2
 62
     2
 10
82.0
 20
135.0
 30
0.0
 11
102.45
 21
135.0
 31
0.0
  0
LINE
  8
0
  6
LTYPE2
 62
     2
 10
20.0
 20
135.0
 30
0.0
 11
69.0
 21
135.0
 31
0.0
  0
LINE
  8
0
  6
LTYPE2
 62
     2
 10
45.5
 20
160.0
 30
0.0
 11
45.5
 21
110.0
 31
0.0
  0
TEXT
  8
0
  6
CONTINUOUS
 62
     1
 10
220.0
 20
27.5
 30
0.4
 40
4.0
  1
広角度計器　外形図
 50
0.0
 41
0.9
 51
0.0
  7
KANJI8
  0
TEXT
  8
0
  6
CONTINUOUS
 62
     2
 10
220.0
 20
37.5
 30
0.2
 40
3.0
  1
ＦＶＦ－８
 50
0.0
 41
0.9
 51
0.0
  7
KANJI9
  0
TEXT
  8
0
  6
CONTINUOUS
 62
     2
 10
220.0
 20
41.0
 30
0.2
 40
3.0
  1
ＳＶＦ－８Ｎ（Ｖ），ＳｅＶＦ－８Ｎ（Ｖ）
 50
0.0
 41
0.9
 51
0.0
  7
KANJI9
  0
TEXT
  8
0
  6
CONTINUOUS
 62
     2
 10
220.0
 20
32.0
 30
0.3
 40
3.0
  1
端子キャップ付（オプション）
 50
0.0
 41
0.9
 51
0.0
  7
KANJI6
  0
LINE
  8
0
  6
LTYPE2
 62
     2
 10
152.0
 20
135.0
 30
0.0
 11
199.75
 21
135.0
 31
0.0
  0
LINE
  8
0
  6
LTYPE2
 62
     2
 10
175.0
 20
159.5
 30
0.0
 11
175.0
 21
113.0
 31
0.0
  0
LINE
  8
0
  6
LTYPE2
 62
     2
 10
154.0
 20
70.0
 30
0.0
 11
205.0
 21
70.0
 31
0.0
  0
LINE
  8
0
  6
LTYPE2
 62
     2
 10
175.0
 20
100.0
 30
0.0
 11
175.0
 21
50.0
 31
0.0
  0
LINE
  8
0
  6
LTYPE2
 62
     2
 10
108.15
 20
135.0
 30
0.0
 11
147.0
 21
135.0
 31
0.0
  0
LINE
  8
0
  6
CONTINUOUS
 62
     2
 10
141.2
 20
130.5
 30
0.0
 11
141.475613479
 21
128.015239003
 31
0.0
  0
LINE
  8
0
  6
CONTINUOUS
 62
     2
 10
141.2
 20
130.5
 30
0.0
 11
142.681068773
 21
128.485940594
 31
0.0
  0
TEXT
  8
0
  6
CONTINUOUS
 62
     2
 10
155.0
 20
104.5
 30
0.3
 40
3.0
  1
端子キャップ（オプション）
 50
0.0
 41
0.9
 51
0.0
  7
KANJI6
  0
LINE
  8
0
  6
CONTINUOUS
 62
     2
 10
151.742857143
 20
103.5
 30
0.0
 11
190.5
 21
103.5
 31
0.0
  0
LINE
  8
0
  6
CONTINUOUS
 62
     2
 10
141.2
 20
130.5
 30
0.0
 11
151.742857143
 21
103.5
 31
0.0
  0
ENDSEC
  0
EOF
