  0
SECTION
  2
HEADER
  9
$ACADVER
  1
AC1009
  9
$DWGCODEPAGE
  3
dos932
  9
$EXTMIN
 10
0.0
 20
0.0
 30
0.0
  9
$EXTMAX
 10
297.0
 20
210.0
 30
0.0
  9
$LIMMIN
 10
0.0
 20
0.0
  9
$LIMMAX
 10
297.0
 20
210.0
  9
$LTSCALE
 40
1.0
  9
$PDMODE
 70
     0
  0
ENDSEC
  0
SECTION
  2
TABLES
  0
TABLE
  2
VPORT
 70
     1
  0
VPORT
  2
*ACTIVE
 70
     0
 10
0.0
 20
0.0
 11
1.0
 21
1.0
 12
148.5
 22
105.0
 13
0.0
 23
0.0
 14
10.0
 24
10.0
 15
10.0
 25
10.0
 16
0.0
 26
0.0
 36
1.0
 17
0.0
 27
0.0
 37
0.0
 40
297.0
 41
1.414285714
 42
50.0
 43
0.0
 44
0.0
 50
0.0
 51
0.0
 71
     0
 72
  1000
 73
     1
 74
     3
 75
     0
 76
     0
 77
     0
 78
     0
  0
ENDTAB
  0
TABLE
  2
LTYPE
 70
     4
  0
LTYPE
  2
CONTINUOUS
 70
    64
  3
Solid line
 72
    65
 73
     0
 40
0.0
  0
LTYPE
  2
LTYPE1
 70
    64
  3
CENTER
 72
    65
 73
     4
 40
15.0
 49
10.5
 49
-1.5
 49
1.5
 49
-1.5
  0
LTYPE
  2
LTYPE2
 70
    64
  3
CENTER
 72
    65
 73
     4
 40
5.0
 49
3.5
 49
-0.5
 49
0.5
 49
-0.5
  0
LTYPE
  2
LTYPE3
 70
    64
  3
HIDDEN
 72
    65
 73
     2
 40
1.0
 49
0.6
 49
-0.4
  0
ENDTAB
  0
TABLE
  2
LAYER
 70
   128
  0
LAYER
  2
0
 70
     0
 62
     7
  6
CONTINUOUS
  0
LAYER
  2
2
 70
     0
 62
     7
  6
CONTINUOUS
  0
LAYER
  2
3
 70
     0
 62
     7
  6
CONTINUOUS
  0
LAYER
  2
4
 70
     0
 62
     7
  6
CONTINUOUS
  0
LAYER
  2
5
 70
     0
 62
     7
  6
CONTINUOUS
  0
LAYER
  2
6
 70
     0
 62
     7
  6
CONTINUOUS
  0
LAYER
  2
7
 70
     0
 62
     7
  6
CONTINUOUS
  0
LAYER
  2
8
 70
     0
 62
     7
  6
CONTINUOUS
  0
LAYER
  2
9
 70
     0
 62
     7
  6
CONTINUOUS
  0
LAYER
  2
10
 70
     0
 62
     7
  6
CONTINUOUS
  0
LAYER
  2
11
 70
     0
 62
     7
  6
CONTINUOUS
  0
LAYER
  2
12
 70
     0
 62
     7
  6
CONTINUOUS
  0
LAYER
  2
13
 70
     0
 62
     7
  6
CONTINUOUS
  0
LAYER
  2
14
 70
     0
 62
     7
  6
CONTINUOUS
  0
LAYER
  2
15
 70
     0
 62
     7
  6
CONTINUOUS
  0
LAYER
  2
16
 70
     0
 62
     7
  6
CONTINUOUS
  0
LAYER
  2
17
 70
     0
 62
     7
  6
CONTINUOUS
  0
LAYER
  2
18
 70
     0
 62
     7
  6
CONTINUOUS
  0
LAYER
  2
19
 70
     0
 62
     7
  6
CONTINUOUS
  0
LAYER
  2
20
 70
     0
 62
     7
  6
CONTINUOUS
  0
LAYER
  2
21
 70
     0
 62
     7
  6
CONTINUOUS
  0
LAYER
  2
22
 70
     0
 62
     7
  6
CONTINUOUS
  0
LAYER
  2
23
 70
     0
 62
     7
  6
CONTINUOUS
  0
LAYER
  2
24
 70
     0
 62
     7
  6
CONTINUOUS
  0
LAYER
  2
25
 70
     0
 62
     7
  6
CONTINUOUS
  0
LAYER
  2
26
 70
     0
 62
     7
  6
CONTINUOUS
  0
LAYER
  2
27
 70
     0
 62
     7
  6
CONTINUOUS
  0
LAYER
  2
28
 70
     0
 62
     7
  6
CONTINUOUS
  0
LAYER
  2
29
 70
     0
 62
     7
  6
CONTINUOUS
  0
LAYER
  2
30
 70
     0
 62
     7
  6
CONTINUOUS
  0
LAYER
  2
31
 70
     0
 62
     7
  6
CONTINUOUS
  0
LAYER
  2
32
 70
     0
 62
     7
  6
CONTINUOUS
  0
LAYER
  2
33
 70
     0
 62
     7
  6
CONTINUOUS
  0
LAYER
  2
34
 70
     0
 62
     7
  6
CONTINUOUS
  0
LAYER
  2
35
 70
     0
 62
     7
  6
CONTINUOUS
  0
LAYER
  2
36
 70
     0
 62
     7
  6
CONTINUOUS
  0
LAYER
  2
37
 70
     0
 62
     7
  6
CONTINUOUS
  0
LAYER
  2
38
 70
     0
 62
     7
  6
CONTINUOUS
  0
LAYER
  2
39
 70
     0
 62
     7
  6
CONTINUOUS
  0
LAYER
  2
40
 70
     0
 62
     7
  6
CONTINUOUS
  0
LAYER
  2
41
 70
     0
 62
     7
  6
CONTINUOUS
  0
LAYER
  2
42
 70
     0
 62
     7
  6
CONTINUOUS
  0
LAYER
  2
43
 70
     0
 62
     7
  6
CONTINUOUS
  0
LAYER
  2
44
 70
     0
 62
     7
  6
CONTINUOUS
  0
LAYER
  2
45
 70
     0
 62
     7
  6
CONTINUOUS
  0
LAYER
  2
46
 70
     0
 62
     7
  6
CONTINUOUS
  0
LAYER
  2
47
 70
     0
 62
     7
  6
CONTINUOUS
  0
LAYER
  2
48
 70
     0
 62
     7
  6
CONTINUOUS
  0
LAYER
  2
49
 70
     0
 62
     7
  6
CONTINUOUS
  0
LAYER
  2
50
 70
     0
 62
     7
  6
CONTINUOUS
  0
LAYER
  2
51
 70
     0
 62
     7
  6
CONTINUOUS
  0
LAYER
  2
52
 70
     0
 62
     7
  6
CONTINUOUS
  0
LAYER
  2
53
 70
     0
 62
     7
  6
CONTINUOUS
  0
LAYER
  2
54
 70
     0
 62
     7
  6
CONTINUOUS
  0
LAYER
  2
55
 70
     0
 62
     7
  6
CONTINUOUS
  0
LAYER
  2
56
 70
     0
 62
     7
  6
CONTINUOUS
  0
LAYER
  2
57
 70
     0
 62
     7
  6
CONTINUOUS
  0
LAYER
  2
58
 70
     0
 62
     7
  6
CONTINUOUS
  0
LAYER
  2
59
 70
     0
 62
     7
  6
CONTINUOUS
  0
LAYER
  2
60
 70
     0
 62
     7
  6
CONTINUOUS
  0
LAYER
  2
61
 70
     0
 62
     7
  6
CONTINUOUS
  0
LAYER
  2
62
 70
     0
 62
     7
  6
CONTINUOUS
  0
LAYER
  2
63
 70
     0
 62
     7
  6
CONTINUOUS
  0
LAYER
  2
64
 70
     0
 62
     7
  6
CONTINUOUS
  0
LAYER
  2
65
 70
     0
 62
     7
  6
CONTINUOUS
  0
LAYER
  2
66
 70
     0
 62
     7
  6
CONTINUOUS
  0
LAYER
  2
67
 70
     0
 62
     7
  6
CONTINUOUS
  0
LAYER
  2
68
 70
     0
 62
     7
  6
CONTINUOUS
  0
LAYER
  2
69
 70
     0
 62
     7
  6
CONTINUOUS
  0
LAYER
  2
70
 70
     0
 62
     7
  6
CONTINUOUS
  0
LAYER
  2
71
 70
     0
 62
     7
  6
CONTINUOUS
  0
LAYER
  2
72
 70
     0
 62
     7
  6
CONTINUOUS
  0
LAYER
  2
73
 70
     0
 62
     7
  6
CONTINUOUS
  0
LAYER
  2
74
 70
     0
 62
     7
  6
CONTINUOUS
  0
LAYER
  2
75
 70
     0
 62
     7
  6
CONTINUOUS
  0
LAYER
  2
76
 70
     0
 62
     7
  6
CONTINUOUS
  0
LAYER
  2
77
 70
     0
 62
     7
  6
CONTINUOUS
  0
LAYER
  2
78
 70
     0
 62
     7
  6
CONTINUOUS
  0
LAYER
  2
79
 70
     0
 62
     7
  6
CONTINUOUS
  0
LAYER
  2
80
 70
     0
 62
     7
  6
CONTINUOUS
  0
LAYER
  2
81
 70
     0
 62
     7
  6
CONTINUOUS
  0
LAYER
  2
82
 70
     0
 62
     7
  6
CONTINUOUS
  0
LAYER
  2
83
 70
     0
 62
     7
  6
CONTINUOUS
  0
LAYER
  2
84
 70
     0
 62
     7
  6
CONTINUOUS
  0
LAYER
  2
85
 70
     0
 62
     7
  6
CONTINUOUS
  0
LAYER
  2
86
 70
     0
 62
     7
  6
CONTINUOUS
  0
LAYER
  2
87
 70
     0
 62
     7
  6
CONTINUOUS
  0
LAYER
  2
88
 70
     0
 62
     7
  6
CONTINUOUS
  0
LAYER
  2
89
 70
     0
 62
     7
  6
CONTINUOUS
  0
LAYER
  2
90
 70
     0
 62
     7
  6
CONTINUOUS
  0
LAYER
  2
91
 70
     0
 62
     7
  6
CONTINUOUS
  0
LAYER
  2
92
 70
     0
 62
     7
  6
CONTINUOUS
  0
LAYER
  2
93
 70
     0
 62
     7
  6
CONTINUOUS
  0
LAYER
  2
94
 70
     0
 62
     7
  6
CONTINUOUS
  0
LAYER
  2
95
 70
     0
 62
     7
  6
CONTINUOUS
  0
LAYER
  2
96
 70
     0
 62
     7
  6
CONTINUOUS
  0
LAYER
  2
97
 70
     0
 62
     7
  6
CONTINUOUS
  0
LAYER
  2
98
 70
     0
 62
     7
  6
CONTINUOUS
  0
LAYER
  2
99
 70
     0
 62
     7
  6
CONTINUOUS
  0
LAYER
  2
100
 70
     0
 62
     7
  6
CONTINUOUS
  0
LAYER
  2
101
 70
     0
 62
     7
  6
CONTINUOUS
  0
LAYER
  2
102
 70
     0
 62
     7
  6
CONTINUOUS
  0
LAYER
  2
103
 70
     0
 62
     7
  6
CONTINUOUS
  0
LAYER
  2
104
 70
     0
 62
     7
  6
CONTINUOUS
  0
LAYER
  2
105
 70
     0
 62
     7
  6
CONTINUOUS
  0
LAYER
  2
106
 70
     0
 62
     7
  6
CONTINUOUS
  0
LAYER
  2
107
 70
     0
 62
     7
  6
CONTINUOUS
  0
LAYER
  2
108
 70
     0
 62
     7
  6
CONTINUOUS
  0
LAYER
  2
109
 70
     0
 62
     7
  6
CONTINUOUS
  0
LAYER
  2
110
 70
     0
 62
     7
  6
CONTINUOUS
  0
LAYER
  2
111
 70
     0
 62
     7
  6
CONTINUOUS
  0
LAYER
  2
112
 70
     0
 62
     7
  6
CONTINUOUS
  0
LAYER
  2
113
 70
     0
 62
     7
  6
CONTINUOUS
  0
LAYER
  2
114
 70
     0
 62
     7
  6
CONTINUOUS
  0
LAYER
  2
115
 70
     0
 62
     7
  6
CONTINUOUS
  0
LAYER
  2
116
 70
     0
 62
     7
  6
CONTINUOUS
  0
LAYER
  2
117
 70
     0
 62
     7
  6
CONTINUOUS
  0
LAYER
  2
118
 70
     0
 62
     7
  6
CONTINUOUS
  0
LAYER
  2
119
 70
     0
 62
     7
  6
CONTINUOUS
  0
LAYER
  2
120
 70
     0
 62
     7
  6
CONTINUOUS
  0
LAYER
  2
121
 70
     0
 62
     7
  6
CONTINUOUS
  0
LAYER
  2
122
 70
     0
 62
     7
  6
CONTINUOUS
  0
LAYER
  2
123
 70
     0
 62
     7
  6
CONTINUOUS
  0
LAYER
  2
124
 70
     0
 62
     7
  6
CONTINUOUS
  0
LAYER
  2
125
 70
     0
 62
     7
  6
CONTINUOUS
  0
LAYER
  2
126
 70
     0
 62
     7
  6
CONTINUOUS
  0
LAYER
  2
127
 70
     0
 62
     7
  6
CONTINUOUS
  0
LAYER
  2
128
 70
     0
 62
     7
  6
CONTINUOUS
  0
ENDTAB
  0
TABLE
  2
STYLE
 70
    12
  0
STYLE
  2
STANDARD
 70
     0
 40
0.0
 41
1.0
 50
0.0
 71
     0
 42
0.2
  3
txt.shx
  4
extfont.shx
  0
STYLE
  2
KANJI0
 70
     0
 40
3.0
 41
0.6
 50
0.0
 71
     0
 42
3.0
  3
txt.shx
  4
extfont.shx
  0
STYLE
  2
KANJI1
 70
     0
 40
3.0
 41
0.9
 50
0.0
 71
     0
 42
3.0
  3
txt.shx
  4
extfont.shx
  0
STYLE
  2
KANJI2
 70
     0
 40
3.0
 41
0.3
 50
0.0
 71
     0
 42
3.0
  3
txt.shx
  4
extfont.shx
  0
STYLE
  2
KANJI3
 70
     0
 40
1.8
 41
0.6
 50
0.0
 71
     0
 42
1.8
  3
txt.shx
  4
extfont.shx
  0
STYLE
  2
KANJI4
 70
     0
 40
3.0
 41
0.9
 50
0.0
 71
     0
 42
3.0
  3
txt.shx
  4
extfont.shx
  0
STYLE
  2
KANJI5
 70
     0
 40
3.0
 41
0.6
 50
0.0
 71
     0
 42
3.0
  3
txt.shx
  4
extfont.shx
  0
STYLE
  2
KANJI6
 70
     0
 40
6.0
 41
0.9
 50
0.0
 71
     0
 42
6.0
  3
txt.shx
  4
extfont.shx
  0
STYLE
  2
KANJI7
 70
     0
 40
3.5
 41
0.9
 50
0.0
 71
     0
 42
3.5
  3
txt.shx
  4
extfont.shx
  0
STYLE
  2
KANJI8
 70
     0
 40
4.0
 41
0.9
 50
0.0
 71
     0
 42
4.0
  3
txt.shx
  4
extfont.shx
  0
STYLE
  2
KANJI9
 70
     0
 40
2.4
 41
0.9
 50
0.0
 71
     0
 42
2.4
  3
txt.shx
  4
extfont.shx
  0
STYLE
  2
KANJI10
 70
     0
 40
3.0
 41
0.666666667
 50
0.0
 71
     0
 42
3.0
  3
txt.shx
  4
extfont.shx
  0
ENDTAB
  0
TABLE
  2
VIEW
 70
     0
  0
ENDTAB
  0
ENDSEC
  0
SECTION
  2
BLOCKS
  0
ENDSEC
  0
SECTION
  2
ENTITIES
  0
ARC
  8
0
  6
CONTINUOUS
 62
     1
 10
23.5
 20
110.75
 30
0.0
 40
1.5
 50
180.0
 51
270.0
  0
LINE
  8
0
  6
CONTINUOUS
 62
     1
 10
23.5
 20
109.25
 30
0.0
 11
70.5
 21
109.25
 31
0.0
  0
ARC
  8
0
  6
CONTINUOUS
 62
     1
 10
70.5
 20
110.75
 30
0.0
 40
1.5
 50
270.0
 51
0.0
  0
LINE
  8
0
  6
CONTINUOUS
 62
     1
 10
72.0
 20
110.75
 30
0.0
 11
72.0
 21
149.25
 31
0.0
  0
ARC
  8
0
  6
CONTINUOUS
 62
     1
 10
70.5
 20
149.25
 30
0.0
 40
1.5
 50
0.0
 51
90.0
  0
LINE
  8
0
  6
CONTINUOUS
 62
     1
 10
22.0
 20
149.25
 30
0.0
 11
22.0
 21
110.75
 31
0.0
  0
LINE
  8
0
  6
CONTINUOUS
 62
     1
 10
70.5
 20
150.75
 30
0.0
 11
23.5
 21
150.75
 31
0.0
  0
ARC
  8
0
  6
CONTINUOUS
 62
     1
 10
23.5
 20
149.25
 30
0.0
 40
1.5
 50
90.0
 51
180.0
  0
LINE
  8
0
  6
CONTINUOUS
 62
     1
 10
98.8
 20
150.75
 30
0.0
 11
98.8
 21
109.25
 31
0.0
  0
LINE
  8
0
  6
CONTINUOUS
 62
     1
 10
113.55
 20
111.75
 30
0.0
 11
104.05
 21
111.75
 31
0.0
  0
ARC
  8
0
  6
CONTINUOUS
 62
     1
 10
113.55
 20
112.25
 30
0.0
 40
0.5
 50
270.0
 51
0.0
  0
LINE
  8
0
  6
CONTINUOUS
 62
     1
 10
113.55
 20
144.25
 30
0.0
 11
104.0375
 21
144.25
 31
0.0
  0
LINE
  8
0
  6
CONTINUOUS
 62
     1
 10
114.05
 20
143.75
 30
0.0
 11
114.05
 21
112.25
 31
0.0
  0
ARC
  8
0
  6
CONTINUOUS
 62
     1
 10
113.55
 20
143.75
 30
0.0
 40
0.5
 50
0.0
 51
90.0
  0
LINE
  8
0
  6
CONTINUOUS
 62
     1
 10
114.05
 20
134.55
 30
0.0
 11
133.8
 21
134.55
 31
0.0
  0
ARC
  8
0
  6
CONTINUOUS
 62
     1
 10
133.8
 20
134.3
 30
0.0
 40
0.25
 50
0.0
 51
90.0
  0
ARC
  8
0
  6
CONTINUOUS
 62
     1
 10
133.8
 20
118.3
 30
0.0
 40
0.25
 50
270.0
 51
0.0
  0
LINE
  8
0
  6
CONTINUOUS
 62
     1
 10
134.05
 20
134.3
 30
0.0
 11
134.05
 21
118.3
 31
0.0
  0
LINE
  8
0
  6
CONTINUOUS
 62
     1
 10
133.8
 20
118.05
 30
0.0
 11
114.05
 21
118.05
 31
0.0
  0
ARC
  8
0
  6
CONTINUOUS
 62
     1
 10
93.55
 20
149.326436456
 30
0.0
 40
0.5
 50
99.462322208
 51
180.0
  0
LINE
  8
0
  6
CONTINUOUS
 62
     1
 10
93.467800506
 20
149.819633418
 30
0.0
 11
98.8
 21
150.75
 31
0.0
  0
ARC
  8
0
  6
CONTINUOUS
 62
     1
 10
93.55
 20
110.671782451
 30
0.0
 40
0.5
 50
180.0
 51
260.299608056
  0
LINE
  8
0
  6
CONTINUOUS
 62
     1
 10
93.05
 20
110.671782451
 30
0.0
 11
93.05
 21
149.326436456
 31
0.0
  0
LINE
  8
0
  6
CONTINUOUS
 62
     1
 10
93.465751939
 20
110.178931293
 30
0.0
 11
98.8
 21
109.25
 31
0.0
  0
ARC
  8
0
  6
CONTINUOUS
 62
     1
 10
208.5
 20
110.75
 30
0.0
 40
1.5
 50
270.0
 51
0.0
  0
LINE
  8
0
  6
CONTINUOUS
 62
     1
 10
210.0
 20
149.25
 30
0.0
 11
210.0
 21
110.75
 31
0.0
  0
ARC
  8
0
  6
CONTINUOUS
 62
     1
 10
208.5
 20
149.25
 30
0.0
 40
1.5
 50
0.0
 51
90.0
  0
LINE
  8
0
  6
CONTINUOUS
 62
     1
 10
161.5
 20
150.75
 30
0.0
 11
208.5
 21
150.75
 31
0.0
  0
ARC
  8
0
  6
CONTINUOUS
 62
     1
 10
161.5
 20
149.25
 30
0.0
 40
1.5
 50
90.0
 51
180.0
  0
LINE
  8
0
  6
CONTINUOUS
 62
     1
 10
208.5
 20
109.25
 30
0.0
 11
161.5
 21
109.25
 31
0.0
  0
LINE
  8
0
  6
CONTINUOUS
 62
     1
 10
160.0
 20
110.75
 30
0.0
 11
160.0
 21
149.25
 31
0.0
  0
ARC
  8
0
  6
CONTINUOUS
 62
     1
 10
161.5
 20
110.75
 30
0.0
 40
1.5
 50
180.0
 51
270.0
  0
CIRCLE
  8
0
  6
CONTINUOUS
 62
     1
 10
185.0
 20
128.0
 30
0.0
 40
16.25
  0
ARC
  8
0
  6
CONTINUOUS
 62
     1
 10
185.0
 20
125.3
 30
0.0
 40
13.0
 50
134.639772959
 51
213.896355203
  0
ARC
  8
0
  6
CONTINUOUS
 62
     1
 10
185.0
 20
125.3
 30
0.0
 40
13.0
 50
326.103644797
 51
45.360227041
  0
LINE
  8
0
  6
CONTINUOUS
 62
     1
 10
175.865587047
 20
134.55
 30
0.0
 11
194.134412953
 21
134.55
 31
0.0
  0
LINE
  8
0
  6
CONTINUOUS
 62
     1
 10
174.209379073
 20
118.05
 30
0.0
 11
195.790620927
 21
118.05
 31
0.0
  0
CIRCLE
  8
0
  6
CONTINUOUS
 62
     1
 10
47.0
 20
56.5
 30
0.0
 40
16.75
  0
CIRCLE
  8
0
  6
CONTINUOUS
 62
     1
 10
63.0
 20
72.5
 30
0.0
 40
1.0
  0
CIRCLE
  8
0
  6
CONTINUOUS
 62
     1
 10
63.0
 20
40.5
 30
0.0
 40
1.0
  0
CIRCLE
  8
0
  6
CONTINUOUS
 62
     1
 10
31.0
 20
40.5
 30
0.0
 40
1.0
  0
CIRCLE
  8
0
  6
CONTINUOUS
 62
     1
 10
31.0
 20
72.5
 30
0.0
 40
1.0
  0
POINT
  8
0
  6
LTYPE1
 62
     2
 10
48.5
 20
130.0
 30
0.0
  0
ARC
  8
0
  6
CONTINUOUS
 62
     2
 10
70.5
 20
110.75
 30
0.0
 40
0.5
 50
270.0
 51
0.0
  0
LINE
  8
0
  6
CONTINUOUS
 62
     2
 10
71.0
 20
110.75
 30
0.0
 11
71.0
 21
149.25
 31
0.0
  0
ARC
  8
0
  6
CONTINUOUS
 62
     2
 10
70.5
 20
149.25
 30
0.0
 40
0.5
 50
0.0
 51
90.0
  0
LINE
  8
0
  6
CONTINUOUS
 62
     2
 10
70.5
 20
149.75
 30
0.0
 11
23.5
 21
149.75
 31
0.0
  0
ARC
  8
0
  6
CONTINUOUS
 62
     2
 10
23.5
 20
149.25
 30
0.0
 40
0.5
 50
90.0
 51
180.0
  0
LINE
  8
0
  6
CONTINUOUS
 62
     2
 10
23.5
 20
110.25
 30
0.0
 11
70.5
 21
110.25
 31
0.0
  0
LINE
  8
0
  6
CONTINUOUS
 62
     2
 10
23.0
 20
149.25
 30
0.0
 11
23.0
 21
110.75
 31
0.0
  0
ARC
  8
0
  6
CONTINUOUS
 62
     2
 10
23.5
 20
110.75
 30
0.0
 40
0.5
 50
180.0
 51
270.0
  0
LINE
  8
0
  6
CONTINUOUS
 62
     2
 10
23.7625
 20
124.25
 30
0.0
 11
70.2625
 21
124.25
 31
0.0
  0
LINE
  8
0
  6
CONTINUOUS
 62
     2
 10
70.2625
 20
124.25
 30
0.0
 11
70.2625
 21
148.5
 31
0.0
  0
ARC
  8
0
  6
CONTINUOUS
 62
     2
 10
69.7625
 20
148.5
 30
0.0
 40
0.5
 50
0.0
 51
90.0
  0
LINE
  8
0
  6
CONTINUOUS
 62
     2
 10
23.7625
 20
148.5
 30
0.0
 11
23.7625
 21
124.25
 31
0.0
  0
LINE
  8
0
  6
CONTINUOUS
 62
     2
 10
69.7625
 20
149.0
 30
0.0
 11
24.2625
 21
149.0
 31
0.0
  0
ARC
  8
0
  6
CONTINUOUS
 62
     2
 10
24.2625
 20
148.5
 30
0.0
 40
0.5
 50
90.0
 51
180.0
  0
CIRCLE
  8
0
  6
CONTINUOUS
 62
     2
 10
25.9625
 20
121.5
 30
0.0
 40
1.5
  0
LINE
  8
0
  6
CONTINUOUS
 62
     2
 10
25.0875
 20
121.7
 30
0.0
 11
25.5625
 21
121.7
 31
0.0
  0
ARC
  8
0
  6
CONTINUOUS
 62
     2
 10
25.5625
 20
121.9
 30
0.0
 40
0.2
 50
270.0
 51
0.0
  0
LINE
  8
0
  6
CONTINUOUS
 62
     2
 10
25.7625
 20
121.9
 30
0.0
 11
25.7625
 21
122.375
 31
0.0
  0
LINE
  8
0
  6
CONTINUOUS
 62
     2
 10
25.7625
 20
122.375
 30
0.0
 11
26.1625
 21
122.375
 31
0.0
  0
LINE
  8
0
  6
CONTINUOUS
 62
     2
 10
26.1625
 20
122.375
 30
0.0
 11
26.1625
 21
121.9
 31
0.0
  0
ARC
  8
0
  6
CONTINUOUS
 62
     2
 10
26.3625
 20
121.9
 30
0.0
 40
0.2
 50
180.0
 51
270.0
  0
LINE
  8
0
  6
CONTINUOUS
 62
     2
 10
26.3625
 20
121.7
 30
0.0
 11
26.8375
 21
121.7
 31
0.0
  0
LINE
  8
0
  6
CONTINUOUS
 62
     2
 10
26.8375
 20
121.7
 30
0.0
 11
26.8375
 21
121.3
 31
0.0
  0
LINE
  8
0
  6
CONTINUOUS
 62
     2
 10
26.8375
 20
121.3
 30
0.0
 11
26.3625
 21
121.3
 31
0.0
  0
ARC
  8
0
  6
CONTINUOUS
 62
     2
 10
26.3625
 20
121.1
 30
0.0
 40
0.2
 50
90.0
 51
180.0
  0
LINE
  8
0
  6
CONTINUOUS
 62
     2
 10
26.1625
 20
121.1
 30
0.0
 11
26.1625
 21
120.625
 31
0.0
  0
LINE
  8
0
  6
CONTINUOUS
 62
     2
 10
26.1625
 20
120.625
 30
0.0
 11
25.7625
 21
120.625
 31
0.0
  0
LINE
  8
0
  6
CONTINUOUS
 62
     2
 10
25.7625
 20
120.625
 30
0.0
 11
25.7625
 21
121.1
 31
0.0
  0
ARC
  8
0
  6
CONTINUOUS
 62
     2
 10
25.5625
 20
121.1
 30
0.0
 40
0.2
 50
0.0
 51
90.0
  0
LINE
  8
0
  6
CONTINUOUS
 62
     2
 10
25.5625
 20
121.3
 30
0.0
 11
25.0875
 21
121.3
 31
0.0
  0
LINE
  8
0
  6
CONTINUOUS
 62
     2
 10
25.0875
 20
121.3
 30
0.0
 11
25.0875
 21
121.7
 31
0.0
  0
CIRCLE
  8
0
  6
CONTINUOUS
 62
     2
 10
67.9625
 20
121.5
 30
0.0
 40
1.5
  0
LINE
  8
0
  6
CONTINUOUS
 62
     2
 10
67.0875
 20
121.7
 30
0.0
 11
67.5625
 21
121.7
 31
0.0
  0
ARC
  8
0
  6
CONTINUOUS
 62
     2
 10
67.5625
 20
121.9
 30
0.0
 40
0.2
 50
270.0
 51
0.0
  0
LINE
  8
0
  6
CONTINUOUS
 62
     2
 10
67.7625
 20
121.9
 30
0.0
 11
67.7625
 21
122.375
 31
0.0
  0
LINE
  8
0
  6
CONTINUOUS
 62
     2
 10
67.7625
 20
122.375
 30
0.0
 11
68.1625
 21
122.375
 31
0.0
  0
LINE
  8
0
  6
CONTINUOUS
 62
     2
 10
68.1625
 20
122.375
 30
0.0
 11
68.1625
 21
121.9
 31
0.0
  0
ARC
  8
0
  6
CONTINUOUS
 62
     2
 10
68.3625
 20
121.9
 30
0.0
 40
0.2
 50
180.0
 51
270.0
  0
LINE
  8
0
  6
CONTINUOUS
 62
     2
 10
68.3625
 20
121.7
 30
0.0
 11
68.8375
 21
121.7
 31
0.0
  0
LINE
  8
0
  6
CONTINUOUS
 62
     2
 10
68.8375
 20
121.7
 30
0.0
 11
68.8375
 21
121.3
 31
0.0
  0
LINE
  8
0
  6
CONTINUOUS
 62
     2
 10
68.8375
 20
121.3
 30
0.0
 11
68.3625
 21
121.3
 31
0.0
  0
ARC
  8
0
  6
CONTINUOUS
 62
     2
 10
68.3625
 20
121.1
 30
0.0
 40
0.2
 50
90.0
 51
180.0
  0
LINE
  8
0
  6
CONTINUOUS
 62
     2
 10
68.1625
 20
121.1
 30
0.0
 11
68.1625
 21
120.625
 31
0.0
  0
LINE
  8
0
  6
CONTINUOUS
 62
     2
 10
68.1625
 20
120.625
 30
0.0
 11
67.7625
 21
120.625
 31
0.0
  0
LINE
  8
0
  6
CONTINUOUS
 62
     2
 10
67.7625
 20
120.625
 30
0.0
 11
67.7625
 21
121.1
 31
0.0
  0
ARC
  8
0
  6
CONTINUOUS
 62
     2
 10
67.5625
 20
121.1
 30
0.0
 40
0.2
 50
0.0
 51
90.0
  0
LINE
  8
0
  6
CONTINUOUS
 62
     2
 10
67.5625
 20
121.3
 30
0.0
 11
67.0875
 21
121.3
 31
0.0
  0
LINE
  8
0
  6
CONTINUOUS
 62
     2
 10
67.0875
 20
121.3
 30
0.0
 11
67.0875
 21
121.7
 31
0.0
  0
LINE
  8
0
  6
CONTINUOUS
 62
     2
 10
28.084893603
 20
138.665106397
 30
0.0
 11
41.484893603
 21
124.265106397
 31
0.0
  0
LINE
  8
0
  6
CONTINUOUS
 62
     2
 10
28.134893603
 20
138.715106397
 30
0.0
 11
43.534893603
 21
124.265106397
 31
0.0
  0
CIRCLE
  8
0
  6
CONTINUOUS
 62
     2
 10
47.0
 20
119.75
 30
0.0
 40
1.5
  0
CIRCLE
  8
0
  6
CONTINUOUS
 62
     2
 10
47.0
 20
119.75
 30
0.0
 40
1.375
  0
LINE
  8
0
  6
CONTINUOUS
 62
     2
 10
45.647918272
 20
120.0
 30
0.0
 11
48.352081728
 21
120.0
 31
0.0
  0
LINE
  8
0
  6
CONTINUOUS
 62
     2
 10
45.647918272
 20
119.5
 30
0.0
 11
48.352081728
 21
119.5
 31
0.0
  0
LINE
  8
0
  6
CONTINUOUS
 62
     2
 10
56.390235536
 20
142.912002874
 30
0.0
 11
56.667399396
 21
142.797197845
 31
0.0
  0
LINE
  8
0
  6
CONTINUOUS
 62
     2
 10
56.390235536
 20
142.912002874
 30
0.0
 11
48.396503463
 21
124.25
 31
0.0
  0
LINE
  8
0
  6
CONTINUOUS
 62
     2
 10
56.667399396
 20
142.797197845
 30
0.0
 11
49.244361554
 21
124.25
 31
0.0
  0
LINE
  8
0
  6
CONTINUOUS
 62
     2
 10
48.55
 20
118.85
 30
0.0
 11
49.205305353
 21
116.437413236
 31
0.0
  0
LINE
  8
0
  6
CONTINUOUS
 62
     2
 10
48.55
 20
118.85
 30
0.0
 11
50.323804465
 21
117.08829125
 31
0.0
  0
LINE
  8
0
  6
LTYPE2
 62
     2
 10
25.9625
 20
123.5
 30
0.0
 11
25.9625
 21
119.5
 31
0.0
  0
LINE
  8
0
  6
LTYPE2
 62
     2
 10
23.9625
 20
121.5
 30
0.0
 11
27.9625
 21
121.5
 31
0.0
  0
CIRCLE
  8
0
  6
CONTINUOUS
 62
     2
 10
47.0
 20
114.75
 30
0.0
 40
1.8
  0
LINE
  8
0
  6
CONTINUOUS
 62
     2
 10
45.2
 20
114.55
 30
0.0
 11
48.7
 21
114.55
 31
0.0
  0
LINE
  8
0
  6
CONTINUOUS
 62
     2
 10
48.7
 20
114.95
 30
0.0
 11
45.25
 21
114.95
 31
0.0
  0
LINE
  8
0
  6
LTYPE2
 62
     2
 10
44.5
 20
114.75
 30
0.0
 11
49.5
 21
114.75
 31
0.0
  0
LINE
  8
0
  6
LTYPE2
 62
     2
 10
65.9625
 20
121.5
 30
0.0
 11
69.9625
 21
121.5
 31
0.0
  0
LINE
  8
0
  6
LTYPE2
 62
     2
 10
67.9625
 20
123.5
 30
0.0
 11
67.9625
 21
119.5
 31
0.0
  0
LINE
  8
0
  6
CONTINUOUS
 62
     2
 10
57.467937853
 20
103.525
 30
0.0
 11
71.867937853
 21
103.525
 31
0.0
  0
TEXT
  8
0
  6
CONTINUOUS
 62
     2
 10
57.467937853
 20
104.525
 30
0.3
 40
3.0
  1
予定指針調整器
 50
0.0
 41
0.6
 51
0.0
  7
KANJI0
  0
LINE
  8
0
  6
CONTINUOUS
 62
     2
 10
48.55
 20
118.85
 30
0.0
 11
57.467937853
 21
103.525
 31
0.0
  0
LINE
  8
0
  6
CONTINUOUS
 62
     2
 10
45.960769515
 20
112.95
 30
0.0
 11
44.193002562
 21
111.182233047
 31
0.0
  0
LINE
  8
0
  6
CONTINUOUS
 62
     2
 10
45.960769515
 20
112.95
 30
0.0
 11
45.313721903
 21
110.535185434
 31
0.0
  0
LINE
  8
0
  6
CONTINUOUS
 62
     2
 10
45.960769515
 20
112.95
 30
0.0
 11
40.519243228
 21
103.525
 31
0.0
  0
LINE
  8
0
  6
CONTINUOUS
 62
     2
 10
40.519243228
 20
103.525
 30
0.0
 11
25.819243228
 21
103.525
 31
0.0
  0
TEXT
  8
0
  6
CONTINUOUS
 62
     2
 10
25.819243228
 20
104.525
 30
0.3
 40
3.0
  1
零位調整器
 50
0.0
 41
0.9
 51
0.0
  7
KANJI1
  0
LINE
  8
0
  6
CONTINUOUS
 62
     2
 10
28.269243228
 20
138.937881784
 30
0.0
 11
30.037010181
 21
140.705648737
 31
0.0
  0
LINE
  8
0
  6
CONTINUOUS
 62
     2
 10
28.269243228
 20
138.937881784
 30
0.0
 11
28.916290841
 21
141.35269635
 31
0.0
  0
LINE
  8
0
  6
CONTINUOUS
 62
     2
 10
28.269243228
 20
138.937881784
 30
0.0
 11
40.862475552
 21
160.75
 31
0.0
  0
LINE
  8
0
  6
CONTINUOUS
 62
     2
 10
40.862475552
 20
160.75
 30
0.0
 11
46.562475552
 21
160.75
 31
0.0
  0
TEXT
  8
0
  6
CONTINUOUS
 62
     2
 10
40.862475552
 20
161.75
 30
0.3
 40
3.0
  1
指針
 50
0.0
 41
0.9
 51
0.0
  7
KANJI1
  0
LINE
  8
0
  6
CONTINUOUS
 62
     2
 10
56.55
 20
143.15
 30
0.0
 11
58.317766953
 21
144.917766953
 31
0.0
  0
LINE
  8
0
  6
CONTINUOUS
 62
     2
 10
56.55
 20
143.15
 30
0.0
 11
57.197047613
 21
145.564814566
 31
0.0
  0
LINE
  8
0
  6
CONTINUOUS
 62
     2
 10
56.55
 20
143.15
 30
0.0
 11
66.711364738
 21
160.75
 31
0.0
  0
TEXT
  8
0
  6
CONTINUOUS
 62
     2
 10
66.711364738
 20
161.75
 30
0.3
 40
3.0
  1
予定指針（赤色）
 50
0.0
 41
0.9
 51
0.0
  7
KANJI1
  0
LINE
  8
0
  6
CONTINUOUS
 62
     2
 10
93.05
 20
149.0
 30
0.0
 11
92.8
 21
149.0
 31
0.0
  0
LINE
  8
0
  6
CONTINUOUS
 62
     2
 10
92.8
 20
149.0
 30
0.0
 11
92.8
 21
124.25
 31
0.0
  0
LINE
  8
0
  6
CONTINUOUS
 62
     2
 10
92.8
 20
124.25
 30
0.0
 11
93.05
 21
124.25
 31
0.0
  0
LINE
  8
0
  6
CONTINUOUS
 62
     2
 10
93.05
 20
121.25
 30
0.0
 11
92.85
 21
121.25
 31
0.0
  0
LINE
  8
0
  6
CONTINUOUS
 62
     2
 10
92.85
 20
121.25
 30
0.0
 11
92.85
 21
118.25
 31
0.0
  0
LINE
  8
0
  6
CONTINUOUS
 62
     2
 10
92.85
 20
118.25
 30
0.0
 11
93.05
 21
118.25
 31
0.0
  0
LINE
  8
0
  6
CONTINUOUS
 62
     2
 10
92.2
 20
120.0
 30
0.0
 11
92.85
 21
120.0
 31
0.0
  0
LINE
  8
0
  6
CONTINUOUS
 62
     2
 10
92.2
 20
119.5
 30
0.0
 11
92.85
 21
119.5
 31
0.0
  0
LINE
  8
0
  6
CONTINUOUS
 62
     2
 10
92.45
 20
121.125
 30
0.0
 11
92.85
 21
121.125
 31
0.0
  0
LINE
  8
0
  6
CONTINUOUS
 62
     2
 10
92.45
 20
121.125
 30
0.0
 11
92.45
 21
120.0
 31
0.0
  0
LINE
  8
0
  6
CONTINUOUS
 62
     2
 10
92.45
 20
119.5
 30
0.0
 11
92.45
 21
118.375
 31
0.0
  0
LINE
  8
0
  6
CONTINUOUS
 62
     2
 10
92.45
 20
118.375
 30
0.0
 11
92.85
 21
118.375
 31
0.0
  0
LINE
  8
0
  6
CONTINUOUS
 62
     2
 10
92.2
 20
120.0
 30
0.0
 11
92.2
 21
120.456392775
 31
0.0
  0
LINE
  8
0
  6
CONTINUOUS
 62
     2
 10
92.243094226
 20
120.659462008
 30
0.0
 11
92.45
 21
121.125
 31
0.0
  0
ARC
  8
0
  6
CONTINUOUS
 62
     2
 10
92.7
 20
120.456392775
 30
0.0
 40
0.5
 50
156.037511025
 51
180.0
  0
LINE
  8
0
  6
CONTINUOUS
 62
     2
 10
92.2
 20
119.5
 30
0.0
 11
92.2
 21
119.043607225
 31
0.0
  0
LINE
  8
0
  6
CONTINUOUS
 62
     2
 10
92.243094226
 20
118.840537992
 30
0.0
 11
92.45
 21
118.375
 31
0.0
  0
ARC
  8
0
  6
CONTINUOUS
 62
     2
 10
92.7
 20
119.043607225
 30
0.0
 40
0.5
 50
180.0
 51
203.962488975
  0
LINE
  8
0
  6
CONTINUOUS
 62
     2
 10
134.05
 20
117.3
 30
0.0
 11
134.05
 21
110.3
 31
0.0
  0
LINE
  8
0
  6
CONTINUOUS
 62
     2
 10
134.05
 20
112.3
 30
0.0
 11
136.464814566
 21
111.652952387
 31
0.0
  0
LINE
  8
0
  6
CONTINUOUS
 62
     2
 10
134.05
 20
112.3
 30
0.0
 11
136.464814566
 21
112.947047613
 31
0.0
  0
LINE
  8
0
  6
CONTINUOUS
 62
     2
 10
134.05
 20
112.3
 30
0.0
 11
141.05
 21
112.3
 31
0.0
  0
LINE
  8
0
  6
CONTINUOUS
 62
     2
 10
141.05
 20
112.3
 30
0.0
 11
138.635185434
 21
112.947047613
 31
0.0
  0
LINE
  8
0
  6
CONTINUOUS
 62
     2
 10
141.05
 20
112.3
 30
0.0
 11
138.635185434
 21
111.652952387
 31
0.0
  0
LINE
  8
0
  6
CONTINUOUS
 62
     2
 10
141.05
 20
122.025
 30
0.0
 11
141.05
 21
110.3
 31
0.0
  0
TEXT
  8
0
  6
CONTINUOUS
 62
     2
 10
135.6
 20
113.3
 30
0.3
 40
3.0
  1
１４
 50
0.0
 41
0.6
 51
0.0
  7
KANJI0
  0
LINE
  8
0
  6
LTYPE2
 62
     2
 10
98.0
 20
144.0
 30
0.0
 11
105.4
 21
144.0
 31
0.0
  0
LINE
  8
0
  6
LTYPE2
 62
     2
 10
98.0
 20
112.0
 30
0.0
 11
105.4
 21
112.0
 31
0.0
  0
LINE
  8
0
  6
CONTINUOUS
 62
     2
 10
109.3
 20
144.25
 30
0.0
 11
108.652952387
 21
141.835185434
 31
0.0
  0
LINE
  8
0
  6
CONTINUOUS
 62
     2
 10
109.3
 20
144.25
 30
0.0
 11
109.947047613
 21
141.835185434
 31
0.0
  0
LINE
  8
0
  6
CONTINUOUS
 62
     2
 10
109.3
 20
144.25
 30
0.0
 11
109.3
 21
111.75
 31
0.0
  0
LINE
  8
0
  6
CONTINUOUS
 62
     2
 10
109.3
 20
111.75
 30
0.0
 11
109.947047613
 21
114.164814566
 31
0.0
  0
LINE
  8
0
  6
CONTINUOUS
 62
     2
 10
109.3
 20
111.75
 30
0.0
 11
108.652952387
 21
114.164814566
 31
0.0
  0
LINE
  8
0
  6
CONTINUOUS
 62
     2
 10
109.3
 20
111.75
 30
0.0
 11
107.3
 21
111.75
 31
0.0
  0
LINE
  8
0
  6
CONTINUOUS
 62
     2
 10
99.05
 20
154.275
 30
0.0
 11
99.05
 21
157.75
 31
0.0
  0
LINE
  8
0
  6
CONTINUOUS
 62
     2
 10
98.8
 20
155.75
 30
0.0
 11
96.385185434
 21
156.397047613
 31
0.0
  0
LINE
  8
0
  6
CONTINUOUS
 62
     2
 10
98.8
 20
155.75
 30
0.0
 11
96.385185434
 21
155.102952387
 31
0.0
  0
LINE
  8
0
  6
CONTINUOUS
 62
     2
 10
98.8
 20
155.75
 30
0.0
 11
94.75
 21
155.75
 31
0.0
  0
TEXT
  8
0
  6
CONTINUOUS
 62
     2
 10
93.775
 20
156.75
 30
0.3
 40
3.0
  1
０．５　
 50
0.0
 41
0.3
 51
0.0
  7
KANJI2
  0
TEXT
  8
0
  6
CONTINUOUS
 62
     2
 10
100.65
 20
156.75
 30
0.3
 40
3.0
  1
１０
 50
0.0
 41
0.3
 51
0.0
  7
KANJI2
  0
LINE
  8
0
  6
CONTINUOUS
 62
     2
 10
99.05
 20
155.75
 30
0.0
 11
100.874524064
 21
155.26112025
 31
0.0
  0
LINE
  8
0
  6
CONTINUOUS
 62
     2
 10
99.05
 20
155.75
 30
0.0
 11
100.894524064
 21
156.244238733
 31
0.0
  0
LINE
  8
0
  6
CONTINUOUS
 62
     2
 10
104.05
 20
155.75
 30
0.0
 11
102.264524064
 21
156.228416835
 31
0.0
  0
LINE
  8
0
  6
CONTINUOUS
 62
     2
 10
104.05
 20
155.75
 30
0.0
 11
102.264524064
 21
155.271583165
 31
0.0
  0
LINE
  8
0
  6
CONTINUOUS
 62
     2
 10
104.05
 20
155.75
 30
0.0
 11
98.8
 21
155.75
 31
0.0
  0
LINE
  8
0
  6
CONTINUOUS
 62
     2
 10
104.05
 20
145.825
 30
0.0
 11
104.05
 21
157.75
 31
0.0
  0
LINE
  8
0
  6
CONTINUOUS
 62
     2
 10
98.8
 20
157.75
 30
0.0
 11
98.8
 21
151.75
 31
0.0
  0
LINE
  8
0
  6
CONTINUOUS
 62
     2
 10
99.05
 20
160.75
 30
0.0
 11
114.05
 21
160.75
 31
0.0
  0
LINE
  8
0
  6
CONTINUOUS
 62
     2
 10
114.05
 20
160.75
 30
0.0
 11
111.635185434
 21
161.397047613
 31
0.0
  0
LINE
  8
0
  6
CONTINUOUS
 62
     2
 10
114.05
 20
160.75
 30
0.0
 11
111.635185434
 21
160.102952387
 31
0.0
  0
TEXT
  8
0
  6
CONTINUOUS
 62
     2
 10
104.6
 20
161.75
 30
0.3
 40
3.0
  1
３０
 50
0.0
 41
0.6
 51
0.0
  7
KANJI0
  0
LINE
  8
0
  6
CONTINUOUS
 62
     2
 10
99.05
 20
160.75
 30
0.0
 11
101.464814566
 21
160.102952387
 31
0.0
  0
LINE
  8
0
  6
CONTINUOUS
 62
     2
 10
99.05
 20
160.75
 30
0.0
 11
101.464814566
 21
161.397047613
 31
0.0
  0
LINE
  8
0
  6
CONTINUOUS
 62
     2
 10
92.8
 20
160.725
 30
0.0
 11
95.214814566
 21
160.077952387
 31
0.0
  0
LINE
  8
0
  6
CONTINUOUS
 62
     2
 10
92.8
 20
160.725
 30
0.0
 11
95.214814566
 21
161.372047613
 31
0.0
  0
LINE
  8
0
  6
CONTINUOUS
 62
     2
 10
92.8
 20
160.725
 30
0.0
 11
99.05
 21
160.725
 31
0.0
  0
LINE
  8
0
  6
CONTINUOUS
 62
     2
 10
99.05
 20
160.725
 30
0.0
 11
96.635185434
 21
160.077952387
 31
0.0
  0
LINE
  8
0
  6
CONTINUOUS
 62
     2
 10
99.05
 20
160.725
 30
0.0
 11
96.635185434
 21
161.372047613
 31
0.0
  0
LINE
  8
0
  6
CONTINUOUS
 62
     2
 10
114.05
 20
160.75
 30
0.0
 11
111.635185434
 21
160.102952387
 31
0.0
  0
LINE
  8
0
  6
CONTINUOUS
 62
     2
 10
114.05
 20
160.75
 30
0.0
 11
111.635185434
 21
161.397047613
 31
0.0
  0
TEXT
  8
0
  6
CONTINUOUS
 62
     2
 10
93.525
 20
161.775
 30
0.3
 40
3.0
  1
１２．５
 50
0.0
 41
0.3
 51
0.0
  7
KANJI2
  0
LINE
  8
0
  6
CONTINUOUS
 62
     2
 10
114.05
 20
160.75
 30
0.0
 11
116.464814566
 21
160.102952387
 31
0.0
  0
LINE
  8
0
  6
CONTINUOUS
 62
     2
 10
114.05
 20
160.75
 30
0.0
 11
116.464814566
 21
161.397047613
 31
0.0
  0
LINE
  8
0
  6
CONTINUOUS
 62
     2
 10
114.05
 20
160.75
 30
0.0
 11
134.05
 21
160.75
 31
0.0
  0
LINE
  8
0
  6
CONTINUOUS
 62
     2
 10
134.05
 20
160.75
 30
0.0
 11
131.635185434
 21
161.397047613
 31
0.0
  0
LINE
  8
0
  6
CONTINUOUS
 62
     2
 10
134.05
 20
160.75
 30
0.0
 11
131.635185434
 21
160.102952387
 31
0.0
  0
TEXT
  8
0
  6
CONTINUOUS
 62
     2
 10
122.1
 20
161.75
 30
0.3
 40
3.0
  1
４０
 50
0.0
 41
0.6
 51
0.0
  7
KANJI0
  0
LINE
  8
0
  6
CONTINUOUS
 62
     2
 10
134.05
 20
160.75
 30
0.0
 11
131.635185434
 21
161.397047613
 31
0.0
  0
LINE
  8
0
  6
CONTINUOUS
 62
     2
 10
134.05
 20
160.75
 30
0.0
 11
131.635185434
 21
160.102952387
 31
0.0
  0
LINE
  8
0
  6
CONTINUOUS
 62
     2
 10
129.05
 20
160.75
 30
0.0
 11
144.05
 21
160.75
 31
0.0
  0
LINE
  8
0
  6
CONTINUOUS
 62
     2
 10
139.05
 20
160.75
 30
0.0
 11
141.464814566
 21
160.102952387
 31
0.0
  0
LINE
  8
0
  6
CONTINUOUS
 62
     2
 10
139.05
 20
160.75
 30
0.0
 11
141.464814566
 21
161.397047613
 31
0.0
  0
TEXT
  8
0
  6
CONTINUOUS
 62
     2
 10
134.6
 20
161.75
 30
0.3
 40
3.0
  1
１０
 50
0.0
 41
0.6
 51
0.0
  7
KANJI0
  0
TEXT
  8
0
  6
CONTINUOUS
 62
     2
 10
138.48
 20
163.225
 30
0.18
 40
1.8
  1
±１
 50
0.0
 41
0.6
 51
0.0
  7
KANJI3
  0
LINE
  8
0
  6
CONTINUOUS
 62
     2
 10
92.8
 20
150.326436456
 30
0.0
 11
92.8
 21
162.75
 31
0.0
  0
LINE
  8
0
  6
CONTINUOUS
 62
     2
 10
99.05
 20
147.05
 30
0.0
 11
99.05
 21
162.75
 31
0.0
  0
LINE
  8
0
  6
CONTINUOUS
 62
     2
 10
114.05
 20
144.75
 30
0.0
 11
114.05
 21
162.75
 31
0.0
  0
LINE
  8
0
  6
CONTINUOUS
 62
     2
 10
134.05
 20
135.3
 30
0.0
 11
134.05
 21
162.75
 31
0.0
  0
LINE
  8
0
  6
CONTINUOUS
 62
     2
 10
139.05
 20
130.1
 30
0.0
 11
139.05
 21
162.75
 31
0.0
  0
LINE
  8
0
  6
CONTINUOUS
 62
     2
 10
139.55
 20
126.025
 30
0.0
 11
140.197047613
 21
123.610185434
 31
0.0
  0
LINE
  8
0
  6
CONTINUOUS
 62
     2
 10
139.55
 20
126.025
 30
0.0
 11
141.317766953
 21
124.257233047
 31
0.0
  0
LINE
  8
0
  6
CONTINUOUS
 62
     2
 10
139.55
 20
126.025
 30
0.0
 11
152.540381057
 21
103.525
 31
0.0
  0
LINE
  8
0
  6
CONTINUOUS
 62
     2
 10
123.340381057
 20
119.525
 30
0.0
 11
123.98742867
 21
117.110185434
 31
0.0
  0
LINE
  8
0
  6
CONTINUOUS
 62
     2
 10
123.340381057
 20
119.525
 30
0.0
 11
125.10814801
 21
117.757233047
 31
0.0
  0
LINE
  8
0
  6
CONTINUOUS
 62
     2
 10
103.577985364
 20
110.525
 30
0.0
 11
104.225032977
 21
108.110185434
 31
0.0
  0
LINE
  8
0
  6
CONTINUOUS
 62
     2
 10
103.577985364
 20
110.525
 30
0.0
 11
105.345752317
 21
108.757233047
 31
0.0
  0
LINE
  8
0
  6
CONTINUOUS
 62
     2
 10
103.577985364
 20
110.525
 30
0.0
 11
107.619437248
 21
103.525
 31
0.0
  0
LINE
  8
0
  6
CONTINUOUS
 62
     2
 10
107.619437248
 20
103.525
 30
0.0
 11
128.319437248
 21
103.525
 31
0.0
  0
TEXT
  8
0
  6
CONTINUOUS
 62
     2
 10
107.619437248
 20
104.525
 30
0.3
 40
3.0
  1
Ｍ３取付ボルト
 50
0.0
 41
0.9
 51
0.0
  7
KANJI1
  0
ARC
  8
0
  6
CONTINUOUS
 62
     2
 10
208.5
 20
110.75
 30
0.0
 40
0.5
 50
270.0
 51
0.0
  0
ARC
  8
0
  6
CONTINUOUS
 62
     2
 10
208.5
 20
149.25
 30
0.0
 40
0.5
 50
0.0
 51
90.0
  0
LINE
  8
0
  6
CONTINUOUS
 62
     2
 10
209.0
 20
110.75
 30
0.0
 11
209.0
 21
149.25
 31
0.0
  0
ARC
  8
0
  6
CONTINUOUS
 62
     2
 10
161.5
 20
149.25
 30
0.0
 40
0.5
 50
90.0
 51
180.0
  0
LINE
  8
0
  6
CONTINUOUS
 62
     2
 10
208.5
 20
149.75
 30
0.0
 11
161.5
 21
149.75
 31
0.0
  0
ARC
  8
0
  6
CONTINUOUS
 62
     2
 10
161.5
 20
110.75
 30
0.0
 40
0.5
 50
180.0
 51
270.0
  0
LINE
  8
0
  6
CONTINUOUS
 62
     2
 10
161.5
 20
110.25
 30
0.0
 11
208.5
 21
110.25
 31
0.0
  0
LINE
  8
0
  6
CONTINUOUS
 62
     2
 10
161.0
 20
149.25
 30
0.0
 11
161.0
 21
110.75
 31
0.0
  0
CIRCLE
  8
0
  6
CONTINUOUS
 62
     2
 10
169.0
 20
112.0
 30
0.0
 40
2.0
  0
CIRCLE
  8
0
  6
CONTINUOUS
 62
     2
 10
169.0
 20
112.0
 30
0.0
 40
0.75
  0
LINE
  8
0
  6
CONTINUOUS
 62
     2
 10
169.0
 20
113.6
 30
0.0
 11
167.614359354
 21
112.8
 31
0.0
  0
LINE
  8
0
  6
CONTINUOUS
 62
     2
 10
167.614359354
 20
112.8
 30
0.0
 11
167.614359354
 21
111.2
 31
0.0
  0
LINE
  8
0
  6
CONTINUOUS
 62
     2
 10
167.614359354
 20
111.2
 30
0.0
 11
169.0
 21
110.4
 31
0.0
  0
LINE
  8
0
  6
CONTINUOUS
 62
     2
 10
169.0
 20
110.4
 30
0.0
 11
170.385640646
 21
111.2
 31
0.0
  0
LINE
  8
0
  6
CONTINUOUS
 62
     2
 10
170.385640646
 20
111.2
 30
0.0
 11
170.385640646
 21
112.8
 31
0.0
  0
LINE
  8
0
  6
CONTINUOUS
 62
     2
 10
170.385640646
 20
112.8
 30
0.0
 11
169.0
 21
113.6
 31
0.0
  0
CIRCLE
  8
0
  6
CONTINUOUS
 62
     2
 10
169.0
 20
144.0
 30
0.0
 40
2.0
  0
CIRCLE
  8
0
  6
CONTINUOUS
 62
     2
 10
169.0
 20
144.0
 30
0.0
 40
0.75
  0
LINE
  8
0
  6
CONTINUOUS
 62
     2
 10
169.0
 20
145.6
 30
0.0
 11
167.614359354
 21
144.8
 31
0.0
  0
LINE
  8
0
  6
CONTINUOUS
 62
     2
 10
167.614359354
 20
144.8
 30
0.0
 11
167.614359354
 21
143.2
 31
0.0
  0
LINE
  8
0
  6
CONTINUOUS
 62
     2
 10
167.614359354
 20
143.2
 30
0.0
 11
169.0
 21
142.4
 31
0.0
  0
LINE
  8
0
  6
CONTINUOUS
 62
     2
 10
169.0
 20
142.4
 30
0.0
 11
170.385640646
 21
143.2
 31
0.0
  0
LINE
  8
0
  6
CONTINUOUS
 62
     2
 10
170.385640646
 20
143.2
 30
0.0
 11
170.385640646
 21
144.8
 31
0.0
  0
LINE
  8
0
  6
CONTINUOUS
 62
     2
 10
170.385640646
 20
144.8
 30
0.0
 11
169.0
 21
145.6
 31
0.0
  0
CIRCLE
  8
0
  6
CONTINUOUS
 62
     2
 10
201.0125
 20
144.0
 30
0.0
 40
2.0
  0
CIRCLE
  8
0
  6
CONTINUOUS
 62
     2
 10
201.0125
 20
144.0
 30
0.0
 40
0.75
  0
LINE
  8
0
  6
CONTINUOUS
 62
     2
 10
201.0125
 20
145.6
 30
0.0
 11
199.626859354
 21
144.8
 31
0.0
  0
LINE
  8
0
  6
CONTINUOUS
 62
     2
 10
199.626859354
 20
144.8
 30
0.0
 11
199.626859354
 21
143.2
 31
0.0
  0
LINE
  8
0
  6
CONTINUOUS
 62
     2
 10
199.626859354
 20
143.2
 30
0.0
 11
201.0125
 21
142.4
 31
0.0
  0
LINE
  8
0
  6
CONTINUOUS
 62
     2
 10
201.0125
 20
142.4
 30
0.0
 11
202.398140646
 21
143.2
 31
0.0
  0
LINE
  8
0
  6
CONTINUOUS
 62
     2
 10
202.398140646
 20
143.2
 30
0.0
 11
202.398140646
 21
144.8
 31
0.0
  0
LINE
  8
0
  6
CONTINUOUS
 62
     2
 10
202.398140646
 20
144.8
 30
0.0
 11
201.0125
 21
145.6
 31
0.0
  0
CIRCLE
  8
0
  6
CONTINUOUS
 62
     2
 10
201.0
 20
112.0
 30
0.0
 40
2.0
  0
CIRCLE
  8
0
  6
CONTINUOUS
 62
     2
 10
201.0
 20
112.0
 30
0.0
 40
0.75
  0
LINE
  8
0
  6
CONTINUOUS
 62
     2
 10
201.0
 20
113.6
 30
0.0
 11
199.614359354
 21
112.8
 31
0.0
  0
LINE
  8
0
  6
CONTINUOUS
 62
     2
 10
199.614359354
 20
112.8
 30
0.0
 11
199.614359354
 21
111.2
 31
0.0
  0
LINE
  8
0
  6
CONTINUOUS
 62
     2
 10
199.614359354
 20
111.2
 30
0.0
 11
201.0
 21
110.4
 31
0.0
  0
LINE
  8
0
  6
CONTINUOUS
 62
     2
 10
201.0
 20
110.4
 30
0.0
 11
202.385640646
 21
111.2
 31
0.0
  0
LINE
  8
0
  6
CONTINUOUS
 62
     2
 10
202.385640646
 20
111.2
 30
0.0
 11
202.385640646
 21
112.8
 31
0.0
  0
LINE
  8
0
  6
CONTINUOUS
 62
     2
 10
202.385640646
 20
112.8
 30
0.0
 11
201.0
 21
113.6
 31
0.0
  0
LINE
  8
0
  6
LTYPE3
 62
     2
 10
191.840068544
 20
125.080678053
 30
0.0
 11
191.750002697
 21
124.6
 31
0.0
  0
LINE
  8
0
  6
LTYPE3
 62
     2
 10
190.659932769
 20
125.080684458
 30
0.0
 11
190.750002697
 21
124.6
 31
0.0
  0
POINT
  8
0
  6
LTYPE3
 62
     2
 10
192.5
 20
124.6
 30
0.0
  0
LINE
  8
0
  6
LTYPE3
 62
     2
 10
192.5
 20
124.6
 30
0.0
 11
190.0
 21
124.6
 31
0.0
  0
LINE
  8
0
  6
LTYPE3
 62
     2
 10
192.5
 20
124.6
 30
0.0
 11
192.5
 21
121.6
 31
0.0
  0
LINE
  8
0
  6
LTYPE3
 62
     2
 10
190.0
 20
124.6
 30
0.0
 11
190.0
 21
121.6
 31
0.0
  0
ARC
  8
0
  6
LTYPE3
 62
     2
 10
178.25
 20
128.5
 30
0.0
 40
3.0
 50
90.0
 51
180.0
  0
LINE
  8
0
  6
LTYPE3
 62
     2
 10
175.25
 20
123.0
 30
0.0
 11
175.25
 21
128.5
 31
0.0
  0
LINE
  8
0
  6
LTYPE3
 62
     2
 10
191.75
 20
120.0
 30
0.0
 11
178.25
 21
120.0
 31
0.0
  0
ARC
  8
0
  6
LTYPE3
 62
     2
 10
178.25
 20
123.0
 30
0.0
 40
3.0
 50
180.0
 51
270.0
  0
LINE
  8
0
  6
LTYPE3
 62
     2
 10
178.275
 20
131.5
 30
0.0
 11
191.75
 21
131.5
 31
0.0
  0
ARC
  8
0
  6
LTYPE3
 62
     2
 10
191.75
 20
128.5
 30
0.0
 40
3.0
 50
0.0
 51
90.0
  0
ARC
  8
0
  6
LTYPE3
 62
     2
 10
191.75
 20
123.0
 30
0.0
 40
3.0
 50
270.0
 51
0.0
  0
LINE
  8
0
  6
LTYPE3
 62
     2
 10
194.75
 20
128.5
 30
0.0
 11
194.75
 21
123.0
 31
0.0
  0
LINE
  8
0
  6
CONTINUOUS
 62
     2
 10
194.75
 20
128.025
 30
0.0
 11
208.75
 21
128.025
 31
0.0
  0
LINE
  8
0
  6
LTYPE2
 62
     2
 10
166.0
 20
144.0
 30
0.0
 11
172.0
 21
144.0
 31
0.0
  0
LINE
  8
0
  6
LTYPE2
 62
     2
 10
198.0125
 20
144.0
 30
0.0
 11
204.0125
 21
144.0
 31
0.0
  0
LINE
  8
0
  6
LTYPE2
 62
     2
 10
178.75
 20
131.0
 30
0.0
 11
178.75
 21
125.0
 31
0.0
  0
LINE
  8
0
  6
LTYPE2
 62
     2
 10
191.25
 20
131.0
 30
0.0
 11
191.25
 21
125.0
 31
0.0
  0
LINE
  8
0
  6
LTYPE2
 62
     2
 10
166.0
 20
112.0
 30
0.0
 11
172.0
 21
112.0
 31
0.0
  0
LINE
  8
0
  6
LTYPE2
 62
     2
 10
198.0
 20
112.0
 30
0.0
 11
204.0
 21
112.0
 31
0.0
  0
LINE
  8
0
  6
LTYPE2
 62
     2
 10
169.0
 20
147.0
 30
0.0
 11
169.0
 21
141.0
 31
0.0
  0
LINE
  8
0
  6
LTYPE2
 62
     2
 10
201.0125
 20
147.0
 30
0.0
 11
201.0125
 21
141.0
 31
0.0
  0
LINE
  8
0
  6
LTYPE2
 62
     2
 10
201.0
 20
115.0
 30
0.0
 11
201.0
 21
109.0
 31
0.0
  0
LINE
  8
0
  6
LTYPE2
 62
     2
 10
169.0
 20
115.0
 30
0.0
 11
169.0
 21
109.0
 31
0.0
  0
LINE
  8
0
  6
CONTINUOUS
 62
     2
 10
169.0
 20
155.75
 30
0.0
 11
171.414814566
 21
155.102952387
 31
0.0
  0
LINE
  8
0
  6
CONTINUOUS
 62
     2
 10
169.0
 20
155.75
 30
0.0
 11
171.414814566
 21
156.397047613
 31
0.0
  0
LINE
  8
0
  6
CONTINUOUS
 62
     2
 10
169.0
 20
155.75
 30
0.0
 11
185.0
 21
155.75
 31
0.0
  0
LINE
  8
0
  6
CONTINUOUS
 62
     2
 10
185.0
 20
155.75
 30
0.0
 11
182.585185434
 21
156.397047613
 31
0.0
  0
LINE
  8
0
  6
CONTINUOUS
 62
     2
 10
185.0
 20
155.75
 30
0.0
 11
182.585185434
 21
155.102952387
 31
0.0
  0
TEXT
  8
0
  6
CONTINUOUS
 62
     2
 10
172.62
 20
156.75
 30
0.3
 40
3.0
  1
３２
 50
0.0
 41
0.6
 51
0.0
  7
KANJI0
  0
TEXT
  8
0
  6
CONTINUOUS
 62
     2
 10
176.52
 20
156.75
 30
0.18
 40
1.8
  1
±０．５
 50
0.0
 41
0.6
 51
0.0
  7
KANJI3
  0
LINE
  8
0
  6
CONTINUOUS
 62
     2
 10
185.0
 20
155.75
 30
0.0
 11
187.414814566
 21
155.102952387
 31
0.0
  0
LINE
  8
0
  6
CONTINUOUS
 62
     2
 10
185.0
 20
155.75
 30
0.0
 11
187.414814566
 21
156.397047613
 31
0.0
  0
LINE
  8
0
  6
CONTINUOUS
 62
     2
 10
185.0
 20
155.75
 30
0.0
 11
201.0125
 21
155.75
 31
0.0
  0
LINE
  8
0
  6
CONTINUOUS
 62
     2
 10
201.0125
 20
155.75
 30
0.0
 11
198.597685434
 21
156.397047613
 31
0.0
  0
LINE
  8
0
  6
CONTINUOUS
 62
     2
 10
201.0125
 20
155.75
 30
0.0
 11
198.597685434
 21
155.102952387
 31
0.0
  0
TEXT
  8
0
  6
CONTINUOUS
 62
     2
 10
188.62625
 20
156.75
 30
0.3
 40
3.0
  1
３２
 50
0.0
 41
0.6
 51
0.0
  7
KANJI0
  0
TEXT
  8
0
  6
CONTINUOUS
 62
     2
 10
192.52625
 20
156.75
 30
0.18
 40
1.8
  1
±０．５
 50
0.0
 41
0.6
 51
0.0
  7
KANJI3
  0
LINE
  8
0
  6
CONTINUOUS
 62
     2
 10
169.0
 20
147.5
 30
0.0
 11
169.0
 21
157.75
 31
0.0
  0
LINE
  8
0
  6
CONTINUOUS
 62
     2
 10
201.0125
 20
147.5
 30
0.0
 11
201.0125
 21
157.75
 31
0.0
  0
LINE
  8
0
  6
LTYPE2
 62
     2
 10
185.0
 20
152.75
 30
0.0
 11
185.0
 21
102.5
 31
0.0
  0
LINE
  8
0
  6
CONTINUOUS
 62
     2
 10
185.0
 20
153.25
 30
0.0
 11
185.0
 21
157.75
 31
0.0
  0
LINE
  8
0
  6
CONTINUOUS
 62
     2
 10
160.0
 20
160.75
 30
0.0
 11
162.414814566
 21
160.102952387
 31
0.0
  0
LINE
  8
0
  6
CONTINUOUS
 62
     2
 10
160.0
 20
160.75
 30
0.0
 11
162.414814566
 21
161.397047613
 31
0.0
  0
LINE
  8
0
  6
CONTINUOUS
 62
     2
 10
160.0
 20
160.75
 30
0.0
 11
210.0
 21
160.75
 31
0.0
  0
LINE
  8
0
  6
CONTINUOUS
 62
     2
 10
210.0
 20
160.75
 30
0.0
 11
207.585185434
 21
161.397047613
 31
0.0
  0
LINE
  8
0
  6
CONTINUOUS
 62
     2
 10
210.0
 20
160.75
 30
0.0
 11
207.585185434
 21
160.102952387
 31
0.0
  0
TEXT
  8
0
  6
CONTINUOUS
 62
     2
 10
180.83
 20
161.75
 30
0.3
 40
3.0
  1
１００
 50
0.0
 41
0.6
 51
0.0
  7
KANJI0
  0
TEXT
  8
0
  6
CONTINUOUS
 62
     2
 10
186.83
 20
161.75
 30
0.18
 40
1.8
  1
±１
 50
0.0
 41
0.6
 51
0.0
  7
KANJI3
  0
LINE
  8
0
  6
CONTINUOUS
 62
     2
 10
160.0
 20
150.25
 30
0.0
 11
160.0
 21
162.75
 31
0.0
  0
LINE
  8
0
  6
CONTINUOUS
 62
     2
 10
210.0
 20
150.25
 30
0.0
 11
210.0
 21
162.75
 31
0.0
  0
LINE
  8
0
  6
CONTINUOUS
 62
     2
 10
215.0
 20
112.0
 30
0.0
 11
215.647047613
 21
114.414814566
 31
0.0
  0
LINE
  8
0
  6
CONTINUOUS
 62
     2
 10
215.0
 20
112.0
 30
0.0
 11
214.352952387
 21
114.414814566
 31
0.0
  0
LINE
  8
0
  6
CONTINUOUS
 62
     2
 10
215.0
 20
112.0
 30
0.0
 11
215.0
 21
128.0
 31
0.0
  0
LINE
  8
0
  6
CONTINUOUS
 62
     2
 10
215.0
 20
128.0
 30
0.0
 11
214.352952387
 21
125.585185434
 31
0.0
  0
LINE
  8
0
  6
CONTINUOUS
 62
     2
 10
215.0
 20
128.0
 30
0.0
 11
215.647047613
 21
125.585185434
 31
0.0
  0
TEXT
  8
0
  6
CONTINUOUS
 62
     2
 10
214.0
 20
115.62
 30
0.3
 40
3.0
  1
３２
 50
90.0
 41
0.6
 51
0.0
  7
KANJI0
  0
TEXT
  8
0
  6
CONTINUOUS
 62
     2
 10
214.0
 20
119.52
 30
0.18
 40
1.8
  1
±０．５
 50
90.0
 41
0.6
 51
0.0
  7
KANJI3
  0
LINE
  8
0
  6
CONTINUOUS
 62
     2
 10
215.0
 20
128.0
 30
0.0
 11
215.647047613
 21
130.414814566
 31
0.0
  0
LINE
  8
0
  6
CONTINUOUS
 62
     2
 10
215.0
 20
128.0
 30
0.0
 11
214.352952387
 21
130.414814566
 31
0.0
  0
LINE
  8
0
  6
CONTINUOUS
 62
     2
 10
215.0
 20
128.0
 30
0.0
 11
215.0
 21
144.0
 31
0.0
  0
LINE
  8
0
  6
CONTINUOUS
 62
     2
 10
215.0
 20
144.0
 30
0.0
 11
214.352952387
 21
141.585185434
 31
0.0
  0
LINE
  8
0
  6
CONTINUOUS
 62
     2
 10
215.0
 20
144.0
 30
0.0
 11
215.647047613
 21
141.585185434
 31
0.0
  0
TEXT
  8
0
  6
CONTINUOUS
 62
     2
 10
214.0
 20
131.62
 30
0.3
 40
3.0
  1
３２
 50
90.0
 41
0.6
 51
0.0
  7
KANJI0
  0
TEXT
  8
0
  6
CONTINUOUS
 62
     2
 10
214.0
 20
135.52
 30
0.18
 40
1.8
  1
±０．５
 50
90.0
 41
0.6
 51
0.0
  7
KANJI3
  0
LINE
  8
0
  6
CONTINUOUS
 62
     2
 10
204.5125
 20
144.0
 30
0.0
 11
217.0
 21
144.0
 31
0.0
  0
LINE
  8
0
  6
CONTINUOUS
 62
     2
 10
204.0
 20
112.0
 30
0.0
 11
217.0
 21
112.0
 31
0.0
  0
LINE
  8
0
  6
CONTINUOUS
 62
     2
 10
212.5
 20
128.025
 30
0.0
 11
217.0
 21
128.0
 31
0.0
  0
LINE
  8
0
  6
CONTINUOUS
 62
     2
 10
220.5
 20
109.275
 30
0.0
 11
221.147047613
 21
111.689814566
 31
0.0
  0
LINE
  8
0
  6
CONTINUOUS
 62
     2
 10
220.5
 20
109.275
 30
0.0
 11
219.852952387
 21
111.689814566
 31
0.0
  0
LINE
  8
0
  6
CONTINUOUS
 62
     2
 10
220.5
 20
109.275
 30
0.0
 11
220.5
 21
150.775
 31
0.0
  0
LINE
  8
0
  6
CONTINUOUS
 62
     2
 10
220.5
 20
150.775
 30
0.0
 11
219.852952387
 21
148.360185434
 31
0.0
  0
LINE
  8
0
  6
CONTINUOUS
 62
     2
 10
220.5
 20
150.775
 30
0.0
 11
221.147047613
 21
148.360185434
 31
0.0
  0
TEXT
  8
0
  6
CONTINUOUS
 62
     2
 10
219.5
 20
126.905
 30
0.3
 40
3.0
  1
８３
 50
90.0
 41
0.6
 51
0.0
  7
KANJI0
  0
TEXT
  8
0
  6
CONTINUOUS
 62
     2
 10
219.5
 20
130.805
 30
0.18
 40
1.8
  1
±１
 50
90.0
 41
0.6
 51
0.0
  7
KANJI3
  0
LINE
  8
0
  6
CONTINUOUS
 62
     2
 10
209.2
 20
109.275
 30
0.0
 11
222.5
 21
109.275
 31
0.0
  0
LINE
  8
0
  6
CONTINUOUS
 62
     2
 10
209.5
 20
150.775
 30
0.0
 11
222.5
 21
150.775
 31
0.0
  0
LINE
  8
0
  6
CONTINUOUS
 62
     2
 10
152.540381057
 20
103.525
 30
0.0
 11
179.240381057
 21
103.525
 31
0.0
  0
TEXT
  8
0
  6
CONTINUOUS
 62
     2
 10
152.540381057
 20
104.525
 30
0.3
 40
3.0
  1
Ｍ４ターミナルネジ
 50
0.0
 41
0.9
 51
0.0
  7
KANJI1
  0
LINE
  8
0
  6
CONTINUOUS
 62
     2
 10
135.573502692
 20
132.0
 30
0.0
 11
137.341269645
 21
133.767766953
 31
0.0
  0
LINE
  8
0
  6
CONTINUOUS
 62
     2
 10
135.573502692
 20
132.0
 30
0.0
 11
136.220550305
 21
134.414814566
 31
0.0
  0
LINE
  8
0
  6
CONTINUOUS
 62
     2
 10
135.573502692
 20
132.0
 30
0.0
 11
141.058330249
 21
141.5
 31
0.0
  0
LINE
  8
0
  6
CONTINUOUS
 62
     2
 10
141.058330249
 20
141.5
 30
0.0
 11
158.758330249
 21
141.5
 31
0.0
  0
TEXT
  8
0
  6
CONTINUOUS
 62
     2
 10
141.058330249
 20
142.5
 30
0.3
 40
3.0
  1
端子キャップ
 50
0.0
 41
0.9
 51
0.0
  7
KANJI1
  0
LINE
  8
0
  6
CONTINUOUS
 62
     2
 10
55.894486611
 20
70.693329698
 30
0.0
 11
54.06390178
 21
68.990696686
 31
0.0
  0
LINE
  8
0
  6
CONTINUOUS
 62
     2
 10
55.894486611
 20
70.693329698
 30
0.0
 11
55.16047015
 21
68.30351384
 31
0.0
  0
LINE
  8
0
  6
CONTINUOUS
 62
     2
 10
55.894486611
 20
70.693329698
 30
0.0
 11
38.105513389
 21
42.306670302
 31
0.0
  0
LINE
  8
0
  6
CONTINUOUS
 62
     2
 10
38.105513389
 20
42.306670302
 30
0.0
 11
39.93609822
 21
44.009303314
 31
0.0
  0
LINE
  8
0
  6
CONTINUOUS
 62
     2
 10
38.105513389
 20
42.306670302
 30
0.0
 11
38.83952985
 21
44.69648616
 31
0.0
  0
LINE
  8
0
  6
CONTINUOUS
 62
     2
 10
35.85
 20
20.05
 30
0.0
 11
58.05
 21
20.05
 31
0.0
  0
TEXT
  8
0
  6
CONTINUOUS
 62
     2
 10
37.65
 20
22.15
 30
0.5
 40
3.0
  1
パネルカット
 50
0.0
 41
0.9
 51
0.0
  7
KANJI4
  0
LINE
  8
0
  6
LTYPE2
 62
     2
 10
28.5
 20
72.5
 30
0.0
 11
33.5
 21
72.5
 31
0.0
  0
LINE
  8
0
  6
LTYPE2
 62
     2
 10
31.0
 20
75.0
 30
0.0
 11
31.0
 21
70.0
 31
0.0
  0
LINE
  8
0
  6
LTYPE2
 62
     2
 10
60.5
 20
72.5
 30
0.0
 11
65.5
 21
72.5
 31
0.0
  0
LINE
  8
0
  6
LTYPE2
 62
     2
 10
63.0
 20
75.0
 30
0.0
 11
63.0
 21
70.0
 31
0.0
  0
LINE
  8
0
  6
LTYPE2
 62
     2
 10
60.5
 20
40.5
 30
0.0
 11
65.5
 21
40.5
 31
0.0
  0
LINE
  8
0
  6
LTYPE2
 62
     2
 10
63.0
 20
43.0
 30
0.0
 11
63.0
 21
38.0
 31
0.0
  0
LINE
  8
0
  6
LTYPE2
 62
     2
 10
28.5
 20
40.5
 30
0.0
 11
33.5
 21
40.5
 31
0.0
  0
LINE
  8
0
  6
LTYPE2
 62
     2
 10
31.0
 20
43.0
 30
0.0
 11
31.0
 21
38.0
 31
0.0
  0
LINE
  8
0
  6
CONTINUOUS
 62
     2
 10
31.0
 20
78.5
 30
0.0
 11
33.414814566
 21
77.852952387
 31
0.0
  0
LINE
  8
0
  6
CONTINUOUS
 62
     2
 10
31.0
 20
78.5
 30
0.0
 11
33.414814566
 21
79.147047613
 31
0.0
  0
LINE
  8
0
  6
CONTINUOUS
 62
     2
 10
31.0
 20
78.5
 30
0.0
 11
47.0
 21
78.5
 31
0.0
  0
LINE
  8
0
  6
CONTINUOUS
 62
     2
 10
47.0
 20
78.5
 30
0.0
 11
44.585185434
 21
79.147047613
 31
0.0
  0
LINE
  8
0
  6
CONTINUOUS
 62
     2
 10
47.0
 20
78.5
 30
0.0
 11
44.585185434
 21
77.852952387
 31
0.0
  0
TEXT
  8
0
  6
CONTINUOUS
 62
     2
 10
34.62
 20
79.5
 30
0.3
 40
3.0
  1
３２
 50
0.0
 41
0.6
 51
0.0
  7
KANJI0
  0
TEXT
  8
0
  6
CONTINUOUS
 62
     2
 10
38.52
 20
79.5
 30
0.18
 40
1.8
  1
±０．５
 50
0.0
 41
0.6
 51
0.0
  7
KANJI3
  0
LINE
  8
0
  6
CONTINUOUS
 62
     2
 10
47.0
 20
78.5
 30
0.0
 11
49.414814566
 21
77.852952387
 31
0.0
  0
LINE
  8
0
  6
CONTINUOUS
 62
     2
 10
47.0
 20
78.5
 30
0.0
 11
49.414814566
 21
79.147047613
 31
0.0
  0
LINE
  8
0
  6
CONTINUOUS
 62
     2
 10
47.0
 20
78.5
 30
0.0
 11
63.0
 21
78.5
 31
0.0
  0
LINE
  8
0
  6
CONTINUOUS
 62
     2
 10
63.0
 20
78.5
 30
0.0
 11
60.585185434
 21
79.147047613
 31
0.0
  0
LINE
  8
0
  6
CONTINUOUS
 62
     2
 10
63.0
 20
78.5
 30
0.0
 11
60.585185434
 21
77.852952387
 31
0.0
  0
TEXT
  8
0
  6
CONTINUOUS
 62
     2
 10
50.62
 20
79.5
 30
0.3
 40
3.0
  1
３２
 50
0.0
 41
0.6
 51
0.0
  7
KANJI0
  0
TEXT
  8
0
  6
CONTINUOUS
 62
     2
 10
54.52
 20
79.5
 30
0.18
 40
1.8
  1
±０．５
 50
0.0
 41
0.6
 51
0.0
  7
KANJI3
  0
LINE
  8
0
  6
CONTINUOUS
 62
     2
 10
31.0
 20
75.5
 30
0.0
 11
31.0
 21
80.5
 31
0.0
  0
LINE
  8
0
  6
CONTINUOUS
 62
     2
 10
47.0
 20
75.5
 30
0.0
 11
47.0
 21
80.5
 31
0.0
  0
LINE
  8
0
  6
CONTINUOUS
 62
     2
 10
63.0
 20
75.5
 30
0.0
 11
63.0
 21
80.5
 31
0.0
  0
LINE
  8
0
  6
CONTINUOUS
 62
     2
 10
69.0
 20
40.5
 30
0.0
 11
69.647047613
 21
42.914814566
 31
0.0
  0
LINE
  8
0
  6
CONTINUOUS
 62
     2
 10
69.0
 20
40.5
 30
0.0
 11
68.352952387
 21
42.914814566
 31
0.0
  0
LINE
  8
0
  6
CONTINUOUS
 62
     2
 10
69.0
 20
40.5
 30
0.0
 11
69.0
 21
56.5
 31
0.0
  0
LINE
  8
0
  6
CONTINUOUS
 62
     2
 10
69.0
 20
56.5
 30
0.0
 11
68.352952387
 21
54.085185434
 31
0.0
  0
LINE
  8
0
  6
CONTINUOUS
 62
     2
 10
69.0
 20
56.5
 30
0.0
 11
69.647047613
 21
54.085185434
 31
0.0
  0
TEXT
  8
0
  6
CONTINUOUS
 62
     2
 10
68.0
 20
44.12
 30
0.3
 40
3.0
  1
３２
 50
90.0
 41
0.6
 51
0.0
  7
KANJI0
  0
TEXT
  8
0
  6
CONTINUOUS
 62
     2
 10
68.0
 20
48.02
 30
0.18
 40
1.8
  1
±０．５
 50
90.0
 41
0.6
 51
0.0
  7
KANJI3
  0
LINE
  8
0
  6
CONTINUOUS
 62
     2
 10
69.0
 20
56.5
 30
0.0
 11
69.647047613
 21
58.914814566
 31
0.0
  0
LINE
  8
0
  6
CONTINUOUS
 62
     2
 10
69.0
 20
56.5
 30
0.0
 11
68.352952387
 21
58.914814566
 31
0.0
  0
TEXT
  8
0
  6
CONTINUOUS
 62
     2
 10
68.0
 20
60.145
 30
0.3
 40
3.0
  1
３２
 50
90.0
 41
0.6
 51
0.0
  7
KANJI0
  0
TEXT
  8
0
  6
CONTINUOUS
 62
     2
 10
68.0
 20
64.045
 30
0.18
 40
1.8
  1
±０．５
 50
90.0
 41
0.6
 51
0.0
  7
KANJI3
  0
LINE
  8
0
  6
CONTINUOUS
 62
     2
 10
69.0
 20
72.5
 30
0.0
 11
68.352952387
 21
70.085185434
 31
0.0
  0
LINE
  8
0
  6
CONTINUOUS
 62
     2
 10
69.0
 20
72.5
 30
0.0
 11
69.647047613
 21
70.085185434
 31
0.0
  0
LINE
  8
0
  6
CONTINUOUS
 62
     2
 10
69.0
 20
56.5
 30
0.0
 11
69.0
 21
72.5
 31
0.0
  0
LINE
  8
0
  6
CONTINUOUS
 62
     2
 10
66.0
 20
72.5
 30
0.0
 11
71.0
 21
72.5
 31
0.0
  0
LINE
  8
0
  6
CONTINUOUS
 62
     2
 10
66.0
 20
40.5
 30
0.0
 11
71.0
 21
40.5
 31
0.0
  0
LINE
  8
0
  6
CONTINUOUS
 62
     2
 10
66.0
 20
56.5
 30
0.0
 11
71.0
 21
56.5
 31
0.0
  0
LINE
  8
0
  6
CONTINUOUS
 62
     2
 10
64.0
 20
39.5
 30
0.0
 11
64.630116473
 21
37.080712247
 31
0.0
  0
LINE
  8
0
  6
CONTINUOUS
 62
     2
 10
64.0
 20
39.5
 30
0.0
 11
65.755340749
 21
37.719893584
 31
0.0
  0
TEXT
  8
0
  6
CONTINUOUS
 62
     2
 10
69.566869847
 20
30.7
 30
0.5
 40
3.0
  1
４－φ４
 50
0.0
 41
0.6
 51
0.0
  7
KANJI5
  0
TEXT
  8
0
  6
CONTINUOUS
 62
     2
 10
78.936869847
 20
30.35
 30
0.18
 40
1.8
  1
－０
 50
0.0
 41
0.6
 51
0.0
  7
KANJI3
  0
TEXT
  8
0
  6
CONTINUOUS
 62
     2
 10
78.936869847
 20
32.15
 30
0.18
 40
1.8
  1
＋０．５
 50
0.0
 41
0.6
 51
0.0
  7
KANJI3
  0
LINE
  8
0
  6
CONTINUOUS
 62
     2
 10
64.0
 20
39.5
 30
0.0
 11
69.566869847
 21
29.7
 31
0.0
  0
LINE
  8
0
  6
CONTINUOUS
 62
     2
 10
98.8
 20
145.95
 30
0.0
 11
99.05
 21
145.95
 31
0.0
  0
LINE
  8
0
  6
CONTINUOUS
 62
     2
 10
99.05
 20
141.95
 30
0.0
 11
98.8
 21
141.95
 31
0.0
  0
LINE
  8
0
  6
CONTINUOUS
 62
     2
 10
99.05
 20
145.95
 30
0.0
 11
99.05
 21
141.95
 31
0.0
  0
LINE
  8
0
  6
CONTINUOUS
 62
     2
 10
101.4
 20
145.525
 30
0.0
 11
101.6
 21
145.325
 31
0.0
  0
LINE
  8
0
  6
CONTINUOUS
 62
     2
 10
101.375
 20
144.7
 30
0.0
 11
101.575
 21
144.9
 31
0.0
  0
LINE
  8
0
  6
CONTINUOUS
 62
     2
 10
101.575
 20
144.5
 30
0.0
 11
101.375
 21
144.7
 31
0.0
  0
LINE
  8
0
  6
CONTINUOUS
 62
     2
 10
100.4
 20
145.525
 30
0.0
 11
101.4
 21
145.525
 31
0.0
  0
LINE
  8
0
  6
CONTINUOUS
 62
     2
 10
100.4
 20
144.7
 30
0.0
 11
101.375
 21
144.7
 31
0.0
  0
LINE
  8
0
  6
CONTINUOUS
 62
     2
 10
101.4
 20
142.425
 30
0.0
 11
101.6
 21
142.625
 31
0.0
  0
LINE
  8
0
  6
CONTINUOUS
 62
     2
 10
101.4
 20
142.425
 30
0.0
 11
100.4
 21
142.425
 31
0.0
  0
LINE
  8
0
  6
CONTINUOUS
 62
     2
 10
100.4
 20
142.425
 30
0.0
 11
100.4
 21
145.525
 31
0.0
  0
LINE
  8
0
  6
CONTINUOUS
 62
     2
 10
101.6
 20
145.325
 30
0.0
 11
101.6
 21
142.625
 31
0.0
  0
LINE
  8
0
  6
CONTINUOUS
 62
     2
 10
101.6
 20
144.725
 30
0.0
 11
104.05
 21
144.725
 31
0.0
  0
LINE
  8
0
  6
CONTINUOUS
 62
     2
 10
104.03
 20
144.55
 30
0.0
 11
101.6
 21
144.55
 31
0.0
  0
LINE
  8
0
  6
CONTINUOUS
 62
     2
 10
100.4
 20
145.525
 30
0.0
 11
100.1
 21
145.825
 31
0.0
  0
LINE
  8
0
  6
CONTINUOUS
 62
     2
 10
100.1
 20
145.825
 30
0.0
 11
100.1
 21
142.125
 31
0.0
  0
LINE
  8
0
  6
CONTINUOUS
 62
     2
 10
100.4
 20
142.425
 30
0.0
 11
100.1
 21
142.125
 31
0.0
  0
LINE
  8
0
  6
CONTINUOUS
 62
     2
 10
100.1
 20
143.45
 30
0.0
 11
99.05
 21
143.45
 31
0.0
  0
LINE
  8
0
  6
CONTINUOUS
 62
     2
 10
99.05
 20
144.7
 30
0.0
 11
100.1
 21
144.7
 31
0.0
  0
LINE
  8
0
  6
CONTINUOUS
 62
     2
 10
100.1
 20
144.55
 30
0.0
 11
99.05
 21
144.55
 31
0.0
  0
LINE
  8
0
  6
CONTINUOUS
 62
     2
 10
104.05
 20
144.725
 30
0.0
 11
104.05
 21
143.275
 31
0.0
  0
LINE
  8
0
  6
CONTINUOUS
 62
     2
 10
104.05
 20
143.275
 30
0.0
 11
101.6
 21
143.275
 31
0.0
  0
LINE
  8
0
  6
CONTINUOUS
 62
     2
 10
101.6
 20
143.45
 30
0.0
 11
104.05
 21
143.45
 31
0.0
  0
LINE
  8
0
  6
CONTINUOUS
 62
     2
 10
101.385
 20
143.275
 30
0.0
 11
100.4
 21
143.275
 31
0.0
  0
LINE
  8
0
  6
CONTINUOUS
 62
     2
 10
99.05
 20
143.275
 30
0.0
 11
100.1
 21
143.275
 31
0.0
  0
LINE
  8
0
  6
CONTINUOUS
 62
     2
 10
101.385
 20
143.275
 30
0.0
 11
101.585
 21
143.475
 31
0.0
  0
LINE
  8
0
  6
CONTINUOUS
 62
     2
 10
101.585
 20
143.075
 30
0.0
 11
101.385
 21
143.275
 31
0.0
  0
LINE
  8
0
  6
CONTINUOUS
 62
     2
 10
98.8
 20
113.95
 30
0.0
 11
99.05
 21
113.95
 31
0.0
  0
LINE
  8
0
  6
CONTINUOUS
 62
     2
 10
99.05
 20
109.95
 30
0.0
 11
98.8
 21
109.95
 31
0.0
  0
LINE
  8
0
  6
CONTINUOUS
 62
     2
 10
99.05
 20
113.95
 30
0.0
 11
99.05
 21
109.95
 31
0.0
  0
LINE
  8
0
  6
CONTINUOUS
 62
     2
 10
101.4
 20
113.525
 30
0.0
 11
101.6
 21
113.325
 31
0.0
  0
LINE
  8
0
  6
CONTINUOUS
 62
     2
 10
101.375
 20
112.7
 30
0.0
 11
101.575
 21
112.9
 31
0.0
  0
LINE
  8
0
  6
CONTINUOUS
 62
     2
 10
101.575
 20
112.5
 30
0.0
 11
101.375
 21
112.7
 31
0.0
  0
LINE
  8
0
  6
CONTINUOUS
 62
     2
 10
100.4
 20
113.525
 30
0.0
 11
101.4
 21
113.525
 31
0.0
  0
LINE
  8
0
  6
CONTINUOUS
 62
     2
 10
100.4
 20
112.7
 30
0.0
 11
101.375
 21
112.7
 31
0.0
  0
LINE
  8
0
  6
CONTINUOUS
 62
     2
 10
101.4
 20
110.425
 30
0.0
 11
101.6
 21
110.625
 31
0.0
  0
LINE
  8
0
  6
CONTINUOUS
 62
     2
 10
101.4
 20
110.425
 30
0.0
 11
100.4
 21
110.425
 31
0.0
  0
LINE
  8
0
  6
CONTINUOUS
 62
     2
 10
100.4
 20
110.425
 30
0.0
 11
100.4
 21
113.525
 31
0.0
  0
LINE
  8
0
  6
CONTINUOUS
 62
     2
 10
101.6
 20
113.325
 30
0.0
 11
101.6
 21
110.625
 31
0.0
  0
LINE
  8
0
  6
CONTINUOUS
 62
     2
 10
101.6
 20
112.725
 30
0.0
 11
104.05
 21
112.725
 31
0.0
  0
LINE
  8
0
  6
CONTINUOUS
 62
     2
 10
104.03
 20
112.55
 30
0.0
 11
101.6
 21
112.55
 31
0.0
  0
LINE
  8
0
  6
CONTINUOUS
 62
     2
 10
100.4
 20
113.525
 30
0.0
 11
100.1
 21
113.825
 31
0.0
  0
LINE
  8
0
  6
CONTINUOUS
 62
     2
 10
100.1
 20
113.825
 30
0.0
 11
100.1
 21
110.125
 31
0.0
  0
LINE
  8
0
  6
CONTINUOUS
 62
     2
 10
100.4
 20
110.425
 30
0.0
 11
100.1
 21
110.125
 31
0.0
  0
LINE
  8
0
  6
CONTINUOUS
 62
     2
 10
100.1
 20
111.45
 30
0.0
 11
99.05
 21
111.45
 31
0.0
  0
LINE
  8
0
  6
CONTINUOUS
 62
     2
 10
99.05
 20
112.7
 30
0.0
 11
100.1
 21
112.7
 31
0.0
  0
LINE
  8
0
  6
CONTINUOUS
 62
     2
 10
100.1
 20
112.55
 30
0.0
 11
99.05
 21
112.55
 31
0.0
  0
LINE
  8
0
  6
CONTINUOUS
 62
     2
 10
104.05
 20
112.725
 30
0.0
 11
104.05
 21
111.275
 31
0.0
  0
LINE
  8
0
  6
CONTINUOUS
 62
     2
 10
104.05
 20
111.275
 30
0.0
 11
101.6
 21
111.275
 31
0.0
  0
LINE
  8
0
  6
CONTINUOUS
 62
     2
 10
101.6
 20
111.45
 30
0.0
 11
104.05
 21
111.45
 31
0.0
  0
LINE
  8
0
  6
CONTINUOUS
 62
     2
 10
101.385
 20
111.275
 30
0.0
 11
100.4
 21
111.275
 31
0.0
  0
LINE
  8
0
  6
CONTINUOUS
 62
     2
 10
99.05
 20
111.275
 30
0.0
 11
100.1
 21
111.275
 31
0.0
  0
LINE
  8
0
  6
CONTINUOUS
 62
     2
 10
101.385
 20
111.275
 30
0.0
 11
101.585
 21
111.475
 31
0.0
  0
LINE
  8
0
  6
CONTINUOUS
 62
     2
 10
101.585
 20
111.075
 30
0.0
 11
101.385
 21
111.275
 31
0.0
  0
LINE
  8
0
  6
LTYPE3
 62
     2
 10
179.340068544
 20
125.055678053
 30
0.0
 11
179.250002697
 21
124.575
 31
0.0
  0
LINE
  8
0
  6
LTYPE3
 62
     2
 10
178.159932769
 20
125.055684458
 30
0.0
 11
178.250002697
 21
124.575
 31
0.0
  0
POINT
  8
0
  6
LTYPE3
 62
     2
 10
180.0
 20
124.575
 30
0.0
  0
LINE
  8
0
  6
LTYPE3
 62
     2
 10
180.0
 20
124.575
 30
0.0
 11
177.5
 21
124.575
 31
0.0
  0
LINE
  8
0
  6
LTYPE3
 62
     2
 10
180.0
 20
124.575
 30
0.0
 11
180.0
 21
121.575
 31
0.0
  0
LINE
  8
0
  6
LTYPE3
 62
     2
 10
177.5
 20
124.575
 30
0.0
 11
177.5
 21
121.575
 31
0.0
  0
LINE
  8
0
  6
LTYPE3
 62
     2
 10
179.340068544
 20
125.080678053
 30
0.0
 11
179.250002697
 21
124.6
 31
0.0
  0
LINE
  8
0
  6
LTYPE3
 62
     2
 10
178.159932769
 20
125.080684458
 30
0.0
 11
178.250002697
 21
124.6
 31
0.0
  0
LINE
  8
0
  6
LTYPE2
 62
     2
 10
141.4
 20
128.0
 30
0.0
 11
132.0
 21
128.0
 31
0.0
  0
LINE
  8
0
  6
LTYPE3
 62
     2
 10
138.05
 20
120.0
 30
0.0
 11
134.05
 21
120.0
 31
0.0
  0
LINE
  8
0
  6
LTYPE3
 62
     2
 10
134.05
 20
120.6
 30
0.0
 11
134.3
 21
120.6
 31
0.0
  0
ARC
  8
0
  6
LTYPE3
 62
     2
 10
138.05
 20
128.5
 30
0.0
 40
3.0
 50
0.0
 51
90.0
  0
LINE
  8
0
  6
LTYPE3
 62
     2
 10
141.05
 20
128.5
 30
0.0
 11
141.05
 21
123.0
 31
0.0
  0
ARC
  8
0
  6
LTYPE3
 62
     2
 10
138.05
 20
123.0
 30
0.0
 40
3.0
 50
270.0
 51
0.0
  0
LINE
  8
0
  6
LTYPE3
 62
     2
 10
134.05
 20
130.9
 30
0.0
 11
134.3
 21
130.9
 31
0.0
  0
LINE
  8
0
  6
LTYPE3
 62
     2
 10
134.3
 20
120.0
 30
0.0
 11
134.3
 21
130.9
 31
0.0
  0
LINE
  8
0
  6
LTYPE3
 62
     2
 10
134.05
 20
131.5
 30
0.0
 11
138.05
 21
131.5
 31
0.0
  0
LINE
  8
0
  6
CONTINUOUS
 62
     2
 10
135.25
 20
129.05
 30
0.0
 11
135.05
 21
129.05
 31
0.0
  0
LINE
  8
0
  6
CONTINUOUS
 62
     2
 10
134.5
 20
129.05
 30
0.0
 11
134.15
 21
129.05
 31
0.0
  0
LINE
  8
0
  6
CONTINUOUS
 62
     2
 10
134.15
 20
127.05
 30
0.0
 11
134.45
 21
127.05
 31
0.0
  0
LINE
  8
0
  6
CONTINUOUS
 62
     2
 10
135.0
 20
127.05
 30
0.0
 11
135.25
 21
127.05
 31
0.0
  0
LINE
  8
0
  6
CONTINUOUS
 62
     2
 10
135.3
 20
130.1
 30
0.0
 11
134.05
 21
130.1
 31
0.0
  0
LINE
  8
0
  6
CONTINUOUS
 62
     2
 10
135.3
 20
130.1
 30
0.0
 11
135.55
 21
129.85
 31
0.0
  0
LINE
  8
0
  6
CONTINUOUS
 62
     2
 10
135.29
 20
129.035
 30
0.0
 11
135.55
 21
129.335
 31
0.0
  0
LINE
  8
0
  6
CONTINUOUS
 62
     2
 10
135.55
 20
126.75
 30
0.0
 11
135.25
 21
127.02
 31
0.0
  0
LINE
  8
0
  6
CONTINUOUS
 62
     2
 10
135.55
 20
127.325
 30
0.0
 11
135.25
 21
127.055
 31
0.0
  0
LINE
  8
0
  6
CONTINUOUS
 62
     2
 10
135.25
 20
126.025
 30
0.0
 11
135.55
 21
126.325
 31
0.0
  0
LINE
  8
0
  6
CONTINUOUS
 62
     2
 10
134.05
 20
126.05
 30
0.0
 11
135.3
 21
126.05
 31
0.0
  0
LINE
  8
0
  6
CONTINUOUS
 62
     2
 10
135.55
 20
126.305
 30
0.0
 11
135.55
 21
129.85
 31
0.0
  0
LINE
  8
0
  6
CONTINUOUS
 62
     2
 10
135.303
 20
129.05
 30
0.0
 11
135.553
 21
128.85
 31
0.0
  0
LINE
  8
0
  6
CONTINUOUS
 62
     2
 10
135.303
 20
129.05
 30
0.0
 11
134.05
 21
129.05
 31
0.0
  0
LINE
  8
0
  6
CONTINUOUS
 62
     2
 10
134.05
 20
127.05
 30
0.0
 11
135.266666667
 21
127.05
 31
0.0
  0
LINE
  8
0
  6
CONTINUOUS
 62
     2
 10
135.55
 20
129.85
 30
0.0
 11
135.55
 21
129.975
 31
0.0
  0
LINE
  8
0
  6
LTYPE3
 62
     2
 10
135.95
 20
129.975
 30
0.0
 11
135.95
 21
124.6
 31
0.0
  0
LINE
  8
0
  6
LTYPE3
 62
     2
 10
135.55
 20
129.975
 30
0.0
 11
135.95
 21
129.975
 31
0.0
  0
LINE
  8
0
  6
LTYPE3
 62
     2
 10
135.55
 20
126.325
 30
0.0
 11
135.55
 21
124.6
 31
0.0
  0
LINE
  8
0
  6
LTYPE3
 62
     2
 10
135.05
 20
124.6
 30
0.0
 11
137.55
 21
124.6
 31
0.0
  0
LINE
  8
0
  6
LTYPE3
 62
     2
 10
137.55
 20
124.6
 30
0.0
 11
137.55
 21
121.6
 31
0.0
  0
LINE
  8
0
  6
LTYPE3
 62
     2
 10
135.05
 20
124.6
 30
0.0
 11
135.05
 21
121.6
 31
0.0
  0
LINE
  8
0
  6
CONTINUOUS
 62
     2
 10
136.736253903
 20
129.7725
 30
0.0
 11
137.236253903
 21
129.7725
 31
0.0
  0
LINE
  8
0
  6
CONTINUOUS
 62
     2
 10
137.236253903
 20
129.7725
 30
0.0
 11
136.936253903
 21
128.1225
 31
0.0
  0
LINE
  8
0
  6
CONTINUOUS
 62
     2
 10
136.936253903
 20
128.1225
 30
0.0
 11
136.436253903
 21
128.1225
 31
0.0
  0
LINE
  8
0
  6
CONTINUOUS
 62
     2
 10
136.436253903
 20
128.1225
 30
0.0
 11
136.736253903
 21
129.7725
 31
0.0
  0
LINE
  8
0
  6
CONTINUOUS
 62
     2
 10
137.186253903
 20
127.8225
 30
0.0
 11
136.686253903
 21
127.8225
 31
0.0
  0
LINE
  8
0
  6
CONTINUOUS
 62
     2
 10
136.436253903
 20
126.2225
 30
0.0
 11
136.936253903
 21
126.2225
 31
0.0
  0
LINE
  8
0
  6
CONTINUOUS
 62
     2
 10
136.686253903
 20
127.8225
 30
0.0
 11
136.436253903
 21
126.2225
 31
0.0
  0
LINE
  8
0
  6
CONTINUOUS
 62
     2
 10
136.936253903
 20
126.2225
 30
0.0
 11
137.186253903
 21
127.8225
 31
0.0
  0
LINE
  8
0
  6
CONTINUOUS
 62
     2
 10
138.725253903
 20
129.05
 30
0.0
 11
137.104890267
 21
129.05
 31
0.0
  0
LINE
  8
0
  6
CONTINUOUS
 62
     2
 10
137.065550778
 20
127.05
 30
0.0
 11
138.68892057
 21
127.05
 31
0.0
  0
LINE
  8
0
  6
CONTINUOUS
 62
     2
 10
135.95
 20
125.75
 30
0.0
 11
136.2
 21
125.75
 31
0.0
  0
LINE
  8
0
  6
CONTINUOUS
 62
     2
 10
136.2
 20
125.75
 30
0.0
 11
136.2
 21
130.25
 31
0.0
  0
LINE
  8
0
  6
CONTINUOUS
 62
     2
 10
136.2
 20
130.25
 30
0.0
 11
135.95
 21
130.25
 31
0.0
  0
LINE
  8
0
  6
CONTINUOUS
 62
     2
 10
135.95
 20
130.25
 30
0.0
 11
135.95
 21
125.75
 31
0.0
  0
LINE
  8
0
  6
CONTINUOUS
 62
     2
 10
136.2
 20
129.05
 30
0.0
 11
136.604890267
 21
129.05
 31
0.0
  0
LINE
  8
0
  6
CONTINUOUS
 62
     2
 10
136.563981176
 20
128.825
 30
0.0
 11
136.2
 21
128.825
 31
0.0
  0
LINE
  8
0
  6
CONTINUOUS
 62
     2
 10
136.608519528
 20
127.325
 30
0.0
 11
136.2
 21
127.325
 31
0.0
  0
LINE
  8
0
  6
CONTINUOUS
 62
     2
 10
136.2
 20
127.05
 30
0.0
 11
136.565550778
 21
127.05
 31
0.0
  0
LINE
  8
0
  6
CONTINUOUS
 62
     2
 10
135.95
 20
128.825
 30
0.0
 11
135.8
 21
128.825
 31
0.0
  0
LINE
  8
0
  6
CONTINUOUS
 62
     2
 10
135.55
 20
129.05
 30
0.0
 11
135.95
 21
129.05
 31
0.0
  0
LINE
  8
0
  6
CONTINUOUS
 62
     2
 10
135.95
 20
128.825
 30
0.0
 11
135.55
 21
128.825
 31
0.0
  0
LINE
  8
0
  6
CONTINUOUS
 62
     2
 10
135.95
 20
127.325
 30
0.0
 11
135.55
 21
127.325
 31
0.0
  0
LINE
  8
0
  6
CONTINUOUS
 62
     2
 10
135.55
 20
127.05
 30
0.0
 11
135.95
 21
127.05
 31
0.0
  0
LINE
  8
0
  6
CONTINUOUS
 62
     2
 10
138.472253903
 20
130.1
 30
0.0
 11
137.222253903
 21
130.1
 31
0.0
  0
LINE
  8
0
  6
CONTINUOUS
 62
     2
 10
138.472253903
 20
130.1
 30
0.0
 11
138.722253903
 21
129.85
 31
0.0
  0
LINE
  8
0
  6
CONTINUOUS
 62
     2
 10
138.462253903
 20
129.035
 30
0.0
 11
138.722253903
 21
129.335
 31
0.0
  0
LINE
  8
0
  6
CONTINUOUS
 62
     2
 10
138.722253903
 20
126.75
 30
0.0
 11
138.422253903
 21
127.02
 31
0.0
  0
LINE
  8
0
  6
CONTINUOUS
 62
     2
 10
138.722253903
 20
127.325
 30
0.0
 11
138.422253903
 21
127.055
 31
0.0
  0
LINE
  8
0
  6
CONTINUOUS
 62
     2
 10
138.422253903
 20
126.025
 30
0.0
 11
138.722253903
 21
126.325
 31
0.0
  0
LINE
  8
0
  6
CONTINUOUS
 62
     2
 10
137.222253903
 20
126.05
 30
0.0
 11
138.472253903
 21
126.05
 31
0.0
  0
LINE
  8
0
  6
CONTINUOUS
 62
     2
 10
137.222253903
 20
130.1
 30
0.0
 11
137.222253903
 21
126.05
 31
0.0
  0
LINE
  8
0
  6
CONTINUOUS
 62
     2
 10
138.722253903
 20
126.305
 30
0.0
 11
138.722253903
 21
129.85
 31
0.0
  0
LINE
  8
0
  6
CONTINUOUS
 62
     2
 10
138.475253903
 20
129.05
 30
0.0
 11
138.725253903
 21
128.85
 31
0.0
  0
LINE
  8
0
  6
CONTINUOUS
 62
     2
 10
137.222253903
 20
128.825
 30
0.0
 11
137.063981176
 21
128.825
 31
0.0
  0
LINE
  8
0
  6
CONTINUOUS
 62
     2
 10
137.222253903
 20
127.325
 30
0.0
 11
137.108519528
 21
127.325
 31
0.0
  0
LINE
  8
0
  6
CONTINUOUS
 62
     2
 10
139.05
 20
129.05
 30
0.0
 11
139.05
 21
127.05
 31
0.0
  0
LINE
  8
0
  6
CONTINUOUS
 62
     2
 10
139.05
 20
128.825
 30
0.0
 11
138.722253903
 21
128.825
 31
0.0
  0
LINE
  8
0
  6
CONTINUOUS
 62
     2
 10
138.722253903
 20
129.05
 30
0.0
 11
139.05
 21
129.05
 31
0.0
  0
LINE
  8
0
  6
CONTINUOUS
 62
     2
 10
139.05
 20
127.05
 30
0.0
 11
138.722253903
 21
127.05
 31
0.0
  0
LINE
  8
0
  6
CONTINUOUS
 62
     2
 10
138.722253903
 20
127.325
 30
0.0
 11
139.05
 21
127.325
 31
0.0
  0
LINE
  8
0
  6
LTYPE2
 62
     2
 10
153.5
 20
128.0
 30
0.0
 11
212.0
 21
128.0
 31
0.0
  0
LINE
  8
0
  6
CONTINUOUS
 62
     2
 10
178.75
 20
130.025
 30
0.0
 11
176.996298557
 21
129.0125
 31
0.0
  0
LINE
  8
0
  6
CONTINUOUS
 62
     2
 10
176.996298557
 20
129.0125
 30
0.0
 11
176.996298557
 21
126.9875
 31
0.0
  0
LINE
  8
0
  6
CONTINUOUS
 62
     2
 10
176.996298557
 20
126.9875
 30
0.0
 11
178.75
 21
125.975
 31
0.0
  0
LINE
  8
0
  6
CONTINUOUS
 62
     2
 10
178.75
 20
125.975
 30
0.0
 11
180.503701443
 21
126.9875
 31
0.0
  0
LINE
  8
0
  6
CONTINUOUS
 62
     2
 10
180.503701443
 20
126.9875
 30
0.0
 11
180.503701443
 21
129.0125
 31
0.0
  0
LINE
  8
0
  6
CONTINUOUS
 62
     2
 10
180.503701443
 20
129.0125
 30
0.0
 11
178.75
 21
130.025
 31
0.0
  0
CIRCLE
  8
0
  6
CONTINUOUS
 62
     2
 10
178.75
 20
128.0
 30
0.0
 40
0.8
  0
CIRCLE
  8
0
  6
CONTINUOUS
 62
     2
 10
178.75
 20
128.0
 30
0.0
 40
1.0
  0
ARC
  8
0
  6
LTYPE3
 62
     2
 10
178.75
 20
128.0
 30
0.0
 40
1.975
 50
328.025496594
 51
217.415803658
  0
LINE
  8
0
  6
LTYPE3
 62
     2
 10
180.318637944
 20
126.8
 30
0.0
 11
179.66147392
 21
125.850763076
 31
0.0
  0
LINE
  8
0
  6
LTYPE3
 62
     2
 10
177.181362056
 20
126.8
 30
0.0
 11
177.838529527
 21
125.850758098
 31
0.0
  0
ARC
  8
0
  6
LTYPE3
 62
     2
 10
176.194145143
 20
124.71233814
 30
0.0
 40
2.0
 50
10.612929601
 51
34.695153531
  0
ARC
  8
0
  6
LTYPE3
 62
     2
 10
181.305858303
 20
124.712343118
 30
0.0
 40
2.0
 50
145.304846469
 51
169.387402194
  0
LINE
  8
0
  6
LTYPE3
 62
     2
 10
179.340068544
 20
125.080678053
 30
0.0
 11
179.250002697
 21
124.6
 31
0.0
  0
LINE
  8
0
  6
LTYPE3
 62
     2
 10
178.159932769
 20
125.080684458
 30
0.0
 11
178.250002697
 21
124.6
 31
0.0
  0
CIRCLE
  8
0
  6
CONTINUOUS
 62
     2
 10
178.75
 20
128.0
 30
0.0
 40
2.25
  0
LINE
  8
0
  6
CONTINUOUS
 62
     2
 10
191.25
 20
130.025
 30
0.0
 11
189.496298557
 21
129.0125
 31
0.0
  0
LINE
  8
0
  6
CONTINUOUS
 62
     2
 10
189.496298557
 20
129.0125
 30
0.0
 11
189.496298557
 21
126.9875
 31
0.0
  0
LINE
  8
0
  6
CONTINUOUS
 62
     2
 10
189.496298557
 20
126.9875
 30
0.0
 11
191.25
 21
125.975
 31
0.0
  0
LINE
  8
0
  6
CONTINUOUS
 62
     2
 10
191.25
 20
125.975
 30
0.0
 11
193.003701443
 21
126.9875
 31
0.0
  0
LINE
  8
0
  6
CONTINUOUS
 62
     2
 10
193.003701443
 20
126.9875
 30
0.0
 11
193.003701443
 21
129.0125
 31
0.0
  0
LINE
  8
0
  6
CONTINUOUS
 62
     2
 10
193.003701443
 20
129.0125
 30
0.0
 11
191.25
 21
130.025
 31
0.0
  0
CIRCLE
  8
0
  6
CONTINUOUS
 62
     2
 10
191.25
 20
128.0
 30
0.0
 40
0.8
  0
CIRCLE
  8
0
  6
CONTINUOUS
 62
     2
 10
191.25
 20
128.0
 30
0.0
 40
1.0
  0
ARC
  8
0
  6
LTYPE3
 62
     2
 10
191.25
 20
128.0
 30
0.0
 40
1.975
 50
328.025496594
 51
217.415803658
  0
LINE
  8
0
  6
LTYPE3
 62
     2
 10
192.818637944
 20
126.8
 30
0.0
 11
192.16147392
 21
125.850763076
 31
0.0
  0
LINE
  8
0
  6
LTYPE3
 62
     2
 10
189.681362056
 20
126.8
 30
0.0
 11
190.338529527
 21
125.850758098
 31
0.0
  0
ARC
  8
0
  6
LTYPE3
 62
     2
 10
188.694145143
 20
124.71233814
 30
0.0
 40
2.0
 50
10.612929601
 51
34.695153531
  0
ARC
  8
0
  6
LTYPE3
 62
     2
 10
193.805858303
 20
124.712343118
 30
0.0
 40
2.0
 50
145.304846469
 51
169.387402194
  0
LINE
  8
0
  6
LTYPE3
 62
     2
 10
191.840068544
 20
125.080678053
 30
0.0
 11
191.750002697
 21
124.6
 31
0.0
  0
LINE
  8
0
  6
LTYPE3
 62
     2
 10
190.659932769
 20
125.080684458
 30
0.0
 11
190.750002697
 21
124.6
 31
0.0
  0
CIRCLE
  8
0
  6
CONTINUOUS
 62
     2
 10
191.25
 20
128.0
 30
0.0
 40
2.25
  0
LINE
  8
0
  6
CONTINUOUS
 62
     2
 10
155.025
 20
130.0
 30
0.0
 11
155.672047613
 21
132.414814566
 31
0.0
  0
LINE
  8
0
  6
CONTINUOUS
 62
     2
 10
155.025
 20
130.0
 30
0.0
 11
154.377952387
 21
132.414814566
 31
0.0
  0
LINE
  8
0
  6
CONTINUOUS
 62
     2
 10
155.025
 20
128.0
 30
0.0
 11
155.672047613
 21
125.585185434
 31
0.0
  0
LINE
  8
0
  6
CONTINUOUS
 62
     2
 10
155.025
 20
128.0
 30
0.0
 11
154.377952387
 21
125.585185434
 31
0.0
  0
LINE
  8
0
  6
CONTINUOUS
 62
     2
 10
123.340381057
 20
119.525
 30
0.0
 11
135.176061575
 21
99.025
 31
0.0
  0
TEXT
  8
0
  6
CONTINUOUS
 62
     2
 10
136.577985364
 20
100.025
 30
0.3
 40
3.0
  1
直列抵抗器
 50
0.0
 41
0.9
 51
0.0
  7
KANJI1
  0
LINE
  8
0
  6
CONTINUOUS
 62
     2
 10
135.176061575
 20
99.025
 30
0.0
 11
152.277985364
 21
99.025
 31
0.0
  0
LINE
  8
0
  6
CONTINUOUS
 62
     2
 10
69.566869847
 20
29.7
 30
0.0
 11
84.766869847
 21
29.7
 31
0.0
  0
TEXT
  8
0
  6
CONTINUOUS
 62
     2
 10
154.525
 20
133.025
 30
0.3
 40
3.0
  1
４
 50
90.0
 41
0.6
 51
0.0
  7
KANJI0
  0
LINE
  8
0
  6
CONTINUOUS
 62
     2
 10
155.025
 20
135.2
 30
0.0
 11
155.025
 21
124.0
 31
0.0
  0
TEXT
  8
0
  6
CONTINUOUS
 62
     3
 10
142.5
 20
18.5
 30
0.6
 40
6.0
  1
ＭＳ－９６７１Ａ
 50
0.0
 41
0.9
 51
0.0
  7
KANJI6
  0
TEXT
  8
0
  6
CONTINUOUS
 62
     1
 10
128.560486733
 20
30.131093116
 30
0.35
 40
3.5
  1
パネル用計器外形図
 50
0.0
 41
0.9
 51
0.0
  7
KANJI7
  0
TEXT
  8
0
  6
CONTINUOUS
 62
     1
 10
123.726742884
 20
41.005565971
 30
0.4
 40
4.0
  1
ＡＣＦ－１０（電圧計）
 50
0.0
 41
0.9
 51
0.0
  7
KANJI8
  0
TEXT
  8
0
  6
CONTINUOUS
 62
     2
 10
141.900038169
 20
145.94
 30
0.24
 40
2.4
  1
（オプション）
 50
0.0
 41
0.9
 51
0.0
  7
KANJI9
  0
LINE
  8
0
  6
CONTINUOUS
 62
     2
 10
66.711364738
 20
160.75
 30
0.0
 11
88.766869847
 21
160.75
 31
0.0
  0
TEXT
  8
0
  6
CONTINUOUS
 62
     2
 10
128.560486733
 20
34.631093116
 30
0.3
 40
3.0
  1
予定指針付　（端子キャップ付）
 50
0.0
 41
0.9
 51
0.0
  7
KANJI1
  0
LINE
  8
0
  6
LTYPE2
 62
     2
 10
76.2
 20
130.0
 30
0.0
 11
17.78
 21
130.0
 31
0.0
  0
LINE
  8
0
  6
LTYPE2
 62
     2
 10
47.0
 20
153.67
 30
0.0
 11
47.0
 21
105.41
 31
0.0
  0
LINE
  8
0
  6
LTYPE2
 62
     2
 10
26.67
 20
56.5
 30
0.0
 11
65.5
 21
56.5
 31
0.0
  0
LINE
  8
0
  6
LTYPE2
 62
     2
 10
47.0
 20
75.0
 30
0.0
 11
47.0
 21
35.56
 31
0.0
  0
LINE
  8
0
  6
LTYPE2
 62
     2
 10
144.78
 20
130.0
 30
0.0
 11
87.63
 21
130.0
 31
0.0
  0
LINE
  8
0
  6
LTYPE2
 62
     2
 10
211.0
 20
130.0
 30
0.0
 11
153.67
 21
130.0
 31
0.0
  0
TEXT
  8
0
  6
CONTINUOUS
 62
     2
 10
108.3
 20
118.15
 30
0.5
 40
3.0
  1
φ６５
 50
90.0
 41
0.666666667
 51
0.0
  7
KANJI10
  0
TEXT
  8
0
  6
CONTINUOUS
 62
     2
 10
42.798721789
 20
51.895191928
 30
0.18
 40
1.8
  1
±１
 50
57.925999125
 41
0.6
 51
0.0
  7
KANJI3
  0
TEXT
  8
0
  6
CONTINUOUS
 62
     2
 10
39.612637033
 20
46.811014126
 30
0.3
 40
3.0
  1
φ６７
 50
57.925999125
 41
0.6
 51
0.0
  7
KANJI0
  0
ENDSEC
  0
EOF
