  0
SECTION
  2
HEADER
  9
$ACADVER
  1
AC1009
  9
$DWGCODEPAGE
  3
dos932
  9
$EXTMIN
 10
0.0
 20
0.0
 30
0.0
  9
$EXTMAX
 10
297.0
 20
210.0
 30
0.0
  9
$LIMMIN
 10
0.0
 20
0.0
  9
$LIMMAX
 10
297.0
 20
210.0
  9
$LTSCALE
 40
1.0
  9
$PDMODE
 70
     0
  0
ENDSEC
  0
SECTION
  2
TABLES
  0
TABLE
  2
VPORT
 70
     1
  0
VPORT
  2
*ACTIVE
 70
     0
 10
0.0
 20
0.0
 11
1.0
 21
1.0
 12
148.5
 22
105.0
 13
0.0
 23
0.0
 14
10.0
 24
10.0
 15
10.0
 25
10.0
 16
0.0
 26
0.0
 36
1.0
 17
0.0
 27
0.0
 37
0.0
 40
297.0
 41
1.414285714
 42
50.0
 43
0.0
 44
0.0
 50
0.0
 51
0.0
 71
     0
 72
  1000
 73
     1
 74
     3
 75
     0
 76
     0
 77
     0
 78
     0
  0
ENDTAB
  0
TABLE
  2
LTYPE
 70
     4
  0
LTYPE
  2
CONTINUOUS
 70
    64
  3
Solid line
 72
    65
 73
     0
 40
0.0
  0
LTYPE
  2
LTYPE1
 70
    64
  3
HIDDEN
 72
    65
 73
     2
 40
1.0
 49
0.6
 49
-0.4
  0
LTYPE
  2
LTYPE2
 70
    64
  3
CENTER
 72
    65
 73
     4
 40
1.0
 49
0.7
 49
-0.1
 49
0.1
 49
-0.1
  0
LTYPE
  2
LTYPE3
 70
    64
  3
CENTER
 72
    65
 73
     4
 40
5.0
 49
3.5
 49
-0.5
 49
0.5
 49
-0.5
  0
ENDTAB
  0
TABLE
  2
LAYER
 70
   128
  0
LAYER
  2
0
 70
     0
 62
     7
  6
CONTINUOUS
  0
LAYER
  2
2
 70
     0
 62
     7
  6
CONTINUOUS
  0
LAYER
  2
3
 70
     0
 62
     7
  6
CONTINUOUS
  0
LAYER
  2
4
 70
     0
 62
     7
  6
CONTINUOUS
  0
LAYER
  2
5
 70
     0
 62
     7
  6
CONTINUOUS
  0
LAYER
  2
6
 70
     0
 62
     7
  6
CONTINUOUS
  0
LAYER
  2
7
 70
     0
 62
     7
  6
CONTINUOUS
  0
LAYER
  2
8
 70
     0
 62
     7
  6
CONTINUOUS
  0
LAYER
  2
9
 70
     0
 62
     7
  6
CONTINUOUS
  0
LAYER
  2
10
 70
     0
 62
     7
  6
CONTINUOUS
  0
LAYER
  2
11
 70
     0
 62
     7
  6
CONTINUOUS
  0
LAYER
  2
12
 70
     0
 62
     7
  6
CONTINUOUS
  0
LAYER
  2
13
 70
     0
 62
     7
  6
CONTINUOUS
  0
LAYER
  2
14
 70
     0
 62
     7
  6
CONTINUOUS
  0
LAYER
  2
15
 70
     0
 62
     7
  6
CONTINUOUS
  0
LAYER
  2
16
 70
     0
 62
     7
  6
CONTINUOUS
  0
LAYER
  2
17
 70
     0
 62
     7
  6
CONTINUOUS
  0
LAYER
  2
18
 70
     0
 62
     7
  6
CONTINUOUS
  0
LAYER
  2
19
 70
     0
 62
     7
  6
CONTINUOUS
  0
LAYER
  2
20
 70
     0
 62
     7
  6
CONTINUOUS
  0
LAYER
  2
21
 70
     0
 62
     7
  6
CONTINUOUS
  0
LAYER
  2
22
 70
     0
 62
     7
  6
CONTINUOUS
  0
LAYER
  2
23
 70
     0
 62
     7
  6
CONTINUOUS
  0
LAYER
  2
24
 70
     0
 62
     7
  6
CONTINUOUS
  0
LAYER
  2
25
 70
     0
 62
     7
  6
CONTINUOUS
  0
LAYER
  2
26
 70
     0
 62
     7
  6
CONTINUOUS
  0
LAYER
  2
27
 70
     0
 62
     7
  6
CONTINUOUS
  0
LAYER
  2
28
 70
     0
 62
     7
  6
CONTINUOUS
  0
LAYER
  2
29
 70
     0
 62
     7
  6
CONTINUOUS
  0
LAYER
  2
30
 70
     0
 62
     7
  6
CONTINUOUS
  0
LAYER
  2
31
 70
     0
 62
     7
  6
CONTINUOUS
  0
LAYER
  2
32
 70
     0
 62
     7
  6
CONTINUOUS
  0
LAYER
  2
33
 70
     0
 62
     7
  6
CONTINUOUS
  0
LAYER
  2
34
 70
     0
 62
     7
  6
CONTINUOUS
  0
LAYER
  2
35
 70
     0
 62
     7
  6
CONTINUOUS
  0
LAYER
  2
36
 70
     0
 62
     7
  6
CONTINUOUS
  0
LAYER
  2
37
 70
     0
 62
     7
  6
CONTINUOUS
  0
LAYER
  2
38
 70
     0
 62
     7
  6
CONTINUOUS
  0
LAYER
  2
39
 70
     0
 62
     7
  6
CONTINUOUS
  0
LAYER
  2
40
 70
     0
 62
     7
  6
CONTINUOUS
  0
LAYER
  2
41
 70
     0
 62
     7
  6
CONTINUOUS
  0
LAYER
  2
42
 70
     0
 62
     7
  6
CONTINUOUS
  0
LAYER
  2
43
 70
     0
 62
     7
  6
CONTINUOUS
  0
LAYER
  2
44
 70
     0
 62
     7
  6
CONTINUOUS
  0
LAYER
  2
45
 70
     0
 62
     7
  6
CONTINUOUS
  0
LAYER
  2
46
 70
     0
 62
     7
  6
CONTINUOUS
  0
LAYER
  2
47
 70
     0
 62
     7
  6
CONTINUOUS
  0
LAYER
  2
48
 70
     0
 62
     7
  6
CONTINUOUS
  0
LAYER
  2
49
 70
     0
 62
     7
  6
CONTINUOUS
  0
LAYER
  2
50
 70
     0
 62
     7
  6
CONTINUOUS
  0
LAYER
  2
51
 70
     0
 62
     7
  6
CONTINUOUS
  0
LAYER
  2
52
 70
     0
 62
     7
  6
CONTINUOUS
  0
LAYER
  2
53
 70
     0
 62
     7
  6
CONTINUOUS
  0
LAYER
  2
54
 70
     0
 62
     7
  6
CONTINUOUS
  0
LAYER
  2
55
 70
     0
 62
     7
  6
CONTINUOUS
  0
LAYER
  2
56
 70
     0
 62
     7
  6
CONTINUOUS
  0
LAYER
  2
57
 70
     0
 62
     7
  6
CONTINUOUS
  0
LAYER
  2
58
 70
     0
 62
     7
  6
CONTINUOUS
  0
LAYER
  2
59
 70
     0
 62
     7
  6
CONTINUOUS
  0
LAYER
  2
60
 70
     0
 62
     7
  6
CONTINUOUS
  0
LAYER
  2
61
 70
     0
 62
     7
  6
CONTINUOUS
  0
LAYER
  2
62
 70
     0
 62
     7
  6
CONTINUOUS
  0
LAYER
  2
63
 70
     0
 62
     7
  6
CONTINUOUS
  0
LAYER
  2
64
 70
     0
 62
     7
  6
CONTINUOUS
  0
LAYER
  2
65
 70
     0
 62
     7
  6
CONTINUOUS
  0
LAYER
  2
66
 70
     0
 62
     7
  6
CONTINUOUS
  0
LAYER
  2
67
 70
     0
 62
     7
  6
CONTINUOUS
  0
LAYER
  2
68
 70
     0
 62
     7
  6
CONTINUOUS
  0
LAYER
  2
69
 70
     0
 62
     7
  6
CONTINUOUS
  0
LAYER
  2
70
 70
     0
 62
     7
  6
CONTINUOUS
  0
LAYER
  2
71
 70
     0
 62
     7
  6
CONTINUOUS
  0
LAYER
  2
72
 70
     0
 62
     7
  6
CONTINUOUS
  0
LAYER
  2
73
 70
     0
 62
     7
  6
CONTINUOUS
  0
LAYER
  2
74
 70
     0
 62
     7
  6
CONTINUOUS
  0
LAYER
  2
75
 70
     0
 62
     7
  6
CONTINUOUS
  0
LAYER
  2
76
 70
     0
 62
     7
  6
CONTINUOUS
  0
LAYER
  2
77
 70
     0
 62
     7
  6
CONTINUOUS
  0
LAYER
  2
78
 70
     0
 62
     7
  6
CONTINUOUS
  0
LAYER
  2
79
 70
     0
 62
     7
  6
CONTINUOUS
  0
LAYER
  2
80
 70
     0
 62
     7
  6
CONTINUOUS
  0
LAYER
  2
81
 70
     0
 62
     7
  6
CONTINUOUS
  0
LAYER
  2
82
 70
     0
 62
     7
  6
CONTINUOUS
  0
LAYER
  2
83
 70
     0
 62
     7
  6
CONTINUOUS
  0
LAYER
  2
84
 70
     0
 62
     7
  6
CONTINUOUS
  0
LAYER
  2
85
 70
     0
 62
     7
  6
CONTINUOUS
  0
LAYER
  2
86
 70
     0
 62
     7
  6
CONTINUOUS
  0
LAYER
  2
87
 70
     0
 62
     7
  6
CONTINUOUS
  0
LAYER
  2
88
 70
     0
 62
     7
  6
CONTINUOUS
  0
LAYER
  2
89
 70
     0
 62
     7
  6
CONTINUOUS
  0
LAYER
  2
90
 70
     0
 62
     7
  6
CONTINUOUS
  0
LAYER
  2
91
 70
     0
 62
     7
  6
CONTINUOUS
  0
LAYER
  2
92
 70
     0
 62
     7
  6
CONTINUOUS
  0
LAYER
  2
93
 70
     0
 62
     7
  6
CONTINUOUS
  0
LAYER
  2
94
 70
     0
 62
     7
  6
CONTINUOUS
  0
LAYER
  2
95
 70
     0
 62
     7
  6
CONTINUOUS
  0
LAYER
  2
96
 70
     0
 62
     7
  6
CONTINUOUS
  0
LAYER
  2
97
 70
     0
 62
     7
  6
CONTINUOUS
  0
LAYER
  2
98
 70
     0
 62
     7
  6
CONTINUOUS
  0
LAYER
  2
99
 70
     0
 62
     7
  6
CONTINUOUS
  0
LAYER
  2
100
 70
     0
 62
     7
  6
CONTINUOUS
  0
LAYER
  2
101
 70
     0
 62
     7
  6
CONTINUOUS
  0
LAYER
  2
102
 70
     0
 62
     7
  6
CONTINUOUS
  0
LAYER
  2
103
 70
     0
 62
     7
  6
CONTINUOUS
  0
LAYER
  2
104
 70
     0
 62
     7
  6
CONTINUOUS
  0
LAYER
  2
105
 70
     0
 62
     7
  6
CONTINUOUS
  0
LAYER
  2
106
 70
     0
 62
     7
  6
CONTINUOUS
  0
LAYER
  2
107
 70
     0
 62
     7
  6
CONTINUOUS
  0
LAYER
  2
108
 70
     0
 62
     7
  6
CONTINUOUS
  0
LAYER
  2
109
 70
     0
 62
     7
  6
CONTINUOUS
  0
LAYER
  2
110
 70
     0
 62
     7
  6
CONTINUOUS
  0
LAYER
  2
111
 70
     0
 62
     7
  6
CONTINUOUS
  0
LAYER
  2
112
 70
     0
 62
     7
  6
CONTINUOUS
  0
LAYER
  2
113
 70
     0
 62
     7
  6
CONTINUOUS
  0
LAYER
  2
114
 70
     0
 62
     7
  6
CONTINUOUS
  0
LAYER
  2
115
 70
     0
 62
     7
  6
CONTINUOUS
  0
LAYER
  2
116
 70
     0
 62
     7
  6
CONTINUOUS
  0
LAYER
  2
117
 70
     0
 62
     7
  6
CONTINUOUS
  0
LAYER
  2
118
 70
     0
 62
     7
  6
CONTINUOUS
  0
LAYER
  2
119
 70
     0
 62
     7
  6
CONTINUOUS
  0
LAYER
  2
120
 70
     0
 62
     7
  6
CONTINUOUS
  0
LAYER
  2
121
 70
     0
 62
     7
  6
CONTINUOUS
  0
LAYER
  2
122
 70
     0
 62
     7
  6
CONTINUOUS
  0
LAYER
  2
123
 70
     0
 62
     7
  6
CONTINUOUS
  0
LAYER
  2
124
 70
     0
 62
     7
  6
CONTINUOUS
  0
LAYER
  2
125
 70
     0
 62
     7
  6
CONTINUOUS
  0
LAYER
  2
126
 70
     0
 62
     7
  6
CONTINUOUS
  0
LAYER
  2
127
 70
     0
 62
     7
  6
CONTINUOUS
  0
LAYER
  2
128
 70
     0
 62
     7
  6
CONTINUOUS
  0
ENDTAB
  0
TABLE
  2
STYLE
 70
     9
  0
STYLE
  2
STANDARD
 70
     0
 40
0.0
 41
1.0
 50
0.0
 71
     0
 42
0.2
  3
txt.shx
  4
extfont.shx
  0
STYLE
  2
KANJI0
 70
     0
 40
1.8
 41
0.6
 50
0.0
 71
     0
 42
1.8
  3
txt.shx
  4
extfont.shx
  0
STYLE
  2
KANJI1
 70
     0
 40
3.0
 41
0.9
 50
0.0
 71
     0
 42
3.0
  3
txt.shx
  4
extfont.shx
  0
STYLE
  2
KANJI2
 70
     0
 40
2.5
 41
0.6
 50
0.0
 71
     0
 42
2.5
  3
txt.shx
  4
extfont.shx
  0
STYLE
  2
KANJI3
 70
     0
 40
3.0
 41
0.666666667
 50
0.0
 71
     0
 42
3.0
  3
txt.shx
  4
extfont.shx
  0
STYLE
  2
KANJI4
 70
     0
 40
2.5
 41
0.6
 50
0.0
 71
     0
 42
2.5
  3
txt.shx
  4
extfont.shx
  0
STYLE
  2
KANJI5
 70
     0
 40
4.0
 41
0.9
 50
0.0
 71
     0
 42
4.0
  3
txt.shx
  4
extfont.shx
  0
STYLE
  2
KANJI6
 70
     0
 40
3.5
 41
0.9
 50
0.0
 71
     0
 42
3.5
  3
txt.shx
  4
extfont.shx
  0
STYLE
  2
KANJI7
 70
     0
 40
6.0
 41
0.9
 50
0.0
 71
     0
 42
6.0
  3
txt.shx
  4
extfont.shx
  0
ENDTAB
  0
TABLE
  2
VIEW
 70
     0
  0
ENDTAB
  0
ENDSEC
  0
SECTION
  2
BLOCKS
  0
ENDSEC
  0
SECTION
  2
ENTITIES
  0
ARC
  8
0
  6
CONTINUOUS
 62
     1
 10
75.0
 20
148.75
 30
0.0
 40
1.25
 50
0.0
 51
90.0
  0
LINE
  8
0
  6
CONTINUOUS
 62
     1
 10
45.0
 20
150.0
 30
0.0
 11
75.0
 21
150.0
 31
0.0
  0
ARC
  8
0
  6
CONTINUOUS
 62
     1
 10
45.0
 20
148.75
 30
0.0
 40
1.25
 50
90.0
 51
180.0
  0
LINE
  8
0
  6
CONTINUOUS
 62
     1
 10
76.25
 20
148.75
 30
0.0
 11
76.25
 21
121.25
 31
0.0
  0
ARC
  8
0
  6
CONTINUOUS
 62
     1
 10
75.0
 20
121.25
 30
0.0
 40
1.25
 50
270.0
 51
0.0
  0
LINE
  8
0
  6
CONTINUOUS
 62
     1
 10
75.0
 20
120.0
 30
0.0
 11
45.0
 21
120.0
 31
0.0
  0
LINE
  8
0
  6
CONTINUOUS
 62
     1
 10
43.75
 20
121.25
 30
0.0
 11
43.75
 21
148.75
 31
0.0
  0
ARC
  8
0
  6
CONTINUOUS
 62
     1
 10
45.0
 20
121.25
 30
0.0
 40
1.25
 50
180.0
 51
270.0
  0
ARC
  8
0
  6
CONTINUOUS
 62
     1
 10
195.0
 20
148.75
 30
0.0
 40
1.25
 50
0.0
 51
90.0
  0
LINE
  8
0
  6
CONTINUOUS
 62
     1
 10
165.0
 20
150.0
 30
0.0
 11
195.0
 21
150.0
 31
0.0
  0
ARC
  8
0
  6
CONTINUOUS
 62
     1
 10
165.0
 20
148.75
 30
0.0
 40
1.25
 50
90.0
 51
180.0
  0
LINE
  8
0
  6
CONTINUOUS
 62
     1
 10
163.75
 20
121.25
 30
0.0
 11
163.75
 21
148.75
 31
0.0
  0
ARC
  8
0
  6
CONTINUOUS
 62
     1
 10
165.0
 20
121.25
 30
0.0
 40
1.25
 50
180.0
 51
270.0
  0
LINE
  8
0
  6
CONTINUOUS
 62
     1
 10
195.0
 20
120.0
 30
0.0
 11
165.0
 21
120.0
 31
0.0
  0
LINE
  8
0
  6
CONTINUOUS
 62
     1
 10
196.25
 20
148.75
 30
0.0
 11
196.25
 21
121.25
 31
0.0
  0
ARC
  8
0
  6
CONTINUOUS
 62
     1
 10
195.0
 20
121.25
 30
0.0
 40
1.25
 50
270.0
 51
0.0
  0
CIRCLE
  8
0
  6
CONTINUOUS
 62
     1
 10
72.0
 20
83.0
 30
0.0
 40
1.0
  0
CIRCLE
  8
0
  6
CONTINUOUS
 62
     1
 10
48.0
 20
83.0
 30
0.0
 40
1.0
  0
CIRCLE
  8
0
  6
CONTINUOUS
 62
     1
 10
48.0
 20
59.0
 30
0.0
 40
1.0
  0
CIRCLE
  8
0
  6
CONTINUOUS
 62
     1
 10
72.0
 20
59.0
 30
0.0
 40
1.0
  0
CIRCLE
  8
0
  6
CONTINUOUS
 62
     1
 10
60.0
 20
70.0
 30
0.0
 40
13.375
  0
CIRCLE
  8
0
  6
CONTINUOUS
 62
     1
 10
180.0
 20
134.0
 30
0.0
 40
13.0
  0
LINE
  8
0
  6
CONTINUOUS
 62
     1
 10
112.75
 20
150.0
 30
0.0
 11
112.75
 21
120.0
 31
0.0
  0
POINT
  8
0
  6
CONTINUOUS
 62
     1
 10
112.75
 20
120.0
 30
0.0
  0
LINE
  8
0
  6
CONTINUOUS
 62
     1
 10
118.0
 20
147.0
 30
0.0
 11
128.0
 21
147.0
 31
0.0
  0
LINE
  8
0
  6
CONTINUOUS
 62
     1
 10
128.0
 20
147.0
 30
0.0
 11
128.0
 21
121.0
 31
0.0
  0
LINE
  8
0
  6
CONTINUOUS
 62
     1
 10
128.0
 20
121.0
 30
0.0
 11
113.0
 21
121.0
 31
0.0
  0
POINT
  8
0
  6
CONTINUOUS
 62
     1
 10
128.0
 20
123.0
 30
0.0
  0
LINE
  8
0
  6
CONTINUOUS
 62
     1
 10
112.75
 20
150.0
 30
0.0
 11
106.968991316
 21
149.277373915
 31
0.0
  0
ARC
  8
0
  6
CONTINUOUS
 62
     1
 10
107.0
 20
149.029304445
 30
0.0
 40
0.25
 50
97.125016349
 51
180.0
  0
LINE
  8
0
  6
CONTINUOUS
 62
     1
 10
112.75
 20
120.0
 30
0.0
 11
106.970213695
 21
120.693574357
 31
0.0
  0
LINE
  8
0
  6
CONTINUOUS
 62
     1
 10
106.75
 20
149.029304445
 30
0.0
 11
106.75
 21
120.941793566
 31
0.0
  0
ARC
  8
0
  6
CONTINUOUS
 62
     1
 10
107.0
 20
120.941793566
 30
0.0
 40
0.25
 50
180.0
 51
263.157226587
  0
LINE
  8
0
  6
CONTINUOUS
 62
     2
 10
47.40004
 20
126.756993884
 30
0.0
 11
47.40004
 21
127.30008
 31
0.0
  0
ARC
  8
0
  6
CONTINUOUS
 62
     2
 10
47.30008
 20
127.30008
 30
0.0
 40
0.09996
 50
0.0
 51
90.0
  0
LINE
  8
0
  6
CONTINUOUS
 62
     2
 10
47.30008
 20
127.40004
 30
0.0
 11
47.10016
 21
127.40004
 31
0.0
  0
LINE
  8
0
  6
CONTINUOUS
 62
     2
 10
47.10016
 20
127.40004
 30
0.0
 11
47.10016
 21
127.59996
 31
0.0
  0
LINE
  8
0
  6
CONTINUOUS
 62
     2
 10
47.10016
 20
127.59996
 30
0.0
 11
47.30008
 21
127.59996
 31
0.0
  0
ARC
  8
0
  6
CONTINUOUS
 62
     2
 10
47.30008
 20
127.69992
 30
0.0
 40
0.09996
 50
270.0
 51
0.0
  0
LINE
  8
0
  6
CONTINUOUS
 62
     2
 10
47.40004
 20
127.69992
 30
0.0
 11
47.40004
 21
128.243006116
 31
0.0
  0
LINE
  8
0
  6
CONTINUOUS
 62
     2
 10
47.59996
 20
128.243006116
 30
0.0
 11
47.59996
 21
127.69992
 31
0.0
  0
ARC
  8
0
  6
CONTINUOUS
 62
     2
 10
47.69992
 20
127.69992
 30
0.0
 40
0.09996
 50
180.0
 51
270.0
  0
LINE
  8
0
  6
CONTINUOUS
 62
     2
 10
47.699920002
 20
127.59996
 30
0.0
 11
47.899840002
 21
127.59996
 31
0.0
  0
LINE
  8
0
  6
CONTINUOUS
 62
     2
 10
47.899840002
 20
127.59996
 30
0.0
 11
47.899840002
 21
127.40004
 31
0.0
  0
LINE
  8
0
  6
CONTINUOUS
 62
     2
 10
47.899840002
 20
127.40004
 30
0.0
 11
47.69992
 21
127.40004
 31
0.0
  0
ARC
  8
0
  6
CONTINUOUS
 62
     2
 10
47.69992
 20
127.30008
 30
0.0
 40
0.09996
 50
90.0
 51
180.0
  0
LINE
  8
0
  6
CONTINUOUS
 62
     2
 10
47.59996
 20
127.30008
 30
0.0
 11
47.59996
 21
126.756993884
 31
0.0
  0
CIRCLE
  8
0
  6
CONTINUOUS
 62
     2
 10
47.5
 20
127.5
 30
0.0
 40
0.7497
  0
LINE
  8
0
  6
CONTINUOUS
 62
     2
 10
72.40004
 20
126.756993884
 30
0.0
 11
72.40004
 21
127.30008
 31
0.0
  0
ARC
  8
0
  6
CONTINUOUS
 62
     2
 10
72.30008
 20
127.30008
 30
0.0
 40
0.09996
 50
0.0
 51
90.0
  0
LINE
  8
0
  6
CONTINUOUS
 62
     2
 10
72.30008
 20
127.40004
 30
0.0
 11
72.10016
 21
127.40004
 31
0.0
  0
LINE
  8
0
  6
CONTINUOUS
 62
     2
 10
72.10016
 20
127.40004
 30
0.0
 11
72.10016
 21
127.59996
 31
0.0
  0
LINE
  8
0
  6
CONTINUOUS
 62
     2
 10
72.10016
 20
127.59996
 30
0.0
 11
72.30008
 21
127.59996
 31
0.0
  0
ARC
  8
0
  6
CONTINUOUS
 62
     2
 10
72.30008
 20
127.69992
 30
0.0
 40
0.09996
 50
270.0
 51
0.0
  0
LINE
  8
0
  6
CONTINUOUS
 62
     2
 10
72.40004
 20
127.69992
 30
0.0
 11
72.40004
 21
128.243006116
 31
0.0
  0
LINE
  8
0
  6
CONTINUOUS
 62
     2
 10
72.59996
 20
128.243006116
 30
0.0
 11
72.59996
 21
127.69992
 31
0.0
  0
ARC
  8
0
  6
CONTINUOUS
 62
     2
 10
72.69992
 20
127.69992
 30
0.0
 40
0.09996
 50
180.0
 51
270.0
  0
LINE
  8
0
  6
CONTINUOUS
 62
     2
 10
72.699920002
 20
127.59996
 30
0.0
 11
72.899840002
 21
127.59996
 31
0.0
  0
LINE
  8
0
  6
CONTINUOUS
 62
     2
 10
72.899840002
 20
127.59996
 30
0.0
 11
72.899840002
 21
127.40004
 31
0.0
  0
LINE
  8
0
  6
CONTINUOUS
 62
     2
 10
72.899840002
 20
127.40004
 30
0.0
 11
72.69992
 21
127.40004
 31
0.0
  0
ARC
  8
0
  6
CONTINUOUS
 62
     2
 10
72.69992
 20
127.30008
 30
0.0
 40
0.09996
 50
90.0
 51
180.0
  0
LINE
  8
0
  6
CONTINUOUS
 62
     2
 10
72.59996
 20
127.30008
 30
0.0
 11
72.59996
 21
126.756993884
 31
0.0
  0
CIRCLE
  8
0
  6
CONTINUOUS
 62
     2
 10
72.5
 20
127.5
 30
0.0
 40
0.7497
  0
CIRCLE
  8
0
  6
CONTINUOUS
 62
     2
 10
60.0
 20
123.25
 30
0.0
 40
1.5
  0
LINE
  8
0
  6
CONTINUOUS
 62
     2
 10
58.520980054
 20
123.5
 30
0.0
 11
61.479019946
 21
123.5
 31
0.0
  0
LINE
  8
0
  6
CONTINUOUS
 62
     2
 10
61.5
 20
123.0
 30
0.0
 11
61.479019946
 21
123.0
 31
0.0
  0
LINE
  8
0
  6
CONTINUOUS
 62
     2
 10
58.520980054
 20
123.0
 30
0.0
 11
61.479019946
 21
123.0
 31
0.0
  0
LINE
  8
0
  6
CONTINUOUS
 62
     2
 10
47.625631329
 20
140.374368671
 30
0.0
 11
55.525631329
 21
131.874368671
 31
0.0
  0
LINE
  8
0
  6
CONTINUOUS
 62
     2
 10
56.725631329
 20
131.874368671
 30
0.0
 11
47.625631329
 21
140.374368671
 31
0.0
  0
LINE
  8
0
  6
CONTINUOUS
 62
     2
 10
45.0
 20
120.75
 30
0.0
 11
75.0
 21
120.75
 31
0.0
  0
ARC
  8
0
  6
CONTINUOUS
 62
     2
 10
45.0
 20
121.25
 30
0.0
 40
0.5
 50
180.0
 51
270.0
  0
LINE
  8
0
  6
CONTINUOUS
 62
     2
 10
44.5
 20
148.75
 30
0.0
 11
44.5
 21
121.25
 31
0.0
  0
ARC
  8
0
  6
CONTINUOUS
 62
     2
 10
45.0
 20
148.75
 30
0.0
 40
0.5
 50
90.0
 51
180.0
  0
LINE
  8
0
  6
CONTINUOUS
 62
     2
 10
75.0
 20
149.25
 30
0.0
 11
45.0
 21
149.25
 31
0.0
  0
ARC
  8
0
  6
CONTINUOUS
 62
     2
 10
75.0
 20
148.75
 30
0.0
 40
0.5
 50
0.0
 51
90.0
  0
LINE
  8
0
  6
CONTINUOUS
 62
     2
 10
75.5
 20
121.25
 30
0.0
 11
75.5
 21
148.75
 31
0.0
  0
ARC
  8
0
  6
CONTINUOUS
 62
     2
 10
75.0
 20
121.25
 30
0.0
 40
0.5
 50
270.0
 51
0.0
  0
ARC
  8
0
  6
CONTINUOUS
 62
     2
 10
164.85
 20
148.95
 30
0.0
 40
0.5
 50
90.0
 51
180.0
  0
LINE
  8
0
  6
CONTINUOUS
 62
     2
 10
195.15
 20
149.45
 30
0.0
 11
164.85
 21
149.45
 31
0.0
  0
ARC
  8
0
  6
CONTINUOUS
 62
     2
 10
195.15
 20
148.95
 30
0.0
 40
0.5
 50
0.0
 51
90.0
  0
LINE
  8
0
  6
CONTINUOUS
 62
     2
 10
195.65
 20
121.05
 30
0.0
 11
195.65
 21
148.95
 31
0.0
  0
ARC
  8
0
  6
CONTINUOUS
 62
     2
 10
195.15
 20
121.05
 30
0.0
 40
0.5
 50
270.0
 51
0.0
  0
LINE
  8
0
  6
CONTINUOUS
 62
     2
 10
164.85
 20
120.55
 30
0.0
 11
195.15
 21
120.55
 31
0.0
  0
ARC
  8
0
  6
CONTINUOUS
 62
     2
 10
164.85
 20
121.05
 30
0.0
 40
0.5
 50
180.0
 51
270.0
  0
LINE
  8
0
  6
CONTINUOUS
 62
     2
 10
164.35
 20
148.95
 30
0.0
 11
164.35
 21
121.05
 31
0.0
  0
CIRCLE
  8
0
  6
CONTINUOUS
 62
     2
 10
168.0
 20
147.0
 30
0.0
 40
2.0
  0
CIRCLE
  8
0
  6
CONTINUOUS
 62
     2
 10
168.0
 20
147.0
 30
0.0
 40
0.75
  0
LINE
  8
0
  6
CONTINUOUS
 62
     2
 10
168.0
 20
148.6
 30
0.0
 11
166.614359354
 21
147.8
 31
0.0
  0
LINE
  8
0
  6
CONTINUOUS
 62
     2
 10
166.614359354
 20
147.8
 30
0.0
 11
166.614359354
 21
146.2
 31
0.0
  0
LINE
  8
0
  6
CONTINUOUS
 62
     2
 10
166.614359354
 20
146.2
 30
0.0
 11
168.0
 21
145.4
 31
0.0
  0
LINE
  8
0
  6
CONTINUOUS
 62
     2
 10
168.0
 20
145.4
 30
0.0
 11
169.385640646
 21
146.2
 31
0.0
  0
LINE
  8
0
  6
CONTINUOUS
 62
     2
 10
169.385640646
 20
146.2
 30
0.0
 11
169.385640646
 21
147.8
 31
0.0
  0
LINE
  8
0
  6
CONTINUOUS
 62
     2
 10
169.385640646
 20
147.8
 30
0.0
 11
168.0
 21
148.6
 31
0.0
  0
CIRCLE
  8
0
  6
CONTINUOUS
 62
     2
 10
192.0
 20
147.0
 30
0.0
 40
2.0
  0
CIRCLE
  8
0
  6
CONTINUOUS
 62
     2
 10
192.0
 20
147.0
 30
0.0
 40
0.75
  0
LINE
  8
0
  6
CONTINUOUS
 62
     2
 10
192.0
 20
148.6
 30
0.0
 11
190.614359354
 21
147.8
 31
0.0
  0
LINE
  8
0
  6
CONTINUOUS
 62
     2
 10
190.614359354
 20
147.8
 30
0.0
 11
190.614359354
 21
146.2
 31
0.0
  0
LINE
  8
0
  6
CONTINUOUS
 62
     2
 10
190.614359354
 20
146.2
 30
0.0
 11
192.0
 21
145.4
 31
0.0
  0
LINE
  8
0
  6
CONTINUOUS
 62
     2
 10
192.0
 20
145.4
 30
0.0
 11
193.385640646
 21
146.2
 31
0.0
  0
LINE
  8
0
  6
CONTINUOUS
 62
     2
 10
193.385640646
 20
146.2
 30
0.0
 11
193.385640646
 21
147.8
 31
0.0
  0
LINE
  8
0
  6
CONTINUOUS
 62
     2
 10
193.385640646
 20
147.8
 30
0.0
 11
192.0
 21
148.6
 31
0.0
  0
CIRCLE
  8
0
  6
CONTINUOUS
 62
     2
 10
192.0
 20
123.0
 30
0.0
 40
2.0
  0
CIRCLE
  8
0
  6
CONTINUOUS
 62
     2
 10
192.0
 20
123.0
 30
0.0
 40
0.75
  0
LINE
  8
0
  6
CONTINUOUS
 62
     2
 10
192.0
 20
124.6
 30
0.0
 11
190.614359354
 21
123.8
 31
0.0
  0
LINE
  8
0
  6
CONTINUOUS
 62
     2
 10
190.614359354
 20
123.8
 30
0.0
 11
190.614359354
 21
122.2
 31
0.0
  0
LINE
  8
0
  6
CONTINUOUS
 62
     2
 10
190.614359354
 20
122.2
 30
0.0
 11
192.0
 21
121.4
 31
0.0
  0
LINE
  8
0
  6
CONTINUOUS
 62
     2
 10
192.0
 20
121.4
 30
0.0
 11
193.385640646
 21
122.2
 31
0.0
  0
LINE
  8
0
  6
CONTINUOUS
 62
     2
 10
193.385640646
 20
122.2
 30
0.0
 11
193.385640646
 21
123.8
 31
0.0
  0
LINE
  8
0
  6
CONTINUOUS
 62
     2
 10
193.385640646
 20
123.8
 30
0.0
 11
192.0
 21
124.6
 31
0.0
  0
CIRCLE
  8
0
  6
CONTINUOUS
 62
     2
 10
168.0
 20
123.0
 30
0.0
 40
2.0
  0
CIRCLE
  8
0
  6
CONTINUOUS
 62
     2
 10
168.0
 20
123.0
 30
0.0
 40
0.75
  0
LINE
  8
0
  6
CONTINUOUS
 62
     2
 10
168.0
 20
124.6
 30
0.0
 11
166.614359354
 21
123.8
 31
0.0
  0
LINE
  8
0
  6
CONTINUOUS
 62
     2
 10
166.614359354
 20
123.8
 30
0.0
 11
166.614359354
 21
122.2
 31
0.0
  0
LINE
  8
0
  6
CONTINUOUS
 62
     2
 10
166.614359354
 20
122.2
 30
0.0
 11
168.0
 21
121.4
 31
0.0
  0
LINE
  8
0
  6
CONTINUOUS
 62
     2
 10
168.0
 20
121.4
 30
0.0
 11
169.385640646
 21
122.2
 31
0.0
  0
LINE
  8
0
  6
CONTINUOUS
 62
     2
 10
169.385640646
 20
122.2
 30
0.0
 11
169.385640646
 21
123.8
 31
0.0
  0
LINE
  8
0
  6
CONTINUOUS
 62
     2
 10
169.385640646
 20
123.8
 30
0.0
 11
168.0
 21
124.6
 31
0.0
  0
LINE
  8
0
  6
CONTINUOUS
 62
     2
 10
168.0
 20
155.0
 30
0.0
 11
170.414814566
 21
154.352952387
 31
0.0
  0
LINE
  8
0
  6
CONTINUOUS
 62
     2
 10
168.0
 20
155.0
 30
0.0
 11
170.414814566
 21
155.647047613
 31
0.0
  0
LINE
  8
0
  6
CONTINUOUS
 62
     2
 10
168.0
 20
155.0
 30
0.0
 11
180.0
 21
155.0
 31
0.0
  0
LINE
  8
0
  6
CONTINUOUS
 62
     2
 10
180.0
 20
155.0
 30
0.0
 11
177.585185434
 21
154.352952387
 31
0.0
  0
TEXT
  8
0
  6
CONTINUOUS
 62
     2
 10
173.52
 20
156.0
 30
0.18
 40
1.8
  1
±０．５
 50
0.0
 41
0.6
 51
0.0
  7
KANJI0
  0
LINE
  8
0
  6
CONTINUOUS
 62
     2
 10
180.0
 20
155.0
 30
0.0
 11
182.414814566
 21
154.352952387
 31
0.0
  0
LINE
  8
0
  6
CONTINUOUS
 62
     2
 10
180.0
 20
155.0
 30
0.0
 11
182.414814566
 21
155.647047613
 31
0.0
  0
LINE
  8
0
  6
CONTINUOUS
 62
     2
 10
180.0
 20
155.0
 30
0.0
 11
192.0
 21
155.0
 31
0.0
  0
LINE
  8
0
  6
CONTINUOUS
 62
     2
 10
192.0
 20
155.0
 30
0.0
 11
189.585185434
 21
155.647047613
 31
0.0
  0
LINE
  8
0
  6
CONTINUOUS
 62
     2
 10
192.0
 20
155.0
 30
0.0
 11
189.585185434
 21
154.352952387
 31
0.0
  0
TEXT
  8
0
  6
CONTINUOUS
 62
     2
 10
185.52
 20
156.0
 30
0.18
 40
1.8
  1
±０．５
 50
0.0
 41
0.6
 51
0.0
  7
KANJI0
  0
LINE
  8
0
  6
CONTINUOUS
 62
     2
 10
163.75
 20
160.0
 30
0.0
 11
166.164814566
 21
159.352952387
 31
0.0
  0
LINE
  8
0
  6
CONTINUOUS
 62
     2
 10
163.75
 20
160.0
 30
0.0
 11
166.164814566
 21
160.647047613
 31
0.0
  0
LINE
  8
0
  6
CONTINUOUS
 62
     2
 10
163.75
 20
160.0
 30
0.0
 11
196.25
 21
160.0
 31
0.0
  0
LINE
  8
0
  6
CONTINUOUS
 62
     2
 10
196.25
 20
160.0
 30
0.0
 11
193.835185434
 21
160.647047613
 31
0.0
  0
LINE
  8
0
  6
CONTINUOUS
 62
     2
 10
196.25
 20
160.0
 30
0.0
 11
193.835185434
 21
159.352952387
 31
0.0
  0
TEXT
  8
0
  6
CONTINUOUS
 62
     2
 10
181.38
 20
161.0
 30
0.18
 40
1.8
  1
±１
 50
0.0
 41
0.6
 51
0.0
  7
KANJI0
  0
LINE
  8
0
  6
CONTINUOUS
 62
     2
 10
201.25
 20
134.0
 30
0.0
 11
201.897047613
 21
136.414814566
 31
0.0
  0
LINE
  8
0
  6
CONTINUOUS
 62
     2
 10
201.25
 20
134.0
 30
0.0
 11
200.602952387
 21
136.414814566
 31
0.0
  0
LINE
  8
0
  6
CONTINUOUS
 62
     2
 10
201.25
 20
134.0
 30
0.0
 11
201.25
 21
147.0
 31
0.0
  0
LINE
  8
0
  6
CONTINUOUS
 62
     2
 10
201.25
 20
147.0
 30
0.0
 11
200.602952387
 21
144.585185434
 31
0.0
  0
LINE
  8
0
  6
CONTINUOUS
 62
     2
 10
201.25
 20
147.0
 30
0.0
 11
201.897047613
 21
144.585185434
 31
0.0
  0
TEXT
  8
0
  6
CONTINUOUS
 62
     2
 10
200.25
 20
140.02
 30
0.18
 40
1.8
  1
±０．５
 50
90.0
 41
0.6
 51
0.0
  7
KANJI0
  0
LINE
  8
0
  6
CONTINUOUS
 62
     2
 10
201.25
 20
134.0
 30
0.0
 11
200.602952387
 21
131.585185434
 31
0.0
  0
LINE
  8
0
  6
CONTINUOUS
 62
     2
 10
201.25
 20
134.0
 30
0.0
 11
201.897047613
 21
131.585185434
 31
0.0
  0
LINE
  8
0
  6
CONTINUOUS
 62
     2
 10
201.25
 20
134.0
 30
0.0
 11
201.25
 21
123.0
 31
0.0
  0
LINE
  8
0
  6
CONTINUOUS
 62
     2
 10
201.25
 20
123.0
 30
0.0
 11
201.897047613
 21
125.414814566
 31
0.0
  0
LINE
  8
0
  6
CONTINUOUS
 62
     2
 10
201.25
 20
123.0
 30
0.0
 11
200.602952387
 21
125.414814566
 31
0.0
  0
TEXT
  8
0
  6
CONTINUOUS
 62
     2
 10
200.25
 20
128.02
 30
0.18
 40
1.8
  1
±０．５
 50
90.0
 41
0.6
 51
0.0
  7
KANJI0
  0
TEXT
  8
0
  6
CONTINUOUS
 62
     2
 10
51.55
 20
45.45
 30
0.3
 40
3.0
  1
パネルカット
 50
0.0
 41
0.9
 51
0.0
  7
KANJI1
  0
LINE
  8
0
  6
CONTINUOUS
 62
     2
 10
48.882029223
 20
62.564857043
 30
0.0
 11
51.249037019
 21
63.369390505
 31
0.0
  0
LINE
  8
0
  6
CONTINUOUS
 62
     2
 10
48.882029223
 20
62.564857043
 30
0.0
 11
50.529651374
 21
64.445107358
 31
0.0
  0
LINE
  8
0
  6
CONTINUOUS
 62
     2
 10
48.882029223
 20
62.564857043
 30
0.0
 11
71.117970777
 21
77.435142957
 31
0.0
  0
LINE
  8
0
  6
CONTINUOUS
 62
     2
 10
71.117970777
 20
77.435142957
 30
0.0
 11
68.750962981
 21
76.630609495
 31
0.0
  0
LINE
  8
0
  6
CONTINUOUS
 62
     2
 10
71.117970777
 20
77.435142957
 30
0.0
 11
69.470348626
 21
75.554892642
 31
0.0
  0
TEXT
  8
0
  6
CONTINUOUS
 62
     2
 10
200.25
 20
124.12
 30
0.25
 40
2.5
  1
２２
 50
90.0
 41
0.6
 51
0.0
  7
KANJI2
  0
TEXT
  8
0
  6
CONTINUOUS
 62
     2
 10
200.25
 20
136.12
 30
0.25
 40
2.5
  1
２６
 50
90.0
 41
0.6
 51
0.0
  7
KANJI2
  0
TEXT
  8
0
  6
CONTINUOUS
 62
     2
 10
169.62
 20
156.0
 30
0.25
 40
2.5
  1
２４
 50
0.0
 41
0.6
 51
0.0
  7
KANJI2
  0
TEXT
  8
0
  6
CONTINUOUS
 62
     2
 10
181.62
 20
156.0
 30
0.25
 40
2.5
  1
２４
 50
0.0
 41
0.6
 51
0.0
  7
KANJI2
  0
TEXT
  8
0
  6
CONTINUOUS
 62
     2
 10
177.28
 20
161.0
 30
0.25
 40
2.5
  1
６５
 50
0.0
 41
0.6
 51
0.0
  7
KANJI2
  0
TEXT
  8
0
  6
CONTINUOUS
 62
     2
 10
51.444101461
 20
65.481250152
 30
0.25
 40
2.5
  1
φ５３．５
 50
33.772626229
 41
0.6
 51
0.0
  7
KANJI2
  0
TEXT
  8
0
  6
CONTINUOUS
 62
     2
 10
59.422853007
 20
70.651415248
 30
0.18
 40
1.8
  1
－０
 50
33.772626229
 41
0.6
 51
0.0
  7
KANJI0
  0
TEXT
  8
0
  6
CONTINUOUS
 62
     2
 10
58.422235637
 20
72.147665521
 30
0.18
 40
1.8
  1
＋０．５
 50
33.772626229
 41
0.6
 51
0.0
  7
KANJI0
  0
TEXT
  8
0
  6
CONTINUOUS
 62
     2
 10
114.65
 20
62.8
 30
0.3
 40
3.0
  1
　　　Ｍ５タ－ミナルネジとなります。
 50
0.0
 41
0.9
 51
0.0
  7
KANJI1
  0
LINE
  8
0
  6
CONTINUOUS
 62
     2
 10
113.25
 20
72.0
 30
0.0
 11
221.25
 21
72.0
 31
0.0
  0
LINE
  8
0
  6
CONTINUOUS
 62
     2
 10
221.25
 20
67.0
 30
0.0
 11
113.25
 21
67.0
 31
0.0
  0
LINE
  8
0
  6
CONTINUOUS
 62
     2
 10
113.25
 20
62.0
 30
0.0
 11
221.25
 21
62.0
 31
0.0
  0
CIRCLE
  8
0
  6
CONTINUOUS
 62
     2
 10
60.0
 20
128.0
 30
0.0
 40
1.5
  0
CIRCLE
  8
0
  6
CONTINUOUS
 62
     2
 10
60.0
 20
128.0
 30
0.0
 40
1.375
  0
LINE
  8
0
  6
CONTINUOUS
 62
     2
 10
58.647918272
 20
128.25
 30
0.0
 11
61.352081728
 21
128.25
 31
0.0
  0
LINE
  8
0
  6
CONTINUOUS
 62
     2
 10
58.647918272
 20
127.75
 30
0.0
 11
61.352081728
 21
127.75
 31
0.0
  0
LINE
  8
0
  6
CONTINUOUS
 62
     2
 10
74.65
 20
132.0
 30
0.0
 11
74.65
 21
147.9
 31
0.0
  0
LINE
  8
0
  6
CONTINUOUS
 62
     2
 10
74.15
 20
148.4
 30
0.0
 11
45.85
 21
148.4
 31
0.0
  0
ARC
  8
0
  6
CONTINUOUS
 62
     2
 10
74.15
 20
147.9
 30
0.0
 40
0.5
 50
0.0
 51
90.0
  0
LINE
  8
0
  6
CONTINUOUS
 62
     2
 10
45.35
 20
132.0
 30
0.0
 11
74.65
 21
132.0
 31
0.0
  0
LINE
  8
0
  6
CONTINUOUS
 62
     2
 10
45.35
 20
147.9
 30
0.0
 11
45.35
 21
132.0
 31
0.0
  0
ARC
  8
0
  6
CONTINUOUS
 62
     2
 10
45.85
 20
147.9
 30
0.0
 40
0.5
 50
90.0
 51
180.0
  0
LINE
  8
0
  6
CONTINUOUS
 62
     2
 10
66.452858564
 20
143.186609772
 30
0.0
 11
66.175694704
 21
143.301414801
 31
0.0
  0
LINE
  8
0
  6
CONTINUOUS
 62
     2
 10
66.175694704
 20
143.301414801
 30
0.0
 11
61.353446955
 21
132.0
 31
0.0
  0
LINE
  8
0
  6
CONTINUOUS
 62
     2
 10
66.452858564
 20
143.186609772
 30
0.0
 11
61.957607362
 21
132.0
 31
0.0
  0
LINE
  8
0
  6
CONTINUOUS
 62
     2
 10
163.75
 20
149.75
 30
0.0
 11
163.75
 21
162.0
 31
0.0
  0
LINE
  8
0
  6
CONTINUOUS
 62
     2
 10
196.25
 20
149.75
 30
0.0
 11
196.25
 21
162.0
 31
0.0
  0
LINE
  8
0
  6
CONTINUOUS
 62
     2
 10
50.8
 20
44.9
 30
0.0
 11
69.1
 21
44.9
 31
0.0
  0
LINE
  8
0
  6
CONTINUOUS
 62
     2
 10
206.75
 20
150.0
 30
0.0
 11
206.102952387
 21
147.585185434
 31
0.0
  0
LINE
  8
0
  6
CONTINUOUS
 62
     2
 10
206.75
 20
150.0
 30
0.0
 11
207.397047613
 21
147.585185434
 31
0.0
  0
LINE
  8
0
  6
CONTINUOUS
 62
     2
 10
206.75
 20
150.0
 30
0.0
 11
206.75
 21
120.0
 31
0.0
  0
LINE
  8
0
  6
CONTINUOUS
 62
     2
 10
206.75
 20
120.0
 30
0.0
 11
207.397047613
 21
122.414814566
 31
0.0
  0
LINE
  8
0
  6
CONTINUOUS
 62
     2
 10
206.75
 20
120.0
 30
0.0
 11
206.102952387
 21
122.414814566
 31
0.0
  0
TEXT
  8
0
  6
CONTINUOUS
 62
     2
 10
205.75
 20
135.78
 30
0.18
 40
1.8
  1
±１
 50
90.0
 41
0.6
 51
0.0
  7
KANJI0
  0
TEXT
  8
0
  6
CONTINUOUS
 62
     2
 10
205.75
 20
131.88
 30
0.25
 40
2.5
  1
６０
 50
90.0
 41
0.6
 51
0.0
  7
KANJI2
  0
LINE
  8
0
  6
CONTINUOUS
 62
     2
 10
196.0
 20
150.0
 30
0.0
 11
208.75
 21
150.0
 31
0.0
  0
LINE
  8
0
  6
CONTINUOUS
 62
     2
 10
196.0
 20
120.0
 30
0.0
 11
208.75
 21
120.0
 31
0.0
  0
LINE
  8
0
  6
CONTINUOUS
 62
     2
 10
60.0
 20
89.0
 30
0.0
 11
57.585185434
 21
89.647047613
 31
0.0
  0
LINE
  8
0
  6
CONTINUOUS
 62
     2
 10
60.0
 20
89.0
 30
0.0
 11
57.585185434
 21
88.352952387
 31
0.0
  0
LINE
  8
0
  6
CONTINUOUS
 62
     2
 10
60.0
 20
89.0
 30
0.0
 11
48.0
 21
89.0
 31
0.0
  0
LINE
  8
0
  6
CONTINUOUS
 62
     2
 10
48.0
 20
89.0
 30
0.0
 11
50.414814566
 21
88.352952387
 31
0.0
  0
LINE
  8
0
  6
CONTINUOUS
 62
     2
 10
48.0
 20
89.0
 30
0.0
 11
50.414814566
 21
89.647047613
 31
0.0
  0
LINE
  8
0
  6
CONTINUOUS
 62
     2
 10
60.0
 20
89.0
 30
0.0
 11
62.414814566
 21
88.352952387
 31
0.0
  0
LINE
  8
0
  6
CONTINUOUS
 62
     2
 10
60.0
 20
89.0
 30
0.0
 11
62.414814566
 21
89.647047613
 31
0.0
  0
LINE
  8
0
  6
CONTINUOUS
 62
     2
 10
60.0
 20
89.0
 30
0.0
 11
72.0
 21
89.0
 31
0.0
  0
LINE
  8
0
  6
CONTINUOUS
 62
     2
 10
72.0
 20
89.0
 30
0.0
 11
69.585185434
 21
89.647047613
 31
0.0
  0
LINE
  8
0
  6
CONTINUOUS
 62
     2
 10
72.0
 20
89.0
 30
0.0
 11
69.585185434
 21
88.352952387
 31
0.0
  0
TEXT
  8
0
  6
CONTINUOUS
 62
     2
 10
54.02
 20
90.1
 30
0.18
 40
1.8
  1
±０．５
 50
0.0
 41
0.6
 51
0.0
  7
KANJI0
  0
TEXT
  8
0
  6
CONTINUOUS
 62
     2
 10
50.12
 20
90.1
 30
0.25
 40
2.5
  1
２４
 50
0.0
 41
0.6
 51
0.0
  7
KANJI2
  0
TEXT
  8
0
  6
CONTINUOUS
 62
     2
 10
65.92
 20
90.1
 30
0.18
 40
1.8
  1
±０．５
 50
0.0
 41
0.6
 51
0.0
  7
KANJI0
  0
TEXT
  8
0
  6
CONTINUOUS
 62
     2
 10
62.02
 20
90.1
 30
0.25
 40
2.5
  1
２４
 50
0.0
 41
0.6
 51
0.0
  7
KANJI2
  0
LINE
  8
0
  6
CONTINUOUS
 62
     2
 10
78.0
 20
70.0
 30
0.0
 11
78.647047613
 21
72.414814566
 31
0.0
  0
LINE
  8
0
  6
CONTINUOUS
 62
     2
 10
78.0
 20
70.0
 30
0.0
 11
77.352952387
 21
72.414814566
 31
0.0
  0
LINE
  8
0
  6
CONTINUOUS
 62
     2
 10
78.0
 20
70.0
 30
0.0
 11
78.0
 21
83.0
 31
0.0
  0
LINE
  8
0
  6
CONTINUOUS
 62
     2
 10
78.0
 20
83.0
 30
0.0
 11
77.352952387
 21
80.585185434
 31
0.0
  0
LINE
  8
0
  6
CONTINUOUS
 62
     2
 10
78.0
 20
83.0
 30
0.0
 11
78.647047613
 21
80.585185434
 31
0.0
  0
LINE
  8
0
  6
CONTINUOUS
 62
     2
 10
78.0
 20
70.0
 30
0.0
 11
77.352952387
 21
67.585185434
 31
0.0
  0
LINE
  8
0
  6
CONTINUOUS
 62
     2
 10
78.0
 20
70.0
 30
0.0
 11
78.647047613
 21
67.585185434
 31
0.0
  0
TEXT
  8
0
  6
CONTINUOUS
 62
     2
 10
76.8
 20
73.22
 30
0.25
 40
2.5
  1
２６
 50
90.0
 41
0.6
 51
0.0
  7
KANJI2
  0
TEXT
  8
0
  6
CONTINUOUS
 62
     2
 10
76.8
 20
76.82
 30
0.18
 40
1.8
  1
±０．５
 50
90.0
 41
0.6
 51
0.0
  7
KANJI0
  0
TEXT
  8
0
  6
CONTINUOUS
 62
     2
 10
76.9
 20
64.42
 30
0.18
 40
1.8
  1
±０．５
 50
90.0
 41
0.6
 51
0.0
  7
KANJI0
  0
TEXT
  8
0
  6
CONTINUOUS
 62
     2
 10
76.9
 20
60.82
 30
0.25
 40
2.5
  1
２２
 50
90.0
 41
0.6
 51
0.0
  7
KANJI2
  0
LINE
  8
0
  6
CONTINUOUS
 62
     2
 10
78.0
 20
70.0
 30
0.0
 11
78.0
 21
59.0
 31
0.0
  0
LINE
  8
0
  6
CONTINUOUS
 62
     2
 10
78.0
 20
59.0
 30
0.0
 11
78.647047613
 21
61.414814566
 31
0.0
  0
LINE
  8
0
  6
CONTINUOUS
 62
     2
 10
78.0
 20
59.0
 30
0.0
 11
77.352952387
 21
61.414814566
 31
0.0
  0
ARC
  8
0
  6
LTYPE1
 62
     2
 10
173.25
 20
137.25
 30
0.0
 40
3.0
 50
90.0
 51
180.0
  0
LINE
  8
0
  6
LTYPE1
 62
     2
 10
170.25
 20
131.75
 30
0.0
 11
170.25
 21
137.25
 31
0.0
  0
LINE
  8
0
  6
LTYPE1
 62
     2
 10
186.75
 20
128.75
 30
0.0
 11
173.25
 21
128.75
 31
0.0
  0
ARC
  8
0
  6
LTYPE1
 62
     2
 10
173.25
 20
131.75
 30
0.0
 40
3.0
 50
180.0
 51
270.0
  0
LINE
  8
0
  6
LTYPE1
 62
     2
 10
173.275
 20
140.25
 30
0.0
 11
186.75
 21
140.25
 31
0.0
  0
ARC
  8
0
  6
LTYPE1
 62
     2
 10
186.75
 20
137.25
 30
0.0
 40
3.0
 50
0.0
 51
90.0
  0
ARC
  8
0
  6
LTYPE1
 62
     2
 10
186.75
 20
131.75
 30
0.0
 40
3.0
 50
270.0
 51
0.0
  0
LINE
  8
0
  6
LTYPE1
 62
     2
 10
189.75
 20
137.25
 30
0.0
 11
189.75
 21
131.75
 31
0.0
  0
POINT
  8
0
  6
CONTINUOUS
 62
     2
 10
175.0
 20
133.35
 30
0.0
  0
POINT
  8
0
  6
CONTINUOUS
 62
     2
 10
187.5
 20
133.35
 30
0.0
  0
LINE
  8
0
  6
LTYPE1
 62
     2
 10
175.0
 20
133.35
 30
0.0
 11
172.5
 21
133.35
 31
0.0
  0
LINE
  8
0
  6
LTYPE1
 62
     2
 10
172.5
 20
133.35
 30
0.0
 11
172.5
 21
130.35
 31
0.0
  0
LINE
  8
0
  6
LTYPE1
 62
     2
 10
175.0
 20
133.35
 30
0.0
 11
175.0
 21
130.35
 31
0.0
  0
LINE
  8
0
  6
LTYPE1
 62
     2
 10
187.5
 20
133.35
 30
0.0
 11
185.0
 21
133.35
 31
0.0
  0
LINE
  8
0
  6
LTYPE1
 62
     2
 10
185.0
 20
133.35
 30
0.0
 11
185.0
 21
130.35
 31
0.0
  0
LINE
  8
0
  6
LTYPE1
 62
     2
 10
187.5
 20
133.35
 30
0.0
 11
187.5
 21
130.35
 31
0.0
  0
LINE
  8
0
  6
LTYPE2
 62
     2
 10
177.0
 20
141.95
 30
0.0
 11
183.0
 21
141.95
 31
0.0
  0
LINE
  8
0
  6
LTYPE2
 62
     2
 10
170.75
 20
136.75
 30
0.0
 11
176.75
 21
136.75
 31
0.0
  0
LINE
  8
0
  6
LTYPE2
 62
     2
 10
173.75
 20
139.75
 30
0.0
 11
173.75
 21
133.75
 31
0.0
  0
LINE
  8
0
  6
LTYPE2
 62
     2
 10
183.25
 20
136.75
 30
0.0
 11
189.25
 21
136.75
 31
0.0
  0
LINE
  8
0
  6
LTYPE2
 62
     2
 10
186.25
 20
139.75
 30
0.0
 11
186.25
 21
133.75
 31
0.0
  0
CIRCLE
  8
0
  6
CONTINUOUS
 62
     2
 10
180.0
 20
141.95
 30
0.0
 40
2.0
  0
TEXT
  8
0
  6
CONTINUOUS
 62
     2
 10
114.65
 20
72.8
 30
0.3
 40
3.0
  1
注１．感度調整用抵抗器は□ＣＦ－６Ｖ形に限り付きます。（□：Ｄ，Ｓ，Ｃ）
 50
0.0
 41
0.9
 51
0.0
  7
KANJI1
  0
TEXT
  8
0
  6
CONTINUOUS
 62
     2
 10
114.65
 20
67.8
 30
0.3
 40
3.0
  1
注２．ＡＣＦ－６形交流電流計で１０Ａ以上，３０Ａ以下の場合は
 50
0.0
 41
0.9
 51
0.0
  7
KANJI1
  0
LINE
  8
0
  6
LTYPE3
 62
     2
 10
46.0
 20
127.5
 30
0.0
 11
49.0
 21
127.5
 31
0.0
  0
LINE
  8
0
  6
LTYPE3
 62
     2
 10
47.5
 20
129.0
 30
0.0
 11
47.5
 21
126.0
 31
0.0
  0
LINE
  8
0
  6
LTYPE3
 62
     2
 10
63.0
 20
123.25
 30
0.0
 11
57.0
 21
123.25
 31
0.0
  0
LINE
  8
0
  6
LTYPE3
 62
     2
 10
71.0
 20
127.5
 30
0.0
 11
74.0
 21
127.5
 31
0.0
  0
LINE
  8
0
  6
LTYPE3
 62
     2
 10
72.5
 20
129.0
 30
0.0
 11
72.5
 21
126.0
 31
0.0
  0
LINE
  8
0
  6
LTYPE3
 62
     2
 10
48.0
 20
85.5
 30
0.0
 11
48.0
 21
80.5
 31
0.0
  0
LINE
  8
0
  6
LTYPE3
 62
     2
 10
45.5
 20
83.0
 30
0.0
 11
50.5
 21
83.0
 31
0.0
  0
LINE
  8
0
  6
LTYPE3
 62
     2
 10
72.0
 20
85.5
 30
0.0
 11
72.0
 21
80.5
 31
0.0
  0
LINE
  8
0
  6
LTYPE3
 62
     2
 10
69.5
 20
83.0
 30
0.0
 11
74.5
 21
83.0
 31
0.0
  0
LINE
  8
0
  6
LTYPE3
 62
     2
 10
72.0
 20
61.5
 30
0.0
 11
72.0
 21
56.5
 31
0.0
  0
LINE
  8
0
  6
LTYPE3
 62
     2
 10
69.5
 20
59.0
 30
0.0
 11
74.5
 21
59.0
 31
0.0
  0
LINE
  8
0
  6
LTYPE3
 62
     2
 10
48.0
 20
61.5
 30
0.0
 11
48.0
 21
56.5
 31
0.0
  0
LINE
  8
0
  6
LTYPE3
 62
     2
 10
45.5
 20
59.0
 30
0.0
 11
50.5
 21
59.0
 31
0.0
  0
LINE
  8
0
  6
CONTINUOUS
 62
     2
 10
72.0
 20
86.0
 30
0.0
 11
72.0
 21
91.0
 31
0.0
  0
LINE
  8
0
  6
CONTINUOUS
 62
     2
 10
48.0
 20
86.0
 30
0.0
 11
48.0
 21
91.0
 31
0.0
  0
LINE
  8
0
  6
CONTINUOUS
 62
     2
 10
60.0
 20
86.0
 30
0.0
 11
60.0
 21
91.0
 31
0.0
  0
LINE
  8
0
  6
CONTINUOUS
 62
     2
 10
75.0
 20
83.0
 30
0.0
 11
80.0
 21
83.0
 31
0.0
  0
LINE
  8
0
  6
CONTINUOUS
 62
     2
 10
75.0
 20
59.0
 30
0.0
 11
80.0
 21
59.0
 31
0.0
  0
LINE
  8
0
  6
CONTINUOUS
 62
     2
 10
75.0
 20
70.0
 30
0.0
 11
80.0
 21
70.0
 31
0.0
  0
LINE
  8
0
  6
LTYPE3
 62
     2
 10
168.0
 20
149.5
 30
0.0
 11
168.0
 21
144.5
 31
0.0
  0
LINE
  8
0
  6
LTYPE3
 62
     2
 10
165.5
 20
147.0
 30
0.0
 11
170.5
 21
147.0
 31
0.0
  0
LINE
  8
0
  6
LTYPE3
 62
     2
 10
189.5
 20
147.0
 30
0.0
 11
194.5
 21
147.0
 31
0.0
  0
LINE
  8
0
  6
LTYPE3
 62
     2
 10
192.0
 20
149.5
 30
0.0
 11
192.0
 21
144.5
 31
0.0
  0
LINE
  8
0
  6
LTYPE3
 62
     2
 10
192.0
 20
125.5
 30
0.0
 11
192.0
 21
120.5
 31
0.0
  0
LINE
  8
0
  6
LTYPE3
 62
     2
 10
189.5
 20
123.0
 30
0.0
 11
194.5
 21
123.0
 31
0.0
  0
LINE
  8
0
  6
LTYPE3
 62
     2
 10
168.0
 20
125.5
 30
0.0
 11
168.0
 21
120.5
 31
0.0
  0
LINE
  8
0
  6
LTYPE3
 62
     2
 10
165.5
 20
123.0
 30
0.0
 11
170.5
 21
123.0
 31
0.0
  0
LINE
  8
0
  6
CONTINUOUS
 62
     2
 10
168.0
 20
150.0
 30
0.0
 11
168.0
 21
157.0
 31
0.0
  0
LINE
  8
0
  6
CONTINUOUS
 62
     2
 10
180.0
 20
152.5
 30
0.0
 11
180.0
 21
157.0
 31
0.0
  0
LINE
  8
0
  6
CONTINUOUS
 62
     2
 10
180.0
 20
155.0
 30
0.0
 11
177.585185434
 21
155.647047613
 31
0.0
  0
LINE
  8
0
  6
CONTINUOUS
 62
     2
 10
192.0
 20
150.0
 30
0.0
 11
192.0
 21
157.0
 31
0.0
  0
LINE
  8
0
  6
CONTINUOUS
 62
     2
 10
195.0
 20
147.0
 30
0.0
 11
203.25
 21
147.0
 31
0.0
  0
LINE
  8
0
  6
CONTINUOUS
 62
     2
 10
195.0
 20
123.0
 30
0.0
 11
203.25
 21
123.0
 31
0.0
  0
LINE
  8
0
  6
LTYPE3
 62
     2
 10
198.25
 20
134.0
 30
0.0
 11
157.8
 21
134.0
 31
0.0
  0
LINE
  8
0
  6
CONTINUOUS
 62
     2
 10
198.75
 20
134.0
 30
0.0
 11
203.25
 21
134.0
 31
0.0
  0
LINE
  8
0
  6
LTYPE3
 62
     2
 10
60.0
 20
157.5
 30
0.0
 11
60.0
 21
110.0
 31
0.0
  0
LINE
  8
0
  6
CONTINUOUS
 62
     2
 10
118.0
 20
155.0
 30
0.0
 11
113.0
 21
155.0
 31
0.0
  0
LINE
  8
0
  6
CONTINUOUS
 62
     2
 10
113.0
 20
154.95
 30
0.0
 11
113.0
 21
157.0
 31
0.0
  0
LINE
  8
0
  6
CONTINUOUS
 62
     2
 10
112.75
 20
151.0
 30
0.0
 11
112.75
 21
157.0
 31
0.0
  0
LINE
  8
0
  6
CONTINUOUS
 62
     2
 10
112.75
 20
155.0
 30
0.0
 11
110.335185434
 21
155.647047613
 31
0.0
  0
LINE
  8
0
  6
CONTINUOUS
 62
     2
 10
112.75
 20
155.0
 30
0.0
 11
110.335185434
 21
154.352952387
 31
0.0
  0
LINE
  8
0
  6
CONTINUOUS
 62
     2
 10
113.0
 20
155.0
 30
0.0
 11
115.414814566
 21
154.352952387
 31
0.0
  0
LINE
  8
0
  6
CONTINUOUS
 62
     2
 10
113.0
 20
155.0
 30
0.0
 11
115.414814566
 21
155.647047613
 31
0.0
  0
LINE
  8
0
  6
CONTINUOUS
 62
     2
 10
113.0
 20
155.0
 30
0.0
 11
113.0
 21
153.0
 31
0.0
  0
LINE
  8
0
  6
CONTINUOUS
 62
     2
 10
107.35
 20
155.0
 30
0.0
 11
118.0
 21
155.0
 31
0.0
  0
LINE
  8
0
  6
CONTINUOUS
 62
     2
 10
128.0
 20
148.0
 30
0.0
 11
128.0
 21
161.85
 31
0.0
  0
LINE
  8
0
  6
CONTINUOUS
 62
     2
 10
113.0
 20
155.0
 30
0.0
 11
115.0
 21
155.535898385
 31
0.0
  0
LINE
  8
0
  6
CONTINUOUS
 62
     2
 10
118.0
 20
155.0
 30
0.0
 11
116.0
 21
155.535898385
 31
0.0
  0
LINE
  8
0
  6
CONTINUOUS
 62
     2
 10
113.0
 20
155.0
 30
0.0
 11
115.0
 21
154.464101615
 31
0.0
  0
LINE
  8
0
  6
CONTINUOUS
 62
     2
 10
118.0
 20
155.0
 30
0.0
 11
116.0
 21
154.464101615
 31
0.0
  0
LINE
  8
0
  6
CONTINUOUS
 62
     2
 10
106.5
 20
149.5
 30
0.0
 11
106.5
 21
160.65
 31
0.0
  0
LINE
  8
0
  6
CONTINUOUS
 62
     2
 10
128.0
 20
120.0
 30
0.0
 11
128.0
 21
113.0
 31
0.0
  0
LINE
  8
0
  6
CONTINUOUS
 62
     2
 10
128.0
 20
115.0
 30
0.0
 11
130.414814566
 21
114.352952387
 31
0.0
  0
LINE
  8
0
  6
CONTINUOUS
 62
     2
 10
128.0
 20
115.0
 30
0.0
 11
130.414814566
 21
115.647047613
 31
0.0
  0
LINE
  8
0
  6
CONTINUOUS
 62
     2
 10
128.0
 20
115.0
 30
0.0
 11
135.0
 21
115.0
 31
0.0
  0
LINE
  8
0
  6
CONTINUOUS
 62
     2
 10
135.0
 20
115.0
 30
0.0
 11
132.585185434
 21
115.647047613
 31
0.0
  0
LINE
  8
0
  6
CONTINUOUS
 62
     2
 10
135.0
 20
115.0
 30
0.0
 11
132.585185434
 21
114.352952387
 31
0.0
  0
LINE
  8
0
  6
CONTINUOUS
 62
     2
 10
135.0
 20
130.45
 30
0.0
 11
135.0
 21
113.0
 31
0.0
  0
TEXT
  8
0
  6
CONTINUOUS
 62
     2
 10
106.75
 20
156.0
 30
0.25
 40
2.5
  1
０．５
 50
0.0
 41
0.6
 51
0.0
  7
KANJI2
  0
TEXT
  8
0
  6
CONTINUOUS
 62
     2
 10
113.55
 20
156.0
 30
0.25
 40
2.5
  1
１０
 50
0.0
 41
0.6
 51
0.0
  7
KANJI2
  0
TEXT
  8
0
  6
CONTINUOUS
 62
     2
 10
129.55
 20
116.0
 30
0.25
 40
2.5
  1
１４
 50
0.0
 41
0.6
 51
0.0
  7
KANJI2
  0
LINE
  8
0
  6
CONTINUOUS
 62
     2
 10
106.65
 20
129.5
 30
0.0
 11
106.45
 21
129.5
 31
0.0
  0
LINE
  8
0
  6
CONTINUOUS
 62
     2
 10
106.45
 20
129.5
 30
0.0
 11
106.45
 21
126.5
 31
0.0
  0
LINE
  8
0
  6
CONTINUOUS
 62
     2
 10
106.45
 20
126.5
 30
0.0
 11
106.65
 21
126.5
 31
0.0
  0
LINE
  8
0
  6
CONTINUOUS
 62
     2
 10
105.8
 20
128.25
 30
0.0
 11
106.45
 21
128.25
 31
0.0
  0
LINE
  8
0
  6
CONTINUOUS
 62
     2
 10
105.8
 20
127.75
 30
0.0
 11
106.45
 21
127.75
 31
0.0
  0
LINE
  8
0
  6
CONTINUOUS
 62
     2
 10
106.05
 20
129.375
 30
0.0
 11
106.45
 21
129.375
 31
0.0
  0
LINE
  8
0
  6
CONTINUOUS
 62
     2
 10
106.05
 20
129.375
 30
0.0
 11
106.05
 21
128.25
 31
0.0
  0
LINE
  8
0
  6
CONTINUOUS
 62
     2
 10
106.05
 20
127.75
 30
0.0
 11
106.05
 21
126.625
 31
0.0
  0
LINE
  8
0
  6
CONTINUOUS
 62
     2
 10
106.05
 20
126.625
 30
0.0
 11
106.45
 21
126.625
 31
0.0
  0
LINE
  8
0
  6
CONTINUOUS
 62
     2
 10
105.8
 20
128.25
 30
0.0
 11
105.8
 21
128.706392775
 31
0.0
  0
LINE
  8
0
  6
CONTINUOUS
 62
     2
 10
105.843094226
 20
128.909462008
 30
0.0
 11
106.05
 21
129.375
 31
0.0
  0
ARC
  8
0
  6
CONTINUOUS
 62
     2
 10
106.3
 20
128.706392775
 30
0.0
 40
0.5
 50
156.037511025
 51
180.0
  0
LINE
  8
0
  6
CONTINUOUS
 62
     2
 10
105.8
 20
127.75
 30
0.0
 11
105.8
 21
127.293607225
 31
0.0
  0
LINE
  8
0
  6
CONTINUOUS
 62
     2
 10
105.843094226
 20
127.090537992
 30
0.0
 11
106.05
 21
126.625
 31
0.0
  0
ARC
  8
0
  6
CONTINUOUS
 62
     2
 10
106.3
 20
127.293607225
 30
0.0
 40
0.5
 50
180.0
 51
203.962488975
  0
LINE
  8
0
  6
CONTINUOUS
 62
     2
 10
106.75
 20
148.4
 30
0.0
 11
106.5
 21
148.4
 31
0.0
  0
LINE
  8
0
  6
CONTINUOUS
 62
     2
 10
106.5
 20
148.4
 30
0.0
 11
106.5
 21
132.0
 31
0.0
  0
LINE
  8
0
  6
CONTINUOUS
 62
     2
 10
106.5
 20
132.0
 30
0.0
 11
106.75
 21
132.0
 31
0.0
  0
LINE
  8
0
  6
CONTINUOUS
 62
     2
 10
113.0
 20
150.0
 30
0.0
 11
113.0
 21
161.85
 31
0.0
  0
LINE
  8
0
  6
CONTINUOUS
 62
     2
 10
118.0
 20
148.775
 30
0.0
 11
118.0
 21
157.0
 31
0.0
  0
LINE
  8
0
  6
CONTINUOUS
 62
     2
 10
113.0
 20
160.0
 30
0.0
 11
110.585185434
 21
160.647047613
 31
0.0
  0
LINE
  8
0
  6
CONTINUOUS
 62
     2
 10
113.0
 20
160.0
 30
0.0
 11
110.585185434
 21
159.352952387
 31
0.0
  0
LINE
  8
0
  6
CONTINUOUS
 62
     2
 10
113.0
 20
160.0
 30
0.0
 11
106.5
 21
160.0
 31
0.0
  0
LINE
  8
0
  6
CONTINUOUS
 62
     2
 10
106.5
 20
160.0
 30
0.0
 11
108.914814566
 21
159.352952387
 31
0.0
  0
LINE
  8
0
  6
CONTINUOUS
 62
     2
 10
106.5
 20
160.0
 30
0.0
 11
108.914814566
 21
160.647047613
 31
0.0
  0
POINT
  8
0
  6
CONTINUOUS
 62
     2
 10
106.5
 20
160.0
 30
0.0
  0
TEXT
  8
0
  6
CONTINUOUS
 62
     2
 10
105.7
 20
161.0
 30
0.25
 40
2.5
  1
１２．５
 50
0.0
 41
0.6
 51
0.0
  7
KANJI2
  0
LINE
  8
0
  6
CONTINUOUS
 62
     2
 10
113.0
 20
160.0
 30
0.0
 11
115.414814566
 21
159.352952387
 31
0.0
  0
LINE
  8
0
  6
CONTINUOUS
 62
     2
 10
113.0
 20
160.0
 30
0.0
 11
115.414814566
 21
160.647047613
 31
0.0
  0
LINE
  8
0
  6
CONTINUOUS
 62
     2
 10
113.0
 20
160.0
 30
0.0
 11
128.0
 21
160.0
 31
0.0
  0
LINE
  8
0
  6
CONTINUOUS
 62
     2
 10
128.0
 20
160.0
 30
0.0
 11
125.585185434
 21
160.647047613
 31
0.0
  0
LINE
  8
0
  6
CONTINUOUS
 62
     2
 10
128.0
 20
160.0
 30
0.0
 11
125.585185434
 21
159.352952387
 31
0.0
  0
LINE
  8
0
  6
CONTINUOUS
 62
     2
 10
128.0
 20
160.0
 30
0.0
 11
130.414814566
 21
159.352952387
 31
0.0
  0
LINE
  8
0
  6
CONTINUOUS
 62
     2
 10
128.0
 20
160.0
 30
0.0
 11
130.414814566
 21
160.647047613
 31
0.0
  0
LINE
  8
0
  6
CONTINUOUS
 62
     2
 10
128.0
 20
160.0
 30
0.0
 11
133.95
 21
160.0
 31
0.0
  0
LINE
  8
0
  6
CONTINUOUS
 62
     2
 10
133.95
 20
160.0
 30
0.0
 11
131.535185434
 21
160.647047613
 31
0.0
  0
LINE
  8
0
  6
CONTINUOUS
 62
     2
 10
133.95
 20
160.0
 30
0.0
 11
131.535185434
 21
159.352952387
 31
0.0
  0
TEXT
  8
0
  6
CONTINUOUS
 62
     2
 10
118.55
 20
161.0
 30
0.25
 40
2.5
  1
３０
 50
0.0
 41
0.6
 51
0.0
  7
KANJI2
  0
LINE
  8
0
  6
CONTINUOUS
 62
     2
 10
113.0
 20
160.15
 30
0.0
 11
113.0
 21
162.15
 31
0.0
  0
LINE
  8
0
  6
CONTINUOUS
 62
     2
 10
123.0
 20
147.0
 30
0.0
 11
122.352952387
 21
144.585185434
 31
0.0
  0
LINE
  8
0
  6
CONTINUOUS
 62
     2
 10
123.0
 20
147.0
 30
0.0
 11
123.647047613
 21
144.585185434
 31
0.0
  0
LINE
  8
0
  6
CONTINUOUS
 62
     2
 10
123.0
 20
147.0
 30
0.0
 11
123.0
 21
121.0
 31
0.0
  0
LINE
  8
0
  6
CONTINUOUS
 62
     2
 10
123.0
 20
121.0
 30
0.0
 11
123.647047613
 21
123.414814566
 31
0.0
  0
LINE
  8
0
  6
CONTINUOUS
 62
     2
 10
123.0
 20
121.0
 30
0.0
 11
122.352952387
 21
123.414814566
 31
0.0
  0
TEXT
  8
0
  6
CONTINUOUS
 62
     2
 10
122.0
 20
130.5
 30
0.5
 40
3.0
  1
φ５２
 50
90.0
 41
0.666666667
 51
0.0
  7
KANJI3
  0
LINE
  8
0
  6
LTYPE3
 62
     2
 10
119.75
 20
147.05
 30
0.0
 11
111.95
 21
147.05
 31
0.0
  0
LINE
  8
0
  6
LTYPE3
 62
     2
 10
111.95
 20
122.95
 30
0.0
 11
119.35
 21
122.95
 31
0.0
  0
LINE
  8
0
  6
LTYPE3
 62
     2
 10
130.0
 20
141.7
 30
0.0
 11
126.0
 21
141.7
 31
0.0
  0
LINE
  8
0
  6
LTYPE3
 62
     2
 10
126.7
 20
136.75
 30
0.0
 11
135.7
 21
136.75
 31
0.0
  0
LINE
  8
0
  6
CONTINUOUS
 62
     2
 10
132.6
 20
135.25
 30
0.0
 11
133.230116473
 21
132.830712247
 31
0.0
  0
LINE
  8
0
  6
CONTINUOUS
 62
     2
 10
132.6
 20
135.25
 30
0.0
 11
134.355340749
 21
133.469893584
 31
0.0
  0
TEXT
  8
0
  6
CONTINUOUS
 62
     2
 10
147.551560366
 20
112.675
 30
0.3
 40
3.0
  1
注２
 50
0.0
 41
0.9
 51
0.0
  7
KANJI1
  0
TEXT
  8
0
  6
CONTINUOUS
 62
     2
 10
148.079306463
 20
109.0
 30
0.3
 40
3.0
  1
Ｍ４（Ｍ５）ターミナルネジ
 50
0.0
 41
0.9
 51
0.0
  7
KANJI1
  0
LINE
  8
0
  6
CONTINUOUS
 62
     2
 10
132.6
 20
135.25
 30
0.0
 11
148.079306463
 21
108.0
 31
0.0
  0
LINE
  8
0
  6
CONTINUOUS
 62
     2
 10
117.6
 20
121.95
 30
0.0
 11
118.230116473
 21
119.530712247
 31
0.0
  0
LINE
  8
0
  6
CONTINUOUS
 62
     2
 10
117.6
 20
121.95
 30
0.0
 11
119.355340749
 21
120.169893584
 31
0.0
  0
TEXT
  8
0
  6
CONTINUOUS
 62
     2
 10
125.524268813
 20
109.0
 30
0.3
 40
3.0
  1
Ｍ３取付ボルト
 50
0.0
 41
0.9
 51
0.0
  7
KANJI1
  0
LINE
  8
0
  6
CONTINUOUS
 62
     2
 10
117.6
 20
121.95
 30
0.0
 11
125.524268813
 21
108.0
 31
0.0
  0
LINE
  8
0
  6
CONTINUOUS
 62
     2
 10
125.524268813
 20
108.0
 30
0.0
 11
146.424268813
 21
108.0
 31
0.0
  0
LINE
  8
0
  6
CONTINUOUS
 62
     2
 10
61.25
 20
127.0
 30
0.0
 11
61.880116473
 21
124.580712247
 31
0.0
  0
LINE
  8
0
  6
CONTINUOUS
 62
     2
 10
61.25
 20
127.0
 30
0.0
 11
63.005340749
 21
125.219893584
 31
0.0
  0
TEXT
  8
0
  6
CONTINUOUS
 62
     2
 10
72.042910929
 20
109.0
 30
0.3
 40
3.0
  1
予定指針調整器
 50
0.0
 41
0.9
 51
0.0
  7
KANJI1
  0
LINE
  8
0
  6
CONTINUOUS
 62
     2
 10
61.25
 20
127.0
 30
0.0
 11
72.042910929
 21
108.0
 31
0.0
  0
LINE
  8
0
  6
CONTINUOUS
 62
     2
 10
72.042910929
 20
108.0
 30
0.0
 11
93.442910929
 21
108.0
 31
0.0
  0
LINE
  8
0
  6
CONTINUOUS
 62
     2
 10
58.7
 20
122.2
 30
0.0
 11
58.069883527
 21
119.780712247
 31
0.0
  0
LINE
  8
0
  6
CONTINUOUS
 62
     2
 10
58.7
 20
122.2
 30
0.0
 11
56.944659251
 21
120.419893584
 31
0.0
  0
TEXT
  8
0
  6
CONTINUOUS
 62
     2
 10
35.933719201
 20
109.0
 30
0.3
 40
3.0
  1
零位調整器
 50
0.0
 41
0.9
 51
0.0
  7
KANJI1
  0
LINE
  8
0
  6
CONTINUOUS
 62
     2
 10
58.7
 20
122.2
 30
0.0
 11
50.633719201
 21
108.0
 31
0.0
  0
LINE
  8
0
  6
CONTINUOUS
 62
     2
 10
50.633719201
 20
108.0
 30
0.0
 11
35.433719201
 21
108.0
 31
0.0
  0
LINE
  8
0
  6
CONTINUOUS
 62
     2
 10
148.079306463
 20
108.0
 30
0.0
 11
187.079306463
 21
108.0
 31
0.0
  0
LINE
  8
0
  6
CONTINUOUS
 62
     2
 10
133.304169448
 20
140.5
 30
0.0
 11
133.934285921
 21
142.919287753
 31
0.0
  0
LINE
  8
0
  6
CONTINUOUS
 62
     2
 10
133.304169448
 20
140.5
 30
0.0
 11
135.059510198
 21
142.280106416
 31
0.0
  0
TEXT
  8
0
  6
CONTINUOUS
 62
     2
 10
136.71245711
 20
147.5
 30
0.3
 40
3.0
  1
端子キャップ
 50
0.0
 41
0.9
 51
0.0
  7
KANJI1
  0
LINE
  8
0
  6
CONTINUOUS
 62
     2
 10
133.304169448
 20
140.5
 30
0.0
 11
136.71245711
 21
146.5
 31
0.0
  0
LINE
  8
0
  6
CONTINUOUS
 62
     2
 10
136.71245711
 20
146.5
 30
0.0
 11
155.01245711
 21
146.5
 31
0.0
  0
LINE
  8
0
  6
CONTINUOUS
 62
     2
 10
66.45
 20
143.9
 30
0.0
 11
67.080116473
 21
146.319287753
 31
0.0
  0
LINE
  8
0
  6
CONTINUOUS
 62
     2
 10
66.45
 20
143.9
 30
0.0
 11
68.205340749
 21
145.680106416
 31
0.0
  0
TEXT
  8
0
  6
CONTINUOUS
 62
     2
 10
75.595571892
 20
161.0
 30
0.3
 40
3.0
  1
予定指針（赤色）
 50
0.0
 41
0.9
 51
0.0
  7
KANJI1
  0
LINE
  8
0
  6
CONTINUOUS
 62
     2
 10
66.45
 20
143.9
 30
0.0
 11
75.595571892
 21
160.0
 31
0.0
  0
LINE
  8
0
  6
CONTINUOUS
 62
     2
 10
75.595571892
 20
160.0
 30
0.0
 11
98.595571892
 21
160.0
 31
0.0
  0
LINE
  8
0
  6
CONTINUOUS
 62
     2
 10
48.2
 20
140.2
 30
0.0
 11
48.830116473
 21
142.619287753
 31
0.0
  0
LINE
  8
0
  6
CONTINUOUS
 62
     2
 10
48.2
 20
140.2
 30
0.0
 11
49.955340749
 21
141.980106416
 31
0.0
  0
TEXT
  8
0
  6
CONTINUOUS
 62
     2
 10
59.447349283
 20
161.0
 30
0.3
 40
3.0
  1
指針
 50
0.0
 41
0.9
 51
0.0
  7
KANJI1
  0
LINE
  8
0
  6
CONTINUOUS
 62
     2
 10
48.2
 20
140.2
 30
0.0
 11
59.447349283
 21
160.0
 31
0.0
  0
LINE
  8
0
  6
CONTINUOUS
 62
     2
 10
59.447349283
 20
160.0
 30
0.0
 11
65.847349283
 21
160.0
 31
0.0
  0
LINE
  8
0
  6
CONTINUOUS
 62
     2
 10
73.0
 20
58.0
 30
0.0
 11
73.630116473
 21
55.580712247
 31
0.0
  0
LINE
  8
0
  6
CONTINUOUS
 62
     2
 10
73.0
 20
58.0
 30
0.0
 11
74.755340749
 21
56.219893584
 31
0.0
  0
LINE
  8
0
  6
CONTINUOUS
 62
     2
 10
77.62959074
 20
49.85
 30
0.0
 11
86.32959074
 21
49.85
 31
0.0
  0
TEXT
  8
0
  6
CONTINUOUS
 62
     2
 10
77.62959074
 20
50.85
 30
0.416666667
 40
2.5
  1
４－φ４
 50
0.0
 41
0.6
 51
0.0
  7
KANJI4
  0
TEXT
  8
0
  6
CONTINUOUS
 62
     2
 10
85.94959074
 20
50.75
 30
0.18
 40
1.8
  1
－０
 50
0.0
 41
0.6
 51
0.0
  7
KANJI0
  0
TEXT
  8
0
  6
CONTINUOUS
 62
     2
 10
85.94959074
 20
52.55
 30
0.18
 40
1.8
  1
＋０．５
 50
0.0
 41
0.6
 51
0.0
  7
KANJI0
  0
LINE
  8
0
  6
CONTINUOUS
 62
     2
 10
73.0
 20
58.0
 30
0.0
 11
77.62959074
 21
49.85
 31
0.0
  0
LINE
  8
0
  6
CONTINUOUS
 62
     2
 10
181.32959074
 20
143.85
 30
0.0
 11
181.959707213
 21
146.269287753
 31
0.0
  0
LINE
  8
0
  6
CONTINUOUS
 62
     2
 10
181.32959074
 20
143.85
 30
0.0
 11
183.08493149
 21
145.630106416
 31
0.0
  0
TEXT
  8
0
  6
CONTINUOUS
 62
     2
 10
192.491732832
 20
164.5
 30
0.3
 40
3.0
  1
感度調整用抵抗器
 50
0.0
 41
0.9
 51
0.0
  7
KANJI1
  0
LINE
  8
0
  6
CONTINUOUS
 62
     2
 10
192.491732832
 20
163.5
 30
0.0
 11
216.491732832
 21
163.5
 31
0.0
  0
TEXT
  8
0
  6
CONTINUOUS
 62
     2
 10
192.491732832
 20
168.9
 30
0.3
 40
3.0
  1
注１
 50
0.0
 41
0.9
 51
0.0
  7
KANJI1
  0
LINE
  8
0
  6
CONTINUOUS
 62
     2
 10
181.32959074
 20
143.85
 30
0.0
 11
192.491732832
 21
163.5
 31
0.0
  0
LINE
  8
0
  6
CONTINUOUS
 62
     2
 10
133.95
 20
138.8
 30
0.0
 11
133.95
 21
162.0
 31
0.0
  0
LINE
  8
0
  6
LTYPE1
 62
     2
 10
128.0
 20
130.8
 30
0.0
 11
128.25
 21
130.8
 31
0.0
  0
LINE
  8
0
  6
CONTINUOUS
 62
     2
 10
128.0
 20
138.8
 30
0.0
 11
128.5
 21
138.8
 31
0.0
  0
LINE
  8
0
  6
CONTINUOUS
 62
     2
 10
128.5
 20
134.8
 30
0.0
 11
128.0
 21
134.8
 31
0.0
  0
LINE
  8
0
  6
CONTINUOUS
 62
     2
 10
128.5
 20
138.8
 30
0.0
 11
128.5
 21
134.8
 31
0.0
  0
LINE
  8
0
  6
CONTINUOUS
 62
     2
 10
128.5
 20
138.6
 30
0.0
 11
128.5
 21
138.725
 31
0.0
  0
LINE
  8
0
  6
LTYPE1
 62
     2
 10
128.9
 20
138.725
 30
0.0
 11
128.9
 21
133.35
 31
0.0
  0
LINE
  8
0
  6
LTYPE1
 62
     2
 10
128.5
 20
138.725
 30
0.0
 11
128.9
 21
138.725
 31
0.0
  0
LINE
  8
0
  6
LTYPE1
 62
     2
 10
128.0
 20
133.35
 30
0.0
 11
130.5
 21
133.35
 31
0.0
  0
LINE
  8
0
  6
LTYPE1
 62
     2
 10
130.5
 20
133.35
 30
0.0
 11
130.5
 21
130.35
 31
0.0
  0
LINE
  8
0
  6
LTYPE1
 62
     2
 10
128.5
 20
134.8
 30
0.0
 11
128.5
 21
133.35
 31
0.0
  0
ARC
  8
0
  6
LTYPE1
 62
     2
 10
132.0
 20
137.25
 30
0.0
 40
3.0
 50
0.0
 51
90.0
  0
LINE
  8
0
  6
LTYPE1
 62
     2
 10
128.0
 20
139.65
 30
0.0
 11
128.25
 21
139.65
 31
0.0
  0
LINE
  8
0
  6
LTYPE1
 62
     2
 10
128.25
 20
128.75
 30
0.0
 11
128.25
 21
139.65
 31
0.0
  0
LINE
  8
0
  6
LTYPE1
 62
     2
 10
128.0
 20
140.25
 30
0.0
 11
132.0
 21
140.25
 31
0.0
  0
LINE
  8
0
  6
LTYPE1
 62
     2
 10
135.0
 20
137.25
 30
0.0
 11
135.0
 21
131.75
 31
0.0
  0
LINE
  8
0
  6
LTYPE1
 62
     2
 10
132.0
 20
128.75
 30
0.0
 11
128.0
 21
128.75
 31
0.0
  0
ARC
  8
0
  6
LTYPE1
 62
     2
 10
132.0
 20
131.75
 30
0.0
 40
3.0
 50
270.0
 51
0.0
  0
LINE
  8
0
  6
CONTINUOUS
 62
     2
 10
131.822253903
 20
138.85
 30
0.0
 11
130.572253903
 21
138.85
 31
0.0
  0
LINE
  8
0
  6
CONTINUOUS
 62
     2
 10
131.822253903
 20
138.85
 30
0.0
 11
132.072253903
 21
138.6
 31
0.0
  0
LINE
  8
0
  6
CONTINUOUS
 62
     2
 10
129.9
 20
138.6
 30
0.0
 11
130.4
 21
138.6
 31
0.0
  0
LINE
  8
0
  6
CONTINUOUS
 62
     2
 10
130.4
 20
138.6
 30
0.0
 11
130.1
 21
136.95
 31
0.0
  0
LINE
  8
0
  6
CONTINUOUS
 62
     2
 10
130.1
 20
136.95
 30
0.0
 11
129.6
 21
136.95
 31
0.0
  0
LINE
  8
0
  6
CONTINUOUS
 62
     2
 10
129.6
 20
136.95
 30
0.0
 11
129.9
 21
138.6
 31
0.0
  0
LINE
  8
0
  6
CONTINUOUS
 62
     2
 10
131.812253903
 20
137.785
 30
0.0
 11
132.072253903
 21
138.085
 31
0.0
  0
LINE
  8
0
  6
CONTINUOUS
 62
     2
 10
130.213636364
 20
137.575
 30
0.0
 11
130.572253903
 21
137.575
 31
0.0
  0
LINE
  8
0
  6
CONTINUOUS
 62
     2
 10
130.35
 20
136.65
 30
0.0
 11
129.85
 21
136.65
 31
0.0
  0
LINE
  8
0
  6
CONTINUOUS
 62
     2
 10
132.072253903
 20
136.075
 30
0.0
 11
131.772253903
 21
135.805
 31
0.0
  0
LINE
  8
0
  6
CONTINUOUS
 62
     2
 10
130.572253903
 20
136.075
 30
0.0
 11
130.272253903
 21
136.075
 31
0.0
  0
LINE
  8
0
  6
CONTINUOUS
 62
     2
 10
131.772253903
 20
134.775
 30
0.0
 11
132.072253903
 21
135.075
 31
0.0
  0
LINE
  8
0
  6
CONTINUOUS
 62
     2
 10
130.572253903
 20
134.8
 30
0.0
 11
131.822253903
 21
134.8
 31
0.0
  0
LINE
  8
0
  6
CONTINUOUS
 62
     2
 10
129.6
 20
135.05
 30
0.0
 11
130.1
 21
135.05
 31
0.0
  0
LINE
  8
0
  6
CONTINUOUS
 62
     2
 10
129.85
 20
136.65
 30
0.0
 11
129.6
 21
135.05
 31
0.0
  0
LINE
  8
0
  6
CONTINUOUS
 62
     2
 10
130.1
 20
135.05
 30
0.0
 11
130.35
 21
136.65
 31
0.0
  0
LINE
  8
0
  6
CONTINUOUS
 62
     2
 10
130.572253903
 20
138.85
 30
0.0
 11
130.572253903
 21
134.8
 31
0.0
  0
LINE
  8
0
  6
CONTINUOUS
 62
     2
 10
132.072253903
 20
135.055
 30
0.0
 11
132.072253903
 21
138.6
 31
0.0
  0
LINE
  8
0
  6
CONTINUOUS
 62
     2
 10
131.825253903
 20
137.8
 30
0.0
 11
132.075253903
 21
137.6
 31
0.0
  0
LINE
  8
0
  6
CONTINUOUS
 62
     2
 10
131.672253903
 20
137.8
 30
0.0
 11
131.825253903
 21
137.8
 31
0.0
  0
LINE
  8
0
  6
CONTINUOUS
 62
     2
 10
130.254545455
 20
137.8
 30
0.0
 11
131.825253903
 21
137.8
 31
0.0
  0
LINE
  8
0
  6
CONTINUOUS
 62
     2
 10
132.072253903
 20
135.5
 30
0.0
 11
131.772253903
 21
135.77
 31
0.0
  0
LINE
  8
0
  6
CONTINUOUS
 62
     2
 10
131.766698348
 20
135.8
 30
0.0
 11
130.2171875
 21
135.8
 31
0.0
  0
LINE
  8
0
  6
CONTINUOUS
 62
     2
 10
133.95
 20
137.575
 30
0.0
 11
132.072253903
 21
137.575
 31
0.0
  0
LINE
  8
0
  6
CONTINUOUS
 62
     2
 10
132.072253903
 20
137.8
 30
0.0
 11
133.95
 21
137.8
 31
0.0
  0
LINE
  8
0
  6
CONTINUOUS
 62
     2
 10
132.072253903
 20
136.075
 30
0.0
 11
133.95
 21
136.075
 31
0.0
  0
LINE
  8
0
  6
CONTINUOUS
 62
     2
 10
133.95
 20
135.8
 30
0.0
 11
132.072253903
 21
135.8
 31
0.0
  0
LINE
  8
0
  6
CONTINUOUS
 62
     2
 10
128.9
 20
134.5
 30
0.0
 11
129.125
 21
134.5
 31
0.0
  0
LINE
  8
0
  6
CONTINUOUS
 62
     2
 10
129.125
 20
134.5
 30
0.0
 11
129.125
 21
139.0
 31
0.0
  0
LINE
  8
0
  6
CONTINUOUS
 62
     2
 10
129.125
 20
139.0
 30
0.0
 11
128.9
 21
139.0
 31
0.0
  0
LINE
  8
0
  6
CONTINUOUS
 62
     2
 10
128.9
 20
139.0
 30
0.0
 11
128.9
 21
134.5
 31
0.0
  0
LINE
  8
0
  6
CONTINUOUS
 62
     2
 10
128.9
 20
137.8
 30
0.0
 11
128.5
 21
137.8
 31
0.0
  0
LINE
  8
0
  6
CONTINUOUS
 62
     2
 10
129.7544
 20
137.8
 30
0.0
 11
129.125
 21
137.8
 31
0.0
  0
LINE
  8
0
  6
CONTINUOUS
 62
     2
 10
128.9
 20
137.575
 30
0.0
 11
128.5
 21
137.575
 31
0.0
  0
LINE
  8
0
  6
CONTINUOUS
 62
     2
 10
129.7544
 20
137.575
 30
0.0
 11
129.125
 21
137.575
 31
0.0
  0
LINE
  8
0
  6
CONTINUOUS
 62
     2
 10
128.9
 20
136.075
 30
0.0
 11
128.5
 21
136.075
 31
0.0
  0
LINE
  8
0
  6
CONTINUOUS
 62
     2
 10
129.7544
 20
136.075
 30
0.0
 11
129.125
 21
136.075
 31
0.0
  0
LINE
  8
0
  6
CONTINUOUS
 62
     2
 10
128.9
 20
135.8
 30
0.0
 11
128.5
 21
135.8
 31
0.0
  0
LINE
  8
0
  6
CONTINUOUS
 62
     2
 10
129.6544
 20
135.8
 30
0.0
 11
129.125
 21
135.8
 31
0.0
  0
LINE
  8
0
  6
CONTINUOUS
 62
     2
 10
133.95
 20
137.8
 30
0.0
 11
133.95
 21
135.8
 31
0.0
  0
LINE
  8
0
  6
CONTINUOUS
 62
     2
 10
112.75
 20
149.0
 30
0.0
 11
113.0
 21
149.0
 31
0.0
  0
LINE
  8
0
  6
CONTINUOUS
 62
     2
 10
113.0
 20
145.0
 30
0.0
 11
112.75
 21
145.0
 31
0.0
  0
LINE
  8
0
  6
CONTINUOUS
 62
     2
 10
113.0
 20
149.0
 30
0.0
 11
113.0
 21
145.0
 31
0.0
  0
LINE
  8
0
  6
CONTINUOUS
 62
     2
 10
115.35
 20
148.575
 30
0.0
 11
115.55
 21
148.375
 31
0.0
  0
LINE
  8
0
  6
CONTINUOUS
 62
     2
 10
115.325
 20
147.75
 30
0.0
 11
115.525
 21
147.95
 31
0.0
  0
LINE
  8
0
  6
CONTINUOUS
 62
     2
 10
115.525
 20
147.55
 30
0.0
 11
115.325
 21
147.75
 31
0.0
  0
LINE
  8
0
  6
CONTINUOUS
 62
     2
 10
114.35
 20
148.575
 30
0.0
 11
115.35
 21
148.575
 31
0.0
  0
LINE
  8
0
  6
CONTINUOUS
 62
     2
 10
114.35
 20
147.75
 30
0.0
 11
115.325
 21
147.75
 31
0.0
  0
LINE
  8
0
  6
CONTINUOUS
 62
     2
 10
115.35
 20
145.475
 30
0.0
 11
115.55
 21
145.675
 31
0.0
  0
LINE
  8
0
  6
CONTINUOUS
 62
     2
 10
115.35
 20
145.475
 30
0.0
 11
114.35
 21
145.475
 31
0.0
  0
LINE
  8
0
  6
CONTINUOUS
 62
     2
 10
114.35
 20
145.475
 30
0.0
 11
114.35
 21
148.575
 31
0.0
  0
LINE
  8
0
  6
CONTINUOUS
 62
     2
 10
115.55
 20
148.375
 30
0.0
 11
115.55
 21
145.675
 31
0.0
  0
LINE
  8
0
  6
CONTINUOUS
 62
     2
 10
115.55
 20
147.775
 30
0.0
 11
118.0
 21
147.775
 31
0.0
  0
LINE
  8
0
  6
CONTINUOUS
 62
     2
 10
117.98
 20
147.6
 30
0.0
 11
115.55
 21
147.6
 31
0.0
  0
LINE
  8
0
  6
CONTINUOUS
 62
     2
 10
114.35
 20
148.575
 30
0.0
 11
114.05
 21
148.875
 31
0.0
  0
LINE
  8
0
  6
CONTINUOUS
 62
     2
 10
114.05
 20
148.875
 30
0.0
 11
114.05
 21
145.175
 31
0.0
  0
LINE
  8
0
  6
CONTINUOUS
 62
     2
 10
114.35
 20
145.475
 30
0.0
 11
114.05
 21
145.175
 31
0.0
  0
LINE
  8
0
  6
CONTINUOUS
 62
     2
 10
114.05
 20
146.5
 30
0.0
 11
113.0
 21
146.5
 31
0.0
  0
LINE
  8
0
  6
CONTINUOUS
 62
     2
 10
113.0
 20
147.75
 30
0.0
 11
114.05
 21
147.75
 31
0.0
  0
LINE
  8
0
  6
CONTINUOUS
 62
     2
 10
114.05
 20
147.6
 30
0.0
 11
113.0
 21
147.6
 31
0.0
  0
LINE
  8
0
  6
CONTINUOUS
 62
     2
 10
118.0
 20
147.775
 30
0.0
 11
118.0
 21
146.325
 31
0.0
  0
LINE
  8
0
  6
CONTINUOUS
 62
     2
 10
118.0
 20
146.325
 30
0.0
 11
115.55
 21
146.325
 31
0.0
  0
LINE
  8
0
  6
CONTINUOUS
 62
     2
 10
115.55
 20
146.5
 30
0.0
 11
118.0
 21
146.5
 31
0.0
  0
LINE
  8
0
  6
CONTINUOUS
 62
     2
 10
115.335
 20
146.325
 30
0.0
 11
114.35
 21
146.325
 31
0.0
  0
LINE
  8
0
  6
CONTINUOUS
 62
     2
 10
113.0
 20
146.325
 30
0.0
 11
114.05
 21
146.325
 31
0.0
  0
LINE
  8
0
  6
CONTINUOUS
 62
     2
 10
115.335
 20
146.325
 30
0.0
 11
115.535
 21
146.525
 31
0.0
  0
LINE
  8
0
  6
CONTINUOUS
 62
     2
 10
115.535
 20
146.125
 30
0.0
 11
115.335
 21
146.325
 31
0.0
  0
LINE
  8
0
  6
CONTINUOUS
 62
     2
 10
112.75
 20
124.9
 30
0.0
 11
113.0
 21
124.9
 31
0.0
  0
LINE
  8
0
  6
CONTINUOUS
 62
     2
 10
113.0
 20
120.9
 30
0.0
 11
112.75
 21
120.9
 31
0.0
  0
LINE
  8
0
  6
CONTINUOUS
 62
     2
 10
113.0
 20
124.9
 30
0.0
 11
113.0
 21
120.9
 31
0.0
  0
LINE
  8
0
  6
CONTINUOUS
 62
     2
 10
115.35
 20
124.475
 30
0.0
 11
115.55
 21
124.275
 31
0.0
  0
LINE
  8
0
  6
CONTINUOUS
 62
     2
 10
115.325
 20
123.65
 30
0.0
 11
115.525
 21
123.85
 31
0.0
  0
LINE
  8
0
  6
CONTINUOUS
 62
     2
 10
115.525
 20
123.45
 30
0.0
 11
115.325
 21
123.65
 31
0.0
  0
LINE
  8
0
  6
CONTINUOUS
 62
     2
 10
114.35
 20
124.475
 30
0.0
 11
115.35
 21
124.475
 31
0.0
  0
LINE
  8
0
  6
CONTINUOUS
 62
     2
 10
114.35
 20
123.65
 30
0.0
 11
115.325
 21
123.65
 31
0.0
  0
LINE
  8
0
  6
CONTINUOUS
 62
     2
 10
115.35
 20
121.375
 30
0.0
 11
115.55
 21
121.575
 31
0.0
  0
LINE
  8
0
  6
CONTINUOUS
 62
     2
 10
115.35
 20
121.375
 30
0.0
 11
114.35
 21
121.375
 31
0.0
  0
LINE
  8
0
  6
CONTINUOUS
 62
     2
 10
114.35
 20
121.375
 30
0.0
 11
114.35
 21
124.475
 31
0.0
  0
LINE
  8
0
  6
CONTINUOUS
 62
     2
 10
115.55
 20
124.275
 30
0.0
 11
115.55
 21
121.575
 31
0.0
  0
LINE
  8
0
  6
CONTINUOUS
 62
     2
 10
115.55
 20
123.675
 30
0.0
 11
118.0
 21
123.675
 31
0.0
  0
LINE
  8
0
  6
CONTINUOUS
 62
     2
 10
117.98
 20
123.5
 30
0.0
 11
115.55
 21
123.5
 31
0.0
  0
LINE
  8
0
  6
CONTINUOUS
 62
     2
 10
114.35
 20
124.475
 30
0.0
 11
114.05
 21
124.775
 31
0.0
  0
LINE
  8
0
  6
CONTINUOUS
 62
     2
 10
114.05
 20
124.775
 30
0.0
 11
114.05
 21
121.075
 31
0.0
  0
LINE
  8
0
  6
CONTINUOUS
 62
     2
 10
114.35
 20
121.375
 30
0.0
 11
114.05
 21
121.075
 31
0.0
  0
LINE
  8
0
  6
CONTINUOUS
 62
     2
 10
114.05
 20
122.4
 30
0.0
 11
113.0
 21
122.4
 31
0.0
  0
LINE
  8
0
  6
CONTINUOUS
 62
     2
 10
113.0
 20
123.65
 30
0.0
 11
114.05
 21
123.65
 31
0.0
  0
LINE
  8
0
  6
CONTINUOUS
 62
     2
 10
114.05
 20
123.5
 30
0.0
 11
113.0
 21
123.5
 31
0.0
  0
LINE
  8
0
  6
CONTINUOUS
 62
     2
 10
118.0
 20
123.675
 30
0.0
 11
118.0
 21
122.225
 31
0.0
  0
LINE
  8
0
  6
CONTINUOUS
 62
     2
 10
118.0
 20
122.225
 30
0.0
 11
115.55
 21
122.225
 31
0.0
  0
LINE
  8
0
  6
CONTINUOUS
 62
     2
 10
115.55
 20
122.4
 30
0.0
 11
118.0
 21
122.4
 31
0.0
  0
LINE
  8
0
  6
CONTINUOUS
 62
     2
 10
115.335
 20
122.225
 30
0.0
 11
114.35
 21
122.225
 31
0.0
  0
LINE
  8
0
  6
CONTINUOUS
 62
     2
 10
113.0
 20
122.225
 30
0.0
 11
114.05
 21
122.225
 31
0.0
  0
LINE
  8
0
  6
CONTINUOUS
 62
     2
 10
115.335
 20
122.225
 30
0.0
 11
115.535
 21
122.425
 31
0.0
  0
LINE
  8
0
  6
CONTINUOUS
 62
     2
 10
115.535
 20
122.025
 30
0.0
 11
115.335
 21
122.225
 31
0.0
  0
LINE
  8
0
  6
CONTINUOUS
 62
     2
 10
173.75
 20
138.775
 30
0.0
 11
171.996298557
 21
137.7625
 31
0.0
  0
LINE
  8
0
  6
CONTINUOUS
 62
     2
 10
171.996298557
 20
137.7625
 30
0.0
 11
171.996298557
 21
135.7375
 31
0.0
  0
LINE
  8
0
  6
CONTINUOUS
 62
     2
 10
171.996298557
 20
135.7375
 30
0.0
 11
173.75
 21
134.725
 31
0.0
  0
LINE
  8
0
  6
CONTINUOUS
 62
     2
 10
173.75
 20
134.725
 30
0.0
 11
175.503701443
 21
135.7375
 31
0.0
  0
LINE
  8
0
  6
CONTINUOUS
 62
     2
 10
175.503701443
 20
135.7375
 30
0.0
 11
175.503701443
 21
137.7625
 31
0.0
  0
LINE
  8
0
  6
CONTINUOUS
 62
     2
 10
175.503701443
 20
137.7625
 30
0.0
 11
173.75
 21
138.775
 31
0.0
  0
CIRCLE
  8
0
  6
CONTINUOUS
 62
     2
 10
173.75
 20
136.75
 30
0.0
 40
0.8
  0
CIRCLE
  8
0
  6
CONTINUOUS
 62
     2
 10
173.75
 20
136.75
 30
0.0
 40
1.0
  0
ARC
  8
0
  6
LTYPE1
 62
     2
 10
173.75
 20
136.75
 30
0.0
 40
1.975
 50
328.025496594
 51
217.415803658
  0
LINE
  8
0
  6
LTYPE1
 62
     2
 10
175.318637944
 20
135.55
 30
0.0
 11
174.66147392
 21
134.600763076
 31
0.0
  0
LINE
  8
0
  6
LTYPE1
 62
     2
 10
172.181362056
 20
135.55
 30
0.0
 11
172.838529527
 21
134.600758098
 31
0.0
  0
ARC
  8
0
  6
LTYPE1
 62
     2
 10
171.194145143
 20
133.46233814
 30
0.0
 40
2.0
 50
10.612929601
 51
34.695153531
  0
ARC
  8
0
  6
LTYPE1
 62
     2
 10
176.305858303
 20
133.462343118
 30
0.0
 40
2.0
 50
145.304846469
 51
169.387402194
  0
LINE
  8
0
  6
LTYPE1
 62
     2
 10
174.340068544
 20
133.830678053
 30
0.0
 11
174.250002697
 21
133.35
 31
0.0
  0
LINE
  8
0
  6
LTYPE1
 62
     2
 10
173.159932769
 20
133.830684458
 30
0.0
 11
173.250002697
 21
133.35
 31
0.0
  0
CIRCLE
  8
0
  6
CONTINUOUS
 62
     2
 10
173.75
 20
136.75
 30
0.0
 40
2.25
  0
LINE
  8
0
  6
CONTINUOUS
 62
     2
 10
186.25
 20
138.775
 30
0.0
 11
184.496298557
 21
137.7625
 31
0.0
  0
LINE
  8
0
  6
CONTINUOUS
 62
     2
 10
184.496298557
 20
137.7625
 30
0.0
 11
184.496298557
 21
135.7375
 31
0.0
  0
LINE
  8
0
  6
CONTINUOUS
 62
     2
 10
184.496298557
 20
135.7375
 30
0.0
 11
186.25
 21
134.725
 31
0.0
  0
LINE
  8
0
  6
CONTINUOUS
 62
     2
 10
186.25
 20
134.725
 30
0.0
 11
188.003701443
 21
135.7375
 31
0.0
  0
LINE
  8
0
  6
CONTINUOUS
 62
     2
 10
188.003701443
 20
135.7375
 30
0.0
 11
188.003701443
 21
137.7625
 31
0.0
  0
LINE
  8
0
  6
CONTINUOUS
 62
     2
 10
188.003701443
 20
137.7625
 30
0.0
 11
186.25
 21
138.775
 31
0.0
  0
CIRCLE
  8
0
  6
CONTINUOUS
 62
     2
 10
186.25
 20
136.75
 30
0.0
 40
0.8
  0
CIRCLE
  8
0
  6
CONTINUOUS
 62
     2
 10
186.25
 20
136.75
 30
0.0
 40
1.0
  0
ARC
  8
0
  6
LTYPE1
 62
     2
 10
186.25
 20
136.75
 30
0.0
 40
1.975
 50
328.025496594
 51
217.415803658
  0
LINE
  8
0
  6
LTYPE1
 62
     2
 10
187.818637944
 20
135.55
 30
0.0
 11
187.16147392
 21
134.600763076
 31
0.0
  0
LINE
  8
0
  6
LTYPE1
 62
     2
 10
184.681362056
 20
135.55
 30
0.0
 11
185.338529527
 21
134.600758098
 31
0.0
  0
ARC
  8
0
  6
LTYPE1
 62
     2
 10
183.694145143
 20
133.46233814
 30
0.0
 40
2.0
 50
10.612929601
 51
34.695153531
  0
ARC
  8
0
  6
LTYPE1
 62
     2
 10
188.805858303
 20
133.462343118
 30
0.0
 40
2.0
 50
145.304846469
 51
169.387402194
  0
LINE
  8
0
  6
LTYPE1
 62
     2
 10
186.840068544
 20
133.830678053
 30
0.0
 11
186.750002697
 21
133.35
 31
0.0
  0
LINE
  8
0
  6
LTYPE1
 62
     2
 10
185.659932769
 20
133.830684458
 30
0.0
 11
185.750002697
 21
133.35
 31
0.0
  0
CIRCLE
  8
0
  6
CONTINUOUS
 62
     2
 10
186.25
 20
136.75
 30
0.0
 40
2.25
  0
TEXT
  8
0
  6
CONTINUOUS
 62
     1
 10
95.0
 20
43.0
 30
1.0
 40
4.0
  1
□ＣＦ－６
 50
0.0
 41
0.9
 51
0.0
  7
KANJI5
  0
TEXT
  8
0
  6
CONTINUOUS
 62
     1
 10
127.0
 20
40.5
 30
0.875
 40
3.5
  1
パネル用計器外形図
 50
0.0
 41
0.9
 51
0.0
  7
KANJI6
  0
TEXT
  8
0
  6
CONTINUOUS
 62
     2
 10
127.0
 20
45.0
 30
0.3
 40
3.0
  1
予定指針付　端子キャップ付
 50
0.0
 41
0.9
 51
0.0
  7
KANJI1
  0
TEXT
  8
0
  6
CONTINUOUS
 62
     3
 10
170.0
 20
42.5
 30
0.6
 40
6.0
  1
ＭＳ－７２４９Ａ
 50
0.0
 41
0.9
 51
0.0
  7
KANJI7
  0
LINE
  8
0
  6
LTYPE3
 62
     2
 10
40.64
 20
135.0
 30
0.0
 11
78.74
 21
135.0
 31
0.0
  0
LINE
  8
0
  6
LTYPE3
 62
     2
 10
154.94
 20
135.0
 30
0.0
 11
198.25
 21
135.0
 31
0.0
  0
LINE
  8
0
  6
LTYPE3
 62
     2
 10
101.6
 20
135.0
 30
0.0
 11
137.16
 21
135.0
 31
0.0
  0
LINE
  8
0
  6
CONTINUOUS
 62
     2
 10
159.37
 20
135.0
 30
0.0
 11
160.017047613
 21
137.414814566
 31
0.0
  0
LINE
  8
0
  6
CONTINUOUS
 62
     2
 10
159.37
 20
135.0
 30
0.0
 11
158.722952387
 21
137.414814566
 31
0.0
  0
LINE
  8
0
  6
CONTINUOUS
 62
     2
 10
159.37
 20
141.8
 30
0.0
 11
159.37
 21
129.0
 31
0.0
  0
LINE
  8
0
  6
CONTINUOUS
 62
     2
 10
159.37
 20
134.0
 30
0.0
 11
158.722952387
 21
131.585185434
 31
0.0
  0
LINE
  8
0
  6
CONTINUOUS
 62
     2
 10
159.37
 20
134.0
 30
0.0
 11
160.017047613
 21
131.585185434
 31
0.0
  0
TEXT
  8
0
  6
CONTINUOUS
 62
     2
 10
158.37
 20
140.0
 30
0.25
 40
2.5
  1
２
 50
90.0
 41
0.6
 51
0.0
  7
KANJI2
  0
TEXT
  8
0
  6
CONTINUOUS
 62
     2
 10
127.655
 20
161.7
 30
0.25
 40
2.5
  1
１１
 50
0.0
 41
0.6
 51
0.0
  7
KANJI2
  0
TEXT
  8
0
  6
CONTINUOUS
 62
     2
 10
131.055
 20
162.3
 30
0.18
 40
1.8
  1
±１
 50
0.0
 41
0.6
 51
0.0
  7
KANJI0
  0
POINT
  8
0
  6
CONTINUOUS
 62
     2
 10
131.15
 20
163.3
 30
0.0
  0
LINE
  8
0
  6
LTYPE3
 62
     2
 10
180.0
 20
152.0
 30
0.0
 11
180.0
 21
116.96
 31
0.0
  0
LINE
  8
0
  6
LTYPE3
 62
     2
 10
42.48
 20
70.0
 30
0.0
 11
74.5
 21
70.0
 31
0.0
  0
LINE
  8
0
  6
LTYPE3
 62
     2
 10
60.0
 20
85.5
 30
0.0
 11
60.0
 21
53.36
 31
0.0
  0
ENDSEC
  0
EOF
