  0
SECTION
  2
HEADER
  9
$ACADVER
  1
AC1009
  9
$DWGCODEPAGE
  3
dos932
  9
$EXTMIN
 10
0.0
 20
0.0
 30
0.0
  9
$EXTMAX
 10
297.0
 20
210.0
 30
0.0
  9
$LIMMIN
 10
0.0
 20
0.0
  9
$LIMMAX
 10
297.0
 20
210.0
  9
$LTSCALE
 40
1.0
  9
$PDMODE
 70
     0
  0
ENDSEC
  0
SECTION
  2
TABLES
  0
TABLE
  2
VPORT
 70
     1
  0
VPORT
  2
*ACTIVE
 70
     0
 10
0.0
 20
0.0
 11
1.0
 21
1.0
 12
148.5
 22
105.0
 13
0.0
 23
0.0
 14
10.0
 24
10.0
 15
10.0
 25
10.0
 16
0.0
 26
0.0
 36
1.0
 17
0.0
 27
0.0
 37
0.0
 40
297.0
 41
1.414285714
 42
50.0
 43
0.0
 44
0.0
 50
0.0
 51
0.0
 71
     0
 72
  1000
 73
     1
 74
     3
 75
     0
 76
     0
 77
     0
 78
     0
  0
ENDTAB
  0
TABLE
  2
LTYPE
 70
     3
  0
LTYPE
  2
CONTINUOUS
 70
    64
  3
Solid line
 72
    65
 73
     0
 40
0.0
  0
LTYPE
  2
LTYPE1
 70
    64
  3
HIDDEN
 72
    65
 73
     2
 40
1.0
 49
0.6
 49
-0.4
  0
LTYPE
  2
LTYPE2
 70
    64
  3
CENTER
 72
    65
 73
     4
 40
5.0
 49
3.5
 49
-0.5
 49
0.5
 49
-0.5
  0
ENDTAB
  0
TABLE
  2
LAYER
 70
   128
  0
LAYER
  2
0
 70
     0
 62
     7
  6
CONTINUOUS
  0
LAYER
  2
2
 70
     0
 62
     7
  6
CONTINUOUS
  0
LAYER
  2
3
 70
     0
 62
     7
  6
CONTINUOUS
  0
LAYER
  2
4
 70
     0
 62
     7
  6
CONTINUOUS
  0
LAYER
  2
5
 70
     0
 62
     7
  6
CONTINUOUS
  0
LAYER
  2
6
 70
     0
 62
     7
  6
CONTINUOUS
  0
LAYER
  2
7
 70
     0
 62
     7
  6
CONTINUOUS
  0
LAYER
  2
8
 70
     0
 62
     7
  6
CONTINUOUS
  0
LAYER
  2
9
 70
     0
 62
     7
  6
CONTINUOUS
  0
LAYER
  2
10
 70
     0
 62
     7
  6
CONTINUOUS
  0
LAYER
  2
11
 70
     0
 62
     7
  6
CONTINUOUS
  0
LAYER
  2
12
 70
     0
 62
     7
  6
CONTINUOUS
  0
LAYER
  2
13
 70
     0
 62
     7
  6
CONTINUOUS
  0
LAYER
  2
14
 70
     0
 62
     7
  6
CONTINUOUS
  0
LAYER
  2
15
 70
     0
 62
     7
  6
CONTINUOUS
  0
LAYER
  2
16
 70
     0
 62
     7
  6
CONTINUOUS
  0
LAYER
  2
17
 70
     0
 62
     7
  6
CONTINUOUS
  0
LAYER
  2
18
 70
     0
 62
     7
  6
CONTINUOUS
  0
LAYER
  2
19
 70
     0
 62
     7
  6
CONTINUOUS
  0
LAYER
  2
20
 70
     0
 62
     7
  6
CONTINUOUS
  0
LAYER
  2
21
 70
     0
 62
     7
  6
CONTINUOUS
  0
LAYER
  2
22
 70
     0
 62
     7
  6
CONTINUOUS
  0
LAYER
  2
23
 70
     0
 62
     7
  6
CONTINUOUS
  0
LAYER
  2
24
 70
     0
 62
     7
  6
CONTINUOUS
  0
LAYER
  2
25
 70
     0
 62
     7
  6
CONTINUOUS
  0
LAYER
  2
26
 70
     0
 62
     7
  6
CONTINUOUS
  0
LAYER
  2
27
 70
     0
 62
     7
  6
CONTINUOUS
  0
LAYER
  2
28
 70
     0
 62
     7
  6
CONTINUOUS
  0
LAYER
  2
29
 70
     0
 62
     7
  6
CONTINUOUS
  0
LAYER
  2
30
 70
     0
 62
     7
  6
CONTINUOUS
  0
LAYER
  2
31
 70
     0
 62
     7
  6
CONTINUOUS
  0
LAYER
  2
32
 70
     0
 62
     7
  6
CONTINUOUS
  0
LAYER
  2
33
 70
     0
 62
     7
  6
CONTINUOUS
  0
LAYER
  2
34
 70
     0
 62
     7
  6
CONTINUOUS
  0
LAYER
  2
35
 70
     0
 62
     7
  6
CONTINUOUS
  0
LAYER
  2
36
 70
     0
 62
     7
  6
CONTINUOUS
  0
LAYER
  2
37
 70
     0
 62
     7
  6
CONTINUOUS
  0
LAYER
  2
38
 70
     0
 62
     7
  6
CONTINUOUS
  0
LAYER
  2
39
 70
     0
 62
     7
  6
CONTINUOUS
  0
LAYER
  2
40
 70
     0
 62
     7
  6
CONTINUOUS
  0
LAYER
  2
41
 70
     0
 62
     7
  6
CONTINUOUS
  0
LAYER
  2
42
 70
     0
 62
     7
  6
CONTINUOUS
  0
LAYER
  2
43
 70
     0
 62
     7
  6
CONTINUOUS
  0
LAYER
  2
44
 70
     0
 62
     7
  6
CONTINUOUS
  0
LAYER
  2
45
 70
     0
 62
     7
  6
CONTINUOUS
  0
LAYER
  2
46
 70
     0
 62
     7
  6
CONTINUOUS
  0
LAYER
  2
47
 70
     0
 62
     7
  6
CONTINUOUS
  0
LAYER
  2
48
 70
     0
 62
     7
  6
CONTINUOUS
  0
LAYER
  2
49
 70
     0
 62
     7
  6
CONTINUOUS
  0
LAYER
  2
50
 70
     0
 62
     7
  6
CONTINUOUS
  0
LAYER
  2
51
 70
     0
 62
     7
  6
CONTINUOUS
  0
LAYER
  2
52
 70
     0
 62
     7
  6
CONTINUOUS
  0
LAYER
  2
53
 70
     0
 62
     7
  6
CONTINUOUS
  0
LAYER
  2
54
 70
     0
 62
     7
  6
CONTINUOUS
  0
LAYER
  2
55
 70
     0
 62
     7
  6
CONTINUOUS
  0
LAYER
  2
56
 70
     0
 62
     7
  6
CONTINUOUS
  0
LAYER
  2
57
 70
     0
 62
     7
  6
CONTINUOUS
  0
LAYER
  2
58
 70
     0
 62
     7
  6
CONTINUOUS
  0
LAYER
  2
59
 70
     0
 62
     7
  6
CONTINUOUS
  0
LAYER
  2
60
 70
     0
 62
     7
  6
CONTINUOUS
  0
LAYER
  2
61
 70
     0
 62
     7
  6
CONTINUOUS
  0
LAYER
  2
62
 70
     0
 62
     7
  6
CONTINUOUS
  0
LAYER
  2
63
 70
     0
 62
     7
  6
CONTINUOUS
  0
LAYER
  2
64
 70
     0
 62
     7
  6
CONTINUOUS
  0
LAYER
  2
65
 70
     0
 62
     7
  6
CONTINUOUS
  0
LAYER
  2
66
 70
     0
 62
     7
  6
CONTINUOUS
  0
LAYER
  2
67
 70
     0
 62
     7
  6
CONTINUOUS
  0
LAYER
  2
68
 70
     0
 62
     7
  6
CONTINUOUS
  0
LAYER
  2
69
 70
     0
 62
     7
  6
CONTINUOUS
  0
LAYER
  2
70
 70
     0
 62
     7
  6
CONTINUOUS
  0
LAYER
  2
71
 70
     0
 62
     7
  6
CONTINUOUS
  0
LAYER
  2
72
 70
     0
 62
     7
  6
CONTINUOUS
  0
LAYER
  2
73
 70
     0
 62
     7
  6
CONTINUOUS
  0
LAYER
  2
74
 70
     0
 62
     7
  6
CONTINUOUS
  0
LAYER
  2
75
 70
     0
 62
     7
  6
CONTINUOUS
  0
LAYER
  2
76
 70
     0
 62
     7
  6
CONTINUOUS
  0
LAYER
  2
77
 70
     0
 62
     7
  6
CONTINUOUS
  0
LAYER
  2
78
 70
     0
 62
     7
  6
CONTINUOUS
  0
LAYER
  2
79
 70
     0
 62
     7
  6
CONTINUOUS
  0
LAYER
  2
80
 70
     0
 62
     7
  6
CONTINUOUS
  0
LAYER
  2
81
 70
     0
 62
     7
  6
CONTINUOUS
  0
LAYER
  2
82
 70
     0
 62
     7
  6
CONTINUOUS
  0
LAYER
  2
83
 70
     0
 62
     7
  6
CONTINUOUS
  0
LAYER
  2
84
 70
     0
 62
     7
  6
CONTINUOUS
  0
LAYER
  2
85
 70
     0
 62
     7
  6
CONTINUOUS
  0
LAYER
  2
86
 70
     0
 62
     7
  6
CONTINUOUS
  0
LAYER
  2
87
 70
     0
 62
     7
  6
CONTINUOUS
  0
LAYER
  2
88
 70
     0
 62
     7
  6
CONTINUOUS
  0
LAYER
  2
89
 70
     0
 62
     7
  6
CONTINUOUS
  0
LAYER
  2
90
 70
     0
 62
     7
  6
CONTINUOUS
  0
LAYER
  2
91
 70
     0
 62
     7
  6
CONTINUOUS
  0
LAYER
  2
92
 70
     0
 62
     7
  6
CONTINUOUS
  0
LAYER
  2
93
 70
     0
 62
     7
  6
CONTINUOUS
  0
LAYER
  2
94
 70
     0
 62
     7
  6
CONTINUOUS
  0
LAYER
  2
95
 70
     0
 62
     7
  6
CONTINUOUS
  0
LAYER
  2
96
 70
     0
 62
     7
  6
CONTINUOUS
  0
LAYER
  2
97
 70
     0
 62
     7
  6
CONTINUOUS
  0
LAYER
  2
98
 70
     0
 62
     7
  6
CONTINUOUS
  0
LAYER
  2
99
 70
     0
 62
     7
  6
CONTINUOUS
  0
LAYER
  2
100
 70
     0
 62
     7
  6
CONTINUOUS
  0
LAYER
  2
101
 70
     0
 62
     7
  6
CONTINUOUS
  0
LAYER
  2
102
 70
     0
 62
     7
  6
CONTINUOUS
  0
LAYER
  2
103
 70
     0
 62
     7
  6
CONTINUOUS
  0
LAYER
  2
104
 70
     0
 62
     7
  6
CONTINUOUS
  0
LAYER
  2
105
 70
     0
 62
     7
  6
CONTINUOUS
  0
LAYER
  2
106
 70
     0
 62
     7
  6
CONTINUOUS
  0
LAYER
  2
107
 70
     0
 62
     7
  6
CONTINUOUS
  0
LAYER
  2
108
 70
     0
 62
     7
  6
CONTINUOUS
  0
LAYER
  2
109
 70
     0
 62
     7
  6
CONTINUOUS
  0
LAYER
  2
110
 70
     0
 62
     7
  6
CONTINUOUS
  0
LAYER
  2
111
 70
     0
 62
     7
  6
CONTINUOUS
  0
LAYER
  2
112
 70
     0
 62
     7
  6
CONTINUOUS
  0
LAYER
  2
113
 70
     0
 62
     7
  6
CONTINUOUS
  0
LAYER
  2
114
 70
     0
 62
     7
  6
CONTINUOUS
  0
LAYER
  2
115
 70
     0
 62
     7
  6
CONTINUOUS
  0
LAYER
  2
116
 70
     0
 62
     7
  6
CONTINUOUS
  0
LAYER
  2
117
 70
     0
 62
     7
  6
CONTINUOUS
  0
LAYER
  2
118
 70
     0
 62
     7
  6
CONTINUOUS
  0
LAYER
  2
119
 70
     0
 62
     7
  6
CONTINUOUS
  0
LAYER
  2
120
 70
     0
 62
     7
  6
CONTINUOUS
  0
LAYER
  2
121
 70
     0
 62
     7
  6
CONTINUOUS
  0
LAYER
  2
122
 70
     0
 62
     7
  6
CONTINUOUS
  0
LAYER
  2
123
 70
     0
 62
     7
  6
CONTINUOUS
  0
LAYER
  2
124
 70
     0
 62
     7
  6
CONTINUOUS
  0
LAYER
  2
125
 70
     0
 62
     7
  6
CONTINUOUS
  0
LAYER
  2
126
 70
     0
 62
     7
  6
CONTINUOUS
  0
LAYER
  2
127
 70
     0
 62
     7
  6
CONTINUOUS
  0
LAYER
  2
128
 70
     0
 62
     7
  6
CONTINUOUS
  0
ENDTAB
  0
TABLE
  2
STYLE
 70
    11
  0
STYLE
  2
STANDARD
 70
     0
 40
0.0
 41
1.0
 50
0.0
 71
     0
 42
0.2
  3
txt.shx
  4
extfont.shx
  0
STYLE
  2
KANJI0
 70
     0
 40
4.0
 41
0.9
 50
0.0
 71
     0
 42
4.0
  3
txt.shx
  4
extfont.shx
  0
STYLE
  2
KANJI1
 70
     0
 40
3.0
 41
0.6
 50
0.0
 71
     0
 42
3.0
  3
txt.shx
  4
extfont.shx
  0
STYLE
  2
KANJI2
 70
     0
 40
3.0
 41
0.666666667
 50
0.0
 71
     0
 42
3.0
  3
txt.shx
  4
extfont.shx
  0
STYLE
  2
KANJI3
 70
     0
 40
3.0
 41
0.3
 50
0.0
 71
     0
 42
3.0
  3
txt.shx
  4
extfont.shx
  0
STYLE
  2
KANJI4
 70
     0
 40
1.8
 41
0.6
 50
0.0
 71
     0
 42
1.8
  3
txt.shx
  4
extfont.shx
  0
STYLE
  2
KANJI5
 70
     0
 40
3.0
 41
0.9
 50
0.0
 71
     0
 42
3.0
  3
txt.shx
  4
extfont.shx
  0
STYLE
  2
KANJI6
 70
     0
 40
4.0
 41
0.9
 50
0.0
 71
     0
 42
4.0
  3
txt.shx
  4
extfont.shx
  0
STYLE
  2
KANJI7
 70
     0
 40
3.5
 41
0.9
 50
0.0
 71
     0
 42
3.5
  3
txt.shx
  4
extfont.shx
  0
STYLE
  2
KANJI8
 70
     0
 40
3.0
 41
0.9
 50
0.0
 71
     0
 42
3.0
  3
txt.shx
  4
extfont.shx
  0
STYLE
  2
KANJI9
 70
     0
 40
6.0
 41
0.9
 50
0.0
 71
     0
 42
6.0
  3
txt.shx
  4
extfont.shx
  0
ENDTAB
  0
TABLE
  2
VIEW
 70
     0
  0
ENDTAB
  0
ENDSEC
  0
SECTION
  2
BLOCKS
  0
ENDSEC
  0
SECTION
  2
ENTITIES
  0
ARC
  8
0
  6
CONTINUOUS
 62
     1
 10
190.1
 20
101.65
 30
0.0
 40
1.65
 50
270.0
 51
0.0
  0
ARC
  8
0
  6
CONTINUOUS
 62
     1
 10
190.1
 20
138.35
 30
0.0
 40
1.65
 50
0.0
 51
90.0
  0
ARC
  8
0
  6
CONTINUOUS
 62
     1
 10
149.9
 20
138.35
 30
0.0
 40
1.65
 50
90.0
 51
180.0
  0
ARC
  8
0
  6
CONTINUOUS
 62
     1
 10
149.9
 20
101.65
 30
0.0
 40
1.65
 50
180.0
 51
270.0
  0
LINE
  8
0
  6
CONTINUOUS
 62
     1
 10
149.9
 20
100.0
 30
0.0
 11
190.1
 21
100.0
 31
0.0
  0
LINE
  8
0
  6
CONTINUOUS
 62
     1
 10
191.75
 20
101.65
 30
0.0
 11
191.75
 21
138.35
 31
0.0
  0
LINE
  8
0
  6
CONTINUOUS
 62
     1
 10
190.1
 20
140.0
 30
0.0
 11
149.9
 21
140.0
 31
0.0
  0
LINE
  8
0
  6
CONTINUOUS
 62
     1
 10
148.25
 20
138.35
 30
0.0
 11
148.25
 21
101.650002336
 31
0.0
  0
CIRCLE
  8
0
  6
CONTINUOUS
 62
     1
 10
170.0
 20
119.0
 30
0.0
 40
16.25
  0
ARC
  8
0
  6
CONTINUOUS
 62
     1
 10
33.5
 20
138.75
 30
0.0
 40
1.25
 50
90.0
 51
180.0
  0
ARC
  8
0
  6
CONTINUOUS
 62
     1
 10
33.5
 20
101.25
 30
0.0
 40
1.25
 50
180.0
 51
270.0
  0
ARC
  8
0
  6
CONTINUOUS
 62
     1
 10
74.5
 20
101.25
 30
0.0
 40
1.25
 50
270.0
 51
0.0
  0
ARC
  8
0
  6
CONTINUOUS
 62
     1
 10
74.5
 20
138.75
 30
0.0
 40
1.25
 50
0.0
 51
90.0
  0
LINE
  8
0
  6
CONTINUOUS
 62
     1
 10
74.500001652
 20
140.0
 30
0.0
 11
33.5
 21
140.0
 31
0.0
  0
LINE
  8
0
  6
CONTINUOUS
 62
     1
 10
32.25
 20
138.75
 30
0.0
 11
32.25
 21
101.25
 31
0.0
  0
LINE
  8
0
  6
CONTINUOUS
 62
     1
 10
33.5
 20
100.0
 30
0.0
 11
74.5
 21
100.0
 31
0.0
  0
LINE
  8
0
  6
CONTINUOUS
 62
     1
 10
75.75
 20
101.25
 30
0.0
 11
75.75
 21
138.75
 31
0.0
  0
LINE
  8
0
  6
CONTINUOUS
 62
     1
 10
106.0
 20
140.0
 30
0.0
 11
106.0
 21
100.0
 31
0.0
  0
ARC
  8
0
  6
CONTINUOUS
 62
     1
 10
120.75
 20
103.5
 30
0.0
 40
0.5
 50
270.0
 51
0.0
  0
ARC
  8
0
  6
CONTINUOUS
 62
     1
 10
120.75
 20
134.75
 30
0.0
 40
0.5
 50
0.0
 51
90.0
  0
LINE
  8
0
  6
CONTINUOUS
 62
     1
 10
120.75
 20
135.25
 30
0.0
 11
111.25
 21
135.25
 31
0.0
  0
LINE
  8
0
  6
CONTINUOUS
 62
     1
 10
120.75
 20
103.0
 30
0.0
 11
111.25
 21
103.0
 31
0.0
  0
LINE
  8
0
  6
CONTINUOUS
 62
     1
 10
121.25
 20
103.5
 30
0.0
 11
121.25
 21
134.75
 31
0.0
  0
LINE
  8
0
  6
CONTINUOUS
 62
     1
 10
100.674186069
 20
100.927842397
 30
0.0
 11
106.0
 21
100.0
 31
0.0
  0
ARC
  8
0
  6
CONTINUOUS
 62
     1
 10
100.760001538
 20
101.420423056
 30
0.0
 40
0.5
 50
180.0
 51
260.11734124
  0
LINE
  8
0
  6
CONTINUOUS
 62
     1
 10
100.674186069
 20
139.072157603
 30
0.0
 11
106.0
 21
140.0
 31
0.0
  0
LINE
  8
0
  6
CONTINUOUS
 62
     1
 10
100.260001538
 20
138.579576944
 30
0.0
 11
100.260001538
 21
101.420423056
 31
0.0
  0
ARC
  8
0
  6
CONTINUOUS
 62
     1
 10
100.760001538
 20
138.579576944
 30
0.0
 40
0.5
 50
99.88265876
 51
180.0
  0
CIRCLE
  8
0
  6
CONTINUOUS
 62
     1
 10
53.986544033
 20
58.538455967
 30
0.0
 40
16.75
  0
CIRCLE
  8
0
  6
CONTINUOUS
 62
     1
 10
70.0
 20
74.538455967
 30
0.0
 40
1.0
  0
CIRCLE
  8
0
  6
CONTINUOUS
 62
     1
 10
38.0
 20
74.538455967
 30
0.0
 40
1.0
  0
CIRCLE
  8
0
  6
CONTINUOUS
 62
     1
 10
38.0
 20
42.538455967
 30
0.0
 40
1.0
  0
CIRCLE
  8
0
  6
CONTINUOUS
 62
     1
 10
70.0
 20
42.538455967
 30
0.0
 40
1.0
  0
TEXT
  8
0
  6
CONTINUOUS
 62
     1
 10
43.4575
 20
28.778455967
 30
0.6
 40
4.0
  1
パネルカット
 50
0.0
 41
0.9
 51
0.0
  7
KANJI0
  0
LINE
  8
0
  6
CONTINUOUS
 62
     1
 10
41.6575
 20
28.178455967
 30
0.0
 11
68.2575
 21
28.178455967
 31
0.0
  0
ARC
  8
0
  6
CONTINUOUS
 62
     2
 10
149.75
 20
101.5
 30
0.0
 40
0.5
 50
180.0
 51
270.0
  0
ARC
  8
0
  6
CONTINUOUS
 62
     2
 10
149.75
 20
138.5
 30
0.0
 40
0.5
 50
90.0
 51
180.0
  0
ARC
  8
0
  6
CONTINUOUS
 62
     2
 10
190.25
 20
138.5
 30
0.0
 40
0.5
 50
0.0
 51
90.0
  0
ARC
  8
0
  6
CONTINUOUS
 62
     2
 10
190.25
 20
101.5
 30
0.0
 40
0.5
 50
270.0
 51
0.0
  0
LINE
  8
0
  6
CONTINUOUS
 62
     2
 10
190.75
 20
101.5
 30
0.0
 11
190.75
 21
138.5
 31
0.0
  0
LINE
  8
0
  6
CONTINUOUS
 62
     2
 10
190.25
 20
139.0
 30
0.0
 11
149.75
 21
139.0
 31
0.0
  0
LINE
  8
0
  6
CONTINUOUS
 62
     2
 10
149.25
 20
138.5
 30
0.0
 11
149.25
 21
101.5
 31
0.0
  0
LINE
  8
0
  6
CONTINUOUS
 62
     2
 10
149.75
 20
101.0
 30
0.0
 11
190.25
 21
101.0
 31
0.0
  0
CIRCLE
  8
0
  6
CONTINUOUS
 62
     2
 10
154.0
 20
103.0
 30
0.0
 40
2.0
  0
CIRCLE
  8
0
  6
CONTINUOUS
 62
     2
 10
154.0
 20
103.0
 30
0.0
 40
0.75
  0
LINE
  8
0
  6
CONTINUOUS
 62
     2
 10
154.0
 20
104.6
 30
0.0
 11
152.614359354
 21
103.8
 31
0.0
  0
LINE
  8
0
  6
CONTINUOUS
 62
     2
 10
152.614359354
 20
103.8
 30
0.0
 11
152.614359354
 21
102.2
 31
0.0
  0
LINE
  8
0
  6
CONTINUOUS
 62
     2
 10
152.614359354
 20
102.2
 30
0.0
 11
154.0
 21
101.4
 31
0.0
  0
LINE
  8
0
  6
CONTINUOUS
 62
     2
 10
154.0
 20
101.4
 30
0.0
 11
155.385640646
 21
102.2
 31
0.0
  0
LINE
  8
0
  6
CONTINUOUS
 62
     2
 10
155.385640646
 20
102.2
 30
0.0
 11
155.385640646
 21
103.8
 31
0.0
  0
LINE
  8
0
  6
CONTINUOUS
 62
     2
 10
155.385640646
 20
103.8
 30
0.0
 11
154.0
 21
104.6
 31
0.0
  0
CIRCLE
  8
0
  6
CONTINUOUS
 62
     2
 10
186.0
 20
103.0
 30
0.0
 40
2.0
  0
CIRCLE
  8
0
  6
CONTINUOUS
 62
     2
 10
186.0
 20
103.0
 30
0.0
 40
0.75
  0
LINE
  8
0
  6
CONTINUOUS
 62
     2
 10
186.0
 20
104.6
 30
0.0
 11
184.614359354
 21
103.8
 31
0.0
  0
LINE
  8
0
  6
CONTINUOUS
 62
     2
 10
184.614359354
 20
103.8
 30
0.0
 11
184.614359354
 21
102.2
 31
0.0
  0
LINE
  8
0
  6
CONTINUOUS
 62
     2
 10
184.614359354
 20
102.2
 30
0.0
 11
186.0
 21
101.4
 31
0.0
  0
LINE
  8
0
  6
CONTINUOUS
 62
     2
 10
186.0
 20
101.4
 30
0.0
 11
187.385640646
 21
102.2
 31
0.0
  0
LINE
  8
0
  6
CONTINUOUS
 62
     2
 10
187.385640646
 20
102.2
 30
0.0
 11
187.385640646
 21
103.8
 31
0.0
  0
LINE
  8
0
  6
CONTINUOUS
 62
     2
 10
187.385640646
 20
103.8
 30
0.0
 11
186.0
 21
104.6
 31
0.0
  0
CIRCLE
  8
0
  6
CONTINUOUS
 62
     2
 10
186.0
 20
135.0
 30
0.0
 40
2.0
  0
CIRCLE
  8
0
  6
CONTINUOUS
 62
     2
 10
186.0
 20
135.0
 30
0.0
 40
0.75
  0
LINE
  8
0
  6
CONTINUOUS
 62
     2
 10
186.0
 20
136.6
 30
0.0
 11
184.614359354
 21
135.8
 31
0.0
  0
LINE
  8
0
  6
CONTINUOUS
 62
     2
 10
184.614359354
 20
135.8
 30
0.0
 11
184.614359354
 21
134.2
 31
0.0
  0
LINE
  8
0
  6
CONTINUOUS
 62
     2
 10
184.614359354
 20
134.2
 30
0.0
 11
186.0
 21
133.4
 31
0.0
  0
LINE
  8
0
  6
CONTINUOUS
 62
     2
 10
186.0
 20
133.4
 30
0.0
 11
187.385640646
 21
134.2
 31
0.0
  0
LINE
  8
0
  6
CONTINUOUS
 62
     2
 10
187.385640646
 20
134.2
 30
0.0
 11
187.385640646
 21
135.8
 31
0.0
  0
LINE
  8
0
  6
CONTINUOUS
 62
     2
 10
187.385640646
 20
135.8
 30
0.0
 11
186.0
 21
136.6
 31
0.0
  0
CIRCLE
  8
0
  6
CONTINUOUS
 62
     2
 10
154.0
 20
135.0
 30
0.0
 40
2.0
  0
CIRCLE
  8
0
  6
CONTINUOUS
 62
     2
 10
154.0
 20
135.0
 30
0.0
 40
0.75
  0
LINE
  8
0
  6
CONTINUOUS
 62
     2
 10
154.0
 20
136.6
 30
0.0
 11
152.614359354
 21
135.8
 31
0.0
  0
LINE
  8
0
  6
CONTINUOUS
 62
     2
 10
152.614359354
 20
135.8
 30
0.0
 11
152.614359354
 21
134.2
 31
0.0
  0
LINE
  8
0
  6
CONTINUOUS
 62
     2
 10
152.614359354
 20
134.2
 30
0.0
 11
154.0
 21
133.4
 31
0.0
  0
LINE
  8
0
  6
CONTINUOUS
 62
     2
 10
154.0
 20
133.4
 30
0.0
 11
155.385640646
 21
134.2
 31
0.0
  0
LINE
  8
0
  6
CONTINUOUS
 62
     2
 10
155.385640646
 20
134.2
 30
0.0
 11
155.385640646
 21
135.8
 31
0.0
  0
LINE
  8
0
  6
CONTINUOUS
 62
     2
 10
155.385640646
 20
135.8
 30
0.0
 11
154.0
 21
136.6
 31
0.0
  0
ARC
  8
0
  6
CONTINUOUS
 62
     2
 10
33.75
 20
138.5
 30
0.0
 40
0.5
 50
90.0
 51
180.0
  0
ARC
  8
0
  6
CONTINUOUS
 62
     2
 10
33.75
 20
101.5
 30
0.0
 40
0.5
 50
180.0
 51
270.0
  0
ARC
  8
0
  6
CONTINUOUS
 62
     2
 10
74.25
 20
101.5
 30
0.0
 40
0.5
 50
270.0
 51
0.0
  0
ARC
  8
0
  6
CONTINUOUS
 62
     2
 10
74.25
 20
138.5
 30
0.0
 40
0.5
 50
0.0
 51
90.0
  0
LINE
  8
0
  6
CONTINUOUS
 62
     2
 10
74.75
 20
101.5
 30
0.0
 11
74.75
 21
138.5
 31
0.0
  0
LINE
  8
0
  6
CONTINUOUS
 62
     2
 10
74.25
 20
139.0
 30
0.0
 11
33.75
 21
139.0
 31
0.0
  0
LINE
  8
0
  6
CONTINUOUS
 62
     2
 10
33.25
 20
138.5
 30
0.0
 11
33.25
 21
101.5
 31
0.0
  0
LINE
  8
0
  6
CONTINUOUS
 62
     2
 10
33.75
 20
101.0
 30
0.0
 11
74.25
 21
101.0
 31
0.0
  0
ARC
  8
0
  6
CONTINUOUS
 62
     2
 10
34.5
 20
137.75
 30
0.0
 40
0.5
 50
90.0
 51
180.0
  0
ARC
  8
0
  6
CONTINUOUS
 62
     2
 10
73.5
 20
137.75
 30
0.0
 40
0.5
 50
0.0
 51
90.0
  0
LINE
  8
0
  6
CONTINUOUS
 62
     2
 10
73.5
 20
138.25
 30
0.0
 11
34.5
 21
138.25
 31
0.0
  0
LINE
  8
0
  6
CONTINUOUS
 62
     2
 10
34.0
 20
137.75
 30
0.0
 11
34.0
 21
115.5
 31
0.0
  0
LINE
  8
0
  6
CONTINUOUS
 62
     2
 10
34.0
 20
115.5
 30
0.0
 11
74.0
 21
115.5
 31
0.0
  0
LINE
  8
0
  6
CONTINUOUS
 62
     2
 10
74.0
 20
115.5
 30
0.0
 11
74.0
 21
137.75
 31
0.0
  0
CIRCLE
  8
0
  6
CONTINUOUS
 62
     2
 10
36.0
 20
112.75
 30
0.0
 40
1.5
  0
LINE
  8
0
  6
CONTINUOUS
 62
     2
 10
35.125
 20
112.95
 30
0.0
 11
35.6
 21
112.95
 31
0.0
  0
ARC
  8
0
  6
CONTINUOUS
 62
     2
 10
35.6
 20
113.15
 30
0.0
 40
0.2
 50
270.0
 51
0.0
  0
LINE
  8
0
  6
CONTINUOUS
 62
     2
 10
35.8
 20
113.15
 30
0.0
 11
35.8
 21
113.625
 31
0.0
  0
LINE
  8
0
  6
CONTINUOUS
 62
     2
 10
35.8
 20
113.625
 30
0.0
 11
36.2
 21
113.625
 31
0.0
  0
LINE
  8
0
  6
CONTINUOUS
 62
     2
 10
36.2
 20
113.625
 30
0.0
 11
36.2
 21
113.15
 31
0.0
  0
ARC
  8
0
  6
CONTINUOUS
 62
     2
 10
36.4
 20
113.15
 30
0.0
 40
0.2
 50
180.0
 51
270.0
  0
LINE
  8
0
  6
CONTINUOUS
 62
     2
 10
36.4
 20
112.95
 30
0.0
 11
36.875
 21
112.95
 31
0.0
  0
LINE
  8
0
  6
CONTINUOUS
 62
     2
 10
36.875
 20
112.95
 30
0.0
 11
36.875
 21
112.55
 31
0.0
  0
LINE
  8
0
  6
CONTINUOUS
 62
     2
 10
36.875
 20
112.55
 30
0.0
 11
36.4
 21
112.55
 31
0.0
  0
ARC
  8
0
  6
CONTINUOUS
 62
     2
 10
36.4
 20
112.35
 30
0.0
 40
0.2
 50
90.0
 51
180.0
  0
LINE
  8
0
  6
CONTINUOUS
 62
     2
 10
36.2
 20
112.35
 30
0.0
 11
36.2
 21
111.875
 31
0.0
  0
LINE
  8
0
  6
CONTINUOUS
 62
     2
 10
36.2
 20
111.875
 30
0.0
 11
35.8
 21
111.875
 31
0.0
  0
LINE
  8
0
  6
CONTINUOUS
 62
     2
 10
35.8
 20
111.875
 30
0.0
 11
35.8
 21
112.35
 31
0.0
  0
ARC
  8
0
  6
CONTINUOUS
 62
     2
 10
35.6
 20
112.35
 30
0.0
 40
0.2
 50
0.0
 51
90.0
  0
LINE
  8
0
  6
CONTINUOUS
 62
     2
 10
35.6
 20
112.55
 30
0.0
 11
35.125
 21
112.55
 31
0.0
  0
LINE
  8
0
  6
CONTINUOUS
 62
     2
 10
35.125
 20
112.55
 30
0.0
 11
35.125
 21
112.95
 31
0.0
  0
CIRCLE
  8
0
  6
CONTINUOUS
 62
     2
 10
72.0
 20
112.75
 30
0.0
 40
1.5
  0
LINE
  8
0
  6
CONTINUOUS
 62
     2
 10
71.125
 20
112.95
 30
0.0
 11
71.6
 21
112.95
 31
0.0
  0
ARC
  8
0
  6
CONTINUOUS
 62
     2
 10
71.6
 20
113.15
 30
0.0
 40
0.2
 50
270.0
 51
0.0
  0
LINE
  8
0
  6
CONTINUOUS
 62
     2
 10
71.8
 20
113.15
 30
0.0
 11
71.8
 21
113.625
 31
0.0
  0
LINE
  8
0
  6
CONTINUOUS
 62
     2
 10
71.8
 20
113.625
 30
0.0
 11
72.2
 21
113.625
 31
0.0
  0
LINE
  8
0
  6
CONTINUOUS
 62
     2
 10
72.2
 20
113.625
 30
0.0
 11
72.2
 21
113.15
 31
0.0
  0
ARC
  8
0
  6
CONTINUOUS
 62
     2
 10
72.4
 20
113.15
 30
0.0
 40
0.2
 50
180.0
 51
270.0
  0
LINE
  8
0
  6
CONTINUOUS
 62
     2
 10
72.4
 20
112.95
 30
0.0
 11
72.875
 21
112.95
 31
0.0
  0
LINE
  8
0
  6
CONTINUOUS
 62
     2
 10
72.875
 20
112.95
 30
0.0
 11
72.875
 21
112.55
 31
0.0
  0
LINE
  8
0
  6
CONTINUOUS
 62
     2
 10
72.875
 20
112.55
 30
0.0
 11
72.4
 21
112.55
 31
0.0
  0
ARC
  8
0
  6
CONTINUOUS
 62
     2
 10
72.4
 20
112.35
 30
0.0
 40
0.2
 50
90.0
 51
180.0
  0
LINE
  8
0
  6
CONTINUOUS
 62
     2
 10
72.2
 20
112.35
 30
0.0
 11
72.2
 21
111.875
 31
0.0
  0
LINE
  8
0
  6
CONTINUOUS
 62
     2
 10
72.2
 20
111.875
 30
0.0
 11
71.8
 21
111.875
 31
0.0
  0
LINE
  8
0
  6
CONTINUOUS
 62
     2
 10
71.8
 20
111.875
 30
0.0
 11
71.8
 21
112.35
 31
0.0
  0
ARC
  8
0
  6
CONTINUOUS
 62
     2
 10
71.6
 20
112.35
 30
0.0
 40
0.2
 50
0.0
 51
90.0
  0
LINE
  8
0
  6
CONTINUOUS
 62
     2
 10
71.6
 20
112.55
 30
0.0
 11
71.125
 21
112.55
 31
0.0
  0
LINE
  8
0
  6
CONTINUOUS
 62
     2
 10
71.125
 20
112.55
 30
0.0
 11
71.125
 21
112.95
 31
0.0
  0
LINE
  8
0
  6
CONTINUOUS
 62
     2
 10
37.736544033
 20
126.763455967
 30
0.0
 11
48.286544033
 21
115.513455967
 31
0.0
  0
LINE
  8
0
  6
CONTINUOUS
 62
     2
 10
37.786544033
 20
126.813455967
 30
0.0
 11
49.836544033
 21
115.488455967
 31
0.0
  0
LINE
  8
0
  6
CONTINUOUS
 62
     2
 10
143.8
 20
120.0
 30
0.0
 11
144.447047613
 21
122.414814566
 31
0.0
  0
LINE
  8
0
  6
CONTINUOUS
 62
     2
 10
143.8
 20
120.0
 30
0.0
 11
143.152952387
 21
122.414814566
 31
0.0
  0
LINE
  8
0
  6
CONTINUOUS
 62
     2
 10
143.8
 20
126.8
 30
0.0
 11
143.8
 21
114.0
 31
0.0
  0
LINE
  8
0
  6
CONTINUOUS
 62
     2
 10
143.8
 20
119.0
 30
0.0
 11
143.152952387
 21
116.585185434
 31
0.0
  0
LINE
  8
0
  6
CONTINUOUS
 62
     2
 10
143.8
 20
119.0
 30
0.0
 11
144.447047613
 21
116.585185434
 31
0.0
  0
TEXT
  8
0
  6
CONTINUOUS
 62
     2
 10
142.8
 20
125.0
 30
0.3
 40
3.0
  1
２
 50
90.0
 41
0.6
 51
0.0
  7
KANJI1
  0
LINE
  8
0
  6
CONTINUOUS
 62
     2
 10
179.25
 20
119.0
 30
0.0
 11
186.25
 21
119.0
 31
0.0
  0
LINE
  8
0
  6
CONTINUOUS
 62
     2
 10
100.260001538
 20
138.25
 30
0.0
 11
100.010001538
 21
138.25
 31
0.0
  0
LINE
  8
0
  6
CONTINUOUS
 62
     2
 10
100.010001538
 20
138.25
 30
0.0
 11
100.010001538
 21
115.5
 31
0.0
  0
LINE
  8
0
  6
CONTINUOUS
 62
     2
 10
100.010001538
 20
115.5
 30
0.0
 11
100.260001538
 21
115.5
 31
0.0
  0
CIRCLE
  8
0
  6
CONTINUOUS
 62
     2
 10
54.0
 20
110.5
 30
0.0
 40
1.5
  0
CIRCLE
  8
0
  6
CONTINUOUS
 62
     2
 10
54.0
 20
110.5
 30
0.0
 40
1.375
  0
LINE
  8
0
  6
CONTINUOUS
 62
     2
 10
52.647918272
 20
110.75
 30
0.0
 11
55.352081728
 21
110.75
 31
0.0
  0
LINE
  8
0
  6
CONTINUOUS
 62
     2
 10
52.647918272
 20
110.25
 30
0.0
 11
55.352081728
 21
110.25
 31
0.0
  0
LINE
  8
0
  6
CONTINUOUS
 62
     2
 10
100.260001538
 20
112.0
 30
0.0
 11
100.060001538
 21
112.0
 31
0.0
  0
LINE
  8
0
  6
CONTINUOUS
 62
     2
 10
100.060001538
 20
112.0
 30
0.0
 11
100.060001538
 21
109.0
 31
0.0
  0
LINE
  8
0
  6
CONTINUOUS
 62
     2
 10
100.060001538
 20
109.0
 30
0.0
 11
100.260001538
 21
109.0
 31
0.0
  0
LINE
  8
0
  6
CONTINUOUS
 62
     2
 10
99.410001538
 20
110.75
 30
0.0
 11
100.060001538
 21
110.75
 31
0.0
  0
LINE
  8
0
  6
CONTINUOUS
 62
     2
 10
99.410001538
 20
110.25
 30
0.0
 11
100.060001538
 21
110.25
 31
0.0
  0
LINE
  8
0
  6
CONTINUOUS
 62
     2
 10
99.660001538
 20
111.875
 30
0.0
 11
100.060001538
 21
111.875
 31
0.0
  0
LINE
  8
0
  6
CONTINUOUS
 62
     2
 10
99.660001538
 20
111.875
 30
0.0
 11
99.660001538
 21
110.75
 31
0.0
  0
LINE
  8
0
  6
CONTINUOUS
 62
     2
 10
99.660001538
 20
110.25
 30
0.0
 11
99.660001538
 21
109.125
 31
0.0
  0
LINE
  8
0
  6
CONTINUOUS
 62
     2
 10
99.660001538
 20
109.125
 30
0.0
 11
100.060001538
 21
109.125
 31
0.0
  0
LINE
  8
0
  6
CONTINUOUS
 62
     2
 10
99.410001538
 20
110.75
 30
0.0
 11
99.410001538
 21
111.206392775
 31
0.0
  0
LINE
  8
0
  6
CONTINUOUS
 62
     2
 10
99.453095763
 20
111.409462008
 30
0.0
 11
99.660001538
 21
111.875
 31
0.0
  0
ARC
  8
0
  6
CONTINUOUS
 62
     2
 10
99.910001538
 20
111.206392775
 30
0.0
 40
0.5
 50
156.037511025
 51
180.0
  0
LINE
  8
0
  6
CONTINUOUS
 62
     2
 10
99.410001538
 20
110.25
 30
0.0
 11
99.410001538
 21
109.793607225
 31
0.0
  0
LINE
  8
0
  6
CONTINUOUS
 62
     2
 10
99.453095763
 20
109.590537992
 30
0.0
 11
99.660001538
 21
109.125
 31
0.0
  0
ARC
  8
0
  6
CONTINUOUS
 62
     2
 10
99.910001538
 20
109.793607225
 30
0.0
 40
0.5
 50
180.0
 51
203.962488975
  0
LINE
  8
0
  6
CONTINUOUS
 62
     2
 10
62.366275726
 20
130.306007434
 30
0.0
 11
62.089111866
 21
130.420812464
 31
0.0
  0
LINE
  8
0
  6
CONTINUOUS
 62
     2
 10
62.089111866
 20
130.420812464
 30
0.0
 11
55.70445989
 21
115.5
 31
0.0
  0
LINE
  8
0
  6
CONTINUOUS
 62
     2
 10
62.366275726
 20
130.306007434
 30
0.0
 11
56.434161174
 21
115.5
 31
0.0
  0
LINE
  8
0
  6
CONTINUOUS
 62
     2
 10
121.25
 20
102.5
 30
0.0
 11
121.25
 21
95.5
 31
0.0
  0
LINE
  8
0
  6
CONTINUOUS
 62
     2
 10
121.25
 20
97.5
 30
0.0
 11
123.664814566
 21
96.852952387
 31
0.0
  0
LINE
  8
0
  6
CONTINUOUS
 62
     2
 10
121.25
 20
97.5
 30
0.0
 11
123.664814566
 21
98.147047613
 31
0.0
  0
LINE
  8
0
  6
CONTINUOUS
 62
     2
 10
121.25
 20
97.5
 30
0.0
 11
128.25
 21
97.5
 31
0.0
  0
LINE
  8
0
  6
CONTINUOUS
 62
     2
 10
128.25
 20
97.5
 30
0.0
 11
125.835185434
 21
98.147047613
 31
0.0
  0
LINE
  8
0
  6
CONTINUOUS
 62
     2
 10
128.25
 20
97.5
 30
0.0
 11
125.835185434
 21
96.852952387
 31
0.0
  0
TEXT
  8
0
  6
CONTINUOUS
 62
     2
 10
122.8
 20
98.5
 30
0.3
 40
3.0
  1
１４
 50
0.0
 41
0.6
 51
0.0
  7
KANJI1
  0
ARC
  8
0
  6
LTYPE1
 62
     2
 10
163.25
 20
119.5
 30
0.0
 40
3.0
 50
90.0
 51
180.0
  0
LINE
  8
0
  6
LTYPE1
 62
     2
 10
160.25
 20
114.0
 30
0.0
 11
160.25
 21
119.5
 31
0.0
  0
LINE
  8
0
  6
LTYPE1
 62
     2
 10
176.75
 20
111.0
 30
0.0
 11
163.25
 21
111.0
 31
0.0
  0
ARC
  8
0
  6
LTYPE1
 62
     2
 10
163.25
 20
114.0
 30
0.0
 40
3.0
 50
180.0
 51
270.0
  0
LINE
  8
0
  6
LTYPE1
 62
     2
 10
163.275
 20
122.5
 30
0.0
 11
176.75
 21
122.5
 31
0.0
  0
ARC
  8
0
  6
LTYPE1
 62
     2
 10
176.75
 20
119.5
 30
0.0
 40
3.0
 50
0.0
 51
90.0
  0
ARC
  8
0
  6
LTYPE1
 62
     2
 10
176.75
 20
114.0
 30
0.0
 40
3.0
 50
270.0
 51
0.0
  0
LINE
  8
0
  6
LTYPE1
 62
     2
 10
179.75
 20
119.5
 30
0.0
 11
179.75
 21
114.0
 31
0.0
  0
LINE
  8
0
  6
CONTINUOUS
 62
     2
 10
179.25
 20
119.0
 30
0.0
 11
187.25
 21
119.0
 31
0.0
  0
POINT
  8
0
  6
LTYPE1
 62
     2
 10
165.0
 20
115.6
 30
0.0
  0
LINE
  8
0
  6
LTYPE1
 62
     2
 10
165.0
 20
115.6
 30
0.0
 11
162.5
 21
115.6
 31
0.0
  0
LINE
  8
0
  6
LTYPE1
 62
     2
 10
165.0
 20
115.6
 30
0.0
 11
165.0
 21
112.6
 31
0.0
  0
LINE
  8
0
  6
LTYPE1
 62
     2
 10
162.5
 20
115.6
 30
0.0
 11
162.5
 21
112.6
 31
0.0
  0
POINT
  8
0
  6
LTYPE1
 62
     2
 10
177.5
 20
115.6
 30
0.0
  0
LINE
  8
0
  6
LTYPE1
 62
     2
 10
177.5
 20
115.6
 30
0.0
 11
175.0
 21
115.6
 31
0.0
  0
LINE
  8
0
  6
LTYPE1
 62
     2
 10
177.5
 20
115.6
 30
0.0
 11
177.5
 21
112.6
 31
0.0
  0
LINE
  8
0
  6
LTYPE1
 62
     2
 10
175.0
 20
115.6
 30
0.0
 11
175.0
 21
112.6
 31
0.0
  0
LINE
  8
0
  6
LTYPE2
 62
     2
 10
34.0
 20
112.75
 30
0.0
 11
38.0
 21
112.75
 31
0.0
  0
LINE
  8
0
  6
LTYPE2
 62
     2
 10
36.0
 20
114.75
 30
0.0
 11
36.0
 21
110.75
 31
0.0
  0
LINE
  8
0
  6
LTYPE2
 62
     2
 10
70.0
 20
112.75
 30
0.0
 11
74.0
 21
112.75
 31
0.0
  0
LINE
  8
0
  6
LTYPE2
 62
     2
 10
72.0
 20
114.75
 30
0.0
 11
72.0
 21
110.75
 31
0.0
  0
LINE
  8
0
  6
LTYPE2
 62
     2
 10
50.8
 20
105.5
 30
0.0
 11
57.2
 21
105.5
 31
0.0
  0
LINE
  8
0
  6
LTYPE2
 62
     2
 10
105.21
 20
135.01
 30
0.0
 11
112.61
 21
135.01
 31
0.0
  0
LINE
  8
0
  6
LTYPE2
 62
     2
 10
105.2
 20
103.0
 30
0.0
 11
112.6
 21
103.0
 31
0.0
  0
LINE
  8
0
  6
LTYPE2
 62
     2
 10
151.0
 20
135.0
 30
0.0
 11
157.0
 21
135.0
 31
0.0
  0
LINE
  8
0
  6
LTYPE2
 62
     2
 10
183.0
 20
135.0
 30
0.0
 11
189.0
 21
135.0
 31
0.0
  0
LINE
  8
0
  6
LTYPE2
 62
     2
 10
163.75
 20
122.0
 30
0.0
 11
163.75
 21
116.0
 31
0.0
  0
LINE
  8
0
  6
LTYPE2
 62
     2
 10
176.25
 20
122.0
 30
0.0
 11
176.25
 21
116.0
 31
0.0
  0
LINE
  8
0
  6
LTYPE2
 62
     2
 10
151.0
 20
103.0
 30
0.0
 11
157.0
 21
103.0
 31
0.0
  0
LINE
  8
0
  6
LTYPE2
 62
     2
 10
183.0
 20
103.0
 30
0.0
 11
189.0
 21
103.0
 31
0.0
  0
LINE
  8
0
  6
CONTINUOUS
 62
     2
 10
115.8
 20
135.25
 30
0.0
 11
115.152952387
 21
132.835185434
 31
0.0
  0
LINE
  8
0
  6
CONTINUOUS
 62
     2
 10
115.8
 20
135.25
 30
0.0
 11
116.447047613
 21
132.835185434
 31
0.0
  0
LINE
  8
0
  6
CONTINUOUS
 62
     2
 10
115.8
 20
135.25
 30
0.0
 11
115.8
 21
103.0
 31
0.0
  0
LINE
  8
0
  6
CONTINUOUS
 62
     2
 10
115.8
 20
103.0
 30
0.0
 11
116.447047613
 21
105.414814566
 31
0.0
  0
LINE
  8
0
  6
CONTINUOUS
 62
     2
 10
115.8
 20
103.0
 30
0.0
 11
115.152952387
 21
105.414814566
 31
0.0
  0
TEXT
  8
0
  6
CONTINUOUS
 62
     2
 10
114.8
 20
115.625
 30
0.5
 40
3.0
  1
φ６５
 50
90.0
 41
0.666666667
 51
0.0
  7
KANJI2
  0
LINE
  8
0
  6
LTYPE2
 62
     2
 10
119.95
 20
119.0
 30
0.0
 11
128.95
 21
119.0
 31
0.0
  0
TEXT
  8
0
  6
CONTINUOUS
 62
     2
 10
106.810000769
 20
146.0
 30
0.3
 40
3.0
  1
１０
 50
0.0
 41
0.6
 51
0.0
  7
KANJI1
  0
LINE
  8
0
  6
CONTINUOUS
 62
     2
 10
111.26
 20
145.0
 30
0.0
 11
109.45
 21
145.484988038
 31
0.0
  0
LINE
  8
0
  6
CONTINUOUS
 62
     2
 10
111.26
 20
145.0
 30
0.0
 11
109.45
 21
144.515011962
 31
0.0
  0
LINE
  8
0
  6
CONTINUOUS
 62
     2
 10
106.260001538
 20
145.0
 30
0.0
 11
108.05
 21
144.520371358
 31
0.0
  0
LINE
  8
0
  6
CONTINUOUS
 62
     2
 10
106.260001538
 20
145.0
 30
0.0
 11
108.05
 21
145.479628642
 31
0.0
  0
TEXT
  8
0
  6
CONTINUOUS
 62
     2
 10
101.835
 20
146.025
 30
0.3
 40
3.0
  1
０．５
 50
0.0
 41
0.3
 51
0.0
  7
KANJI3
  0
LINE
  8
0
  6
CONTINUOUS
 62
     2
 10
106.0
 20
145.0
 30
0.0
 11
103.585185434
 21
145.647047613
 31
0.0
  0
LINE
  8
0
  6
CONTINUOUS
 62
     2
 10
106.0
 20
145.0
 30
0.0
 11
103.585185434
 21
144.352952387
 31
0.0
  0
LINE
  8
0
  6
CONTINUOUS
 62
     2
 10
101.55
 20
145.0
 30
0.0
 11
111.26
 21
145.0
 31
0.0
  0
LINE
  8
0
  6
CONTINUOUS
 62
     2
 10
106.0
 20
141.0
 30
0.0
 11
106.0
 21
147.0
 31
0.0
  0
LINE
  8
0
  6
CONTINUOUS
 62
     2
 10
111.26
 20
136.835
 30
0.0
 11
111.26
 21
147.0
 31
0.0
  0
LINE
  8
0
  6
CONTINUOUS
 62
     2
 10
121.25
 20
150.0
 30
0.0
 11
123.664814566
 21
149.352952387
 31
0.0
  0
LINE
  8
0
  6
CONTINUOUS
 62
     2
 10
121.25
 20
150.0
 30
0.0
 11
123.664814566
 21
150.647047613
 31
0.0
  0
TEXT
  8
0
  6
CONTINUOUS
 62
     2
 10
120.905
 20
151.0
 30
0.3
 40
3.0
  1
１１
 50
0.0
 41
0.6
 51
0.0
  7
KANJI1
  0
TEXT
  8
0
  6
CONTINUOUS
 62
     2
 10
124.805
 20
151.0
 30
0.18
 40
1.8
  1
±１
 50
0.0
 41
0.6
 51
0.0
  7
KANJI4
  0
TEXT
  8
0
  6
CONTINUOUS
 62
     2
 10
111.805
 20
151.04
 30
0.3
 40
3.0
  1
３０
 50
0.0
 41
0.6
 51
0.0
  7
KANJI1
  0
TEXT
  8
0
  6
CONTINUOUS
 62
     2
 10
100.985000769
 20
151.065
 30
0.3
 40
3.0
  1
１２．５
 50
0.0
 41
0.3
 51
0.0
  7
KANJI3
  0
LINE
  8
0
  6
CONTINUOUS
 62
     2
 10
127.2
 20
150.0
 30
0.0
 11
124.785185434
 21
150.647047613
 31
0.0
  0
LINE
  8
0
  6
CONTINUOUS
 62
     2
 10
127.2
 20
150.0
 30
0.0
 11
124.785185434
 21
149.352952387
 31
0.0
  0
LINE
  8
0
  6
CONTINUOUS
 62
     2
 10
127.2
 20
150.0
 30
0.0
 11
121.25
 21
150.0
 31
0.0
  0
LINE
  8
0
  6
CONTINUOUS
 62
     2
 10
121.25
 20
150.0
 30
0.0
 11
118.835185434
 21
150.647047613
 31
0.0
  0
LINE
  8
0
  6
CONTINUOUS
 62
     2
 10
121.25
 20
150.0
 30
0.0
 11
118.835185434
 21
149.352952387
 31
0.0
  0
LINE
  8
0
  6
CONTINUOUS
 62
     2
 10
121.25
 20
150.0
 30
0.0
 11
106.26
 21
150.0
 31
0.0
  0
LINE
  8
0
  6
CONTINUOUS
 62
     2
 10
106.26
 20
150.0
 30
0.0
 11
108.674814566
 21
149.352952387
 31
0.0
  0
LINE
  8
0
  6
CONTINUOUS
 62
     2
 10
106.26
 20
150.0
 30
0.0
 11
108.674814566
 21
150.647047613
 31
0.0
  0
LINE
  8
0
  6
CONTINUOUS
 62
     2
 10
106.26
 20
150.0
 30
0.0
 11
103.845185434
 21
150.647047613
 31
0.0
  0
LINE
  8
0
  6
CONTINUOUS
 62
     2
 10
106.26
 20
150.0
 30
0.0
 11
103.845185434
 21
149.352952387
 31
0.0
  0
LINE
  8
0
  6
CONTINUOUS
 62
     2
 10
106.26
 20
150.0
 30
0.0
 11
100.010001538
 21
150.0
 31
0.0
  0
LINE
  8
0
  6
CONTINUOUS
 62
     2
 10
100.010001538
 20
150.0
 30
0.0
 11
102.424816104
 21
149.352952387
 31
0.0
  0
LINE
  8
0
  6
CONTINUOUS
 62
     2
 10
100.010001538
 20
150.0
 30
0.0
 11
102.424816104
 21
150.647047613
 31
0.0
  0
LINE
  8
0
  6
CONTINUOUS
 62
     2
 10
100.010001538
 20
139.5
 30
0.0
 11
100.010001538
 21
152.0
 31
0.0
  0
LINE
  8
0
  6
CONTINUOUS
 62
     2
 10
106.26
 20
138.06
 30
0.0
 11
106.26
 21
152.0
 31
0.0
  0
LINE
  8
0
  6
CONTINUOUS
 62
     2
 10
121.25
 20
135.75
 30
0.0
 11
121.25
 21
152.0
 31
0.0
  0
LINE
  8
0
  6
CONTINUOUS
 62
     2
 10
127.2
 20
121.05
 30
0.0
 11
127.2
 21
152.0
 31
0.0
  0
LINE
  8
0
  6
CONTINUOUS
 62
     2
 10
154.0
 20
145.0
 30
0.0
 11
156.414814566
 21
144.352952387
 31
0.0
  0
LINE
  8
0
  6
CONTINUOUS
 62
     2
 10
154.0
 20
145.0
 30
0.0
 11
156.414814566
 21
145.647047613
 31
0.0
  0
LINE
  8
0
  6
CONTINUOUS
 62
     2
 10
154.0
 20
145.0
 30
0.0
 11
170.0
 21
145.0
 31
0.0
  0
LINE
  8
0
  6
CONTINUOUS
 62
     2
 10
170.0
 20
145.0
 30
0.0
 11
167.585185434
 21
145.647047613
 31
0.0
  0
LINE
  8
0
  6
CONTINUOUS
 62
     2
 10
170.0
 20
145.0
 30
0.0
 11
167.585185434
 21
144.352952387
 31
0.0
  0
TEXT
  8
0
  6
CONTINUOUS
 62
     2
 10
161.52
 20
146.0
 30
0.18
 40
1.8
  1
±０．５
 50
0.0
 41
0.6
 51
0.0
  7
KANJI4
  0
LINE
  8
0
  6
CONTINUOUS
 62
     2
 10
170.0
 20
145.0
 30
0.0
 11
172.414814566
 21
144.352952387
 31
0.0
  0
LINE
  8
0
  6
CONTINUOUS
 62
     2
 10
170.0
 20
145.0
 30
0.0
 11
172.414814566
 21
145.647047613
 31
0.0
  0
LINE
  8
0
  6
CONTINUOUS
 62
     2
 10
170.0
 20
145.0
 30
0.0
 11
186.0
 21
145.0
 31
0.0
  0
LINE
  8
0
  6
CONTINUOUS
 62
     2
 10
186.0
 20
145.0
 30
0.0
 11
183.585185434
 21
145.647047613
 31
0.0
  0
LINE
  8
0
  6
CONTINUOUS
 62
     2
 10
186.0
 20
145.0
 30
0.0
 11
183.585185434
 21
144.352952387
 31
0.0
  0
TEXT
  8
0
  6
CONTINUOUS
 62
     2
 10
177.52
 20
146.0
 30
0.18
 40
1.8
  1
±０．５
 50
0.0
 41
0.6
 51
0.0
  7
KANJI4
  0
TEXT
  8
0
  6
CONTINUOUS
 62
     2
 10
173.62
 20
146.0
 30
0.3
 40
3.0
  1
３２
 50
0.0
 41
0.6
 51
0.0
  7
KANJI1
  0
TEXT
  8
0
  6
CONTINUOUS
 62
     2
 10
157.62
 20
146.0
 30
0.3
 40
3.0
  1
３２
 50
0.0
 41
0.6
 51
0.0
  7
KANJI1
  0
LINE
  8
0
  6
CONTINUOUS
 62
     2
 10
148.25
 20
150.0
 30
0.0
 11
150.664814566
 21
149.352952387
 31
0.0
  0
LINE
  8
0
  6
CONTINUOUS
 62
     2
 10
148.25
 20
150.0
 30
0.0
 11
150.664814566
 21
150.647047613
 31
0.0
  0
LINE
  8
0
  6
CONTINUOUS
 62
     2
 10
148.25
 20
150.0
 30
0.0
 11
191.75
 21
150.0
 31
0.0
  0
LINE
  8
0
  6
CONTINUOUS
 62
     2
 10
191.75
 20
150.0
 30
0.0
 11
189.335185434
 21
150.647047613
 31
0.0
  0
LINE
  8
0
  6
CONTINUOUS
 62
     2
 10
191.75
 20
150.0
 30
0.0
 11
189.335185434
 21
149.352952387
 31
0.0
  0
TEXT
  8
0
  6
CONTINUOUS
 62
     2
 10
172.88
 20
151.0
 30
0.18
 40
1.8
  1
±１
 50
0.0
 41
0.6
 51
0.0
  7
KANJI4
  0
TEXT
  8
0
  6
CONTINUOUS
 62
     2
 10
167.78
 20
151.0
 30
0.3
 40
3.0
  1
８７
 50
0.0
 41
0.6
 51
0.0
  7
KANJI1
  0
LINE
  8
0
  6
CONTINUOUS
 62
     2
 10
148.25
 20
139.35
 30
0.0
 11
148.25
 21
152.0
 31
0.0
  0
LINE
  8
0
  6
CONTINUOUS
 62
     2
 10
191.75
 20
139.35
 30
0.0
 11
191.75
 21
152.0
 31
0.0
  0
LINE
  8
0
  6
CONTINUOUS
 62
     2
 10
196.75
 20
103.0
 30
0.0
 11
197.397047613
 21
105.414814566
 31
0.0
  0
LINE
  8
0
  6
CONTINUOUS
 62
     2
 10
196.75
 20
103.0
 30
0.0
 11
196.102952387
 21
105.414814566
 31
0.0
  0
LINE
  8
0
  6
CONTINUOUS
 62
     2
 10
196.75
 20
103.0
 30
0.0
 11
196.75
 21
119.0
 31
0.0
  0
LINE
  8
0
  6
CONTINUOUS
 62
     2
 10
196.75
 20
119.0
 30
0.0
 11
196.102952387
 21
116.585185434
 31
0.0
  0
LINE
  8
0
  6
CONTINUOUS
 62
     2
 10
196.75
 20
119.0
 30
0.0
 11
197.397047613
 21
116.585185434
 31
0.0
  0
TEXT
  8
0
  6
CONTINUOUS
 62
     2
 10
195.75
 20
110.52
 30
0.18
 40
1.8
  1
±０．５
 50
90.0
 41
0.6
 51
0.0
  7
KANJI4
  0
LINE
  8
0
  6
CONTINUOUS
 62
     2
 10
196.75
 20
119.0
 30
0.0
 11
197.397047613
 21
121.414814566
 31
0.0
  0
LINE
  8
0
  6
CONTINUOUS
 62
     2
 10
196.75
 20
119.0
 30
0.0
 11
196.102952387
 21
121.414814566
 31
0.0
  0
LINE
  8
0
  6
CONTINUOUS
 62
     2
 10
196.75
 20
119.0
 30
0.0
 11
196.75
 21
135.0
 31
0.0
  0
LINE
  8
0
  6
CONTINUOUS
 62
     2
 10
196.75
 20
135.0
 30
0.0
 11
196.102952387
 21
132.585185434
 31
0.0
  0
LINE
  8
0
  6
CONTINUOUS
 62
     2
 10
196.75
 20
135.0
 30
0.0
 11
197.397047613
 21
132.585185434
 31
0.0
  0
TEXT
  8
0
  6
CONTINUOUS
 62
     2
 10
195.75
 20
126.52
 30
0.18
 40
1.8
  1
±０．５
 50
90.0
 41
0.6
 51
0.0
  7
KANJI4
  0
TEXT
  8
0
  6
CONTINUOUS
 62
     2
 10
195.75
 20
122.62
 30
0.3
 40
3.0
  1
３２
 50
90.0
 41
0.6
 51
0.0
  7
KANJI1
  0
TEXT
  8
0
  6
CONTINUOUS
 62
     2
 10
195.75
 20
106.62
 30
0.3
 40
3.0
  1
３２
 50
90.0
 41
0.6
 51
0.0
  7
KANJI1
  0
LINE
  8
0
  6
CONTINUOUS
 62
     2
 10
202.25
 20
140.0
 30
0.0
 11
201.602952387
 21
137.585185434
 31
0.0
  0
LINE
  8
0
  6
CONTINUOUS
 62
     2
 10
202.25
 20
140.0
 30
0.0
 11
202.897047613
 21
137.585185434
 31
0.0
  0
LINE
  8
0
  6
CONTINUOUS
 62
     2
 10
202.25
 20
140.0
 30
0.0
 11
202.25
 21
100.0
 31
0.0
  0
LINE
  8
0
  6
CONTINUOUS
 62
     2
 10
202.25
 20
100.0
 30
0.0
 11
202.897047613
 21
102.414814566
 31
0.0
  0
LINE
  8
0
  6
CONTINUOUS
 62
     2
 10
202.25
 20
100.0
 30
0.0
 11
201.602952387
 21
102.414814566
 31
0.0
  0
TEXT
  8
0
  6
CONTINUOUS
 62
     2
 10
201.25
 20
120.78
 30
0.18
 40
1.8
  1
±１
 50
90.0
 41
0.6
 51
0.0
  7
KANJI4
  0
TEXT
  8
0
  6
CONTINUOUS
 62
     2
 10
201.25
 20
116.88
 30
0.3
 40
3.0
  1
８０
 50
90.0
 41
0.6
 51
0.0
  7
KANJI1
  0
LINE
  8
0
  6
CONTINUOUS
 62
     2
 10
189.7
 20
135.0
 30
0.0
 11
198.75
 21
135.0
 31
0.0
  0
LINE
  8
0
  6
CONTINUOUS
 62
     2
 10
189.4
 20
103.0
 30
0.0
 11
198.75
 21
103.0
 31
0.0
  0
LINE
  8
0
  6
CONTINUOUS
 62
     2
 10
191.1
 20
100.0
 30
0.0
 11
204.25
 21
100.0
 31
0.0
  0
LINE
  8
0
  6
CONTINUOUS
 62
     2
 10
191.1
 20
140.0
 30
0.0
 11
204.25
 21
140.0
 31
0.0
  0
LINE
  8
0
  6
CONTINUOUS
 62
     2
 10
194.25
 20
119.0
 30
0.0
 11
198.75
 21
119.0
 31
0.0
  0
TEXT
  8
0
  6
CONTINUOUS
 62
     2
 10
162.45
 20
122.975
 30
0.3
 40
3.0
  1
＋
 50
0.0
 41
0.9
 51
0.0
  7
KANJI5
  0
TEXT
  8
0
  6
CONTINUOUS
 62
     2
 10
137.48
 20
64.0
 30
0.3
 40
3.0
  1
（□；Ｄ，Ｓ，Ｃ）
 50
0.0
 41
0.9
 51
0.0
  7
KANJI5
  0
LINE
  8
0
  6
CONTINUOUS
 62
     2
 10
137.48
 20
53.0
 30
0.0
 11
180.88
 21
53.0
 31
0.0
  0
LINE
  8
0
  6
CONTINUOUS
 62
     2
 10
137.48
 20
63.0
 30
0.0
 11
163.48
 21
63.0
 31
0.0
  0
TEXT
  8
0
  6
CONTINUOUS
 62
     2
 10
137.88
 20
54.0
 30
0.3
 40
3.0
  1
Ｍ５タ－ミナルネジとなります。
 50
0.0
 41
0.9
 51
0.0
  7
KANJI5
  0
LINE
  8
0
  6
CONTINUOUS
 62
     2
 10
128.0
 20
68.0
 30
0.0
 11
208.0
 21
68.0
 31
0.0
  0
LINE
  8
0
  6
CONTINUOUS
 62
     2
 10
218.58
 20
58.0
 30
0.0
 11
128.0
 21
58.0
 31
0.0
  0
TEXT
  8
0
  6
CONTINUOUS
 62
     2
 10
128.93
 20
69.0
 30
0.3
 40
3.0
  1
注１．感度調整用抵抗器は□ＣＦ－８Ｖ形に限りつきます。
 50
0.0
 41
0.9
 51
0.0
  7
KANJI5
  0
TEXT
  8
0
  6
CONTINUOUS
 62
     2
 10
128.88
 20
59.0
 30
0.3
 40
3.0
  1
注２．ＡＣＦ－８形交流電流計で１０Ａ以上，３０Ａ以下の場合は
 50
0.0
 41
0.9
 51
0.0
  7
KANJI5
  0
LINE
  8
0
  6
LTYPE2
 62
     2
 10
174.8125
 20
124.75
 30
0.0
 11
165.8125
 21
124.75
 31
0.0
  0
CIRCLE
  8
0
  6
CONTINUOUS
 62
     2
 10
170.0
 20
124.75
 30
0.0
 40
3.75
  0
LINE
  8
0
  6
LTYPE2
 62
     2
 10
118.75
 20
124.75
 30
0.0
 11
123.75
 21
124.75
 31
0.0
  0
LINE
  8
0
  6
LTYPE2
 62
     2
 10
54.0
 20
148.0
 30
0.0
 11
54.0
 21
90.15
 31
0.0
  0
LINE
  8
0
  6
LTYPE2
 62
     2
 10
193.75
 20
120.0
 30
0.0
 11
21.65
 21
120.0
 31
0.0
  0
LINE
  8
0
  6
LTYPE2
 62
     2
 10
142.0
 20
119.0
 30
0.0
 11
193.75
 21
119.0
 31
0.0
  0
LINE
  8
0
  6
LTYPE2
 62
     2
 10
154.0
 20
138.0
 30
0.0
 11
154.0
 21
132.0
 31
0.0
  0
LINE
  8
0
  6
LTYPE2
 62
     2
 10
186.0
 20
138.0
 30
0.0
 11
186.0
 21
132.0
 31
0.0
  0
LINE
  8
0
  6
LTYPE2
 62
     2
 10
186.0
 20
106.0
 30
0.0
 11
186.0
 21
100.0
 31
0.0
  0
LINE
  8
0
  6
LTYPE2
 62
     2
 10
154.0
 20
106.0
 30
0.0
 11
154.0
 21
100.0
 31
0.0
  0
LINE
  8
0
  6
CONTINUOUS
 62
     2
 10
154.0
 20
138.5
 30
0.0
 11
154.0
 21
147.0
 31
0.0
  0
LINE
  8
0
  6
CONTINUOUS
 62
     2
 10
170.0
 20
142.5
 30
0.0
 11
170.0
 21
147.0
 31
0.0
  0
LINE
  8
0
  6
CONTINUOUS
 62
     2
 10
186.0
 20
138.5
 30
0.0
 11
186.0
 21
147.0
 31
0.0
  0
LINE
  8
0
  6
CONTINUOUS
 62
     2
 10
40.641965245
 20
48.414982404
 30
0.0
 11
42.95689376
 21
49.358966498
 31
0.0
  0
LINE
  8
0
  6
CONTINUOUS
 62
     2
 10
40.641965245
 20
48.414982404
 30
0.0
 11
42.1747601
 21
50.389960868
 31
0.0
  0
LINE
  8
0
  6
CONTINUOUS
 62
     2
 10
40.641965245
 20
48.414982404
 30
0.0
 11
67.33112282
 21
68.66192953
 31
0.0
  0
LINE
  8
0
  6
CONTINUOUS
 62
     2
 10
67.33112282
 20
68.66192953
 30
0.0
 11
65.016194305
 21
67.717945437
 31
0.0
  0
LINE
  8
0
  6
CONTINUOUS
 62
     2
 10
67.33112282
 20
68.66192953
 30
0.0
 11
65.798327965
 21
66.686951067
 31
0.0
  0
TEXT
  8
0
  6
CONTINUOUS
 62
     2
 10
41.782157551
 20
50.535147238
 30
0.3
 40
3.0
  1
φ６７
 50
37.184706453
 41
0.6
 51
0.0
  7
KANJI1
  0
TEXT
  8
0
  6
CONTINUOUS
 62
     2
 10
46.562305177
 20
54.161466126
 30
0.18
 40
1.8
  1
±１
 50
37.184706453
 41
0.6
 51
0.0
  7
KANJI4
  0
LINE
  8
0
  6
LTYPE2
 62
     2
 10
38.0
 20
77.038455967
 30
0.0
 11
38.0
 21
72.038455967
 31
0.0
  0
LINE
  8
0
  6
LTYPE2
 62
     2
 10
35.5
 20
74.538455967
 30
0.0
 11
40.5
 21
74.538455967
 31
0.0
  0
LINE
  8
0
  6
LTYPE2
 62
     2
 10
70.0
 20
77.038455967
 30
0.0
 11
70.0
 21
72.038455967
 31
0.0
  0
LINE
  8
0
  6
LTYPE2
 62
     2
 10
67.5
 20
74.538455967
 30
0.0
 11
72.5
 21
74.538455967
 31
0.0
  0
LINE
  8
0
  6
LTYPE2
 62
     2
 10
70.0
 20
45.038455967
 30
0.0
 11
70.0
 21
40.038455967
 31
0.0
  0
LINE
  8
0
  6
LTYPE2
 62
     2
 10
67.5
 20
42.538455967
 30
0.0
 11
72.5
 21
42.538455967
 31
0.0
  0
LINE
  8
0
  6
LTYPE2
 62
     2
 10
38.0
 20
45.038455967
 30
0.0
 11
38.0
 21
40.038455967
 31
0.0
  0
LINE
  8
0
  6
LTYPE2
 62
     2
 10
35.5
 20
42.538455967
 30
0.0
 11
40.5
 21
42.538455967
 31
0.0
  0
LINE
  8
0
  6
CONTINUOUS
 62
     2
 10
70.0
 20
80.538455967
 30
0.0
 11
67.585185434
 21
81.18550358
 31
0.0
  0
LINE
  8
0
  6
CONTINUOUS
 62
     2
 10
70.0
 20
80.538455967
 30
0.0
 11
67.585185434
 21
79.891408355
 31
0.0
  0
LINE
  8
0
  6
CONTINUOUS
 62
     2
 10
70.0
 20
80.538455967
 30
0.0
 11
54.0
 21
80.538455967
 31
0.0
  0
LINE
  8
0
  6
CONTINUOUS
 62
     2
 10
54.0
 20
80.538455967
 30
0.0
 11
56.414814566
 21
79.891408355
 31
0.0
  0
LINE
  8
0
  6
CONTINUOUS
 62
     2
 10
54.0
 20
80.538455967
 30
0.0
 11
56.414814566
 21
81.18550358
 31
0.0
  0
TEXT
  8
0
  6
CONTINUOUS
 62
     2
 10
57.62
 20
81.538455967
 30
0.3
 40
3.0
  1
３２
 50
0.0
 41
0.6
 51
0.0
  7
KANJI1
  0
TEXT
  8
0
  6
CONTINUOUS
 62
     2
 10
61.52
 20
81.538455967
 30
0.18
 40
1.8
  1
±０．５
 50
0.0
 41
0.6
 51
0.0
  7
KANJI4
  0
LINE
  8
0
  6
CONTINUOUS
 62
     2
 10
54.0
 20
80.538455967
 30
0.0
 11
51.585185434
 21
81.18550358
 31
0.0
  0
LINE
  8
0
  6
CONTINUOUS
 62
     2
 10
54.0
 20
80.538455967
 30
0.0
 11
51.585185434
 21
79.891408355
 31
0.0
  0
LINE
  8
0
  6
CONTINUOUS
 62
     2
 10
54.0
 20
80.538455967
 30
0.0
 11
37.9975
 21
80.538455967
 31
0.0
  0
LINE
  8
0
  6
CONTINUOUS
 62
     2
 10
37.9975
 20
80.538455967
 30
0.0
 11
40.412314566
 21
79.891408355
 31
0.0
  0
LINE
  8
0
  6
CONTINUOUS
 62
     2
 10
37.9975
 20
80.538455967
 30
0.0
 11
40.412314566
 21
81.18550358
 31
0.0
  0
TEXT
  8
0
  6
CONTINUOUS
 62
     2
 10
41.61875
 20
81.538455967
 30
0.3
 40
3.0
  1
３２
 50
0.0
 41
0.6
 51
0.0
  7
KANJI1
  0
TEXT
  8
0
  6
CONTINUOUS
 62
     2
 10
45.51875
 20
81.538455967
 30
0.18
 40
1.8
  1
±０．５
 50
0.0
 41
0.6
 51
0.0
  7
KANJI4
  0
LINE
  8
0
  6
CONTINUOUS
 62
     2
 10
38.0
 20
77.538455967
 30
0.0
 11
38.0
 21
82.538455967
 31
0.0
  0
LINE
  8
0
  6
CONTINUOUS
 62
     2
 10
70.0
 20
77.538455967
 30
0.0
 11
70.0
 21
82.538455967
 31
0.0
  0
LINE
  8
0
  6
CONTINUOUS
 62
     2
 10
54.0
 20
77.538455967
 30
0.0
 11
54.0
 21
82.538455967
 31
0.0
  0
LINE
  8
0
  6
CONTINUOUS
 62
     2
 10
76.0
 20
74.538455967
 30
0.0
 11
75.352952387
 21
72.123641402
 31
0.0
  0
LINE
  8
0
  6
CONTINUOUS
 62
     2
 10
76.0
 20
74.538455967
 30
0.0
 11
76.647047613
 21
72.123641402
 31
0.0
  0
LINE
  8
0
  6
CONTINUOUS
 62
     2
 10
76.0
 20
74.538455967
 30
0.0
 11
76.0
 21
58.538455967
 31
0.0
  0
LINE
  8
0
  6
CONTINUOUS
 62
     2
 10
76.0
 20
58.538455967
 30
0.0
 11
76.647047613
 21
60.953270533
 31
0.0
  0
LINE
  8
0
  6
CONTINUOUS
 62
     2
 10
76.0
 20
58.538455967
 30
0.0
 11
75.352952387
 21
60.953270533
 31
0.0
  0
TEXT
  8
0
  6
CONTINUOUS
 62
     2
 10
75.0
 20
62.158455967
 30
0.3
 40
3.0
  1
３２
 50
90.0
 41
0.6
 51
0.0
  7
KANJI1
  0
TEXT
  8
0
  6
CONTINUOUS
 62
     2
 10
75.0
 20
66.058455967
 30
0.18
 40
1.8
  1
±０．５
 50
90.0
 41
0.6
 51
0.0
  7
KANJI4
  0
LINE
  8
0
  6
CONTINUOUS
 62
     2
 10
76.0
 20
58.538455967
 30
0.0
 11
75.352952387
 21
56.123641402
 31
0.0
  0
LINE
  8
0
  6
CONTINUOUS
 62
     2
 10
76.0
 20
58.538455967
 30
0.0
 11
76.647047613
 21
56.123641402
 31
0.0
  0
LINE
  8
0
  6
CONTINUOUS
 62
     2
 10
76.0
 20
58.538455967
 30
0.0
 11
76.0
 21
42.538455967
 31
0.0
  0
LINE
  8
0
  6
CONTINUOUS
 62
     2
 10
76.0
 20
42.538455967
 30
0.0
 11
76.647047613
 21
44.953270533
 31
0.0
  0
LINE
  8
0
  6
CONTINUOUS
 62
     2
 10
76.0
 20
42.538455967
 30
0.0
 11
75.352952387
 21
44.953270533
 31
0.0
  0
TEXT
  8
0
  6
CONTINUOUS
 62
     2
 10
75.0
 20
46.158455967
 30
0.3
 40
3.0
  1
３２
 50
90.0
 41
0.6
 51
0.0
  7
KANJI1
  0
TEXT
  8
0
  6
CONTINUOUS
 62
     2
 10
75.0
 20
50.058455967
 30
0.18
 40
1.8
  1
±０．５
 50
90.0
 41
0.6
 51
0.0
  7
KANJI4
  0
LINE
  8
0
  6
CONTINUOUS
 62
     2
 10
73.0
 20
74.538455967
 30
0.0
 11
78.0
 21
74.538455967
 31
0.0
  0
LINE
  8
0
  6
CONTINUOUS
 62
     2
 10
73.0
 20
42.538455967
 30
0.0
 11
78.0
 21
42.538455967
 31
0.0
  0
LINE
  8
0
  6
CONTINUOUS
 62
     2
 10
73.0
 20
58.538455967
 30
0.0
 11
78.0
 21
58.538455967
 31
0.0
  0
LINE
  8
0
  6
LTYPE2
 62
     2
 10
54.0
 20
77.038455967
 30
0.0
 11
54.0
 21
37.588455967
 31
0.0
  0
LINE
  8
0
  6
LTYPE2
 62
     2
 10
29.036544033
 20
58.538455967
 30
0.0
 11
72.5
 21
58.538455967
 31
0.0
  0
LINE
  8
0
  6
CONTINUOUS
 62
     2
 10
124.961111111
 20
117.0
 30
0.0
 11
125.591227584
 21
114.580712247
 31
0.0
  0
LINE
  8
0
  6
CONTINUOUS
 62
     2
 10
124.961111111
 20
117.0
 30
0.0
 11
126.71645186
 21
115.219893584
 31
0.0
  0
TEXT
  8
0
  6
CONTINUOUS
 62
     2
 10
142.162015177
 20
95.03
 30
0.3
 40
3.0
  1
注
 50
0.0
 41
0.9
 51
0.0
  7
KANJI5
  0
TEXT
  8
0
  6
CONTINUOUS
 62
     2
 10
142.162015177
 20
90.8
 30
0.3
 40
3.0
  1
Ｍ４（Ｍ５）ターミナルネジ
 50
0.0
 41
0.9
 51
0.0
  7
KANJI5
  0
LINE
  8
0
  6
CONTINUOUS
 62
     2
 10
124.961111111
 20
117.0
 30
0.0
 11
140.412015177
 21
89.8
 31
0.0
  0
LINE
  8
0
  6
CONTINUOUS
 62
     2
 10
140.412015177
 20
89.8
 30
0.0
 11
181.662015177
 21
89.8
 31
0.0
  0
LINE
  8
0
  6
LTYPE2
 62
     2
 10
170.0
 20
142.0
 30
0.0
 11
170.0
 21
94.8
 31
0.0
  0
LINE
  8
0
  6
CONTINUOUS
 62
     2
 10
109.162015177
 20
101.3
 30
0.0
 11
109.79213165
 21
98.880712247
 31
0.0
  0
LINE
  8
0
  6
CONTINUOUS
 62
     2
 10
109.162015177
 20
101.3
 30
0.0
 11
110.917355927
 21
99.519893584
 31
0.0
  0
TEXT
  8
0
  6
CONTINUOUS
 62
     2
 10
115.694566529
 20
90.8
 30
0.3
 40
3.0
  1
Ｍ３取付ボルト
 50
0.0
 41
0.9
 51
0.0
  7
KANJI5
  0
LINE
  8
0
  6
CONTINUOUS
 62
     2
 10
109.162015177
 20
101.3
 30
0.0
 11
115.694566529
 21
89.8
 31
0.0
  0
LINE
  8
0
  6
CONTINUOUS
 62
     2
 10
115.694566529
 20
89.8
 30
0.0
 11
136.294566529
 21
89.8
 31
0.0
  0
LINE
  8
0
  6
CONTINUOUS
 62
     2
 10
55.434161174
 20
109.6
 30
0.0
 11
56.064277647
 21
107.180712247
 31
0.0
  0
LINE
  8
0
  6
CONTINUOUS
 62
     2
 10
55.434161174
 20
109.6
 30
0.0
 11
57.189501923
 21
107.819893584
 31
0.0
  0
TEXT
  8
0
  6
CONTINUOUS
 62
     2
 10
66.681510457
 20
90.8
 30
0.3
 40
3.0
  1
予定指針調整器
 50
0.0
 41
0.9
 51
0.0
  7
KANJI5
  0
LINE
  8
0
  6
CONTINUOUS
 62
     2
 10
55.434161174
 20
109.6
 30
0.0
 11
66.681510457
 21
89.8
 31
0.0
  0
LINE
  8
0
  6
CONTINUOUS
 62
     2
 10
66.681510457
 20
89.8
 30
0.0
 11
88.081510457
 21
89.8
 31
0.0
  0
LINE
  8
0
  6
CONTINUOUS
 62
     2
 10
52.3
 20
105.7
 30
0.0
 11
55.7
 21
105.7
 31
0.0
  0
LINE
  8
0
  6
CONTINUOUS
 62
     2
 10
55.7
 20
105.3
 30
0.0
 11
52.3
 21
105.3
 31
0.0
  0
CIRCLE
  8
0
  6
CONTINUOUS
 62
     2
 10
54.0
 20
105.5
 30
0.0
 40
1.75
  0
LINE
  8
0
  6
CONTINUOUS
 62
     2
 10
53.0
 20
103.888455967
 30
0.0
 11
52.369883527
 21
101.469168215
 31
0.0
  0
LINE
  8
0
  6
CONTINUOUS
 62
     2
 10
53.0
 20
103.888455967
 30
0.0
 11
51.244659251
 21
102.108349551
 31
0.0
  0
TEXT
  8
0
  6
CONTINUOUS
 62
     2
 10
30.297081559
 20
90.8
 30
0.3
 40
3.0
  1
零位調整器
 50
0.0
 41
0.9
 51
0.0
  7
KANJI5
  0
LINE
  8
0
  6
CONTINUOUS
 62
     2
 10
53.0
 20
103.888455967
 30
0.0
 11
44.997081559
 21
89.8
 31
0.0
  0
LINE
  8
0
  6
CONTINUOUS
 62
     2
 10
44.997081559
 20
89.8
 30
0.0
 11
29.797081559
 21
89.8
 31
0.0
  0
LINE
  8
0
  6
CONTINUOUS
 62
     2
 10
171.797081559
 20
128.3
 30
0.0
 11
172.427198032
 21
130.719287753
 31
0.0
  0
LINE
  8
0
  6
CONTINUOUS
 62
     2
 10
171.797081559
 20
128.3
 30
0.0
 11
173.552422308
 21
130.080106416
 31
0.0
  0
TEXT
  8
0
  6
CONTINUOUS
 62
     2
 10
186.311889738
 20
158.4
 30
0.3
 40
3.0
  1
注１
 50
0.0
 41
0.9
 51
0.0
  7
KANJI5
  0
TEXT
  8
0
  6
CONTINUOUS
 62
     2
 10
186.111889738
 20
154.5
 30
0.3
 40
3.0
  1
感度調整用抵抗器
 50
0.0
 41
0.9
 51
0.0
  7
KANJI5
  0
LINE
  8
0
  6
CONTINUOUS
 62
     2
 10
171.797081559
 20
128.3
 30
0.0
 11
186.111889738
 21
153.5
 31
0.0
  0
LINE
  8
0
  6
CONTINUOUS
 62
     2
 10
186.111889738
 20
153.5
 30
0.0
 11
210.511889738
 21
153.5
 31
0.0
  0
LINE
  8
0
  6
CONTINUOUS
 62
     2
 10
125.011889738
 20
123.0
 30
0.0
 11
125.642006211
 21
125.419287753
 31
0.0
  0
LINE
  8
0
  6
CONTINUOUS
 62
     2
 10
125.011889738
 20
123.0
 30
0.0
 11
126.767230487
 21
124.780106416
 31
0.0
  0
LINE
  8
0
  6
CONTINUOUS
 62
     2
 10
128.4201774
 20
129.0
 30
0.0
 11
146.1201774
 21
129.0
 31
0.0
  0
TEXT
  8
0
  6
CONTINUOUS
 62
     2
 10
128.4201774
 20
130.0
 30
0.3
 40
3.0
  1
端子キャップ
 50
0.0
 41
0.9
 51
0.0
  7
KANJI5
  0
LINE
  8
0
  6
CONTINUOUS
 62
     2
 10
125.011889738
 20
123.0
 30
0.0
 11
128.4201774
 21
129.0
 31
0.0
  0
LINE
  8
0
  6
CONTINUOUS
 62
     2
 10
62.434161174
 20
130.6
 30
0.0
 11
63.064277647
 21
133.019287753
 31
0.0
  0
LINE
  8
0
  6
CONTINUOUS
 62
     2
 10
62.434161174
 20
130.6
 30
0.0
 11
64.189501923
 21
132.380106416
 31
0.0
  0
TEXT
  8
0
  6
CONTINUOUS
 62
     2
 10
73.45429128
 20
151.0
 30
0.3
 40
3.0
  1
予定指針（赤色）
 50
0.0
 41
0.9
 51
0.0
  7
KANJI5
  0
LINE
  8
0
  6
CONTINUOUS
 62
     2
 10
62.434161174
 20
130.6
 30
0.0
 11
73.45429128
 21
150.0
 31
0.0
  0
LINE
  8
0
  6
CONTINUOUS
 62
     2
 10
73.45429128
 20
150.0
 30
0.0
 11
96.95429128
 21
150.0
 31
0.0
  0
LINE
  8
0
  6
CONTINUOUS
 62
     2
 10
38.6
 20
126.7
 30
0.0
 11
39.230116473
 21
129.119287753
 31
0.0
  0
LINE
  8
0
  6
CONTINUOUS
 62
     2
 10
38.6
 20
126.7
 30
0.0
 11
40.355340749
 21
128.480106416
 31
0.0
  0
TEXT
  8
0
  6
CONTINUOUS
 62
     2
 10
51.835517086
 20
151.0
 30
0.3
 40
3.0
  1
指針
 50
0.0
 41
0.9
 51
0.0
  7
KANJI5
  0
LINE
  8
0
  6
CONTINUOUS
 62
     2
 10
38.6
 20
126.7
 30
0.0
 11
51.835517086
 21
150.0
 31
0.0
  0
LINE
  8
0
  6
CONTINUOUS
 62
     2
 10
51.835517086
 20
150.0
 30
0.0
 11
58.235517086
 21
150.0
 31
0.0
  0
LINE
  8
0
  6
CONTINUOUS
 62
     2
 10
71.0
 20
41.538455967
 30
0.0
 11
71.630116473
 21
39.119168215
 31
0.0
  0
LINE
  8
0
  6
CONTINUOUS
 62
     2
 10
71.0
 20
41.538455967
 30
0.0
 11
72.755340749
 21
39.758349551
 31
0.0
  0
LINE
  8
0
  6
CONTINUOUS
 62
     2
 10
76.134276326
 20
32.5
 30
0.0
 11
91.034276326
 21
32.5
 31
0.0
  0
TEXT
  8
0
  6
CONTINUOUS
 62
     2
 10
76.476776326
 20
33.021544033
 30
0.3
 40
3.0
  1
４－
 50
0.0
 41
0.9
 51
0.0
  7
KANJI5
  0
TEXT
  8
0
  6
CONTINUOUS
 62
     2
 10
82.696776326
 20
33.021544033
 30
0.3
 40
3.0
  1
φ４
 50
0.0
 41
0.6
 51
0.0
  7
KANJI1
  0
TEXT
  8
0
  6
CONTINUOUS
 62
     2
 10
86.596776326
 20
33.021544033
 30
0.18
 40
1.8
  1
－０
 50
0.0
 41
0.6
 51
0.0
  7
KANJI4
  0
TEXT
  8
0
  6
CONTINUOUS
 62
     2
 10
86.596776326
 20
34.821544033
 30
0.18
 40
1.8
  1
＋０．５
 50
0.0
 41
0.6
 51
0.0
  7
KANJI4
  0
LINE
  8
0
  6
CONTINUOUS
 62
     2
 10
71.0
 20
41.538455967
 30
0.0
 11
76.134276326
 21
32.5
 31
0.0
  0
LINE
  8
0
  6
CONTINUOUS
 62
     2
 10
106.0
 20
136.96
 30
0.0
 11
106.25
 21
136.96
 31
0.0
  0
LINE
  8
0
  6
CONTINUOUS
 62
     2
 10
106.25
 20
132.96
 30
0.0
 11
106.0
 21
132.96
 31
0.0
  0
LINE
  8
0
  6
CONTINUOUS
 62
     2
 10
106.25
 20
136.96
 30
0.0
 11
106.25
 21
132.96
 31
0.0
  0
LINE
  8
0
  6
CONTINUOUS
 62
     2
 10
108.6
 20
136.535
 30
0.0
 11
108.8
 21
136.335
 31
0.0
  0
LINE
  8
0
  6
CONTINUOUS
 62
     2
 10
108.575
 20
135.71
 30
0.0
 11
108.775
 21
135.91
 31
0.0
  0
LINE
  8
0
  6
CONTINUOUS
 62
     2
 10
108.775
 20
135.51
 30
0.0
 11
108.575
 21
135.71
 31
0.0
  0
LINE
  8
0
  6
CONTINUOUS
 62
     2
 10
107.6
 20
136.535
 30
0.0
 11
108.6
 21
136.535
 31
0.0
  0
LINE
  8
0
  6
CONTINUOUS
 62
     2
 10
107.6
 20
135.71
 30
0.0
 11
108.575
 21
135.71
 31
0.0
  0
LINE
  8
0
  6
CONTINUOUS
 62
     2
 10
108.6
 20
133.435
 30
0.0
 11
108.8
 21
133.635
 31
0.0
  0
LINE
  8
0
  6
CONTINUOUS
 62
     2
 10
108.6
 20
133.435
 30
0.0
 11
107.6
 21
133.435
 31
0.0
  0
LINE
  8
0
  6
CONTINUOUS
 62
     2
 10
107.6
 20
133.435
 30
0.0
 11
107.6
 21
136.535
 31
0.0
  0
LINE
  8
0
  6
CONTINUOUS
 62
     2
 10
108.8
 20
136.335
 30
0.0
 11
108.8
 21
133.635
 31
0.0
  0
LINE
  8
0
  6
CONTINUOUS
 62
     2
 10
108.8
 20
135.735
 30
0.0
 11
111.25
 21
135.735
 31
0.0
  0
LINE
  8
0
  6
CONTINUOUS
 62
     2
 10
111.23
 20
135.56
 30
0.0
 11
108.8
 21
135.56
 31
0.0
  0
LINE
  8
0
  6
CONTINUOUS
 62
     2
 10
107.6
 20
136.535
 30
0.0
 11
107.3
 21
136.835
 31
0.0
  0
LINE
  8
0
  6
CONTINUOUS
 62
     2
 10
107.3
 20
136.835
 30
0.0
 11
107.3
 21
133.135
 31
0.0
  0
LINE
  8
0
  6
CONTINUOUS
 62
     2
 10
107.6
 20
133.435
 30
0.0
 11
107.3
 21
133.135
 31
0.0
  0
LINE
  8
0
  6
CONTINUOUS
 62
     2
 10
107.3
 20
134.46
 30
0.0
 11
106.25
 21
134.46
 31
0.0
  0
LINE
  8
0
  6
CONTINUOUS
 62
     2
 10
106.25
 20
135.71
 30
0.0
 11
107.3
 21
135.71
 31
0.0
  0
LINE
  8
0
  6
CONTINUOUS
 62
     2
 10
107.3
 20
135.56
 30
0.0
 11
106.25
 21
135.56
 31
0.0
  0
LINE
  8
0
  6
CONTINUOUS
 62
     2
 10
111.25
 20
135.735
 30
0.0
 11
111.25
 21
134.285
 31
0.0
  0
LINE
  8
0
  6
CONTINUOUS
 62
     2
 10
111.25
 20
134.285
 30
0.0
 11
108.8
 21
134.285
 31
0.0
  0
LINE
  8
0
  6
CONTINUOUS
 62
     2
 10
108.8
 20
134.46
 30
0.0
 11
111.25
 21
134.46
 31
0.0
  0
LINE
  8
0
  6
CONTINUOUS
 62
     2
 10
108.585
 20
134.285
 30
0.0
 11
107.6
 21
134.285
 31
0.0
  0
LINE
  8
0
  6
CONTINUOUS
 62
     2
 10
106.25
 20
134.285
 30
0.0
 11
107.3
 21
134.285
 31
0.0
  0
LINE
  8
0
  6
CONTINUOUS
 62
     2
 10
108.585
 20
134.285
 30
0.0
 11
108.785
 21
134.485
 31
0.0
  0
LINE
  8
0
  6
CONTINUOUS
 62
     2
 10
108.785
 20
134.085
 30
0.0
 11
108.585
 21
134.285
 31
0.0
  0
LINE
  8
0
  6
CONTINUOUS
 62
     2
 10
106.0
 20
104.95
 30
0.0
 11
106.25
 21
104.95
 31
0.0
  0
LINE
  8
0
  6
CONTINUOUS
 62
     2
 10
106.25
 20
100.95
 30
0.0
 11
106.0
 21
100.95
 31
0.0
  0
LINE
  8
0
  6
CONTINUOUS
 62
     2
 10
106.25
 20
104.95
 30
0.0
 11
106.25
 21
100.95
 31
0.0
  0
LINE
  8
0
  6
CONTINUOUS
 62
     2
 10
108.6
 20
104.525
 30
0.0
 11
108.8
 21
104.325
 31
0.0
  0
LINE
  8
0
  6
CONTINUOUS
 62
     2
 10
108.575
 20
103.7
 30
0.0
 11
108.775
 21
103.9
 31
0.0
  0
LINE
  8
0
  6
CONTINUOUS
 62
     2
 10
108.775
 20
103.5
 30
0.0
 11
108.575
 21
103.7
 31
0.0
  0
LINE
  8
0
  6
CONTINUOUS
 62
     2
 10
107.6
 20
104.525
 30
0.0
 11
108.6
 21
104.525
 31
0.0
  0
LINE
  8
0
  6
CONTINUOUS
 62
     2
 10
107.6
 20
103.7
 30
0.0
 11
108.575
 21
103.7
 31
0.0
  0
LINE
  8
0
  6
CONTINUOUS
 62
     2
 10
108.6
 20
101.425
 30
0.0
 11
108.8
 21
101.625
 31
0.0
  0
LINE
  8
0
  6
CONTINUOUS
 62
     2
 10
108.6
 20
101.425
 30
0.0
 11
107.6
 21
101.425
 31
0.0
  0
LINE
  8
0
  6
CONTINUOUS
 62
     2
 10
107.6
 20
101.425
 30
0.0
 11
107.6
 21
104.525
 31
0.0
  0
LINE
  8
0
  6
CONTINUOUS
 62
     2
 10
108.8
 20
104.325
 30
0.0
 11
108.8
 21
101.625
 31
0.0
  0
LINE
  8
0
  6
CONTINUOUS
 62
     2
 10
108.8
 20
103.725
 30
0.0
 11
111.25
 21
103.725
 31
0.0
  0
LINE
  8
0
  6
CONTINUOUS
 62
     2
 10
111.23
 20
103.55
 30
0.0
 11
108.8
 21
103.55
 31
0.0
  0
LINE
  8
0
  6
CONTINUOUS
 62
     2
 10
107.6
 20
104.525
 30
0.0
 11
107.3
 21
104.825
 31
0.0
  0
LINE
  8
0
  6
CONTINUOUS
 62
     2
 10
107.3
 20
104.825
 30
0.0
 11
107.3
 21
101.125
 31
0.0
  0
LINE
  8
0
  6
CONTINUOUS
 62
     2
 10
107.6
 20
101.425
 30
0.0
 11
107.3
 21
101.125
 31
0.0
  0
LINE
  8
0
  6
CONTINUOUS
 62
     2
 10
107.3
 20
102.45
 30
0.0
 11
106.25
 21
102.45
 31
0.0
  0
LINE
  8
0
  6
CONTINUOUS
 62
     2
 10
106.25
 20
103.7
 30
0.0
 11
107.3
 21
103.7
 31
0.0
  0
LINE
  8
0
  6
CONTINUOUS
 62
     2
 10
107.3
 20
103.55
 30
0.0
 11
106.25
 21
103.55
 31
0.0
  0
LINE
  8
0
  6
CONTINUOUS
 62
     2
 10
111.25
 20
103.725
 30
0.0
 11
111.25
 21
102.275
 31
0.0
  0
LINE
  8
0
  6
CONTINUOUS
 62
     2
 10
111.25
 20
102.275
 30
0.0
 11
108.8
 21
102.275
 31
0.0
  0
LINE
  8
0
  6
CONTINUOUS
 62
     2
 10
108.8
 20
102.45
 30
0.0
 11
111.25
 21
102.45
 31
0.0
  0
LINE
  8
0
  6
CONTINUOUS
 62
     2
 10
108.585
 20
102.275
 30
0.0
 11
107.6
 21
102.275
 31
0.0
  0
LINE
  8
0
  6
CONTINUOUS
 62
     2
 10
106.25
 20
102.275
 30
0.0
 11
107.3
 21
102.275
 31
0.0
  0
LINE
  8
0
  6
CONTINUOUS
 62
     2
 10
108.585
 20
102.275
 30
0.0
 11
108.785
 21
102.475
 31
0.0
  0
LINE
  8
0
  6
CONTINUOUS
 62
     2
 10
108.785
 20
102.075
 30
0.0
 11
108.585
 21
102.275
 31
0.0
  0
LINE
  8
0
  6
LTYPE1
 62
     2
 10
121.25
 20
113.05
 30
0.0
 11
121.5
 21
113.05
 31
0.0
  0
LINE
  8
0
  6
CONTINUOUS
 62
     2
 10
121.25
 20
121.05
 30
0.0
 11
121.75
 21
121.05
 31
0.0
  0
LINE
  8
0
  6
CONTINUOUS
 62
     2
 10
121.75
 20
117.05
 30
0.0
 11
121.25
 21
117.05
 31
0.0
  0
LINE
  8
0
  6
CONTINUOUS
 62
     2
 10
121.75
 20
121.05
 30
0.0
 11
121.75
 21
117.05
 31
0.0
  0
LINE
  8
0
  6
CONTINUOUS
 62
     2
 10
121.75
 20
120.85
 30
0.0
 11
121.75
 21
120.975
 31
0.0
  0
LINE
  8
0
  6
LTYPE1
 62
     2
 10
122.15
 20
120.975
 30
0.0
 11
122.15
 21
115.6
 31
0.0
  0
LINE
  8
0
  6
LTYPE1
 62
     2
 10
121.75
 20
120.975
 30
0.0
 11
122.15
 21
120.975
 31
0.0
  0
LINE
  8
0
  6
LTYPE1
 62
     2
 10
121.25
 20
115.6
 30
0.0
 11
123.75
 21
115.6
 31
0.0
  0
LINE
  8
0
  6
LTYPE1
 62
     2
 10
123.75
 20
115.6
 30
0.0
 11
123.75
 21
112.6
 31
0.0
  0
LINE
  8
0
  6
LTYPE1
 62
     2
 10
121.75
 20
117.05
 30
0.0
 11
121.75
 21
115.6
 31
0.0
  0
ARC
  8
0
  6
LTYPE1
 62
     2
 10
125.25
 20
119.5
 30
0.0
 40
3.0
 50
0.0
 51
90.0
  0
LINE
  8
0
  6
LTYPE1
 62
     2
 10
121.25
 20
121.9
 30
0.0
 11
121.5
 21
121.9
 31
0.0
  0
LINE
  8
0
  6
LTYPE1
 62
     2
 10
121.5
 20
111.0
 30
0.0
 11
121.5
 21
121.9
 31
0.0
  0
LINE
  8
0
  6
LTYPE1
 62
     2
 10
121.25
 20
122.5
 30
0.0
 11
125.25
 21
122.5
 31
0.0
  0
LINE
  8
0
  6
LTYPE1
 62
     2
 10
128.25
 20
119.5
 30
0.0
 11
128.25
 21
114.0
 31
0.0
  0
LINE
  8
0
  6
LTYPE1
 62
     2
 10
125.25
 20
111.0
 30
0.0
 11
121.25
 21
111.0
 31
0.0
  0
ARC
  8
0
  6
LTYPE1
 62
     2
 10
125.25
 20
114.0
 30
0.0
 40
3.0
 50
270.0
 51
0.0
  0
LINE
  8
0
  6
CONTINUOUS
 62
     2
 10
125.072253903
 20
121.1
 30
0.0
 11
123.822253903
 21
121.1
 31
0.0
  0
LINE
  8
0
  6
CONTINUOUS
 62
     2
 10
125.072253903
 20
121.1
 30
0.0
 11
125.322253903
 21
120.85
 31
0.0
  0
LINE
  8
0
  6
CONTINUOUS
 62
     2
 10
123.15
 20
120.85
 30
0.0
 11
123.65
 21
120.85
 31
0.0
  0
LINE
  8
0
  6
CONTINUOUS
 62
     2
 10
123.65
 20
120.85
 30
0.0
 11
123.35
 21
119.2
 31
0.0
  0
LINE
  8
0
  6
CONTINUOUS
 62
     2
 10
123.35
 20
119.2
 30
0.0
 11
122.85
 21
119.2
 31
0.0
  0
LINE
  8
0
  6
CONTINUOUS
 62
     2
 10
122.85
 20
119.2
 30
0.0
 11
123.15
 21
120.85
 31
0.0
  0
LINE
  8
0
  6
CONTINUOUS
 62
     2
 10
125.062253903
 20
120.035
 30
0.0
 11
125.322253903
 21
120.335
 31
0.0
  0
LINE
  8
0
  6
CONTINUOUS
 62
     2
 10
123.463636364
 20
119.825
 30
0.0
 11
123.822253903
 21
119.825
 31
0.0
  0
LINE
  8
0
  6
CONTINUOUS
 62
     2
 10
123.6
 20
118.9
 30
0.0
 11
123.1
 21
118.9
 31
0.0
  0
LINE
  8
0
  6
CONTINUOUS
 62
     2
 10
125.322253903
 20
118.325
 30
0.0
 11
125.022253903
 21
118.055
 31
0.0
  0
LINE
  8
0
  6
CONTINUOUS
 62
     2
 10
123.822253903
 20
118.325
 30
0.0
 11
123.522253903
 21
118.325
 31
0.0
  0
LINE
  8
0
  6
CONTINUOUS
 62
     2
 10
125.022253903
 20
117.025
 30
0.0
 11
125.322253903
 21
117.325
 31
0.0
  0
LINE
  8
0
  6
CONTINUOUS
 62
     2
 10
123.822253903
 20
117.05
 30
0.0
 11
125.072253903
 21
117.05
 31
0.0
  0
LINE
  8
0
  6
CONTINUOUS
 62
     2
 10
122.85
 20
117.3
 30
0.0
 11
123.35
 21
117.3
 31
0.0
  0
LINE
  8
0
  6
CONTINUOUS
 62
     2
 10
123.1
 20
118.9
 30
0.0
 11
122.85
 21
117.3
 31
0.0
  0
LINE
  8
0
  6
CONTINUOUS
 62
     2
 10
123.35
 20
117.3
 30
0.0
 11
123.6
 21
118.9
 31
0.0
  0
LINE
  8
0
  6
CONTINUOUS
 62
     2
 10
123.822253903
 20
121.1
 30
0.0
 11
123.822253903
 21
117.05
 31
0.0
  0
LINE
  8
0
  6
CONTINUOUS
 62
     2
 10
125.322253903
 20
117.305
 30
0.0
 11
125.322253903
 21
120.85
 31
0.0
  0
LINE
  8
0
  6
CONTINUOUS
 62
     2
 10
125.075253903
 20
120.05
 30
0.0
 11
125.325253903
 21
119.85
 31
0.0
  0
LINE
  8
0
  6
CONTINUOUS
 62
     2
 10
124.922253903
 20
120.05
 30
0.0
 11
125.075253903
 21
120.05
 31
0.0
  0
LINE
  8
0
  6
CONTINUOUS
 62
     2
 10
123.504545455
 20
120.05
 30
0.0
 11
125.075253903
 21
120.05
 31
0.0
  0
LINE
  8
0
  6
CONTINUOUS
 62
     2
 10
125.322253903
 20
117.75
 30
0.0
 11
125.022253903
 21
118.02
 31
0.0
  0
LINE
  8
0
  6
CONTINUOUS
 62
     2
 10
125.016698348
 20
118.05
 30
0.0
 11
123.4671875
 21
118.05
 31
0.0
  0
LINE
  8
0
  6
CONTINUOUS
 62
     2
 10
127.2
 20
119.825
 30
0.0
 11
125.322253903
 21
119.825
 31
0.0
  0
LINE
  8
0
  6
CONTINUOUS
 62
     2
 10
125.322253903
 20
120.05
 30
0.0
 11
127.2
 21
120.05
 31
0.0
  0
LINE
  8
0
  6
CONTINUOUS
 62
     2
 10
125.322253903
 20
118.325
 30
0.0
 11
127.2
 21
118.325
 31
0.0
  0
LINE
  8
0
  6
CONTINUOUS
 62
     2
 10
127.2
 20
118.05
 30
0.0
 11
125.322253903
 21
118.05
 31
0.0
  0
LINE
  8
0
  6
CONTINUOUS
 62
     2
 10
122.15
 20
116.75
 30
0.0
 11
122.375
 21
116.75
 31
0.0
  0
LINE
  8
0
  6
CONTINUOUS
 62
     2
 10
122.375
 20
116.75
 30
0.0
 11
122.375
 21
121.25
 31
0.0
  0
LINE
  8
0
  6
CONTINUOUS
 62
     2
 10
122.375
 20
121.25
 30
0.0
 11
122.15
 21
121.25
 31
0.0
  0
LINE
  8
0
  6
CONTINUOUS
 62
     2
 10
122.15
 20
121.25
 30
0.0
 11
122.15
 21
116.75
 31
0.0
  0
LINE
  8
0
  6
CONTINUOUS
 62
     2
 10
122.15
 20
120.05
 30
0.0
 11
121.75
 21
120.05
 31
0.0
  0
LINE
  8
0
  6
CONTINUOUS
 62
     2
 10
123.0044
 20
120.05
 30
0.0
 11
122.375
 21
120.05
 31
0.0
  0
LINE
  8
0
  6
CONTINUOUS
 62
     2
 10
122.15
 20
119.825
 30
0.0
 11
121.75
 21
119.825
 31
0.0
  0
LINE
  8
0
  6
CONTINUOUS
 62
     2
 10
123.0044
 20
119.825
 30
0.0
 11
122.375
 21
119.825
 31
0.0
  0
LINE
  8
0
  6
CONTINUOUS
 62
     2
 10
122.15
 20
118.325
 30
0.0
 11
121.75
 21
118.325
 31
0.0
  0
LINE
  8
0
  6
CONTINUOUS
 62
     2
 10
123.0044
 20
118.325
 30
0.0
 11
122.375
 21
118.325
 31
0.0
  0
LINE
  8
0
  6
CONTINUOUS
 62
     2
 10
122.15
 20
118.05
 30
0.0
 11
121.75
 21
118.05
 31
0.0
  0
LINE
  8
0
  6
CONTINUOUS
 62
     2
 10
122.9044
 20
118.05
 30
0.0
 11
122.375
 21
118.05
 31
0.0
  0
LINE
  8
0
  6
CONTINUOUS
 62
     2
 10
127.2
 20
120.05
 30
0.0
 11
127.2
 21
118.05
 31
0.0
  0
LINE
  8
0
  6
CONTINUOUS
 62
     2
 10
128.25
 20
113.0
 30
0.0
 11
128.25
 21
95.5
 31
0.0
  0
LINE
  8
0
  6
CONTINUOUS
 62
     2
 10
163.75
 20
121.025
 30
0.0
 11
161.996298557
 21
120.0125
 31
0.0
  0
LINE
  8
0
  6
CONTINUOUS
 62
     2
 10
161.996298557
 20
120.0125
 30
0.0
 11
161.996298557
 21
117.9875
 31
0.0
  0
LINE
  8
0
  6
CONTINUOUS
 62
     2
 10
161.996298557
 20
117.9875
 30
0.0
 11
163.75
 21
116.975
 31
0.0
  0
LINE
  8
0
  6
CONTINUOUS
 62
     2
 10
163.75
 20
116.975
 30
0.0
 11
165.503701443
 21
117.9875
 31
0.0
  0
LINE
  8
0
  6
CONTINUOUS
 62
     2
 10
165.503701443
 20
117.9875
 30
0.0
 11
165.503701443
 21
120.0125
 31
0.0
  0
LINE
  8
0
  6
CONTINUOUS
 62
     2
 10
165.503701443
 20
120.0125
 30
0.0
 11
163.75
 21
121.025
 31
0.0
  0
CIRCLE
  8
0
  6
CONTINUOUS
 62
     2
 10
163.75
 20
119.0
 30
0.0
 40
0.8
  0
CIRCLE
  8
0
  6
CONTINUOUS
 62
     2
 10
163.75
 20
119.0
 30
0.0
 40
1.0
  0
ARC
  8
0
  6
LTYPE1
 62
     2
 10
163.75
 20
119.0
 30
0.0
 40
1.975
 50
328.025496594
 51
217.415803658
  0
LINE
  8
0
  6
LTYPE1
 62
     2
 10
165.318637944
 20
117.8
 30
0.0
 11
164.66147392
 21
116.850763076
 31
0.0
  0
LINE
  8
0
  6
LTYPE1
 62
     2
 10
162.181362056
 20
117.8
 30
0.0
 11
162.838529527
 21
116.850758098
 31
0.0
  0
ARC
  8
0
  6
LTYPE1
 62
     2
 10
161.194145143
 20
115.71233814
 30
0.0
 40
2.0
 50
10.612929601
 51
34.695153531
  0
ARC
  8
0
  6
LTYPE1
 62
     2
 10
166.305858303
 20
115.712343118
 30
0.0
 40
2.0
 50
145.304846469
 51
169.387402194
  0
LINE
  8
0
  6
LTYPE1
 62
     2
 10
164.340068544
 20
116.080678053
 30
0.0
 11
164.250002697
 21
115.6
 31
0.0
  0
LINE
  8
0
  6
LTYPE1
 62
     2
 10
163.159932769
 20
116.080684458
 30
0.0
 11
163.250002697
 21
115.6
 31
0.0
  0
CIRCLE
  8
0
  6
CONTINUOUS
 62
     2
 10
163.75
 20
119.0
 30
0.0
 40
2.25
  0
LINE
  8
0
  6
CONTINUOUS
 62
     2
 10
176.25
 20
121.025
 30
0.0
 11
174.496298557
 21
120.0125
 31
0.0
  0
LINE
  8
0
  6
CONTINUOUS
 62
     2
 10
174.496298557
 20
120.0125
 30
0.0
 11
174.496298557
 21
117.9875
 31
0.0
  0
LINE
  8
0
  6
CONTINUOUS
 62
     2
 10
174.496298557
 20
117.9875
 30
0.0
 11
176.25
 21
116.975
 31
0.0
  0
LINE
  8
0
  6
CONTINUOUS
 62
     2
 10
176.25
 20
116.975
 30
0.0
 11
178.003701443
 21
117.9875
 31
0.0
  0
LINE
  8
0
  6
CONTINUOUS
 62
     2
 10
178.003701443
 20
117.9875
 30
0.0
 11
178.003701443
 21
120.0125
 31
0.0
  0
LINE
  8
0
  6
CONTINUOUS
 62
     2
 10
178.003701443
 20
120.0125
 30
0.0
 11
176.25
 21
121.025
 31
0.0
  0
CIRCLE
  8
0
  6
CONTINUOUS
 62
     2
 10
176.25
 20
119.0
 30
0.0
 40
0.8
  0
CIRCLE
  8
0
  6
CONTINUOUS
 62
     2
 10
176.25
 20
119.0
 30
0.0
 40
1.0
  0
ARC
  8
0
  6
LTYPE1
 62
     2
 10
176.25
 20
119.0
 30
0.0
 40
1.975
 50
328.025496594
 51
217.415803658
  0
LINE
  8
0
  6
LTYPE1
 62
     2
 10
177.818637944
 20
117.8
 30
0.0
 11
177.16147392
 21
116.850763076
 31
0.0
  0
LINE
  8
0
  6
LTYPE1
 62
     2
 10
174.681362056
 20
117.8
 30
0.0
 11
175.338529527
 21
116.850758098
 31
0.0
  0
ARC
  8
0
  6
LTYPE1
 62
     2
 10
173.694145143
 20
115.71233814
 30
0.0
 40
2.0
 50
10.612929601
 51
34.695153531
  0
ARC
  8
0
  6
LTYPE1
 62
     2
 10
178.805858303
 20
115.712343118
 30
0.0
 40
2.0
 50
145.304846469
 51
169.387402194
  0
LINE
  8
0
  6
LTYPE1
 62
     2
 10
176.840068544
 20
116.080678053
 30
0.0
 11
176.750002697
 21
115.6
 31
0.0
  0
LINE
  8
0
  6
LTYPE1
 62
     2
 10
175.659932769
 20
116.080684458
 30
0.0
 11
175.750002697
 21
115.6
 31
0.0
  0
CIRCLE
  8
0
  6
CONTINUOUS
 62
     2
 10
176.25
 20
119.0
 30
0.0
 40
2.25
  0
TEXT
  8
0
  6
CONTINUOUS
 62
     1
 10
117.5
 20
35.6
 30
0.5
 40
4.0
  1
□ＣＦ－８
 50
0.0
 41
0.9
 51
0.0
  7
KANJI6
  0
TEXT
  8
0
  6
CONTINUOUS
 62
     1
 10
118.3
 20
24.6
 30
0.4375
 40
3.5
  1
パネル用計器外形図
 50
0.0
 41
0.9
 51
0.0
  7
KANJI7
  0
TEXT
  8
0
  6
CONTINUOUS
 62
     2
 10
118.3
 20
29.1
 30
0.375
 40
3.0
  1
予定指針付　端子キャップ付
 50
0.0
 41
0.9
 51
0.0
  7
KANJI8
  0
TEXT
  8
0
  6
CONTINUOUS
 62
     3
 10
171.0
 20
30.5
 30
0.6
 40
6.0
  1
ＭＳ－７２４８Ａ
 50
0.0
 41
0.9
 51
0.0
  7
KANJI9
  0
ENDSEC
  0
EOF
