  0
SECTION
  2
HEADER
  9
$ACADVER
  1
AC1009
  9
$DWGCODEPAGE
  3
dos932
  9
$EXTMIN
 10
0.0
 20
0.0
 30
0.0
  9
$EXTMAX
 10
297.0
 20
210.0
 30
0.0
  9
$LIMMIN
 10
0.0
 20
0.0
  9
$LIMMAX
 10
297.0
 20
210.0
  9
$LTSCALE
 40
1.0
  9
$PDMODE
 70
     0
  0
ENDSEC
  0
SECTION
  2
TABLES
  0
TABLE
  2
VPORT
 70
     1
  0
VPORT
  2
*ACTIVE
 70
     0
 10
0.0
 20
0.0
 11
1.0
 21
1.0
 12
148.5
 22
105.0
 13
0.0
 23
0.0
 14
10.0
 24
10.0
 15
10.0
 25
10.0
 16
0.0
 26
0.0
 36
1.0
 17
0.0
 27
0.0
 37
0.0
 40
297.0
 41
1.414285714
 42
50.0
 43
0.0
 44
0.0
 50
0.0
 51
0.0
 71
     0
 72
  1000
 73
     1
 74
     3
 75
     0
 76
     0
 77
     0
 78
     0
  0
ENDTAB
  0
TABLE
  2
LTYPE
 70
     3
  0
LTYPE
  2
CONTINUOUS
 70
    64
  3
Solid line
 72
    65
 73
     0
 40
0.0
  0
LTYPE
  2
LTYPE1
 70
    64
  3
HIDDEN
 72
    65
 73
     2
 40
1.0
 49
0.6
 49
-0.4
  0
LTYPE
  2
LTYPE2
 70
    64
  3
CENTER
 72
    65
 73
     4
 40
5.0
 49
3.5
 49
-0.5
 49
0.5
 49
-0.5
  0
ENDTAB
  0
TABLE
  2
LAYER
 70
   128
  0
LAYER
  2
0
 70
     0
 62
     7
  6
CONTINUOUS
  0
LAYER
  2
2
 70
     0
 62
     7
  6
CONTINUOUS
  0
LAYER
  2
3
 70
     0
 62
     7
  6
CONTINUOUS
  0
LAYER
  2
4
 70
     0
 62
     7
  6
CONTINUOUS
  0
LAYER
  2
5
 70
     0
 62
     7
  6
CONTINUOUS
  0
LAYER
  2
6
 70
     0
 62
     7
  6
CONTINUOUS
  0
LAYER
  2
7
 70
     0
 62
     7
  6
CONTINUOUS
  0
LAYER
  2
8
 70
     0
 62
     7
  6
CONTINUOUS
  0
LAYER
  2
9
 70
     0
 62
     7
  6
CONTINUOUS
  0
LAYER
  2
10
 70
     0
 62
     7
  6
CONTINUOUS
  0
LAYER
  2
11
 70
     0
 62
     7
  6
CONTINUOUS
  0
LAYER
  2
12
 70
     0
 62
     7
  6
CONTINUOUS
  0
LAYER
  2
13
 70
     0
 62
     7
  6
CONTINUOUS
  0
LAYER
  2
14
 70
     0
 62
     7
  6
CONTINUOUS
  0
LAYER
  2
15
 70
     0
 62
     7
  6
CONTINUOUS
  0
LAYER
  2
16
 70
     0
 62
     7
  6
CONTINUOUS
  0
LAYER
  2
17
 70
     0
 62
     7
  6
CONTINUOUS
  0
LAYER
  2
18
 70
     0
 62
     7
  6
CONTINUOUS
  0
LAYER
  2
19
 70
     0
 62
     7
  6
CONTINUOUS
  0
LAYER
  2
20
 70
     0
 62
     7
  6
CONTINUOUS
  0
LAYER
  2
21
 70
     0
 62
     7
  6
CONTINUOUS
  0
LAYER
  2
22
 70
     0
 62
     7
  6
CONTINUOUS
  0
LAYER
  2
23
 70
     0
 62
     7
  6
CONTINUOUS
  0
LAYER
  2
24
 70
     0
 62
     7
  6
CONTINUOUS
  0
LAYER
  2
25
 70
     0
 62
     7
  6
CONTINUOUS
  0
LAYER
  2
26
 70
     0
 62
     7
  6
CONTINUOUS
  0
LAYER
  2
27
 70
     0
 62
     7
  6
CONTINUOUS
  0
LAYER
  2
28
 70
     0
 62
     7
  6
CONTINUOUS
  0
LAYER
  2
29
 70
     0
 62
     7
  6
CONTINUOUS
  0
LAYER
  2
30
 70
     0
 62
     7
  6
CONTINUOUS
  0
LAYER
  2
31
 70
     0
 62
     7
  6
CONTINUOUS
  0
LAYER
  2
32
 70
     0
 62
     7
  6
CONTINUOUS
  0
LAYER
  2
33
 70
     0
 62
     7
  6
CONTINUOUS
  0
LAYER
  2
34
 70
     0
 62
     7
  6
CONTINUOUS
  0
LAYER
  2
35
 70
     0
 62
     7
  6
CONTINUOUS
  0
LAYER
  2
36
 70
     0
 62
     7
  6
CONTINUOUS
  0
LAYER
  2
37
 70
     0
 62
     7
  6
CONTINUOUS
  0
LAYER
  2
38
 70
     0
 62
     7
  6
CONTINUOUS
  0
LAYER
  2
39
 70
     0
 62
     7
  6
CONTINUOUS
  0
LAYER
  2
40
 70
     0
 62
     7
  6
CONTINUOUS
  0
LAYER
  2
41
 70
     0
 62
     7
  6
CONTINUOUS
  0
LAYER
  2
42
 70
     0
 62
     7
  6
CONTINUOUS
  0
LAYER
  2
43
 70
     0
 62
     7
  6
CONTINUOUS
  0
LAYER
  2
44
 70
     0
 62
     7
  6
CONTINUOUS
  0
LAYER
  2
45
 70
     0
 62
     7
  6
CONTINUOUS
  0
LAYER
  2
46
 70
     0
 62
     7
  6
CONTINUOUS
  0
LAYER
  2
47
 70
     0
 62
     7
  6
CONTINUOUS
  0
LAYER
  2
48
 70
     0
 62
     7
  6
CONTINUOUS
  0
LAYER
  2
49
 70
     0
 62
     7
  6
CONTINUOUS
  0
LAYER
  2
50
 70
     0
 62
     7
  6
CONTINUOUS
  0
LAYER
  2
51
 70
     0
 62
     7
  6
CONTINUOUS
  0
LAYER
  2
52
 70
     0
 62
     7
  6
CONTINUOUS
  0
LAYER
  2
53
 70
     0
 62
     7
  6
CONTINUOUS
  0
LAYER
  2
54
 70
     0
 62
     7
  6
CONTINUOUS
  0
LAYER
  2
55
 70
     0
 62
     7
  6
CONTINUOUS
  0
LAYER
  2
56
 70
     0
 62
     7
  6
CONTINUOUS
  0
LAYER
  2
57
 70
     0
 62
     7
  6
CONTINUOUS
  0
LAYER
  2
58
 70
     0
 62
     7
  6
CONTINUOUS
  0
LAYER
  2
59
 70
     0
 62
     7
  6
CONTINUOUS
  0
LAYER
  2
60
 70
     0
 62
     7
  6
CONTINUOUS
  0
LAYER
  2
61
 70
     0
 62
     7
  6
CONTINUOUS
  0
LAYER
  2
62
 70
     0
 62
     7
  6
CONTINUOUS
  0
LAYER
  2
63
 70
     0
 62
     7
  6
CONTINUOUS
  0
LAYER
  2
64
 70
     0
 62
     7
  6
CONTINUOUS
  0
LAYER
  2
65
 70
     0
 62
     7
  6
CONTINUOUS
  0
LAYER
  2
66
 70
     0
 62
     7
  6
CONTINUOUS
  0
LAYER
  2
67
 70
     0
 62
     7
  6
CONTINUOUS
  0
LAYER
  2
68
 70
     0
 62
     7
  6
CONTINUOUS
  0
LAYER
  2
69
 70
     0
 62
     7
  6
CONTINUOUS
  0
LAYER
  2
70
 70
     0
 62
     7
  6
CONTINUOUS
  0
LAYER
  2
71
 70
     0
 62
     7
  6
CONTINUOUS
  0
LAYER
  2
72
 70
     0
 62
     7
  6
CONTINUOUS
  0
LAYER
  2
73
 70
     0
 62
     7
  6
CONTINUOUS
  0
LAYER
  2
74
 70
     0
 62
     7
  6
CONTINUOUS
  0
LAYER
  2
75
 70
     0
 62
     7
  6
CONTINUOUS
  0
LAYER
  2
76
 70
     0
 62
     7
  6
CONTINUOUS
  0
LAYER
  2
77
 70
     0
 62
     7
  6
CONTINUOUS
  0
LAYER
  2
78
 70
     0
 62
     7
  6
CONTINUOUS
  0
LAYER
  2
79
 70
     0
 62
     7
  6
CONTINUOUS
  0
LAYER
  2
80
 70
     0
 62
     7
  6
CONTINUOUS
  0
LAYER
  2
81
 70
     0
 62
     7
  6
CONTINUOUS
  0
LAYER
  2
82
 70
     0
 62
     7
  6
CONTINUOUS
  0
LAYER
  2
83
 70
     0
 62
     7
  6
CONTINUOUS
  0
LAYER
  2
84
 70
     0
 62
     7
  6
CONTINUOUS
  0
LAYER
  2
85
 70
     0
 62
     7
  6
CONTINUOUS
  0
LAYER
  2
86
 70
     0
 62
     7
  6
CONTINUOUS
  0
LAYER
  2
87
 70
     0
 62
     7
  6
CONTINUOUS
  0
LAYER
  2
88
 70
     0
 62
     7
  6
CONTINUOUS
  0
LAYER
  2
89
 70
     0
 62
     7
  6
CONTINUOUS
  0
LAYER
  2
90
 70
     0
 62
     7
  6
CONTINUOUS
  0
LAYER
  2
91
 70
     0
 62
     7
  6
CONTINUOUS
  0
LAYER
  2
92
 70
     0
 62
     7
  6
CONTINUOUS
  0
LAYER
  2
93
 70
     0
 62
     7
  6
CONTINUOUS
  0
LAYER
  2
94
 70
     0
 62
     7
  6
CONTINUOUS
  0
LAYER
  2
95
 70
     0
 62
     7
  6
CONTINUOUS
  0
LAYER
  2
96
 70
     0
 62
     7
  6
CONTINUOUS
  0
LAYER
  2
97
 70
     0
 62
     7
  6
CONTINUOUS
  0
LAYER
  2
98
 70
     0
 62
     7
  6
CONTINUOUS
  0
LAYER
  2
99
 70
     0
 62
     7
  6
CONTINUOUS
  0
LAYER
  2
100
 70
     0
 62
     7
  6
CONTINUOUS
  0
LAYER
  2
101
 70
     0
 62
     7
  6
CONTINUOUS
  0
LAYER
  2
102
 70
     0
 62
     7
  6
CONTINUOUS
  0
LAYER
  2
103
 70
     0
 62
     7
  6
CONTINUOUS
  0
LAYER
  2
104
 70
     0
 62
     7
  6
CONTINUOUS
  0
LAYER
  2
105
 70
     0
 62
     7
  6
CONTINUOUS
  0
LAYER
  2
106
 70
     0
 62
     7
  6
CONTINUOUS
  0
LAYER
  2
107
 70
     0
 62
     7
  6
CONTINUOUS
  0
LAYER
  2
108
 70
     0
 62
     7
  6
CONTINUOUS
  0
LAYER
  2
109
 70
     0
 62
     7
  6
CONTINUOUS
  0
LAYER
  2
110
 70
     0
 62
     7
  6
CONTINUOUS
  0
LAYER
  2
111
 70
     0
 62
     7
  6
CONTINUOUS
  0
LAYER
  2
112
 70
     0
 62
     7
  6
CONTINUOUS
  0
LAYER
  2
113
 70
     0
 62
     7
  6
CONTINUOUS
  0
LAYER
  2
114
 70
     0
 62
     7
  6
CONTINUOUS
  0
LAYER
  2
115
 70
     0
 62
     7
  6
CONTINUOUS
  0
LAYER
  2
116
 70
     0
 62
     7
  6
CONTINUOUS
  0
LAYER
  2
117
 70
     0
 62
     7
  6
CONTINUOUS
  0
LAYER
  2
118
 70
     0
 62
     7
  6
CONTINUOUS
  0
LAYER
  2
119
 70
     0
 62
     7
  6
CONTINUOUS
  0
LAYER
  2
120
 70
     0
 62
     7
  6
CONTINUOUS
  0
LAYER
  2
121
 70
     0
 62
     7
  6
CONTINUOUS
  0
LAYER
  2
122
 70
     0
 62
     7
  6
CONTINUOUS
  0
LAYER
  2
123
 70
     0
 62
     7
  6
CONTINUOUS
  0
LAYER
  2
124
 70
     0
 62
     7
  6
CONTINUOUS
  0
LAYER
  2
125
 70
     0
 62
     7
  6
CONTINUOUS
  0
LAYER
  2
126
 70
     0
 62
     7
  6
CONTINUOUS
  0
LAYER
  2
127
 70
     0
 62
     7
  6
CONTINUOUS
  0
LAYER
  2
128
 70
     0
 62
     7
  6
CONTINUOUS
  0
ENDTAB
  0
TABLE
  2
STYLE
 70
    12
  0
STYLE
  2
STANDARD
 70
     0
 40
0.0
 41
1.0
 50
0.0
 71
     0
 42
0.2
  3
txt.shx
  4
extfont.shx
  0
STYLE
  2
KANJI0
 70
     0
 40
3.0
 41
0.9
 50
0.0
 71
     0
 42
3.0
  3
txt.shx
  4
extfont.shx
  0
STYLE
  2
KANJI1
 70
     0
 40
3.0
 41
0.6
 50
0.0
 71
     0
 42
3.0
  3
txt.shx
  4
extfont.shx
  0
STYLE
  2
KANJI2
 70
     0
 40
3.0
 41
0.666666667
 50
0.0
 71
     0
 42
3.0
  3
txt.shx
  4
extfont.shx
  0
STYLE
  2
KANJI3
 70
     0
 40
3.0
 41
0.9
 50
0.0
 71
     0
 42
3.0
  3
txt.shx
  4
extfont.shx
  0
STYLE
  2
KANJI4
 70
     0
 40
1.8
 41
0.6
 50
0.0
 71
     0
 42
1.8
  3
txt.shx
  4
extfont.shx
  0
STYLE
  2
KANJI5
 70
     0
 40
3.0
 41
0.666666667
 50
0.0
 71
     0
 42
3.0
  3
txt.shx
  4
extfont.shx
  0
STYLE
  2
KANJI6
 70
     0
 40
1.8
 41
0.666666667
 50
0.0
 71
     0
 42
1.8
  3
txt.shx
  4
extfont.shx
  0
STYLE
  2
KANJI7
 70
     0
 40
3.0
 41
0.3
 50
0.0
 71
     0
 42
3.0
  3
txt.shx
  4
extfont.shx
  0
STYLE
  2
KANJI8
 70
     0
 40
3.0
 41
0.9
 50
0.0
 71
     0
 42
3.0
  3
txt.shx
  4
extfont.shx
  0
STYLE
  2
KANJI9
 70
     0
 40
4.0
 41
0.9
 50
0.0
 71
     0
 42
4.0
  3
txt.shx
  4
extfont.shx
  0
STYLE
  2
KANJI10
 70
     0
 40
6.0
 41
0.9
 50
0.0
 71
     0
 42
6.0
  3
txt.shx
  4
extfont.shx
  0
ENDTAB
  0
TABLE
  2
VIEW
 70
     0
  0
ENDTAB
  0
ENDSEC
  0
SECTION
  2
BLOCKS
  0
ENDSEC
  0
SECTION
  2
ENTITIES
  0
LINE
  8
0
  6
CONTINUOUS
 62
     1
 10
97.3
 20
140.75
 30
0.0
 11
97.3
 21
99.25
 31
0.0
  0
LINE
  8
0
  6
CONTINUOUS
 62
     1
 10
112.05
 20
101.75
 30
0.0
 11
102.55
 21
101.75
 31
0.0
  0
ARC
  8
0
  6
CONTINUOUS
 62
     1
 10
112.05
 20
102.25
 30
0.0
 40
0.5
 50
270.0
 51
0.0
  0
LINE
  8
0
  6
CONTINUOUS
 62
     1
 10
112.05
 20
134.25
 30
0.0
 11
102.5375
 21
134.25
 31
0.0
  0
LINE
  8
0
  6
CONTINUOUS
 62
     1
 10
112.55
 20
133.75
 30
0.0
 11
112.55
 21
102.25
 31
0.0
  0
ARC
  8
0
  6
CONTINUOUS
 62
     1
 10
112.05
 20
133.75
 30
0.0
 40
0.5
 50
0.0
 51
90.0
  0
ARC
  8
0
  6
CONTINUOUS
 62
     1
 10
28.5
 20
100.75
 30
0.0
 40
1.5
 50
180.0
 51
270.0
  0
LINE
  8
0
  6
CONTINUOUS
 62
     1
 10
28.5
 20
99.25
 30
0.0
 11
75.5
 21
99.25
 31
0.0
  0
ARC
  8
0
  6
CONTINUOUS
 62
     1
 10
75.5
 20
100.75
 30
0.0
 40
1.5
 50
270.0
 51
0.0
  0
LINE
  8
0
  6
CONTINUOUS
 62
     1
 10
77.0
 20
100.75
 30
0.0
 11
77.0
 21
139.25
 31
0.0
  0
ARC
  8
0
  6
CONTINUOUS
 62
     1
 10
75.5
 20
139.25
 30
0.0
 40
1.5
 50
0.0
 51
90.0
  0
LINE
  8
0
  6
CONTINUOUS
 62
     1
 10
27.0
 20
139.25
 30
0.0
 11
27.0
 21
100.75
 31
0.0
  0
LINE
  8
0
  6
CONTINUOUS
 62
     1
 10
75.5
 20
140.75
 30
0.0
 11
28.5
 21
140.75
 31
0.0
  0
ARC
  8
0
  6
CONTINUOUS
 62
     1
 10
28.5
 20
139.25
 30
0.0
 40
1.5
 50
90.0
 51
180.0
  0
ARC
  8
0
  6
CONTINUOUS
 62
     1
 10
198.5
 20
100.75
 30
0.0
 40
1.5
 50
270.0
 51
0.0
  0
LINE
  8
0
  6
CONTINUOUS
 62
     1
 10
200.0
 20
139.25
 30
0.0
 11
200.0
 21
100.75
 31
0.0
  0
ARC
  8
0
  6
CONTINUOUS
 62
     1
 10
198.5
 20
139.25
 30
0.0
 40
1.5
 50
0.0
 51
90.0
  0
LINE
  8
0
  6
CONTINUOUS
 62
     1
 10
151.5
 20
140.75
 30
0.0
 11
198.5
 21
140.75
 31
0.0
  0
ARC
  8
0
  6
CONTINUOUS
 62
     1
 10
151.5
 20
139.25
 30
0.0
 40
1.5
 50
90.0
 51
180.0
  0
LINE
  8
0
  6
CONTINUOUS
 62
     1
 10
198.5
 20
99.25
 30
0.0
 11
151.5
 21
99.25
 31
0.0
  0
LINE
  8
0
  6
CONTINUOUS
 62
     1
 10
150.0
 20
100.75
 30
0.0
 11
150.0
 21
139.25
 31
0.0
  0
ARC
  8
0
  6
CONTINUOUS
 62
     1
 10
151.5
 20
100.75
 30
0.0
 40
1.5
 50
180.0
 51
270.0
  0
CIRCLE
  8
0
  6
CONTINUOUS
 62
     1
 10
175.0
 20
118.0
 30
0.0
 40
16.25
  0
CIRCLE
  8
0
  6
CONTINUOUS
 62
     1
 10
52.0
 20
59.0
 30
0.0
 40
16.75
  0
CIRCLE
  8
0
  6
CONTINUOUS
 62
     1
 10
36.0
 20
75.0
 30
0.0
 40
1.0
  0
CIRCLE
  8
0
  6
CONTINUOUS
 62
     1
 10
36.0
 20
43.0
 30
0.0
 40
1.0
  0
CIRCLE
  8
0
  6
CONTINUOUS
 62
     1
 10
68.0
 20
43.0
 30
0.0
 40
1.0
  0
CIRCLE
  8
0
  6
CONTINUOUS
 62
     1
 10
68.0
 20
75.0
 30
0.0
 40
1.0
  0
ARC
  8
0
  6
CONTINUOUS
 62
     1
 10
92.05
 20
139.326436456
 30
0.0
 40
0.5
 50
99.462322208
 51
180.0
  0
LINE
  8
0
  6
CONTINUOUS
 62
     1
 10
91.967800506
 20
139.819633418
 30
0.0
 11
97.3
 21
140.75
 31
0.0
  0
ARC
  8
0
  6
CONTINUOUS
 62
     1
 10
92.05
 20
100.671782451
 30
0.0
 40
0.5
 50
180.0
 51
260.299608056
  0
LINE
  8
0
  6
CONTINUOUS
 62
     1
 10
91.965751939
 20
100.178931293
 30
0.0
 11
97.3
 21
99.25
 31
0.0
  0
LINE
  8
0
  6
CONTINUOUS
 62
     1
 10
91.55
 20
139.326436456
 30
0.0
 11
91.55
 21
100.671782451
 31
0.0
  0
ARC
  8
0
  6
CONTINUOUS
 62
     2
 10
75.5
 20
100.75
 30
0.0
 40
0.5
 50
270.0
 51
0.0
  0
LINE
  8
0
  6
CONTINUOUS
 62
     2
 10
76.0
 20
100.75
 30
0.0
 11
76.0
 21
139.25
 31
0.0
  0
ARC
  8
0
  6
CONTINUOUS
 62
     2
 10
75.5
 20
139.25
 30
0.0
 40
0.5
 50
0.0
 51
90.0
  0
LINE
  8
0
  6
CONTINUOUS
 62
     2
 10
75.5
 20
139.75
 30
0.0
 11
28.5
 21
139.75
 31
0.0
  0
ARC
  8
0
  6
CONTINUOUS
 62
     2
 10
28.5
 20
139.25
 30
0.0
 40
0.5
 50
90.0
 51
180.0
  0
LINE
  8
0
  6
CONTINUOUS
 62
     2
 10
28.5
 20
100.25
 30
0.0
 11
75.5
 21
100.25
 31
0.0
  0
LINE
  8
0
  6
CONTINUOUS
 62
     2
 10
28.0
 20
139.25
 30
0.0
 11
28.0
 21
100.75
 31
0.0
  0
ARC
  8
0
  6
CONTINUOUS
 62
     2
 10
28.5
 20
100.75
 30
0.0
 40
0.5
 50
180.0
 51
270.0
  0
LINE
  8
0
  6
CONTINUOUS
 62
     2
 10
28.7625
 20
114.25
 30
0.0
 11
75.2625
 21
114.25
 31
0.0
  0
LINE
  8
0
  6
CONTINUOUS
 62
     2
 10
75.2625
 20
114.25
 30
0.0
 11
75.2625
 21
138.5
 31
0.0
  0
ARC
  8
0
  6
CONTINUOUS
 62
     2
 10
74.7625
 20
138.5
 30
0.0
 40
0.5
 50
0.0
 51
90.0
  0
LINE
  8
0
  6
CONTINUOUS
 62
     2
 10
28.7625
 20
138.5
 30
0.0
 11
28.7625
 21
114.25
 31
0.0
  0
LINE
  8
0
  6
CONTINUOUS
 62
     2
 10
74.7625
 20
139.0
 30
0.0
 11
29.2625
 21
139.0
 31
0.0
  0
ARC
  8
0
  6
CONTINUOUS
 62
     2
 10
29.2625
 20
138.5
 30
0.0
 40
0.5
 50
90.0
 51
180.0
  0
CIRCLE
  8
0
  6
CONTINUOUS
 62
     2
 10
30.9625
 20
111.5
 30
0.0
 40
1.5
  0
LINE
  8
0
  6
CONTINUOUS
 62
     2
 10
30.0875
 20
111.7
 30
0.0
 11
30.5625
 21
111.7
 31
0.0
  0
ARC
  8
0
  6
CONTINUOUS
 62
     2
 10
30.5625
 20
111.9
 30
0.0
 40
0.2
 50
270.0
 51
0.0
  0
LINE
  8
0
  6
CONTINUOUS
 62
     2
 10
30.7625
 20
111.9
 30
0.0
 11
30.7625
 21
112.375
 31
0.0
  0
LINE
  8
0
  6
CONTINUOUS
 62
     2
 10
30.7625
 20
112.375
 30
0.0
 11
31.1625
 21
112.375
 31
0.0
  0
LINE
  8
0
  6
CONTINUOUS
 62
     2
 10
31.1625
 20
112.375
 30
0.0
 11
31.1625
 21
111.9
 31
0.0
  0
ARC
  8
0
  6
CONTINUOUS
 62
     2
 10
31.3625
 20
111.9
 30
0.0
 40
0.2
 50
180.0
 51
270.0
  0
LINE
  8
0
  6
CONTINUOUS
 62
     2
 10
31.3625
 20
111.7
 30
0.0
 11
31.8375
 21
111.7
 31
0.0
  0
LINE
  8
0
  6
CONTINUOUS
 62
     2
 10
31.8375
 20
111.7
 30
0.0
 11
31.8375
 21
111.3
 31
0.0
  0
LINE
  8
0
  6
CONTINUOUS
 62
     2
 10
31.8375
 20
111.3
 30
0.0
 11
31.3625
 21
111.3
 31
0.0
  0
ARC
  8
0
  6
CONTINUOUS
 62
     2
 10
31.3625
 20
111.1
 30
0.0
 40
0.2
 50
90.0
 51
180.0
  0
LINE
  8
0
  6
CONTINUOUS
 62
     2
 10
31.1625
 20
111.1
 30
0.0
 11
31.1625
 21
110.625
 31
0.0
  0
LINE
  8
0
  6
CONTINUOUS
 62
     2
 10
31.1625
 20
110.625
 30
0.0
 11
30.7625
 21
110.625
 31
0.0
  0
LINE
  8
0
  6
CONTINUOUS
 62
     2
 10
30.7625
 20
110.625
 30
0.0
 11
30.7625
 21
111.1
 31
0.0
  0
ARC
  8
0
  6
CONTINUOUS
 62
     2
 10
30.5625
 20
111.1
 30
0.0
 40
0.2
 50
0.0
 51
90.0
  0
LINE
  8
0
  6
CONTINUOUS
 62
     2
 10
30.5625
 20
111.3
 30
0.0
 11
30.0875
 21
111.3
 31
0.0
  0
LINE
  8
0
  6
CONTINUOUS
 62
     2
 10
30.0875
 20
111.3
 30
0.0
 11
30.0875
 21
111.7
 31
0.0
  0
CIRCLE
  8
0
  6
CONTINUOUS
 62
     2
 10
72.9625
 20
111.5
 30
0.0
 40
1.5
  0
LINE
  8
0
  6
CONTINUOUS
 62
     2
 10
72.0875
 20
111.7
 30
0.0
 11
72.5625
 21
111.7
 31
0.0
  0
ARC
  8
0
  6
CONTINUOUS
 62
     2
 10
72.5625
 20
111.9
 30
0.0
 40
0.2
 50
270.0
 51
0.0
  0
LINE
  8
0
  6
CONTINUOUS
 62
     2
 10
72.7625
 20
111.9
 30
0.0
 11
72.7625
 21
112.375
 31
0.0
  0
LINE
  8
0
  6
CONTINUOUS
 62
     2
 10
72.7625
 20
112.375
 30
0.0
 11
73.1625
 21
112.375
 31
0.0
  0
LINE
  8
0
  6
CONTINUOUS
 62
     2
 10
73.1625
 20
112.375
 30
0.0
 11
73.1625
 21
111.9
 31
0.0
  0
ARC
  8
0
  6
CONTINUOUS
 62
     2
 10
73.3625
 20
111.9
 30
0.0
 40
0.2
 50
180.0
 51
270.0
  0
LINE
  8
0
  6
CONTINUOUS
 62
     2
 10
73.3625
 20
111.7
 30
0.0
 11
73.8375
 21
111.7
 31
0.0
  0
LINE
  8
0
  6
CONTINUOUS
 62
     2
 10
73.8375
 20
111.7
 30
0.0
 11
73.8375
 21
111.3
 31
0.0
  0
LINE
  8
0
  6
CONTINUOUS
 62
     2
 10
73.8375
 20
111.3
 30
0.0
 11
73.3625
 21
111.3
 31
0.0
  0
ARC
  8
0
  6
CONTINUOUS
 62
     2
 10
73.3625
 20
111.1
 30
0.0
 40
0.2
 50
90.0
 51
180.0
  0
LINE
  8
0
  6
CONTINUOUS
 62
     2
 10
73.1625
 20
111.1
 30
0.0
 11
73.1625
 21
110.625
 31
0.0
  0
LINE
  8
0
  6
CONTINUOUS
 62
     2
 10
73.1625
 20
110.625
 30
0.0
 11
72.7625
 21
110.625
 31
0.0
  0
LINE
  8
0
  6
CONTINUOUS
 62
     2
 10
72.7625
 20
110.625
 30
0.0
 11
72.7625
 21
111.1
 31
0.0
  0
ARC
  8
0
  6
CONTINUOUS
 62
     2
 10
72.5625
 20
111.1
 30
0.0
 40
0.2
 50
0.0
 51
90.0
  0
LINE
  8
0
  6
CONTINUOUS
 62
     2
 10
72.5625
 20
111.3
 30
0.0
 11
72.0875
 21
111.3
 31
0.0
  0
LINE
  8
0
  6
CONTINUOUS
 62
     2
 10
72.0875
 20
111.3
 30
0.0
 11
72.0875
 21
111.7
 31
0.0
  0
LINE
  8
0
  6
CONTINUOUS
 62
     2
 10
33.084893603
 20
128.665106397
 30
0.0
 11
46.484893603
 21
114.265106397
 31
0.0
  0
LINE
  8
0
  6
CONTINUOUS
 62
     2
 10
33.134893603
 20
128.715106397
 30
0.0
 11
48.534893603
 21
114.265106397
 31
0.0
  0
TEXT
  8
0
  6
CONTINUOUS
 62
     2
 10
128.35
 20
61.0
 30
0.5
 40
3.0
  1
（□；Ｄ，Ｓ，Ｃ）
 50
0.0
 41
0.9
 51
0.0
  7
KANJI0
  0
LINE
  8
0
  6
CONTINUOUS
 62
     2
 10
112.55
 20
101.25
 30
0.0
 11
112.55
 21
94.25
 31
0.0
  0
LINE
  8
0
  6
CONTINUOUS
 62
     2
 10
112.55
 20
96.25
 30
0.0
 11
114.964814566
 21
95.602952387
 31
0.0
  0
LINE
  8
0
  6
CONTINUOUS
 62
     2
 10
112.55
 20
96.25
 30
0.0
 11
114.964814566
 21
96.897047613
 31
0.0
  0
LINE
  8
0
  6
CONTINUOUS
 62
     2
 10
112.55
 20
96.25
 30
0.0
 11
119.55
 21
96.25
 31
0.0
  0
LINE
  8
0
  6
CONTINUOUS
 62
     2
 10
119.55
 20
96.25
 30
0.0
 11
117.135185434
 21
96.897047613
 31
0.0
  0
LINE
  8
0
  6
CONTINUOUS
 62
     2
 10
119.55
 20
96.25
 30
0.0
 11
117.135185434
 21
95.602952387
 31
0.0
  0
LINE
  8
0
  6
CONTINUOUS
 62
     2
 10
119.55
 20
112.05
 30
0.0
 11
119.55
 21
94.25
 31
0.0
  0
TEXT
  8
0
  6
CONTINUOUS
 62
     2
 10
114.1
 20
97.25
 30
0.3
 40
3.0
  1
１４
 50
0.0
 41
0.6
 51
0.0
  7
KANJI1
  0
LINE
  8
0
  6
CONTINUOUS
 62
     2
 10
107.55
 20
134.25
 30
0.0
 11
106.902952387
 21
131.835185434
 31
0.0
  0
LINE
  8
0
  6
CONTINUOUS
 62
     2
 10
107.55
 20
134.25
 30
0.0
 11
108.197047613
 21
131.835185434
 31
0.0
  0
LINE
  8
0
  6
CONTINUOUS
 62
     2
 10
107.55
 20
134.25
 30
0.0
 11
107.55
 21
101.75
 31
0.0
  0
LINE
  8
0
  6
CONTINUOUS
 62
     2
 10
107.55
 20
101.75
 30
0.0
 11
108.197047613
 21
104.164814566
 31
0.0
  0
LINE
  8
0
  6
CONTINUOUS
 62
     2
 10
107.55
 20
101.75
 30
0.0
 11
106.902952387
 21
104.164814566
 31
0.0
  0
TEXT
  8
0
  6
CONTINUOUS
 62
     2
 10
106.55
 20
114.7
 30
0.3
 40
3.0
  1
φ６５
 50
90.0
 41
0.666666667
 51
0.0
  7
KANJI2
  0
ARC
  8
0
  6
CONTINUOUS
 62
     2
 10
198.5
 20
100.75
 30
0.0
 40
0.5
 50
270.0
 51
0.0
  0
ARC
  8
0
  6
CONTINUOUS
 62
     2
 10
198.5
 20
139.25
 30
0.0
 40
0.5
 50
0.0
 51
90.0
  0
LINE
  8
0
  6
CONTINUOUS
 62
     2
 10
199.0
 20
100.75
 30
0.0
 11
199.0
 21
139.25
 31
0.0
  0
ARC
  8
0
  6
CONTINUOUS
 62
     2
 10
151.5
 20
139.25
 30
0.0
 40
0.5
 50
90.0
 51
180.0
  0
LINE
  8
0
  6
CONTINUOUS
 62
     2
 10
198.5
 20
139.75
 30
0.0
 11
151.5
 21
139.75
 31
0.0
  0
ARC
  8
0
  6
CONTINUOUS
 62
     2
 10
151.5
 20
100.75
 30
0.0
 40
0.5
 50
180.0
 51
270.0
  0
LINE
  8
0
  6
CONTINUOUS
 62
     2
 10
151.5
 20
100.25
 30
0.0
 11
198.5
 21
100.25
 31
0.0
  0
LINE
  8
0
  6
CONTINUOUS
 62
     2
 10
151.0
 20
139.25
 30
0.0
 11
151.0
 21
100.75
 31
0.0
  0
LINE
  8
0
  6
CONTINUOUS
 62
     2
 10
145.025
 20
126.825
 30
0.0
 11
145.025
 21
113.025
 31
0.0
  0
CIRCLE
  8
0
  6
CONTINUOUS
 62
     2
 10
159.0
 20
134.0
 30
0.0
 40
2.0
  0
CIRCLE
  8
0
  6
CONTINUOUS
 62
     2
 10
159.0
 20
134.0
 30
0.0
 40
0.75
  0
LINE
  8
0
  6
CONTINUOUS
 62
     2
 10
159.0
 20
135.6
 30
0.0
 11
157.614359354
 21
134.8
 31
0.0
  0
LINE
  8
0
  6
CONTINUOUS
 62
     2
 10
157.614359354
 20
134.8
 30
0.0
 11
157.614359354
 21
133.2
 31
0.0
  0
LINE
  8
0
  6
CONTINUOUS
 62
     2
 10
157.614359354
 20
133.2
 30
0.0
 11
159.0
 21
132.4
 31
0.0
  0
LINE
  8
0
  6
CONTINUOUS
 62
     2
 10
159.0
 20
132.4
 30
0.0
 11
160.385640646
 21
133.2
 31
0.0
  0
LINE
  8
0
  6
CONTINUOUS
 62
     2
 10
160.385640646
 20
133.2
 30
0.0
 11
160.385640646
 21
134.8
 31
0.0
  0
LINE
  8
0
  6
CONTINUOUS
 62
     2
 10
160.385640646
 20
134.8
 30
0.0
 11
159.0
 21
135.6
 31
0.0
  0
CIRCLE
  8
0
  6
CONTINUOUS
 62
     2
 10
175.0
 20
123.75
 30
0.0
 40
2.0
  0
TEXT
  8
0
  6
CONTINUOUS
 62
     2
 10
167.45
 20
121.05
 30
0.3
 40
3.0
  1
＋
 50
0.0
 41
0.9
 51
0.0
  7
KANJI3
  0
ARC
  8
0
  6
LTYPE1
 62
     2
 10
168.25
 20
118.5
 30
0.0
 40
3.0
 50
90.0
 51
180.0
  0
LINE
  8
0
  6
LTYPE1
 62
     2
 10
165.25
 20
113.0
 30
0.0
 11
165.25
 21
118.5
 31
0.0
  0
LINE
  8
0
  6
LTYPE1
 62
     2
 10
181.75
 20
110.0
 30
0.0
 11
168.25
 21
110.0
 31
0.0
  0
ARC
  8
0
  6
LTYPE1
 62
     2
 10
168.25
 20
113.0
 30
0.0
 40
3.0
 50
180.0
 51
270.0
  0
LINE
  8
0
  6
LTYPE1
 62
     2
 10
168.275
 20
121.5
 30
0.0
 11
181.75
 21
121.5
 31
0.0
  0
ARC
  8
0
  6
LTYPE1
 62
     2
 10
181.75
 20
118.5
 30
0.0
 40
3.0
 50
0.0
 51
90.0
  0
ARC
  8
0
  6
LTYPE1
 62
     2
 10
181.75
 20
113.0
 30
0.0
 40
3.0
 50
270.0
 51
0.0
  0
LINE
  8
0
  6
LTYPE1
 62
     2
 10
184.75
 20
118.5
 30
0.0
 11
184.75
 21
113.0
 31
0.0
  0
LINE
  8
0
  6
CONTINUOUS
 62
     2
 10
184.25
 20
118.0
 30
0.0
 11
191.75
 21
118.0
 31
0.0
  0
POINT
  8
0
  6
LTYPE1
 62
     2
 10
170.0
 20
114.6
 30
0.0
  0
LINE
  8
0
  6
LTYPE1
 62
     2
 10
170.0
 20
114.6
 30
0.0
 11
167.5
 21
114.6
 31
0.0
  0
LINE
  8
0
  6
LTYPE1
 62
     2
 10
170.0
 20
114.6
 30
0.0
 11
170.0
 21
111.6
 31
0.0
  0
LINE
  8
0
  6
LTYPE1
 62
     2
 10
167.5
 20
114.6
 30
0.0
 11
167.5
 21
111.6
 31
0.0
  0
POINT
  8
0
  6
LTYPE1
 62
     2
 10
182.5
 20
114.6
 30
0.0
  0
LINE
  8
0
  6
LTYPE1
 62
     2
 10
182.5
 20
114.6
 30
0.0
 11
180.0
 21
114.6
 31
0.0
  0
LINE
  8
0
  6
LTYPE1
 62
     2
 10
182.5
 20
114.6
 30
0.0
 11
182.5
 21
111.6
 31
0.0
  0
LINE
  8
0
  6
LTYPE1
 62
     2
 10
180.0
 20
114.6
 30
0.0
 11
180.0
 21
111.6
 31
0.0
  0
LINE
  8
0
  6
CONTINUOUS
 62
     2
 10
205.0
 20
102.0
 30
0.0
 11
205.647047613
 21
104.414814566
 31
0.0
  0
LINE
  8
0
  6
CONTINUOUS
 62
     2
 10
205.0
 20
102.0
 30
0.0
 11
204.352952387
 21
104.414814566
 31
0.0
  0
LINE
  8
0
  6
CONTINUOUS
 62
     2
 10
205.0
 20
102.0
 30
0.0
 11
205.0
 21
118.0
 31
0.0
  0
LINE
  8
0
  6
CONTINUOUS
 62
     2
 10
205.0
 20
118.0
 30
0.0
 11
204.352952387
 21
115.585185434
 31
0.0
  0
LINE
  8
0
  6
CONTINUOUS
 62
     2
 10
205.0
 20
118.0
 30
0.0
 11
205.647047613
 21
115.585185434
 31
0.0
  0
TEXT
  8
0
  6
CONTINUOUS
 62
     2
 10
204.0
 20
105.62
 30
0.3
 40
3.0
  1
３２
 50
90.0
 41
0.6
 51
0.0
  7
KANJI1
  0
TEXT
  8
0
  6
CONTINUOUS
 62
     2
 10
204.0
 20
109.52
 30
0.18
 40
1.8
  1
±０．５
 50
90.0
 41
0.6
 51
0.0
  7
KANJI4
  0
LINE
  8
0
  6
CONTINUOUS
 62
     2
 10
205.0
 20
118.0
 30
0.0
 11
205.647047613
 21
120.414814566
 31
0.0
  0
LINE
  8
0
  6
CONTINUOUS
 62
     2
 10
205.0
 20
118.0
 30
0.0
 11
204.352952387
 21
120.414814566
 31
0.0
  0
LINE
  8
0
  6
CONTINUOUS
 62
     2
 10
205.0
 20
118.0
 30
0.0
 11
205.0
 21
134.0
 31
0.0
  0
LINE
  8
0
  6
CONTINUOUS
 62
     2
 10
205.0
 20
134.0
 30
0.0
 11
204.352952387
 21
131.585185434
 31
0.0
  0
LINE
  8
0
  6
CONTINUOUS
 62
     2
 10
205.0
 20
134.0
 30
0.0
 11
205.647047613
 21
131.585185434
 31
0.0
  0
TEXT
  8
0
  6
CONTINUOUS
 62
     2
 10
204.0
 20
121.62
 30
0.3
 40
3.0
  1
３２
 50
90.0
 41
0.6
 51
0.0
  7
KANJI1
  0
TEXT
  8
0
  6
CONTINUOUS
 62
     2
 10
204.0
 20
125.52
 30
0.18
 40
1.8
  1
±０．５
 50
90.0
 41
0.6
 51
0.0
  7
KANJI4
  0
CIRCLE
  8
0
  6
CONTINUOUS
 62
     2
 10
159.0
 20
102.0
 30
0.0
 40
2.0
  0
CIRCLE
  8
0
  6
CONTINUOUS
 62
     2
 10
159.0
 20
102.0
 30
0.0
 40
0.75
  0
LINE
  8
0
  6
CONTINUOUS
 62
     2
 10
159.0
 20
103.6
 30
0.0
 11
157.614359354
 21
102.8
 31
0.0
  0
LINE
  8
0
  6
CONTINUOUS
 62
     2
 10
157.614359354
 20
102.8
 30
0.0
 11
157.614359354
 21
101.2
 31
0.0
  0
LINE
  8
0
  6
CONTINUOUS
 62
     2
 10
157.614359354
 20
101.2
 30
0.0
 11
159.0
 21
100.4
 31
0.0
  0
LINE
  8
0
  6
CONTINUOUS
 62
     2
 10
159.0
 20
100.4
 30
0.0
 11
160.385640646
 21
101.2
 31
0.0
  0
LINE
  8
0
  6
CONTINUOUS
 62
     2
 10
160.385640646
 20
101.2
 30
0.0
 11
160.385640646
 21
102.8
 31
0.0
  0
LINE
  8
0
  6
CONTINUOUS
 62
     2
 10
160.385640646
 20
102.8
 30
0.0
 11
159.0
 21
103.6
 31
0.0
  0
CIRCLE
  8
0
  6
CONTINUOUS
 62
     2
 10
191.0
 20
102.0
 30
0.0
 40
2.0
  0
CIRCLE
  8
0
  6
CONTINUOUS
 62
     2
 10
191.0
 20
102.0
 30
0.0
 40
0.75
  0
LINE
  8
0
  6
CONTINUOUS
 62
     2
 10
191.0
 20
103.6
 30
0.0
 11
189.614359354
 21
102.8
 31
0.0
  0
LINE
  8
0
  6
CONTINUOUS
 62
     2
 10
189.614359354
 20
102.8
 30
0.0
 11
189.614359354
 21
101.2
 31
0.0
  0
LINE
  8
0
  6
CONTINUOUS
 62
     2
 10
189.614359354
 20
101.2
 30
0.0
 11
191.0
 21
100.4
 31
0.0
  0
LINE
  8
0
  6
CONTINUOUS
 62
     2
 10
191.0
 20
100.4
 30
0.0
 11
192.385640646
 21
101.2
 31
0.0
  0
LINE
  8
0
  6
CONTINUOUS
 62
     2
 10
192.385640646
 20
101.2
 30
0.0
 11
192.385640646
 21
102.8
 31
0.0
  0
LINE
  8
0
  6
CONTINUOUS
 62
     2
 10
192.385640646
 20
102.8
 30
0.0
 11
191.0
 21
103.6
 31
0.0
  0
CIRCLE
  8
0
  6
CONTINUOUS
 62
     2
 10
191.0
 20
134.0
 30
0.0
 40
2.0
  0
CIRCLE
  8
0
  6
CONTINUOUS
 62
     2
 10
191.0
 20
134.0
 30
0.0
 40
0.75
  0
LINE
  8
0
  6
CONTINUOUS
 62
     2
 10
191.0
 20
135.6
 30
0.0
 11
189.614359354
 21
134.8
 31
0.0
  0
LINE
  8
0
  6
CONTINUOUS
 62
     2
 10
189.614359354
 20
134.8
 30
0.0
 11
189.614359354
 21
133.2
 31
0.0
  0
LINE
  8
0
  6
CONTINUOUS
 62
     2
 10
189.614359354
 20
133.2
 30
0.0
 11
191.0
 21
132.4
 31
0.0
  0
LINE
  8
0
  6
CONTINUOUS
 62
     2
 10
191.0
 20
132.4
 30
0.0
 11
192.385640646
 21
133.2
 31
0.0
  0
LINE
  8
0
  6
CONTINUOUS
 62
     2
 10
192.385640646
 20
133.2
 30
0.0
 11
192.385640646
 21
134.8
 31
0.0
  0
LINE
  8
0
  6
CONTINUOUS
 62
     2
 10
192.385640646
 20
134.8
 30
0.0
 11
191.0
 21
135.6
 31
0.0
  0
TEXT
  8
0
  6
CONTINUOUS
 62
     2
 10
144.025
 20
125.025
 30
0.3
 40
3.0
  1
４
 50
90.0
 41
0.6
 51
0.0
  7
KANJI1
  0
TEXT
  8
0
  6
CONTINUOUS
 62
     2
 10
119.0
 20
66.0
 30
0.5
 40
3.0
  1
注１．感度調整用抵抗器は□ＣＦ－１０Ｖ形に限り付きます。
 50
0.0
 41
0.9
 51
0.0
  7
KANJI0
  0
LINE
  8
0
  6
CONTINUOUS
 62
     2
 10
119.0
 20
65.0
 30
0.0
 11
206.0
 21
65.0
 31
0.0
  0
LINE
  8
0
  6
CONTINUOUS
 62
     2
 10
129.05
 20
60.0
 30
0.0
 11
155.85
 21
60.0
 31
0.0
  0
LINE
  8
0
  6
CONTINUOUS
 62
     2
 10
119.05
 20
55.0
 30
0.0
 11
216.45
 21
55.0
 31
0.0
  0
LINE
  8
0
  6
CONTINUOUS
 62
     2
 10
128.05
 20
50.0
 30
0.0
 11
175.45
 21
50.0
 31
0.0
  0
TEXT
  8
0
  6
CONTINUOUS
 62
     2
 10
119.05
 20
56.0
 30
0.5
 40
3.0
  1
注２．ＡＣＦ－１０形交流電流計で１０Ａ以上，３０Ａ以下の場合は
 50
0.0
 41
0.9
 51
0.0
  7
KANJI0
  0
TEXT
  8
0
  6
CONTINUOUS
 62
     2
 10
128.55
 20
51.0
 30
0.5
 40
3.0
  1
Ｍ５タ－ミナルネジとなります。
 50
0.0
 41
0.9
 51
0.0
  7
KANJI0
  0
LINE
  8
0
  6
LTYPE2
 62
     2
 10
28.9625
 20
111.5
 30
0.0
 11
32.9625
 21
111.5
 31
0.0
  0
LINE
  8
0
  6
LTYPE2
 62
     2
 10
30.9625
 20
113.5
 30
0.0
 11
30.9625
 21
109.5
 31
0.0
  0
LINE
  8
0
  6
LTYPE2
 62
     2
 10
49.0
 20
104.75
 30
0.0
 11
55.0
 21
104.75
 31
0.0
  0
LINE
  8
0
  6
LTYPE2
 62
     2
 10
70.9625
 20
111.5
 30
0.0
 11
74.9625
 21
111.5
 31
0.0
  0
LINE
  8
0
  6
LTYPE2
 62
     2
 10
72.9625
 20
113.5
 30
0.0
 11
72.9625
 21
109.5
 31
0.0
  0
LINE
  8
0
  6
LTYPE2
 62
     2
 10
96.5
 20
134.0
 30
0.0
 11
103.9
 21
134.0
 31
0.0
  0
LINE
  8
0
  6
LTYPE2
 62
     2
 10
96.5
 20
102.0
 30
0.0
 11
103.9
 21
102.0
 31
0.0
  0
LINE
  8
0
  6
LTYPE2
 62
     2
 10
156.0
 20
134.0
 30
0.0
 11
162.0
 21
134.0
 31
0.0
  0
LINE
  8
0
  6
LTYPE2
 62
     2
 10
159.0
 20
137.0
 30
0.0
 11
159.0
 21
131.0
 31
0.0
  0
LINE
  8
0
  6
LTYPE2
 62
     2
 10
188.0
 20
134.0
 30
0.0
 11
194.0
 21
134.0
 31
0.0
  0
LINE
  8
0
  6
LTYPE2
 62
     2
 10
191.0
 20
137.0
 30
0.0
 11
191.0
 21
131.0
 31
0.0
  0
LINE
  8
0
  6
LTYPE2
 62
     2
 10
168.75
 20
121.0
 30
0.0
 11
168.75
 21
115.0
 31
0.0
  0
LINE
  8
0
  6
LTYPE2
 62
     2
 10
181.25
 20
121.0
 30
0.0
 11
181.25
 21
115.0
 31
0.0
  0
LINE
  8
0
  6
LTYPE2
 62
     2
 10
188.0
 20
102.0
 30
0.0
 11
194.0
 21
102.0
 31
0.0
  0
LINE
  8
0
  6
LTYPE2
 62
     2
 10
191.0
 20
105.0
 30
0.0
 11
191.0
 21
99.0
 31
0.0
  0
LINE
  8
0
  6
LTYPE2
 62
     2
 10
156.0
 20
102.0
 30
0.0
 11
162.0
 21
102.0
 31
0.0
  0
LINE
  8
0
  6
LTYPE2
 62
     2
 10
159.0
 20
105.0
 30
0.0
 11
159.0
 21
99.0
 31
0.0
  0
LINE
  8
0
  6
LTYPE2
 62
     2
 10
52.0
 20
148.25
 30
0.0
 11
52.0
 21
93.3
 31
0.0
  0
LINE
  8
0
  6
CONTINUOUS
 62
     2
 10
210.5
 20
140.75
 30
0.0
 11
209.852952387
 21
138.335185434
 31
0.0
  0
LINE
  8
0
  6
CONTINUOUS
 62
     2
 10
210.5
 20
140.75
 30
0.0
 11
211.147047613
 21
138.335185434
 31
0.0
  0
LINE
  8
0
  6
CONTINUOUS
 62
     2
 10
210.5
 20
140.75
 30
0.0
 11
210.5
 21
99.25
 31
0.0
  0
LINE
  8
0
  6
CONTINUOUS
 62
     2
 10
210.5
 20
99.25
 30
0.0
 11
211.147047613
 21
101.664814566
 31
0.0
  0
LINE
  8
0
  6
CONTINUOUS
 62
     2
 10
210.5
 20
99.25
 30
0.0
 11
209.852952387
 21
101.664814566
 31
0.0
  0
TEXT
  8
0
  6
CONTINUOUS
 62
     2
 10
209.5
 20
116.2
 30
0.5
 40
3.0
  1
８３
 50
90.0
 41
0.666666667
 51
0.0
  7
KANJI5
  0
TEXT
  8
0
  6
CONTINUOUS
 62
     2
 10
209.5
 20
121.1
 30
0.3
 40
1.8
  1
±１
 50
90.0
 41
0.666666667
 51
0.0
  7
KANJI6
  0
LINE
  8
0
  6
CONTINUOUS
 62
     2
 10
199.5
 20
99.25
 30
0.0
 11
212.5
 21
99.25
 31
0.0
  0
LINE
  8
0
  6
CONTINUOUS
 62
     2
 10
199.5
 20
140.75
 30
0.0
 11
212.5
 21
140.75
 31
0.0
  0
LINE
  8
0
  6
LTYPE2
 62
     2
 10
178.0
 20
123.75
 30
0.0
 11
172.0
 21
123.75
 31
0.0
  0
LINE
  8
0
  6
CONTINUOUS
 62
     2
 10
194.5
 20
134.0
 30
0.0
 11
207.0
 21
134.0
 31
0.0
  0
LINE
  8
0
  6
CONTINUOUS
 62
     2
 10
194.5
 20
102.0
 30
0.0
 11
207.0
 21
102.0
 31
0.0
  0
LINE
  8
0
  6
LTYPE2
 62
     2
 10
143.5
 20
118.0
 30
0.0
 11
202.0
 21
118.0
 31
0.0
  0
LINE
  8
0
  6
CONTINUOUS
 62
     2
 10
202.5
 20
118.0
 30
0.0
 11
207.0
 21
118.0
 31
0.0
  0
CIRCLE
  8
0
  6
CONTINUOUS
 62
     2
 10
52.0
 20
104.75
 30
0.0
 40
1.8
  0
LINE
  8
0
  6
CONTINUOUS
 62
     2
 10
50.2
 20
104.55
 30
0.0
 11
53.7
 21
104.55
 31
0.0
  0
LINE
  8
0
  6
CONTINUOUS
 62
     2
 10
53.7
 20
104.95
 30
0.0
 11
50.25
 21
104.95
 31
0.0
  0
LINE
  8
0
  6
CONTINUOUS
 62
     2
 10
60.894486611
 20
73.193329698
 30
0.0
 11
59.06390178
 21
71.490696686
 31
0.0
  0
LINE
  8
0
  6
CONTINUOUS
 62
     2
 10
60.894486611
 20
73.193329698
 30
0.0
 11
60.16047015
 21
70.80351384
 31
0.0
  0
LINE
  8
0
  6
CONTINUOUS
 62
     2
 10
60.894486611
 20
73.193329698
 30
0.0
 11
43.105513389
 21
44.806670302
 31
0.0
  0
LINE
  8
0
  6
CONTINUOUS
 62
     2
 10
43.105513389
 20
44.806670302
 30
0.0
 11
44.93609822
 21
46.509303314
 31
0.0
  0
LINE
  8
0
  6
CONTINUOUS
 62
     2
 10
43.105513389
 20
44.806670302
 30
0.0
 11
43.83952985
 21
47.19648616
 31
0.0
  0
LINE
  8
0
  6
LTYPE2
 62
     2
 10
36.0
 20
77.5
 30
0.0
 11
36.0
 21
72.5
 31
0.0
  0
LINE
  8
0
  6
LTYPE2
 62
     2
 10
33.5
 20
75.0
 30
0.0
 11
38.5
 21
75.0
 31
0.0
  0
LINE
  8
0
  6
LTYPE2
 62
     2
 10
68.0
 20
77.5
 30
0.0
 11
68.0
 21
72.5
 31
0.0
  0
LINE
  8
0
  6
LTYPE2
 62
     2
 10
65.5
 20
75.0
 30
0.0
 11
70.5
 21
75.0
 31
0.0
  0
LINE
  8
0
  6
LTYPE2
 62
     2
 10
68.0
 20
45.5
 30
0.0
 11
68.0
 21
40.5
 31
0.0
  0
LINE
  8
0
  6
LTYPE2
 62
     2
 10
65.5
 20
43.0
 30
0.0
 11
70.5
 21
43.0
 31
0.0
  0
LINE
  8
0
  6
LTYPE2
 62
     2
 10
36.0
 20
45.5
 30
0.0
 11
36.0
 21
40.5
 31
0.0
  0
LINE
  8
0
  6
LTYPE2
 62
     2
 10
33.5
 20
43.0
 30
0.0
 11
38.5
 21
43.0
 31
0.0
  0
LINE
  8
0
  6
CONTINUOUS
 62
     2
 10
36.0
 20
81.0
 30
0.0
 11
38.414814566
 21
80.352952387
 31
0.0
  0
LINE
  8
0
  6
CONTINUOUS
 62
     2
 10
36.0
 20
81.0
 30
0.0
 11
38.414814566
 21
81.647047613
 31
0.0
  0
LINE
  8
0
  6
CONTINUOUS
 62
     2
 10
36.0
 20
81.0
 30
0.0
 11
52.0
 21
81.0
 31
0.0
  0
LINE
  8
0
  6
CONTINUOUS
 62
     2
 10
52.0
 20
81.0
 30
0.0
 11
49.585185434
 21
81.647047613
 31
0.0
  0
LINE
  8
0
  6
CONTINUOUS
 62
     2
 10
52.0
 20
81.0
 30
0.0
 11
49.585185434
 21
80.352952387
 31
0.0
  0
TEXT
  8
0
  6
CONTINUOUS
 62
     2
 10
39.62
 20
82.0
 30
0.3
 40
3.0
  1
３２
 50
0.0
 41
0.6
 51
0.0
  7
KANJI1
  0
TEXT
  8
0
  6
CONTINUOUS
 62
     2
 10
43.52
 20
82.0
 30
0.18
 40
1.8
  1
±０．５
 50
0.0
 41
0.6
 51
0.0
  7
KANJI4
  0
LINE
  8
0
  6
CONTINUOUS
 62
     2
 10
52.0
 20
81.0
 30
0.0
 11
54.414814566
 21
80.352952387
 31
0.0
  0
LINE
  8
0
  6
CONTINUOUS
 62
     2
 10
52.0
 20
81.0
 30
0.0
 11
54.414814566
 21
81.647047613
 31
0.0
  0
LINE
  8
0
  6
CONTINUOUS
 62
     2
 10
52.0
 20
81.0
 30
0.0
 11
68.0
 21
81.0
 31
0.0
  0
LINE
  8
0
  6
CONTINUOUS
 62
     2
 10
68.0
 20
81.0
 30
0.0
 11
65.585185434
 21
81.647047613
 31
0.0
  0
LINE
  8
0
  6
CONTINUOUS
 62
     2
 10
68.0
 20
81.0
 30
0.0
 11
65.585185434
 21
80.352952387
 31
0.0
  0
TEXT
  8
0
  6
CONTINUOUS
 62
     2
 10
55.62
 20
82.0
 30
0.3
 40
3.0
  1
３２
 50
0.0
 41
0.6
 51
0.0
  7
KANJI1
  0
TEXT
  8
0
  6
CONTINUOUS
 62
     2
 10
59.52
 20
82.0
 30
0.18
 40
1.8
  1
±０．５
 50
0.0
 41
0.6
 51
0.0
  7
KANJI4
  0
LINE
  8
0
  6
CONTINUOUS
 62
     2
 10
36.0
 20
78.0
 30
0.0
 11
36.0
 21
83.0
 31
0.0
  0
LINE
  8
0
  6
CONTINUOUS
 62
     2
 10
68.0
 20
78.0
 30
0.0
 11
68.0
 21
83.0
 31
0.0
  0
LINE
  8
0
  6
CONTINUOUS
 62
     2
 10
52.0
 20
78.0
 30
0.0
 11
52.0
 21
83.0
 31
0.0
  0
LINE
  8
0
  6
CONTINUOUS
 62
     2
 10
74.0
 20
59.0
 30
0.0
 11
74.647047613
 21
61.414814566
 31
0.0
  0
LINE
  8
0
  6
CONTINUOUS
 62
     2
 10
74.0
 20
59.0
 30
0.0
 11
73.352952387
 21
61.414814566
 31
0.0
  0
LINE
  8
0
  6
CONTINUOUS
 62
     2
 10
74.0
 20
59.0
 30
0.0
 11
74.0
 21
75.0
 31
0.0
  0
LINE
  8
0
  6
CONTINUOUS
 62
     2
 10
74.0
 20
75.0
 30
0.0
 11
73.352952387
 21
72.585185434
 31
0.0
  0
LINE
  8
0
  6
CONTINUOUS
 62
     2
 10
74.0
 20
75.0
 30
0.0
 11
74.647047613
 21
72.585185434
 31
0.0
  0
TEXT
  8
0
  6
CONTINUOUS
 62
     2
 10
73.0
 20
66.4
 30
0.3
 40
1.8
  1
±０．５
 50
90.0
 41
0.666666667
 51
0.0
  7
KANJI6
  0
TEXT
  8
0
  6
CONTINUOUS
 62
     2
 10
73.0
 20
61.9
 30
0.5
 40
3.0
  1
３２
 50
90.0
 41
0.666666667
 51
0.0
  7
KANJI5
  0
LINE
  8
0
  6
CONTINUOUS
 62
     2
 10
74.0
 20
59.0
 30
0.0
 11
73.352952387
 21
56.585185434
 31
0.0
  0
LINE
  8
0
  6
CONTINUOUS
 62
     2
 10
74.0
 20
59.0
 30
0.0
 11
74.647047613
 21
56.585185434
 31
0.0
  0
LINE
  8
0
  6
CONTINUOUS
 62
     2
 10
74.0
 20
59.0
 30
0.0
 11
74.0
 21
43.0
 31
0.0
  0
LINE
  8
0
  6
CONTINUOUS
 62
     2
 10
74.0
 20
43.0
 30
0.0
 11
74.647047613
 21
45.414814566
 31
0.0
  0
LINE
  8
0
  6
CONTINUOUS
 62
     2
 10
74.0
 20
43.0
 30
0.0
 11
73.352952387
 21
45.414814566
 31
0.0
  0
TEXT
  8
0
  6
CONTINUOUS
 62
     2
 10
73.0
 20
50.4
 30
0.3
 40
1.8
  1
±０．５
 50
90.0
 41
0.666666667
 51
0.0
  7
KANJI6
  0
TEXT
  8
0
  6
CONTINUOUS
 62
     2
 10
73.0
 20
45.9
 30
0.5
 40
3.0
  1
３２
 50
90.0
 41
0.666666667
 51
0.0
  7
KANJI5
  0
LINE
  8
0
  6
CONTINUOUS
 62
     2
 10
71.0
 20
75.0
 30
0.0
 11
76.0
 21
75.0
 31
0.0
  0
LINE
  8
0
  6
CONTINUOUS
 62
     2
 10
71.0
 20
43.0
 30
0.0
 11
76.0
 21
43.0
 31
0.0
  0
LINE
  8
0
  6
CONTINUOUS
 62
     2
 10
71.0
 20
59.0
 30
0.0
 11
76.0
 21
59.0
 31
0.0
  0
LINE
  8
0
  6
LTYPE2
 62
     2
 10
32.0
 20
59.0
 30
0.0
 11
70.5
 21
59.0
 31
0.0
  0
LINE
  8
0
  6
CONTINUOUS
 62
     2
 10
91.55
 20
139.0
 30
0.0
 11
91.3
 21
139.0
 31
0.0
  0
LINE
  8
0
  6
CONTINUOUS
 62
     2
 10
91.3
 20
139.0
 30
0.0
 11
91.3
 21
114.25
 31
0.0
  0
LINE
  8
0
  6
CONTINUOUS
 62
     2
 10
91.3
 20
114.25
 30
0.0
 11
91.55
 21
114.25
 31
0.0
  0
LINE
  8
0
  6
CONTINUOUS
 62
     2
 10
97.3
 20
135.95
 30
0.0
 11
97.55
 21
135.95
 31
0.0
  0
LINE
  8
0
  6
CONTINUOUS
 62
     2
 10
97.55
 20
131.95
 30
0.0
 11
97.3
 21
131.95
 31
0.0
  0
LINE
  8
0
  6
CONTINUOUS
 62
     2
 10
97.55
 20
135.95
 30
0.0
 11
97.55
 21
131.95
 31
0.0
  0
LINE
  8
0
  6
CONTINUOUS
 62
     2
 10
99.9
 20
135.525
 30
0.0
 11
100.1
 21
135.325
 31
0.0
  0
LINE
  8
0
  6
CONTINUOUS
 62
     2
 10
99.875
 20
134.7
 30
0.0
 11
100.075
 21
134.9
 31
0.0
  0
LINE
  8
0
  6
CONTINUOUS
 62
     2
 10
100.075
 20
134.5
 30
0.0
 11
99.875
 21
134.7
 31
0.0
  0
LINE
  8
0
  6
CONTINUOUS
 62
     2
 10
98.9
 20
135.525
 30
0.0
 11
99.9
 21
135.525
 31
0.0
  0
LINE
  8
0
  6
CONTINUOUS
 62
     2
 10
98.9
 20
134.7
 30
0.0
 11
99.875
 21
134.7
 31
0.0
  0
LINE
  8
0
  6
CONTINUOUS
 62
     2
 10
99.9
 20
132.425
 30
0.0
 11
100.1
 21
132.625
 31
0.0
  0
LINE
  8
0
  6
CONTINUOUS
 62
     2
 10
99.9
 20
132.425
 30
0.0
 11
98.9
 21
132.425
 31
0.0
  0
LINE
  8
0
  6
CONTINUOUS
 62
     2
 10
98.9
 20
132.425
 30
0.0
 11
98.9
 21
135.525
 31
0.0
  0
LINE
  8
0
  6
CONTINUOUS
 62
     2
 10
100.1
 20
135.325
 30
0.0
 11
100.1
 21
132.625
 31
0.0
  0
LINE
  8
0
  6
CONTINUOUS
 62
     2
 10
100.1
 20
134.725
 30
0.0
 11
102.55
 21
134.725
 31
0.0
  0
LINE
  8
0
  6
CONTINUOUS
 62
     2
 10
102.53
 20
134.55
 30
0.0
 11
100.1
 21
134.55
 31
0.0
  0
LINE
  8
0
  6
CONTINUOUS
 62
     2
 10
98.9
 20
135.525
 30
0.0
 11
98.6
 21
135.825
 31
0.0
  0
LINE
  8
0
  6
CONTINUOUS
 62
     2
 10
98.6
 20
135.825
 30
0.0
 11
98.6
 21
132.125
 31
0.0
  0
LINE
  8
0
  6
CONTINUOUS
 62
     2
 10
98.9
 20
132.425
 30
0.0
 11
98.6
 21
132.125
 31
0.0
  0
LINE
  8
0
  6
CONTINUOUS
 62
     2
 10
98.6
 20
133.45
 30
0.0
 11
97.55
 21
133.45
 31
0.0
  0
LINE
  8
0
  6
CONTINUOUS
 62
     2
 10
97.55
 20
134.7
 30
0.0
 11
98.6
 21
134.7
 31
0.0
  0
LINE
  8
0
  6
CONTINUOUS
 62
     2
 10
98.6
 20
134.55
 30
0.0
 11
97.55
 21
134.55
 31
0.0
  0
LINE
  8
0
  6
CONTINUOUS
 62
     2
 10
102.55
 20
134.725
 30
0.0
 11
102.55
 21
133.275
 31
0.0
  0
LINE
  8
0
  6
CONTINUOUS
 62
     2
 10
102.55
 20
133.275
 30
0.0
 11
100.1
 21
133.275
 31
0.0
  0
LINE
  8
0
  6
CONTINUOUS
 62
     2
 10
100.1
 20
133.45
 30
0.0
 11
102.55
 21
133.45
 31
0.0
  0
LINE
  8
0
  6
CONTINUOUS
 62
     2
 10
99.885
 20
133.275
 30
0.0
 11
98.9
 21
133.275
 31
0.0
  0
LINE
  8
0
  6
CONTINUOUS
 62
     2
 10
97.55
 20
133.275
 30
0.0
 11
98.6
 21
133.275
 31
0.0
  0
LINE
  8
0
  6
CONTINUOUS
 62
     2
 10
99.885
 20
133.275
 30
0.0
 11
100.085
 21
133.475
 31
0.0
  0
LINE
  8
0
  6
CONTINUOUS
 62
     2
 10
100.085
 20
133.075
 30
0.0
 11
99.885
 21
133.275
 31
0.0
  0
LINE
  8
0
  6
CONTINUOUS
 62
     2
 10
97.3
 20
103.95
 30
0.0
 11
97.55
 21
103.95
 31
0.0
  0
LINE
  8
0
  6
CONTINUOUS
 62
     2
 10
97.55
 20
99.95
 30
0.0
 11
97.3
 21
99.95
 31
0.0
  0
LINE
  8
0
  6
CONTINUOUS
 62
     2
 10
97.55
 20
103.95
 30
0.0
 11
97.55
 21
99.95
 31
0.0
  0
LINE
  8
0
  6
CONTINUOUS
 62
     2
 10
99.9
 20
103.525
 30
0.0
 11
100.1
 21
103.325
 31
0.0
  0
LINE
  8
0
  6
CONTINUOUS
 62
     2
 10
99.875
 20
102.7
 30
0.0
 11
100.075
 21
102.9
 31
0.0
  0
LINE
  8
0
  6
CONTINUOUS
 62
     2
 10
100.075
 20
102.5
 30
0.0
 11
99.875
 21
102.7
 31
0.0
  0
LINE
  8
0
  6
CONTINUOUS
 62
     2
 10
98.9
 20
103.525
 30
0.0
 11
99.9
 21
103.525
 31
0.0
  0
LINE
  8
0
  6
CONTINUOUS
 62
     2
 10
98.9
 20
102.7
 30
0.0
 11
99.875
 21
102.7
 31
0.0
  0
LINE
  8
0
  6
CONTINUOUS
 62
     2
 10
99.9
 20
100.425
 30
0.0
 11
100.1
 21
100.625
 31
0.0
  0
LINE
  8
0
  6
CONTINUOUS
 62
     2
 10
99.9
 20
100.425
 30
0.0
 11
98.9
 21
100.425
 31
0.0
  0
LINE
  8
0
  6
CONTINUOUS
 62
     2
 10
98.9
 20
100.425
 30
0.0
 11
98.9
 21
103.525
 31
0.0
  0
LINE
  8
0
  6
CONTINUOUS
 62
     2
 10
100.1
 20
103.325
 30
0.0
 11
100.1
 21
100.625
 31
0.0
  0
LINE
  8
0
  6
CONTINUOUS
 62
     2
 10
100.1
 20
102.725
 30
0.0
 11
102.55
 21
102.725
 31
0.0
  0
LINE
  8
0
  6
CONTINUOUS
 62
     2
 10
102.53
 20
102.55
 30
0.0
 11
100.1
 21
102.55
 31
0.0
  0
LINE
  8
0
  6
CONTINUOUS
 62
     2
 10
98.9
 20
103.525
 30
0.0
 11
98.6
 21
103.825
 31
0.0
  0
LINE
  8
0
  6
CONTINUOUS
 62
     2
 10
98.6
 20
103.825
 30
0.0
 11
98.6
 21
100.125
 31
0.0
  0
LINE
  8
0
  6
CONTINUOUS
 62
     2
 10
98.9
 20
100.425
 30
0.0
 11
98.6
 21
100.125
 31
0.0
  0
LINE
  8
0
  6
CONTINUOUS
 62
     2
 10
98.6
 20
101.45
 30
0.0
 11
97.55
 21
101.45
 31
0.0
  0
LINE
  8
0
  6
CONTINUOUS
 62
     2
 10
97.55
 20
102.7
 30
0.0
 11
98.6
 21
102.7
 31
0.0
  0
LINE
  8
0
  6
CONTINUOUS
 62
     2
 10
98.6
 20
102.55
 30
0.0
 11
97.55
 21
102.55
 31
0.0
  0
LINE
  8
0
  6
CONTINUOUS
 62
     2
 10
102.55
 20
102.725
 30
0.0
 11
102.55
 21
101.275
 31
0.0
  0
LINE
  8
0
  6
CONTINUOUS
 62
     2
 10
102.55
 20
101.275
 30
0.0
 11
100.1
 21
101.275
 31
0.0
  0
LINE
  8
0
  6
CONTINUOUS
 62
     2
 10
100.1
 20
101.45
 30
0.0
 11
102.55
 21
101.45
 31
0.0
  0
LINE
  8
0
  6
CONTINUOUS
 62
     2
 10
99.885
 20
101.275
 30
0.0
 11
98.9
 21
101.275
 31
0.0
  0
LINE
  8
0
  6
CONTINUOUS
 62
     2
 10
97.55
 20
101.275
 30
0.0
 11
98.6
 21
101.275
 31
0.0
  0
LINE
  8
0
  6
CONTINUOUS
 62
     2
 10
99.885
 20
101.275
 30
0.0
 11
100.085
 21
101.475
 31
0.0
  0
LINE
  8
0
  6
CONTINUOUS
 62
     2
 10
100.085
 20
101.075
 30
0.0
 11
99.885
 21
101.275
 31
0.0
  0
LINE
  8
0
  6
CONTINUOUS
 62
     2
 10
168.75
 20
120.025
 30
0.0
 11
166.996298557
 21
119.0125
 31
0.0
  0
LINE
  8
0
  6
CONTINUOUS
 62
     2
 10
166.996298557
 20
119.0125
 30
0.0
 11
166.996298557
 21
116.9875
 31
0.0
  0
LINE
  8
0
  6
CONTINUOUS
 62
     2
 10
166.996298557
 20
116.9875
 30
0.0
 11
168.75
 21
115.975
 31
0.0
  0
LINE
  8
0
  6
CONTINUOUS
 62
     2
 10
168.75
 20
115.975
 30
0.0
 11
170.503701443
 21
116.9875
 31
0.0
  0
LINE
  8
0
  6
CONTINUOUS
 62
     2
 10
170.503701443
 20
116.9875
 30
0.0
 11
170.503701443
 21
119.0125
 31
0.0
  0
LINE
  8
0
  6
CONTINUOUS
 62
     2
 10
170.503701443
 20
119.0125
 30
0.0
 11
168.75
 21
120.025
 31
0.0
  0
CIRCLE
  8
0
  6
CONTINUOUS
 62
     2
 10
168.75
 20
118.0
 30
0.0
 40
0.8
  0
CIRCLE
  8
0
  6
CONTINUOUS
 62
     2
 10
168.75
 20
118.0
 30
0.0
 40
1.0
  0
ARC
  8
0
  6
LTYPE1
 62
     2
 10
168.75
 20
118.0
 30
0.0
 40
1.975
 50
328.025496594
 51
217.415803658
  0
LINE
  8
0
  6
LTYPE1
 62
     2
 10
170.318637944
 20
116.8
 30
0.0
 11
169.66147392
 21
115.850763076
 31
0.0
  0
LINE
  8
0
  6
LTYPE1
 62
     2
 10
167.181362056
 20
116.8
 30
0.0
 11
167.838529527
 21
115.850758098
 31
0.0
  0
ARC
  8
0
  6
LTYPE1
 62
     2
 10
166.194145143
 20
114.71233814
 30
0.0
 40
2.0
 50
10.612929601
 51
34.695153531
  0
ARC
  8
0
  6
LTYPE1
 62
     2
 10
171.305858303
 20
114.712343118
 30
0.0
 40
2.0
 50
145.304846469
 51
169.387402194
  0
LINE
  8
0
  6
LTYPE1
 62
     2
 10
169.340068544
 20
115.080678053
 30
0.0
 11
169.250002697
 21
114.6
 31
0.0
  0
LINE
  8
0
  6
LTYPE1
 62
     2
 10
168.159932769
 20
115.080684458
 30
0.0
 11
168.250002697
 21
114.6
 31
0.0
  0
CIRCLE
  8
0
  6
CONTINUOUS
 62
     2
 10
168.75
 20
118.0
 30
0.0
 40
2.25
  0
LINE
  8
0
  6
CONTINUOUS
 62
     2
 10
181.25
 20
120.025
 30
0.0
 11
179.496298557
 21
119.0125
 31
0.0
  0
LINE
  8
0
  6
CONTINUOUS
 62
     2
 10
179.496298557
 20
119.0125
 30
0.0
 11
179.496298557
 21
116.9875
 31
0.0
  0
LINE
  8
0
  6
CONTINUOUS
 62
     2
 10
179.496298557
 20
116.9875
 30
0.0
 11
181.25
 21
115.975
 31
0.0
  0
LINE
  8
0
  6
CONTINUOUS
 62
     2
 10
181.25
 20
115.975
 30
0.0
 11
183.003701443
 21
116.9875
 31
0.0
  0
LINE
  8
0
  6
CONTINUOUS
 62
     2
 10
183.003701443
 20
116.9875
 30
0.0
 11
183.003701443
 21
119.0125
 31
0.0
  0
LINE
  8
0
  6
CONTINUOUS
 62
     2
 10
183.003701443
 20
119.0125
 30
0.0
 11
181.25
 21
120.025
 31
0.0
  0
CIRCLE
  8
0
  6
CONTINUOUS
 62
     2
 10
181.25
 20
118.0
 30
0.0
 40
0.8
  0
CIRCLE
  8
0
  6
CONTINUOUS
 62
     2
 10
181.25
 20
118.0
 30
0.0
 40
1.0
  0
ARC
  8
0
  6
LTYPE1
 62
     2
 10
181.25
 20
118.0
 30
0.0
 40
1.975
 50
328.025496594
 51
217.415803658
  0
LINE
  8
0
  6
LTYPE1
 62
     2
 10
182.818637944
 20
116.8
 30
0.0
 11
182.16147392
 21
115.850763076
 31
0.0
  0
LINE
  8
0
  6
LTYPE1
 62
     2
 10
179.681362056
 20
116.8
 30
0.0
 11
180.338529527
 21
115.850758098
 31
0.0
  0
ARC
  8
0
  6
LTYPE1
 62
     2
 10
178.694145143
 20
114.71233814
 30
0.0
 40
2.0
 50
10.612929601
 51
34.695153531
  0
ARC
  8
0
  6
LTYPE1
 62
     2
 10
183.805858303
 20
114.712343118
 30
0.0
 40
2.0
 50
145.304846469
 51
169.387402194
  0
LINE
  8
0
  6
LTYPE1
 62
     2
 10
181.840068544
 20
115.080678053
 30
0.0
 11
181.750002697
 21
114.6
 31
0.0
  0
LINE
  8
0
  6
LTYPE1
 62
     2
 10
180.659932769
 20
115.080684458
 30
0.0
 11
180.750002697
 21
114.6
 31
0.0
  0
CIRCLE
  8
0
  6
CONTINUOUS
 62
     2
 10
181.25
 20
118.0
 30
0.0
 40
2.25
  0
LINE
  8
0
  6
CONTINUOUS
 62
     2
 10
145.025
 20
120.0
 30
0.0
 11
145.672047613
 21
122.414814566
 31
0.0
  0
LINE
  8
0
  6
CONTINUOUS
 62
     2
 10
145.025
 20
120.0
 30
0.0
 11
144.377952387
 21
122.414814566
 31
0.0
  0
LINE
  8
0
  6
CONTINUOUS
 62
     2
 10
145.025
 20
118.0
 30
0.0
 11
144.377952387
 21
115.585185434
 31
0.0
  0
LINE
  8
0
  6
CONTINUOUS
 62
     2
 10
145.025
 20
118.0
 30
0.0
 11
145.672047613
 21
115.585185434
 31
0.0
  0
LINE
  8
0
  6
LTYPE2
 62
     2
 10
111.25
 20
118.0
 30
0.0
 11
120.25
 21
118.0
 31
0.0
  0
LINE
  8
0
  6
LTYPE1
 62
     2
 10
112.55
 20
112.05
 30
0.0
 11
112.8
 21
112.05
 31
0.0
  0
LINE
  8
0
  6
CONTINUOUS
 62
     2
 10
112.55
 20
120.05
 30
0.0
 11
113.05
 21
120.05
 31
0.0
  0
LINE
  8
0
  6
CONTINUOUS
 62
     2
 10
113.05
 20
116.05
 30
0.0
 11
112.55
 21
116.05
 31
0.0
  0
LINE
  8
0
  6
CONTINUOUS
 62
     2
 10
113.05
 20
120.05
 30
0.0
 11
113.05
 21
116.05
 31
0.0
  0
LINE
  8
0
  6
CONTINUOUS
 62
     2
 10
113.05
 20
119.85
 30
0.0
 11
113.05
 21
119.975
 31
0.0
  0
LINE
  8
0
  6
LTYPE1
 62
     2
 10
113.45
 20
119.975
 30
0.0
 11
113.45
 21
114.6
 31
0.0
  0
LINE
  8
0
  6
LTYPE1
 62
     2
 10
113.05
 20
119.975
 30
0.0
 11
113.45
 21
119.975
 31
0.0
  0
LINE
  8
0
  6
LTYPE1
 62
     2
 10
112.55
 20
114.6
 30
0.0
 11
115.05
 21
114.6
 31
0.0
  0
LINE
  8
0
  6
LTYPE1
 62
     2
 10
115.05
 20
114.6
 30
0.0
 11
115.05
 21
111.6
 31
0.0
  0
LINE
  8
0
  6
LTYPE1
 62
     2
 10
113.05
 20
116.05
 30
0.0
 11
113.05
 21
114.6
 31
0.0
  0
ARC
  8
0
  6
LTYPE1
 62
     2
 10
116.55
 20
118.5
 30
0.0
 40
3.0
 50
0.0
 51
90.0
  0
LINE
  8
0
  6
LTYPE1
 62
     2
 10
112.55
 20
120.9
 30
0.0
 11
112.8
 21
120.9
 31
0.0
  0
LINE
  8
0
  6
LTYPE1
 62
     2
 10
112.8
 20
110.0
 30
0.0
 11
112.8
 21
120.9
 31
0.0
  0
LINE
  8
0
  6
LTYPE1
 62
     2
 10
112.55
 20
121.5
 30
0.0
 11
116.55
 21
121.5
 31
0.0
  0
LINE
  8
0
  6
LTYPE1
 62
     2
 10
119.55
 20
118.5
 30
0.0
 11
119.55
 21
113.0
 31
0.0
  0
LINE
  8
0
  6
LTYPE1
 62
     2
 10
116.55
 20
110.0
 30
0.0
 11
112.55
 21
110.0
 31
0.0
  0
ARC
  8
0
  6
LTYPE1
 62
     2
 10
116.55
 20
113.0
 30
0.0
 40
3.0
 50
270.0
 51
0.0
  0
LINE
  8
0
  6
CONTINUOUS
 62
     2
 10
116.372253903
 20
120.1
 30
0.0
 11
115.122253903
 21
120.1
 31
0.0
  0
LINE
  8
0
  6
CONTINUOUS
 62
     2
 10
116.372253903
 20
120.1
 30
0.0
 11
116.622253903
 21
119.85
 31
0.0
  0
LINE
  8
0
  6
CONTINUOUS
 62
     2
 10
114.45
 20
119.85
 30
0.0
 11
114.95
 21
119.85
 31
0.0
  0
LINE
  8
0
  6
CONTINUOUS
 62
     2
 10
114.95
 20
119.85
 30
0.0
 11
114.65
 21
118.2
 31
0.0
  0
LINE
  8
0
  6
CONTINUOUS
 62
     2
 10
114.65
 20
118.2
 30
0.0
 11
114.15
 21
118.2
 31
0.0
  0
LINE
  8
0
  6
CONTINUOUS
 62
     2
 10
114.15
 20
118.2
 30
0.0
 11
114.45
 21
119.85
 31
0.0
  0
LINE
  8
0
  6
CONTINUOUS
 62
     2
 10
116.362253903
 20
119.035
 30
0.0
 11
116.622253903
 21
119.335
 31
0.0
  0
LINE
  8
0
  6
CONTINUOUS
 62
     2
 10
114.763636364
 20
118.825
 30
0.0
 11
115.122253903
 21
118.825
 31
0.0
  0
LINE
  8
0
  6
CONTINUOUS
 62
     2
 10
114.9
 20
117.9
 30
0.0
 11
114.4
 21
117.9
 31
0.0
  0
LINE
  8
0
  6
CONTINUOUS
 62
     2
 10
116.622253903
 20
117.325
 30
0.0
 11
116.322253903
 21
117.055
 31
0.0
  0
LINE
  8
0
  6
CONTINUOUS
 62
     2
 10
115.122253903
 20
117.325
 30
0.0
 11
114.822253903
 21
117.325
 31
0.0
  0
LINE
  8
0
  6
CONTINUOUS
 62
     2
 10
116.322253903
 20
116.025
 30
0.0
 11
116.622253903
 21
116.325
 31
0.0
  0
LINE
  8
0
  6
CONTINUOUS
 62
     2
 10
115.122253903
 20
116.05
 30
0.0
 11
116.372253903
 21
116.05
 31
0.0
  0
LINE
  8
0
  6
CONTINUOUS
 62
     2
 10
114.15
 20
116.3
 30
0.0
 11
114.65
 21
116.3
 31
0.0
  0
LINE
  8
0
  6
CONTINUOUS
 62
     2
 10
114.4
 20
117.9
 30
0.0
 11
114.15
 21
116.3
 31
0.0
  0
LINE
  8
0
  6
CONTINUOUS
 62
     2
 10
114.65
 20
116.3
 30
0.0
 11
114.9
 21
117.9
 31
0.0
  0
LINE
  8
0
  6
CONTINUOUS
 62
     2
 10
115.122253903
 20
120.1
 30
0.0
 11
115.122253903
 21
116.05
 31
0.0
  0
LINE
  8
0
  6
CONTINUOUS
 62
     2
 10
116.622253903
 20
116.305
 30
0.0
 11
116.622253903
 21
119.85
 31
0.0
  0
LINE
  8
0
  6
CONTINUOUS
 62
     2
 10
116.375253903
 20
119.05
 30
0.0
 11
116.625253903
 21
118.85
 31
0.0
  0
LINE
  8
0
  6
CONTINUOUS
 62
     2
 10
116.222253903
 20
119.05
 30
0.0
 11
116.375253903
 21
119.05
 31
0.0
  0
LINE
  8
0
  6
CONTINUOUS
 62
     2
 10
114.804545455
 20
119.05
 30
0.0
 11
116.375253903
 21
119.05
 31
0.0
  0
LINE
  8
0
  6
CONTINUOUS
 62
     2
 10
116.622253903
 20
116.75
 30
0.0
 11
116.322253903
 21
117.02
 31
0.0
  0
LINE
  8
0
  6
CONTINUOUS
 62
     2
 10
116.316698348
 20
117.05
 30
0.0
 11
114.7671875
 21
117.05
 31
0.0
  0
LINE
  8
0
  6
CONTINUOUS
 62
     2
 10
118.5
 20
118.825
 30
0.0
 11
116.622253903
 21
118.825
 31
0.0
  0
LINE
  8
0
  6
CONTINUOUS
 62
     2
 10
116.622253903
 20
119.05
 30
0.0
 11
118.5
 21
119.05
 31
0.0
  0
LINE
  8
0
  6
CONTINUOUS
 62
     2
 10
116.622253903
 20
117.325
 30
0.0
 11
118.5
 21
117.325
 31
0.0
  0
LINE
  8
0
  6
CONTINUOUS
 62
     2
 10
118.5
 20
117.05
 30
0.0
 11
116.622253903
 21
117.05
 31
0.0
  0
LINE
  8
0
  6
CONTINUOUS
 62
     2
 10
113.45
 20
115.75
 30
0.0
 11
113.675
 21
115.75
 31
0.0
  0
LINE
  8
0
  6
CONTINUOUS
 62
     2
 10
113.675
 20
115.75
 30
0.0
 11
113.675
 21
120.25
 31
0.0
  0
LINE
  8
0
  6
CONTINUOUS
 62
     2
 10
113.675
 20
120.25
 30
0.0
 11
113.45
 21
120.25
 31
0.0
  0
LINE
  8
0
  6
CONTINUOUS
 62
     2
 10
113.45
 20
120.25
 30
0.0
 11
113.45
 21
115.75
 31
0.0
  0
LINE
  8
0
  6
CONTINUOUS
 62
     2
 10
113.45
 20
119.05
 30
0.0
 11
113.05
 21
119.05
 31
0.0
  0
LINE
  8
0
  6
CONTINUOUS
 62
     2
 10
114.3044
 20
119.05
 30
0.0
 11
113.675
 21
119.05
 31
0.0
  0
LINE
  8
0
  6
CONTINUOUS
 62
     2
 10
113.45
 20
118.825
 30
0.0
 11
113.05
 21
118.825
 31
0.0
  0
LINE
  8
0
  6
CONTINUOUS
 62
     2
 10
114.3044
 20
118.825
 30
0.0
 11
113.675
 21
118.825
 31
0.0
  0
LINE
  8
0
  6
CONTINUOUS
 62
     2
 10
113.45
 20
117.325
 30
0.0
 11
113.05
 21
117.325
 31
0.0
  0
LINE
  8
0
  6
CONTINUOUS
 62
     2
 10
114.3044
 20
117.325
 30
0.0
 11
113.675
 21
117.325
 31
0.0
  0
LINE
  8
0
  6
CONTINUOUS
 62
     2
 10
113.45
 20
117.05
 30
0.0
 11
113.05
 21
117.05
 31
0.0
  0
LINE
  8
0
  6
CONTINUOUS
 62
     2
 10
114.2044
 20
117.05
 30
0.0
 11
113.675
 21
117.05
 31
0.0
  0
LINE
  8
0
  6
CONTINUOUS
 62
     2
 10
118.5
 20
119.05
 30
0.0
 11
118.5
 21
117.05
 31
0.0
  0
LINE
  8
0
  6
CONTINUOUS
 62
     2
 10
175.0
 20
155.75
 30
0.0
 11
172.585185434
 21
156.397047613
 31
0.0
  0
LINE
  8
0
  6
CONTINUOUS
 62
     2
 10
175.0
 20
155.75
 30
0.0
 11
172.585185434
 21
155.102952387
 31
0.0
  0
LINE
  8
0
  6
CONTINUOUS
 62
     2
 10
175.0
 20
155.75
 30
0.0
 11
159.0
 21
155.75
 31
0.0
  0
LINE
  8
0
  6
CONTINUOUS
 62
     2
 10
159.0
 20
155.75
 30
0.0
 11
161.414814566
 21
155.102952387
 31
0.0
  0
LINE
  8
0
  6
CONTINUOUS
 62
     2
 10
159.0
 20
155.75
 30
0.0
 11
161.414814566
 21
156.397047613
 31
0.0
  0
TEXT
  8
0
  6
CONTINUOUS
 62
     2
 10
166.4
 20
156.75
 30
0.3
 40
1.8
  1
±０．５
 50
0.0
 41
0.666666667
 51
0.0
  7
KANJI6
  0
LINE
  8
0
  6
CONTINUOUS
 62
     2
 10
175.0
 20
155.75
 30
0.0
 11
177.414814566
 21
155.102952387
 31
0.0
  0
LINE
  8
0
  6
CONTINUOUS
 62
     2
 10
175.0
 20
155.75
 30
0.0
 11
177.414814566
 21
156.397047613
 31
0.0
  0
LINE
  8
0
  6
CONTINUOUS
 62
     2
 10
175.0
 20
155.75
 30
0.0
 11
191.0
 21
155.75
 31
0.0
  0
LINE
  8
0
  6
CONTINUOUS
 62
     2
 10
191.0
 20
155.75
 30
0.0
 11
188.585185434
 21
156.397047613
 31
0.0
  0
LINE
  8
0
  6
CONTINUOUS
 62
     2
 10
191.0
 20
155.75
 30
0.0
 11
188.585185434
 21
155.102952387
 31
0.0
  0
TEXT
  8
0
  6
CONTINUOUS
 62
     2
 10
182.4
 20
156.75
 30
0.3
 40
1.8
  1
±０．５
 50
0.0
 41
0.666666667
 51
0.0
  7
KANJI6
  0
TEXT
  8
0
  6
CONTINUOUS
 62
     2
 10
161.9
 20
156.75
 30
0.5
 40
3.0
  1
３２
 50
0.0
 41
0.666666667
 51
0.0
  7
KANJI5
  0
TEXT
  8
0
  6
CONTINUOUS
 62
     2
 10
177.9
 20
156.75
 30
0.5
 40
3.0
  1
３２
 50
0.0
 41
0.666666667
 51
0.0
  7
KANJI5
  0
LINE
  8
0
  6
CONTINUOUS
 62
     2
 10
150.0
 20
160.75
 30
0.0
 11
152.414814566
 21
160.102952387
 31
0.0
  0
LINE
  8
0
  6
CONTINUOUS
 62
     2
 10
150.0
 20
160.75
 30
0.0
 11
152.414814566
 21
161.397047613
 31
0.0
  0
LINE
  8
0
  6
CONTINUOUS
 62
     2
 10
150.0
 20
160.75
 30
0.0
 11
200.0
 21
160.75
 31
0.0
  0
LINE
  8
0
  6
CONTINUOUS
 62
     2
 10
200.0
 20
160.75
 30
0.0
 11
197.585185434
 21
161.397047613
 31
0.0
  0
LINE
  8
0
  6
CONTINUOUS
 62
     2
 10
200.0
 20
160.75
 30
0.0
 11
197.585185434
 21
160.102952387
 31
0.0
  0
LINE
  8
0
  6
CONTINUOUS
 62
     2
 10
150.0
 20
139.7
 30
0.0
 11
150.0
 21
162.75
 31
0.0
  0
LINE
  8
0
  6
CONTINUOUS
 62
     2
 10
159.0
 20
137.4
 30
0.0
 11
159.0
 21
157.75
 31
0.0
  0
LINE
  8
0
  6
CONTINUOUS
 62
     2
 10
97.55
 20
154.275
 30
0.0
 11
97.55
 21
157.75
 31
0.0
  0
LINE
  8
0
  6
CONTINUOUS
 62
     2
 10
97.3
 20
155.75
 30
0.0
 11
94.885185434
 21
156.397047613
 31
0.0
  0
LINE
  8
0
  6
CONTINUOUS
 62
     2
 10
97.3
 20
155.75
 30
0.0
 11
94.885185434
 21
155.102952387
 31
0.0
  0
LINE
  8
0
  6
CONTINUOUS
 62
     2
 10
97.3
 20
155.75
 30
0.0
 11
93.25
 21
155.75
 31
0.0
  0
TEXT
  8
0
  6
CONTINUOUS
 62
     2
 10
92.275
 20
156.75
 30
0.3
 40
3.0
  1
０．５　
 50
0.0
 41
0.3
 51
0.0
  7
KANJI7
  0
TEXT
  8
0
  6
CONTINUOUS
 62
     2
 10
99.15
 20
156.75
 30
0.3
 40
3.0
  1
１０
 50
0.0
 41
0.3
 51
0.0
  7
KANJI7
  0
LINE
  8
0
  6
CONTINUOUS
 62
     2
 10
97.55
 20
155.75
 30
0.0
 11
99.374524064
 21
155.26112025
 31
0.0
  0
LINE
  8
0
  6
CONTINUOUS
 62
     2
 10
97.55
 20
155.75
 30
0.0
 11
99.394524064
 21
156.244238733
 31
0.0
  0
LINE
  8
0
  6
CONTINUOUS
 62
     2
 10
102.55
 20
155.75
 30
0.0
 11
100.764524064
 21
156.228416835
 31
0.0
  0
LINE
  8
0
  6
CONTINUOUS
 62
     2
 10
102.55
 20
155.75
 30
0.0
 11
100.764524064
 21
155.271583165
 31
0.0
  0
LINE
  8
0
  6
CONTINUOUS
 62
     2
 10
107.55
 20
160.75
 30
0.0
 11
123.5
 21
160.75
 31
0.0
  0
TEXT
  8
0
  6
CONTINUOUS
 62
     2
 10
112.405
 20
161.75
 30
0.3
 40
3.0
  1
１１
 50
0.0
 41
0.6
 51
0.0
  7
KANJI1
  0
TEXT
  8
0
  6
CONTINUOUS
 62
     2
 10
116.305
 20
161.75
 30
0.18
 40
1.8
  1
±１
 50
0.0
 41
0.6
 51
0.0
  7
KANJI4
  0
LINE
  8
0
  6
CONTINUOUS
 62
     2
 10
118.5
 20
160.75
 30
0.0
 11
120.914814566
 21
160.102952387
 31
0.0
  0
LINE
  8
0
  6
CONTINUOUS
 62
     2
 10
118.5
 20
160.75
 30
0.0
 11
120.914814566
 21
161.397047613
 31
0.0
  0
LINE
  8
0
  6
CONTINUOUS
 62
     2
 10
97.55
 20
160.75
 30
0.0
 11
112.55
 21
160.75
 31
0.0
  0
LINE
  8
0
  6
CONTINUOUS
 62
     2
 10
112.55
 20
160.75
 30
0.0
 11
110.135185434
 21
161.397047613
 31
0.0
  0
LINE
  8
0
  6
CONTINUOUS
 62
     2
 10
112.55
 20
160.75
 30
0.0
 11
110.135185434
 21
160.102952387
 31
0.0
  0
TEXT
  8
0
  6
CONTINUOUS
 62
     2
 10
103.1
 20
161.75
 30
0.3
 40
3.0
  1
３０
 50
0.0
 41
0.6
 51
0.0
  7
KANJI1
  0
LINE
  8
0
  6
CONTINUOUS
 62
     2
 10
97.55
 20
160.75
 30
0.0
 11
99.964814566
 21
160.102952387
 31
0.0
  0
LINE
  8
0
  6
CONTINUOUS
 62
     2
 10
97.55
 20
160.75
 30
0.0
 11
99.964814566
 21
161.397047613
 31
0.0
  0
LINE
  8
0
  6
CONTINUOUS
 62
     2
 10
112.55
 20
160.75
 30
0.0
 11
110.135185434
 21
160.102952387
 31
0.0
  0
LINE
  8
0
  6
CONTINUOUS
 62
     2
 10
112.55
 20
160.75
 30
0.0
 11
110.135185434
 21
161.397047613
 31
0.0
  0
LINE
  8
0
  6
CONTINUOUS
 62
     2
 10
91.3
 20
160.75
 30
0.0
 11
93.714814566
 21
160.102952387
 31
0.0
  0
LINE
  8
0
  6
CONTINUOUS
 62
     2
 10
91.3
 20
160.75
 30
0.0
 11
93.714814566
 21
161.397047613
 31
0.0
  0
LINE
  8
0
  6
CONTINUOUS
 62
     2
 10
91.3
 20
160.75
 30
0.0
 11
97.55
 21
160.75
 31
0.0
  0
LINE
  8
0
  6
CONTINUOUS
 62
     2
 10
97.55
 20
160.75
 30
0.0
 11
95.135185434
 21
160.102952387
 31
0.0
  0
LINE
  8
0
  6
CONTINUOUS
 62
     2
 10
97.55
 20
160.75
 30
0.0
 11
95.135185434
 21
161.397047613
 31
0.0
  0
TEXT
  8
0
  6
CONTINUOUS
 62
     2
 10
92.025
 20
161.8
 30
0.3
 40
3.0
  1
１２．５
 50
0.0
 41
0.3
 51
0.0
  7
KANJI7
  0
LINE
  8
0
  6
CONTINUOUS
 62
     2
 10
118.5
 20
130.1
 30
0.0
 11
118.5
 21
162.75
 31
0.0
  0
LINE
  8
0
  6
CONTINUOUS
 62
     2
 10
102.55
 20
155.75
 30
0.0
 11
97.3
 21
155.75
 31
0.0
  0
LINE
  8
0
  6
CONTINUOUS
 62
     2
 10
91.3
 20
139.7
 30
0.0
 11
91.3
 21
162.75
 31
0.0
  0
LINE
  8
0
  6
CONTINUOUS
 62
     2
 10
97.55
 20
136.5
 30
0.0
 11
97.55
 21
162.75
 31
0.0
  0
LINE
  8
0
  6
CONTINUOUS
 62
     2
 10
97.3
 20
157.75
 30
0.0
 11
97.3
 21
141.8
 31
0.0
  0
LINE
  8
0
  6
CONTINUOUS
 62
     2
 10
102.55
 20
136.5
 30
0.0
 11
102.55
 21
157.75
 31
0.0
  0
LINE
  8
0
  6
CONTINUOUS
 62
     2
 10
112.55
 20
134.6
 30
0.0
 11
112.55
 21
162.75
 31
0.0
  0
LINE
  8
0
  6
CONTINUOUS
 62
     2
 10
168.8
 20
124.0
 30
0.0
 11
169.966131255
 21
126.211365618
 31
0.0
  0
LINE
  8
0
  6
CONTINUOUS
 62
     2
 10
168.8
 20
124.0
 30
0.0
 11
168.704216483
 21
126.49816443
 31
0.0
  0
LINE
  8
0
  6
CONTINUOUS
 62
     2
 10
50.6
 20
103.5
 30
0.0
 11
49.19218721
 21
101.434070876
 31
0.0
  0
LINE
  8
0
  6
CONTINUOUS
 62
     2
 10
50.6
 20
103.5
 30
0.0
 11
50.413762922
 21
101.006946501
 31
0.0
  0
LINE
  8
0
  6
CONTINUOUS
 62
     2
 10
50.6
 20
103.5
 30
0.0
 11
45.6
 21
89.2
 31
0.0
  0
LINE
  8
0
  6
CONTINUOUS
 62
     2
 10
45.6
 20
89.2
 30
0.0
 11
23.3
 21
89.2
 31
0.0
  0
TEXT
  8
0
  6
CONTINUOUS
 62
     2
 10
23.3
 20
90.2
 30
0.1
 40
3.0
  1
機械的零位調整器
 50
0.0
 41
0.9
 51
0.0
  7
KANJI8
  0
LINE
  8
0
  6
CONTINUOUS
 62
     2
 10
100.2
 20
100.3
 30
0.0
 11
100.601822151
 21
97.832503504
 31
0.0
  0
LINE
  8
0
  6
CONTINUOUS
 62
     2
 10
100.2
 20
100.3
 30
0.0
 11
101.781736439
 21
98.363996426
 31
0.0
  0
LINE
  8
0
  6
CONTINUOUS
 62
     2
 10
100.2
 20
100.3
 30
0.0
 11
105.2
 21
89.2
 31
0.0
  0
LINE
  8
0
  6
CONTINUOUS
 62
     2
 10
116.9
 20
121.3
 30
0.0
 11
119.065063509
 21
122.55
 31
0.0
  0
LINE
  8
0
  6
CONTINUOUS
 62
     2
 10
116.9
 20
121.3
 30
0.0
 11
118.15
 21
123.465063509
 31
0.0
  0
LINE
  8
0
  6
CONTINUOUS
 62
     2
 10
116.9
 20
121.3
 30
0.0
 11
121.9
 21
126.3
 31
0.0
  0
LINE
  8
0
  6
CONTINUOUS
 62
     2
 10
33.5
 20
128.5
 30
0.0
 11
34.512082367
 21
130.785976658
 31
0.0
  0
LINE
  8
0
  6
CONTINUOUS
 62
     2
 10
33.5
 20
128.5
 30
0.0
 11
33.233500711
 21
130.985755042
 31
0.0
  0
LINE
  8
0
  6
CONTINUOUS
 62
     2
 10
33.5
 20
128.5
 30
0.0
 11
38.5
 21
160.5
 31
0.0
  0
LINE
  8
0
  6
CONTINUOUS
 62
     2
 10
38.5
 20
160.5
 30
0.0
 11
44.0
 21
160.5
 31
0.0
  0
TEXT
  8
0
  6
CONTINUOUS
 62
     2
 10
38.5
 20
161.5
 30
0.1
 40
3.0
  1
指針
 50
0.0
 41
0.9
 51
0.0
  7
KANJI8
  0
LINE
  8
0
  6
CONTINUOUS
 62
     2
 10
68.4
 20
42.2
 30
0.0
 11
68.810206921
 21
39.733883563
 31
0.0
  0
LINE
  8
0
  6
CONTINUOUS
 62
     2
 10
68.4
 20
42.2
 30
0.0
 11
69.988307833
 21
40.269383977
 31
0.0
  0
LINE
  8
0
  6
CONTINUOUS
 62
     2
 10
68.4
 20
42.2
 30
0.0
 11
73.4
 21
31.2
 31
0.0
  0
TEXT
  8
0
  6
CONTINUOUS
 62
     2
 10
73.03846745
 20
32.15
 30
0.1
 40
3.0
  1
４－φ４
 50
0.0
 41
0.9
 51
0.0
  7
KANJI8
  0
TEXT
  8
0
  6
CONTINUOUS
 62
     2
 10
84.20846745
 20
31.8
 30
0.18
 40
1.8
  1
－０
 50
0.0
 41
0.6
 51
0.0
  7
KANJI4
  0
TEXT
  8
0
  6
CONTINUOUS
 62
     2
 10
84.20846745
 20
33.6
 30
0.18
 40
1.8
  1
＋０．５
 50
0.0
 41
0.6
 51
0.0
  7
KANJI4
  0
LINE
  8
0
  6
CONTINUOUS
 62
     2
 10
73.4
 20
31.2
 30
0.0
 11
89.4
 21
31.2
 31
0.0
  0
TEXT
  8
0
  6
CONTINUOUS
 62
     1
 10
42.65
 20
24.65
 30
0.5
 40
3.0
  1
パネルカット
 50
0.0
 41
0.9
 51
0.0
  7
KANJI0
  0
LINE
  8
0
  6
CONTINUOUS
 62
     1
 10
40.85
 20
22.55
 30
0.0
 11
63.05
 21
22.55
 31
0.0
  0
LINE
  8
0
  6
CONTINUOUS
 62
     2
 10
175.7
 20
122.0
 30
0.0
 11
175.422006206
 21
119.515504186
 31
0.0
  0
LINE
  8
0
  6
CONTINUOUS
 62
     2
 10
175.7
 20
122.0
 30
0.0
 11
176.701498219
 21
119.709366612
 31
0.0
  0
LINE
  8
0
  6
CONTINUOUS
 62
     2
 10
175.7
 20
122.0
 30
0.0
 11
180.7
 21
89.0
 31
0.0
  0
LINE
  8
0
  6
CONTINUOUS
 62
     2
 10
180.7
 20
89.0
 30
0.0
 11
203.0
 21
89.0
 31
0.0
  0
TEXT
  8
0
  6
CONTINUOUS
 62
     2
 10
183.257713984
 20
94.25
 30
0.3
 40
3.0
  1
注１
 50
0.0
 41
0.9
 51
0.0
  7
KANJI3
  0
TEXT
  8
0
  6
CONTINUOUS
 62
     2
 10
105.2
 20
90.2
 30
0.1
 40
3.0
  1
Ｍ３取付ボルト
 50
0.0
 41
0.9
 51
0.0
  7
KANJI8
  0
POINT
  8
0
  6
CONTINUOUS
 62
     2
 10
128.4
 20
89.1
 30
0.0
  0
POINT
  8
0
  6
CONTINUOUS
 62
     2
 10
128.4
 20
89.1
 30
0.0
  0
POINT
  8
0
  6
CONTINUOUS
 62
     2
 10
128.4
 20
89.1
 30
0.0
  0
POINT
  8
0
  6
CONTINUOUS
 62
     2
 10
128.4
 20
89.1
 30
0.0
  0
LINE
  8
0
  6
CONTINUOUS
 62
     2
 10
117.7
 20
117.0
 30
0.0
 11
117.937157546
 21
114.511274162
 31
0.0
  0
LINE
  8
0
  6
CONTINUOUS
 62
     2
 10
117.7
 20
117.0
 30
0.0
 11
119.149747379
 21
114.963278974
 31
0.0
  0
LINE
  8
0
  6
CONTINUOUS
 62
     2
 10
117.7
 20
117.0
 30
0.0
 11
128.1
 21
89.1
 31
0.0
  0
LINE
  8
0
  6
CONTINUOUS
 62
     2
 10
128.1
 20
89.1
 30
0.0
 11
164.4
 21
89.1
 31
0.0
  0
TEXT
  8
0
  6
CONTINUOUS
 62
     2
 10
128.1
 20
90.1
 30
0.1
 40
3.0
  1
Ｍ４（Ｍ５）ターミナルネジ
 50
0.0
 41
0.9
 51
0.0
  7
KANJI8
  0
TEXT
  8
0
  6
CONTINUOUS
 62
     2
 10
127.936111258
 20
94.475
 30
0.3
 40
3.0
  1
注２
 50
0.0
 41
0.9
 51
0.0
  7
KANJI3
  0
LINE
  8
0
  6
CONTINUOUS
 62
     2
 10
105.2
 20
89.2
 30
0.0
 11
124.4
 21
89.2
 31
0.0
  0
TEXT
  8
0
  6
CONTINUOUS
 62
     2
 10
121.9
 20
127.3
 30
0.1
 40
3.0
  1
端子キャップ
 50
0.0
 41
0.9
 51
0.0
  7
KANJI8
  0
LINE
  8
0
  6
CONTINUOUS
 62
     2
 10
121.9
 20
126.3
 30
0.0
 11
138.9
 21
126.3
 31
0.0
  0
TEXT
  8
0
  6
CONTINUOUS
 62
     2
 10
121.356
 20
130.585
 30
0.1
 40
3.0
  1
（オプション）
 50
0.0
 41
0.9
 51
0.0
  7
KANJI8
  0
TEXT
  8
0
  6
CONTINUOUS
 62
     2
 10
181.7
 20
90.0
 30
0.1
 40
3.0
  1
感度調整用抵抗器
 50
0.0
 41
0.9
 51
0.0
  7
KANJI8
  0
LINE
  8
0
  6
CONTINUOUS
 62
     2
 10
175.0
 20
151.0
 30
0.0
 11
175.0
 21
157.75
 31
0.0
  0
LINE
  8
0
  6
CONTINUOUS
 62
     2
 10
191.0
 20
151.5
 30
0.0
 11
191.0
 21
157.75
 31
0.0
  0
LINE
  8
0
  6
CONTINUOUS
 62
     2
 10
200.0
 20
151.0
 30
0.0
 11
200.0
 21
162.75
 31
0.0
  0
TEXT
  8
0
  6
CONTINUOUS
 62
     1
 10
117.5
 20
39.0
 30
0.4
 40
4.0
  1
□ＣＦ－１０
 50
0.0
 41
0.9
 51
0.0
  7
KANJI9
  0
TEXT
  8
0
  6
CONTINUOUS
 62
     1
 10
129.5
 20
29.0
 30
0.4
 40
4.0
  1
パネル用計器外形図
 50
0.0
 41
0.9
 51
0.0
  7
KANJI9
  0
TEXT
  8
0
  6
CONTINUOUS
 62
     2
 10
129.5
 20
33.5
 30
0.3
 40
3.0
  1
端子キャップ付（オプション）
 50
0.0
 41
0.9
 51
0.0
  7
KANJI3
  0
TEXT
  8
0
  6
CONTINUOUS
 62
     3
 10
178.0
 20
28.5
 30
0.6
 40
6.0
  1
ＭＳ－６７８６Ｂ
 50
0.0
 41
0.9
 51
0.0
  7
KANJI10
  0
LINE
  8
0
  6
LTYPE2
 62
     2
 10
80.6
 20
120.0
 30
0.0
 11
23.0
 21
120.0
 31
0.0
  0
LINE
  8
0
  6
LTYPE2
 62
     2
 10
122.7
 20
120.0
 30
0.0
 11
87.2
 21
120.0
 31
0.0
  0
LINE
  8
0
  6
LTYPE2
 62
     2
 10
202.0
 20
120.0
 30
0.0
 11
141.3
 21
120.0
 31
0.0
  0
LINE
  8
0
  6
LTYPE2
 62
     2
 10
175.0
 20
142.75
 30
0.0
 11
175.0
 21
95.6
 31
0.0
  0
LINE
  8
0
  6
LTYPE2
 62
     2
 10
52.0
 20
77.5
 30
0.0
 11
52.0
 21
39.9
 31
0.0
  0
TEXT
  8
0
  6
CONTINUOUS
 62
     2
 10
45.302637033
 20
50.281014126
 30
0.3
 40
3.0
  1
６７
 50
57.925999125
 41
0.6
 51
0.0
  7
KANJI1
  0
TEXT
  8
0
  6
CONTINUOUS
 62
     2
 10
47.288721789
 20
53.565191928
 30
0.18
 40
1.8
  1
±１
 50
57.925999125
 41
0.6
 51
0.0
  7
KANJI4
  0
LINE
  8
0
  6
CONTINUOUS
 62
     2
 10
179.3
 20
166.1
 30
0.0
 11
210.0
 21
166.1
 31
0.0
  0
TEXT
  8
0
  6
CONTINUOUS
 62
     2
 10
179.3
 20
167.1
 30
0.1
 40
3.0
  1
直流計器のみ＋記号表示
 50
0.0
 41
0.9
 51
0.0
  7
KANJI8
  0
LINE
  8
0
  6
CONTINUOUS
 62
     2
 10
175.0
 20
141.7
 30
0.0
 11
175.0
 21
151.0
 31
0.0
  0
LINE
  8
0
  6
CONTINUOUS
 62
     2
 10
191.0
 20
137.1
 30
0.0
 11
191.0
 21
151.5
 31
0.0
  0
LINE
  8
0
  6
CONTINUOUS
 62
     2
 10
200.0
 20
139.9
 30
0.0
 11
200.0
 21
151.0
 31
0.0
  0
LINE
  8
0
  6
CONTINUOUS
 62
     2
 10
168.8
 20
124.0
 30
0.0
 11
179.3
 21
166.1
 31
0.0
  0
TEXT
  8
0
  6
CONTINUOUS
 62
     2
 10
164.4
 20
161.75
 30
0.5
 40
3.0
  1
１００
 50
0.0
 41
0.666666667
 51
0.0
  7
KANJI5
  0
TEXT
  8
0
  6
CONTINUOUS
 62
     2
 10
171.3
 20
161.75
 30
0.3
 40
1.8
  1
±１
 50
0.0
 41
0.666666667
 51
0.0
  7
KANJI6
  0
ENDSEC
  0
EOF
