  0
SECTION
  2
HEADER
  9
$ACADVER
  1
AC1009
  9
$DWGCODEPAGE
  3
dos932
  9
$EXTMIN
 10
0.0
 20
0.0
 30
0.0
  9
$EXTMAX
 10
297.0
 20
210.0
 30
0.0
  9
$LIMMIN
 10
0.0
 20
0.0
  9
$LIMMAX
 10
297.0
 20
210.0
  9
$LTSCALE
 40
1.0
  9
$PDMODE
 70
     0
  0
ENDSEC
  0
SECTION
  2
TABLES
  0
TABLE
  2
VPORT
 70
     1
  0
VPORT
  2
*ACTIVE
 70
     0
 10
0.0
 20
0.0
 11
1.0
 21
1.0
 12
148.5
 22
105.0
 13
0.0
 23
0.0
 14
10.0
 24
10.0
 15
10.0
 25
10.0
 16
0.0
 26
0.0
 36
1.0
 17
0.0
 27
0.0
 37
0.0
 40
297.0
 41
1.414285714
 42
50.0
 43
0.0
 44
0.0
 50
0.0
 51
0.0
 71
     0
 72
  1000
 73
     1
 74
     3
 75
     0
 76
     0
 77
     0
 78
     0
  0
ENDTAB
  0
TABLE
  2
LTYPE
 70
     3
  0
LTYPE
  2
CONTINUOUS
 70
    64
  3
Solid line
 72
    65
 73
     0
 40
0.0
  0
LTYPE
  2
LTYPE1
 70
    64
  3
HIDDEN
 72
    65
 73
     2
 40
3.0
 49
1.8
 49
-1.2
  0
LTYPE
  2
LTYPE2
 70
    64
  3
CENTER
 72
    65
 73
     4
 40
15.0
 49
10.5
 49
-1.5
 49
1.5
 49
-1.5
  0
ENDTAB
  0
TABLE
  2
LAYER
 70
   128
  0
LAYER
  2
0
 70
     0
 62
     7
  6
CONTINUOUS
  0
LAYER
  2
2
 70
     0
 62
     7
  6
CONTINUOUS
  0
LAYER
  2
3
 70
     0
 62
     7
  6
CONTINUOUS
  0
LAYER
  2
4
 70
     0
 62
     7
  6
CONTINUOUS
  0
LAYER
  2
5
 70
     0
 62
     7
  6
CONTINUOUS
  0
LAYER
  2
6
 70
     0
 62
     7
  6
CONTINUOUS
  0
LAYER
  2
7
 70
     0
 62
     7
  6
CONTINUOUS
  0
LAYER
  2
8
 70
     0
 62
     7
  6
CONTINUOUS
  0
LAYER
  2
9
 70
     0
 62
     7
  6
CONTINUOUS
  0
LAYER
  2
10
 70
     0
 62
     7
  6
CONTINUOUS
  0
LAYER
  2
11
 70
     0
 62
     7
  6
CONTINUOUS
  0
LAYER
  2
12
 70
     0
 62
     7
  6
CONTINUOUS
  0
LAYER
  2
13
 70
     0
 62
     7
  6
CONTINUOUS
  0
LAYER
  2
14
 70
     0
 62
     7
  6
CONTINUOUS
  0
LAYER
  2
15
 70
     0
 62
     7
  6
CONTINUOUS
  0
LAYER
  2
16
 70
     0
 62
     7
  6
CONTINUOUS
  0
LAYER
  2
17
 70
     0
 62
     7
  6
CONTINUOUS
  0
LAYER
  2
18
 70
     0
 62
     7
  6
CONTINUOUS
  0
LAYER
  2
19
 70
     0
 62
     7
  6
CONTINUOUS
  0
LAYER
  2
20
 70
     0
 62
     7
  6
CONTINUOUS
  0
LAYER
  2
21
 70
     0
 62
     7
  6
CONTINUOUS
  0
LAYER
  2
22
 70
     0
 62
     7
  6
CONTINUOUS
  0
LAYER
  2
23
 70
     0
 62
     7
  6
CONTINUOUS
  0
LAYER
  2
24
 70
     0
 62
     7
  6
CONTINUOUS
  0
LAYER
  2
25
 70
     0
 62
     7
  6
CONTINUOUS
  0
LAYER
  2
26
 70
     0
 62
     7
  6
CONTINUOUS
  0
LAYER
  2
27
 70
     0
 62
     7
  6
CONTINUOUS
  0
LAYER
  2
28
 70
     0
 62
     7
  6
CONTINUOUS
  0
LAYER
  2
29
 70
     0
 62
     7
  6
CONTINUOUS
  0
LAYER
  2
30
 70
     0
 62
     7
  6
CONTINUOUS
  0
LAYER
  2
31
 70
     0
 62
     7
  6
CONTINUOUS
  0
LAYER
  2
32
 70
     0
 62
     7
  6
CONTINUOUS
  0
LAYER
  2
33
 70
     0
 62
     7
  6
CONTINUOUS
  0
LAYER
  2
34
 70
     0
 62
     7
  6
CONTINUOUS
  0
LAYER
  2
35
 70
     0
 62
     7
  6
CONTINUOUS
  0
LAYER
  2
36
 70
     0
 62
     7
  6
CONTINUOUS
  0
LAYER
  2
37
 70
     0
 62
     7
  6
CONTINUOUS
  0
LAYER
  2
38
 70
     0
 62
     7
  6
CONTINUOUS
  0
LAYER
  2
39
 70
     0
 62
     7
  6
CONTINUOUS
  0
LAYER
  2
40
 70
     0
 62
     7
  6
CONTINUOUS
  0
LAYER
  2
41
 70
     0
 62
     7
  6
CONTINUOUS
  0
LAYER
  2
42
 70
     0
 62
     7
  6
CONTINUOUS
  0
LAYER
  2
43
 70
     0
 62
     7
  6
CONTINUOUS
  0
LAYER
  2
44
 70
     0
 62
     7
  6
CONTINUOUS
  0
LAYER
  2
45
 70
     0
 62
     7
  6
CONTINUOUS
  0
LAYER
  2
46
 70
     0
 62
     7
  6
CONTINUOUS
  0
LAYER
  2
47
 70
     0
 62
     7
  6
CONTINUOUS
  0
LAYER
  2
48
 70
     0
 62
     7
  6
CONTINUOUS
  0
LAYER
  2
49
 70
     0
 62
     7
  6
CONTINUOUS
  0
LAYER
  2
50
 70
     0
 62
     7
  6
CONTINUOUS
  0
LAYER
  2
51
 70
     0
 62
     7
  6
CONTINUOUS
  0
LAYER
  2
52
 70
     0
 62
     7
  6
CONTINUOUS
  0
LAYER
  2
53
 70
     0
 62
     7
  6
CONTINUOUS
  0
LAYER
  2
54
 70
     0
 62
     7
  6
CONTINUOUS
  0
LAYER
  2
55
 70
     0
 62
     7
  6
CONTINUOUS
  0
LAYER
  2
56
 70
     0
 62
     7
  6
CONTINUOUS
  0
LAYER
  2
57
 70
     0
 62
     7
  6
CONTINUOUS
  0
LAYER
  2
58
 70
     0
 62
     7
  6
CONTINUOUS
  0
LAYER
  2
59
 70
     0
 62
     7
  6
CONTINUOUS
  0
LAYER
  2
60
 70
     0
 62
     7
  6
CONTINUOUS
  0
LAYER
  2
61
 70
     0
 62
     7
  6
CONTINUOUS
  0
LAYER
  2
62
 70
     0
 62
     7
  6
CONTINUOUS
  0
LAYER
  2
63
 70
     0
 62
     7
  6
CONTINUOUS
  0
LAYER
  2
64
 70
     0
 62
     7
  6
CONTINUOUS
  0
LAYER
  2
65
 70
     0
 62
     7
  6
CONTINUOUS
  0
LAYER
  2
66
 70
     0
 62
     7
  6
CONTINUOUS
  0
LAYER
  2
67
 70
     0
 62
     7
  6
CONTINUOUS
  0
LAYER
  2
68
 70
     0
 62
     7
  6
CONTINUOUS
  0
LAYER
  2
69
 70
     0
 62
     7
  6
CONTINUOUS
  0
LAYER
  2
70
 70
     0
 62
     7
  6
CONTINUOUS
  0
LAYER
  2
71
 70
     0
 62
     7
  6
CONTINUOUS
  0
LAYER
  2
72
 70
     0
 62
     7
  6
CONTINUOUS
  0
LAYER
  2
73
 70
     0
 62
     7
  6
CONTINUOUS
  0
LAYER
  2
74
 70
     0
 62
     7
  6
CONTINUOUS
  0
LAYER
  2
75
 70
     0
 62
     7
  6
CONTINUOUS
  0
LAYER
  2
76
 70
     0
 62
     7
  6
CONTINUOUS
  0
LAYER
  2
77
 70
     0
 62
     7
  6
CONTINUOUS
  0
LAYER
  2
78
 70
     0
 62
     7
  6
CONTINUOUS
  0
LAYER
  2
79
 70
     0
 62
     7
  6
CONTINUOUS
  0
LAYER
  2
80
 70
     0
 62
     7
  6
CONTINUOUS
  0
LAYER
  2
81
 70
     0
 62
     7
  6
CONTINUOUS
  0
LAYER
  2
82
 70
     0
 62
     7
  6
CONTINUOUS
  0
LAYER
  2
83
 70
     0
 62
     7
  6
CONTINUOUS
  0
LAYER
  2
84
 70
     0
 62
     7
  6
CONTINUOUS
  0
LAYER
  2
85
 70
     0
 62
     7
  6
CONTINUOUS
  0
LAYER
  2
86
 70
     0
 62
     7
  6
CONTINUOUS
  0
LAYER
  2
87
 70
     0
 62
     7
  6
CONTINUOUS
  0
LAYER
  2
88
 70
     0
 62
     7
  6
CONTINUOUS
  0
LAYER
  2
89
 70
     0
 62
     7
  6
CONTINUOUS
  0
LAYER
  2
90
 70
     0
 62
     7
  6
CONTINUOUS
  0
LAYER
  2
91
 70
     0
 62
     7
  6
CONTINUOUS
  0
LAYER
  2
92
 70
     0
 62
     7
  6
CONTINUOUS
  0
LAYER
  2
93
 70
     0
 62
     7
  6
CONTINUOUS
  0
LAYER
  2
94
 70
     0
 62
     7
  6
CONTINUOUS
  0
LAYER
  2
95
 70
     0
 62
     7
  6
CONTINUOUS
  0
LAYER
  2
96
 70
     0
 62
     7
  6
CONTINUOUS
  0
LAYER
  2
97
 70
     0
 62
     7
  6
CONTINUOUS
  0
LAYER
  2
98
 70
     0
 62
     7
  6
CONTINUOUS
  0
LAYER
  2
99
 70
     0
 62
     7
  6
CONTINUOUS
  0
LAYER
  2
100
 70
     0
 62
     7
  6
CONTINUOUS
  0
LAYER
  2
101
 70
     0
 62
     7
  6
CONTINUOUS
  0
LAYER
  2
102
 70
     0
 62
     7
  6
CONTINUOUS
  0
LAYER
  2
103
 70
     0
 62
     7
  6
CONTINUOUS
  0
LAYER
  2
104
 70
     0
 62
     7
  6
CONTINUOUS
  0
LAYER
  2
105
 70
     0
 62
     7
  6
CONTINUOUS
  0
LAYER
  2
106
 70
     0
 62
     7
  6
CONTINUOUS
  0
LAYER
  2
107
 70
     0
 62
     7
  6
CONTINUOUS
  0
LAYER
  2
108
 70
     0
 62
     7
  6
CONTINUOUS
  0
LAYER
  2
109
 70
     0
 62
     7
  6
CONTINUOUS
  0
LAYER
  2
110
 70
     0
 62
     7
  6
CONTINUOUS
  0
LAYER
  2
111
 70
     0
 62
     7
  6
CONTINUOUS
  0
LAYER
  2
112
 70
     0
 62
     7
  6
CONTINUOUS
  0
LAYER
  2
113
 70
     0
 62
     7
  6
CONTINUOUS
  0
LAYER
  2
114
 70
     0
 62
     7
  6
CONTINUOUS
  0
LAYER
  2
115
 70
     0
 62
     7
  6
CONTINUOUS
  0
LAYER
  2
116
 70
     0
 62
     7
  6
CONTINUOUS
  0
LAYER
  2
117
 70
     0
 62
     7
  6
CONTINUOUS
  0
LAYER
  2
118
 70
     0
 62
     7
  6
CONTINUOUS
  0
LAYER
  2
119
 70
     0
 62
     7
  6
CONTINUOUS
  0
LAYER
  2
120
 70
     0
 62
     7
  6
CONTINUOUS
  0
LAYER
  2
121
 70
     0
 62
     7
  6
CONTINUOUS
  0
LAYER
  2
122
 70
     0
 62
     7
  6
CONTINUOUS
  0
LAYER
  2
123
 70
     0
 62
     7
  6
CONTINUOUS
  0
LAYER
  2
124
 70
     0
 62
     7
  6
CONTINUOUS
  0
LAYER
  2
125
 70
     0
 62
     7
  6
CONTINUOUS
  0
LAYER
  2
126
 70
     0
 62
     7
  6
CONTINUOUS
  0
LAYER
  2
127
 70
     0
 62
     7
  6
CONTINUOUS
  0
LAYER
  2
128
 70
     0
 62
     7
  6
CONTINUOUS
  0
ENDTAB
  0
TABLE
  2
STYLE
 70
    10
  0
STYLE
  2
STANDARD
 70
     0
 40
0.0
 41
1.0
 50
0.0
 71
     0
 42
0.2
  3
txt.shx
  4
extfont.shx
  0
STYLE
  2
KANJI0
 70
     0
 40
3.0
 41
0.9
 50
0.0
 71
     0
 42
3.0
  3
txt.shx
  4
extfont.shx
  0
STYLE
  2
KANJI1
 70
     0
 40
3.0
 41
0.666666667
 50
0.0
 71
     0
 42
3.0
  3
txt.shx
  4
extfont.shx
  0
STYLE
  2
KANJI2
 70
     0
 40
3.0
 41
0.6
 50
0.0
 71
     0
 42
3.0
  3
txt.shx
  4
extfont.shx
  0
STYLE
  2
KANJI3
 70
     0
 40
1.8
 41
0.6
 50
0.0
 71
     0
 42
1.8
  3
txt.shx
  4
extfont.shx
  0
STYLE
  2
KANJI4
 70
     0
 40
3.0
 41
0.9
 50
0.0
 71
     0
 42
3.0
  3
txt.shx
  4
extfont.shx
  0
STYLE
  2
KANJI5
 70
     0
 40
1.8
 41
0.666666667
 50
0.0
 71
     0
 42
1.8
  3
txt.shx
  4
extfont.shx
  0
STYLE
  2
KANJI6
 70
     0
 40
3.5
 41
0.9
 50
0.0
 71
     0
 42
3.5
  3
txt.shx
  4
extfont.shx
  0
STYLE
  2
KANJI7
 70
     0
 40
6.0
 41
0.9
 50
0.0
 71
     0
 42
6.0
  3
txt.shx
  4
extfont.shx
  0
STYLE
  2
KANJI8
 70
     0
 40
3.0
 41
0.666666667
 50
0.0
 71
     0
 42
3.0
  3
txt.shx
  4
extfont.shx
  0
ENDTAB
  0
TABLE
  2
VIEW
 70
     0
  0
ENDTAB
  0
ENDSEC
  0
SECTION
  2
BLOCKS
  0
ENDSEC
  0
SECTION
  2
ENTITIES
  0
ARC
  8
0
  6
CONTINUOUS
 62
     1
 10
16.5
 20
144.375
 30
0.0
 40
1.625
 50
90.0
 51
180.0
  0
LINE
  8
0
  6
CONTINUOUS
 62
     1
 10
14.875
 20
144.375
 30
0.0
 11
14.875
 21
97.375
 31
0.0
  0
ARC
  8
0
  6
CONTINUOUS
 62
     1
 10
16.5
 20
97.375
 30
0.0
 40
1.625
 50
180.0
 51
270.0
  0
ARC
  8
0
  6
CONTINUOUS
 62
     1
 10
73.5
 20
144.375
 30
0.0
 40
1.625
 50
0.0
 51
90.0
  0
LINE
  8
0
  6
CONTINUOUS
 62
     1
 10
16.5
 20
146.0
 30
0.0
 11
73.500001349
 21
146.0
 31
0.0
  0
ARC
  8
0
  6
CONTINUOUS
 62
     1
 10
73.5
 20
97.375
 30
0.0
 40
1.625
 50
270.0
 51
0.0
  0
LINE
  8
0
  6
CONTINUOUS
 62
     1
 10
75.125
 20
97.375
 30
0.0
 11
75.125
 21
144.375
 31
0.0
  0
LINE
  8
0
  6
CONTINUOUS
 62
     1
 10
73.5
 20
95.75
 30
0.0
 11
16.5
 21
95.75
 31
0.0
  0
TEXT
  8
0
  6
CONTINUOUS
 62
     1
 10
37.05
 20
16.25
 30
0.5
 40
3.0
  1
パネルカット
 50
0.0
 41
0.9
 51
0.0
  7
KANJI0
  0
LINE
  8
0
  6
CONTINUOUS
 62
     1
 10
101.425898032
 20
96.675
 30
0.0
 11
101.425898032
 21
147.325
 31
0.0
  0
ARC
  8
0
  6
CONTINUOUS
 62
     1
 10
95.675898032
 20
146.0
 30
0.0
 40
0.25
 50
90.0
 51
180.0
  0
LINE
  8
0
  6
CONTINUOUS
 62
     1
 10
95.675898032
 20
146.25
 30
0.0
 11
101.425898032
 21
147.325
 31
0.0
  0
LINE
  8
0
  6
CONTINUOUS
 62
     1
 10
95.425898032
 20
114.5
 30
0.0
 11
95.425898032
 21
98.4
 31
0.0
  0
ARC
  8
0
  6
CONTINUOUS
 62
     1
 10
95.675898032
 20
98.0
 30
0.0
 40
0.25
 50
180.0
 51
270.0
  0
LINE
  8
0
  6
CONTINUOUS
 62
     1
 10
95.425898032
 20
98.0
 30
0.0
 11
95.425898032
 21
98.4
 31
0.0
  0
LINE
  8
0
  6
CONTINUOUS
 62
     1
 10
95.675898032
 20
97.75
 30
0.0
 11
101.425898032
 21
96.675
 31
0.0
  0
LINE
  8
0
  6
CONTINUOUS
 62
     1
 10
95.175898032
 20
145.6
 30
0.0
 11
95.425898032
 21
145.6
 31
0.0
  0
LINE
  8
0
  6
CONTINUOUS
 62
     1
 10
95.175898032
 20
114.5
 30
0.0
 11
95.425898032
 21
114.5
 31
0.0
  0
LINE
  8
0
  6
CONTINUOUS
 62
     1
 10
95.175898032
 20
114.5
 30
0.0
 11
95.175898032
 21
145.6
 31
0.0
  0
LINE
  8
0
  6
CONTINUOUS
 62
     1
 10
95.425898032
 20
146.0
 30
0.0
 11
95.425898032
 21
114.5
 31
0.0
  0
LINE
  8
0
  6
CONTINUOUS
 62
     1
 10
116.425898032
 20
139.064005183
 30
0.0
 11
105.375898032
 21
139.064005183
 31
0.0
  0
LINE
  8
0
  6
CONTINUOUS
 62
     1
 10
105.375898032
 20
138.43007779
 30
0.0
 11
116.425898032
 21
138.43007779
 31
0.0
  0
ARC
  8
0
  6
CONTINUOUS
 62
     1
 10
105.375886487
 20
137.521258549
 30
0.0
 40
1.542819241
 50
89.999680048
 51
92.265960215
  0
ARC
  8
0
  6
CONTINUOUS
 62
     1
 10
105.374900564
 20
137.546738559
 30
0.0
 40
1.517320173
 50
92.266801587
 51
94.557245347
  0
ARC
  8
0
  6
CONTINUOUS
 62
     1
 10
105.370870312
 20
137.59868326
 30
0.0
 40
1.465219478
 50
94.561537433
 51
96.904771356
  0
ARC
  8
0
  6
CONTINUOUS
 62
     1
 10
105.361899225
 20
137.674362804
 30
0.0
 40
1.389010326
 50
96.912696784
 51
99.339629848
  0
ARC
  8
0
  6
CONTINUOUS
 62
     1
 10
105.346467608
 20
137.769845033
 30
0.0
 40
1.292289526
 50
99.35153036
 51
101.896772376
  0
ARC
  8
0
  6
CONTINUOUS
 62
     1
 10
105.323552446
 20
137.880253982
 30
0.0
 40
1.179528203
 50
101.913178327
 51
104.616725243
  0
ARC
  8
0
  6
CONTINUOUS
 62
     1
 10
105.292712674
 20
138.000089853
 30
0.0
 40
1.055788357
 50
104.638385953
 51
107.547685994
  0
ARC
  8
0
  6
CONTINUOUS
 62
     1
 10
105.254134676
 20
138.123588348
 30
0.0
 40
0.926405563
 50
107.575635238
 51
110.748149946
  0
ARC
  8
0
  6
CONTINUOUS
 62
     1
 10
105.208633879
 20
138.245095034
 30
0.0
 40
0.796659995
 50
110.783760585
 51
114.290104874
  0
ARC
  8
0
  6
CONTINUOUS
 62
     1
 10
105.157613056
 20
138.359429808
 30
0.0
 40
0.671459222
 50
114.335179136
 51
118.262798214
  0
ARC
  8
0
  6
CONTINUOUS
 62
     1
 10
105.102979529
 20
138.462216065
 30
0.0
 40
0.555057031
 50
118.319632899
 51
122.776624606
  0
ARC
  8
0
  6
CONTINUOUS
 62
     1
 10
105.047027171
 20
138.550152805
 30
0.0
 40
0.450830604
 50
122.848029675
 51
127.965876919
  0
ARC
  8
0
  6
CONTINUOUS
 62
     1
 10
104.992290992
 20
138.621211085
 30
0.0
 40
0.361137045
 50
128.054997493
 51
133.987182929
  0
ARC
  8
0
  6
CONTINUOUS
 62
     1
 10
104.941384342
 20
138.674741802
 30
0.0
 40
0.28726794
 50
134.096852296
 51
141.007050686
  0
ARC
  8
0
  6
CONTINUOUS
 62
     1
 10
104.89683009
 20
138.711487707
 30
0.0
 40
0.229518502
 50
141.138143628
 51
149.167386643
  0
ARC
  8
0
  6
CONTINUOUS
 62
     1
 10
104.860896978
 20
138.733499626
 30
0.0
 40
0.187382696
 50
149.315402595
 51
158.516921708
  0
ARC
  8
0
  6
CONTINUOUS
 62
     1
 10
104.835451944
 20
138.743963455
 30
0.0
 40
0.159873853
 50
158.666803857
 51
168.91336424
  0
ARC
  8
0
  6
CONTINUOUS
 62
     1
 10
104.821837094
 20
138.746950078
 30
0.0
 40
0.145939118
 50
169.036186867
 51
179.949858579
  0
ARC
  8
0
  6
CONTINUOUS
 62
     1
 10
104.820777984
 20
138.747103393
 30
0.0
 40
0.144879955
 50
180.010123496
 51
191.003826113
  0
ARC
  8
0
  6
CONTINUOUS
 62
     1
 10
104.832331471
 20
138.749284956
 30
0.0
 40
0.156637441
 50
190.980484357
 51
201.439340733
  0
ARC
  8
0
  6
CONTINUOUS
 62
     1
 10
104.855881393
 20
138.758200604
 30
0.0
 40
0.181816903
 50
201.341920795
 51
210.825752625
  0
ARC
  8
0
  6
CONTINUOUS
 62
     1
 10
104.890182975
 20
138.778039881
 30
0.0
 40
0.221439568
 50
210.685890479
 51
219.008576846
  0
ARC
  8
0
  6
CONTINUOUS
 62
     1
 10
104.933448733
 20
138.812155348
 30
0.0
 40
0.276533775
 50
218.8586576
 51
226.037432731
  0
ARC
  8
0
  6
CONTINUOUS
 62
     1
 10
104.983466977
 20
138.862801177
 30
0.0
 40
0.347711417
 50
225.898182819
 51
232.059635038
  0
ARC
  8
0
  6
CONTINUOUS
 62
     1
 10
105.037746058
 20
138.930946344
 30
0.0
 40
0.434828131
 50
231.939883113
 51
237.246208867
  0
ARC
  8
0
  6
CONTINUOUS
 62
     1
 10
105.093675924
 20
139.016175408
 30
0.0
 40
0.536766589
 50
237.147396609
 51
241.75634172
  0
ARC
  8
0
  6
CONTINUOUS
 62
     1
 10
105.148696903
 20
139.116684511
 30
0.0
 40
0.651347169
 50
241.676538291
 51
245.725482688
  0
ARC
  8
0
  6
CONTINUOUS
 62
     1
 10
105.200464208
 20
139.229373131
 30
0.0
 40
0.775355045
 50
245.661705874
 51
249.2644276
  0
ARC
  8
0
  6
CONTINUOUS
 62
     1
 10
105.246997117
 20
139.350026997
 30
0.0
 40
0.904669073
 50
249.213726641
 51
252.46248751
  0
ARC
  8
0
  6
CONTINUOUS
 62
     1
 10
105.286802027
 20
139.473578359
 30
0.0
 40
1.034472425
 50
252.422331073
 51
255.391592271
  0
ARC
  8
0
  6
CONTINUOUS
 62
     1
 10
105.318961432
 20
139.594427077
 30
0.0
 40
1.15952551
 50
255.359950964
 51
258.110144945
  0
ARC
  8
0
  6
CONTINUOUS
 62
     1
 10
105.343183207
 20
139.706801418
 30
0.0
 40
1.274479467
 50
258.085440663
 51
260.666256829
  0
ARC
  8
0
  6
CONTINUOUS
 62
     1
 10
105.35980579
 20
139.805131479
 30
0.0
 40
1.374203683
 50
260.647292488
 51
263.100379027
  0
ARC
  8
0
  6
CONTINUOUS
 62
     1
 10
105.369760096
 20
139.884414014
 30
0.0
 40
1.454107922
 50
263.08627345
 51
265.44741567
  0
ARC
  8
0
  6
CONTINUOUS
 62
     1
 10
105.374490502
 20
139.940539543
 30
0.0
 40
1.510431864
 50
265.437531238
 51
267.738421945
  0
ARC
  8
0
  6
CONTINUOUS
 62
     1
 10
105.375840346
 20
139.970563104
 30
0.0
 40
1.540485315
 50
267.732321847
 51
270.002036011
  0
LINE
  8
0
  6
CONTINUOUS
 62
     1
 10
115.175898032
 20
139.064005183
 30
0.0
 11
115.175898032
 21
138.43007779
 31
0.0
  0
LINE
  8
0
  6
CONTINUOUS
 62
     1
 10
116.425898032
 20
136.696541817
 30
0.0
 11
105.375898032
 21
136.696541817
 31
0.0
  0
LINE
  8
0
  6
CONTINUOUS
 62
     1
 10
105.375898032
 20
135.773049604
 30
0.0
 11
116.425898032
 21
135.773049604
 31
0.0
  0
ARC
  8
0
  6
CONTINUOUS
 62
     1
 10
105.375889826
 20
135.635721758
 30
0.0
 40
1.060327846
 50
89.999556573
 51
93.298055383
  0
ARC
  8
0
  6
CONTINUOUS
 62
     1
 10
105.375188624
 20
135.648169336
 30
0.0
 40
1.047860544
 50
93.298934075
 51
96.622359801
  0
ARC
  8
0
  6
CONTINUOUS
 62
     1
 10
105.372322154
 20
135.673546249
 30
0.0
 40
1.022322377
 50
96.626800965
 51
100.004156386
  0
ARC
  8
0
  6
CONTINUOUS
 62
     1
 10
105.365941364
 20
135.71051901
 30
0.0
 40
0.984803323
 50
100.012250546
 51
103.473654636
  0
ARC
  8
0
  6
CONTINUOUS
 62
     1
 10
105.354965388
 20
135.757166458
 30
0.0
 40
0.936882382
 50
103.4855731
 51
107.062824853
  0
ARC
  8
0
  6
CONTINUOUS
 62
     1
 10
105.338666435
 20
135.811106448
 30
0.0
 40
0.880534231
 50
107.07880239
 51
110.805886452
  0
ARC
  8
0
  6
CONTINUOUS
 62
     1
 10
105.316730771
 20
135.869652005
 30
0.0
 40
0.818014915
 50
110.826222348
 51
114.739691212
  0
ARC
  8
0
  6
CONTINUOUS
 62
     1
 10
105.289290894
 20
135.929986779
 30
0.0
 40
0.751734342
 50
114.764727166
 51
118.903850182
  0
ARC
  8
0
  6
CONTINUOUS
 62
     1
 10
105.256926783
 20
135.989348123
 30
0.0
 40
0.684124704
 50
118.93393372
 51
123.340433719
  0
ARC
  8
0
  6
CONTINUOUS
 62
     1
 10
105.220636313
 20
136.045204973
 30
0.0
 40
0.617515212
 50
123.375863426
 51
128.09296741
  0
ARC
  8
0
  6
CONTINUOUS
 62
     1
 10
105.181776417
 20
136.095418739
 30
0.0
 40
0.554022384
 50
128.133888652
 51
133.20431248
  0
ARC
  8
0
  6
CONTINUOUS
 62
     1
 10
105.141979254
 20
136.13837631
 30
0.0
 40
0.495464821
 50
133.250569208
 51
138.712976931
  0
ARC
  8
0
  6
CONTINUOUS
 62
     1
 10
105.103048715
 20
136.173086206
 30
0.0
 40
0.443309377
 50
138.763885799
 51
144.647403099
  0
ARC
  8
0
  6
CONTINUOUS
 62
     1
 10
105.066844599
 20
136.199231464
 30
0.0
 40
0.398653414
 50
144.701487567
 51
151.018168627
  0
ARC
  8
0
  6
CONTINUOUS
 62
     1
 10
105.035162123
 20
136.217175763
 30
0.0
 40
0.362244
 50
151.07289733
 51
157.808836513
  0
ARC
  8
0
  6
CONTINUOUS
 62
     1
 10
105.009614637
 20
136.227922522
 30
0.0
 40
0.334529952
 50
157.860475252
 51
164.967550249
  0
ARC
  8
0
  6
CONTINUOUS
 62
     1
 10
104.991527788
 20
136.233029899
 30
0.0
 40
0.315737464
 50
165.011371364
 51
172.40296899
  0
ARC
  8
0
  6
CONTINUOUS
 62
     1
 10
104.981852065
 20
136.2344873
 30
0.0
 40
0.30595404
 50
172.433948745
 51
179.98833235
  0
ARC
  8
0
  6
CONTINUOUS
 62
     1
 10
104.981099724
 20
136.234562084
 30
0.0
 40
0.305201692
 50
180.002342808
 51
187.575375898
  0
ARC
  8
0
  6
CONTINUOUS
 62
     1
 10
104.989310722
 20
136.235626585
 30
0.0
 40
0.313481362
 50
187.570395656
 51
195.015264583
  0
ARC
  8
0
  6
CONTINUOUS
 62
     1
 10
105.006050042
 20
136.239978035
 30
0.0
 40
0.330776534
 50
194.992073715
 51
202.179900272
  0
ARC
  8
0
  6
CONTINUOUS
 62
     1
 10
105.030436597
 20
136.249663491
 30
0.0
 40
0.357015052
 50
202.141776619
 51
208.976488674
  0
ARC
  8
0
  6
CONTINUOUS
 62
     1
 10
105.061201793
 20
136.266322503
 30
0.0
 40
0.391999626
 50
208.928166209
 51
215.352177916
  0
ARC
  8
0
  6
CONTINUOUS
 62
     1
 10
105.096773267
 20
136.291057962
 30
0.0
 40
0.435324254
 50
215.298588406
 51
221.290124125
  0
ARC
  8
0
  6
CONTINUOUS
 62
     1
 10
105.135378175
 20
136.324344245
 30
0.0
 40
0.486296041
 50
221.235487449
 51
226.80096553
  0
ARC
  8
0
  6
CONTINUOUS
 62
     1
 10
105.17515905
 20
136.365978667
 30
0.0
 40
0.543878332
 50
226.748370394
 51
231.913427849
  0
ARC
  8
0
  6
CONTINUOUS
 62
     1
 10
105.214294382
 20
136.415079681
 30
0.0
 40
0.606665642
 50
231.864827939
 51
236.666341282
  0
ARC
  8
0
  6
CONTINUOUS
 62
     1
 10
105.251115784
 20
136.470132208
 30
0.0
 40
0.672895246
 50
236.622779571
 51
241.102853614
  0
ARC
  8
0
  6
CONTINUOUS
 62
     1
 10
105.284214039
 20
136.529076896
 30
0.0
 40
0.740495173
 50
241.064724353
 51
245.266698564
  0
ARC
  8
0
  6
CONTINUOUS
 62
     1
 10
105.31252661
 20
136.589437556
 30
0.0
 40
0.807164628
 50
245.233994788
 51
249.200091217
  0
ARC
  8
0
  6
CONTINUOUS
 62
     1
 10
105.335400965
 20
136.648478048
 30
0.0
 40
0.870480138
 50
249.172581698
 51
252.942729231
  0
ARC
  8
0
  6
CONTINUOUS
 62
     1
 10
105.352629288
 20
136.703378275
 30
0.0
 40
0.928019029
 50
252.920086664
 51
256.531515409
  0
ARC
  8
0
  6
CONTINUOUS
 62
     1
 10
105.364452369
 20
136.75141716
 30
0.0
 40
0.977490526
 50
256.513393669
 51
260.000701167
  0
ARC
  8
0
  6
CONTINUOUS
 62
     1
 10
105.371532479
 20
136.790150253
 30
0.0
 40
1.016864651
 50
259.986778312
 51
263.382265995
  0
ARC
  8
0
  6
CONTINUOUS
 62
     1
 10
105.374897006
 20
136.817569886
 30
0.0
 40
1.04448935
 50
263.372274388
 51
266.706429833
  0
ARC
  8
0
  6
CONTINUOUS
 62
     1
 10
105.375856989
 20
136.832237297
 30
0.0
 40
1.059187694
 50
266.70016975
 51
270.002220177
  0
LINE
  8
0
  6
CONTINUOUS
 62
     1
 10
115.175898032
 20
136.696541817
 30
0.0
 11
115.175898032
 21
135.773049604
 31
0.0
  0
LINE
  8
0
  6
CONTINUOUS
 62
     1
 10
105.375898032
 20
133.447585945
 30
0.0
 11
116.425898032
 21
133.447585945
 31
0.0
  0
LINE
  8
0
  6
CONTINUOUS
 62
     1
 10
116.425898032
 20
132.281867003
 30
0.0
 11
105.375898032
 21
132.281867003
 31
0.0
  0
ARC
  8
0
  6
CONTINUOUS
 62
     1
 10
105.375893581
 20
132.607999055
 30
0.0
 40
0.839867948
 50
89.999756031
 51
94.165455359
  0
ARC
  8
0
  6
CONTINUOUS
 62
     1
 10
105.375513569
 20
132.613338914
 30
0.0
 40
0.834514591
 50
94.166063823
 51
98.3487573
  0
ARC
  8
0
  6
CONTINUOUS
 62
     1
 10
105.373960041
 20
132.624225304
 30
0.0
 40
0.823518001
 50
98.351792132
 51
102.570854669
  0
ARC
  8
0
  6
CONTINUOUS
 62
     1
 10
105.370501987
 20
132.640086102
 30
0.0
 40
0.807284794
 50
102.576312193
 51
106.850992597
  0
ARC
  8
0
  6
CONTINUOUS
 62
     1
 10
105.364553556
 20
132.660097023
 30
0.0
 40
0.786408758
 50
106.858848307
 51
111.208138947
  0
ARC
  8
0
  6
CONTINUOUS
 62
     1
 10
105.355720385
 20
132.683236263
 30
0.0
 40
0.761641233
 50
111.21835928
 51
115.660786157
  0
ARC
  8
0
  6
CONTINUOUS
 62
     1
 10
105.343832522
 20
132.708350895
 30
0.0
 40
0.733855637
 50
115.673300985
 51
120.226599006
  0
ARC
  8
0
  6
CONTINUOUS
 62
     1
 10
105.328961789
 20
132.734232756
 30
0.0
 40
0.704006425
 50
120.241293048
 51
124.921941115
  0
ARC
  8
0
  6
CONTINUOUS
 62
     1
 10
105.311422659
 20
132.759696622
 30
0.0
 40
0.673087349
 50
124.938636916
 51
129.761224881
  0
ARC
  8
0
  6
CONTINUOUS
 62
     1
 10
105.291756012
 20
132.78365665
 30
0.0
 40
0.642090329
 50
129.779652294
 51
134.756067764
  0
ARC
  8
0
  6
CONTINUOUS
 62
     1
 10
105.270697476
 20
132.80519539
 30
0.0
 40
0.611968369
 50
134.775852338
 51
139.914299495
  0
ARC
  8
0
  6
CONTINUOUS
 62
     1
 10
105.249131621
 20
132.823620954
 30
0.0
 40
0.583603933
 50
139.934927211
 51
145.238828135
  0
ARC
  8
0
  6
CONTINUOUS
 62
     1
 10
105.228036246
 20
132.838508188
 30
0.0
 40
0.557785304
 50
145.259651608
 51
150.726529067
  0
ARC
  8
0
  6
CONTINUOUS
 62
     1
 10
105.208419165
 20
132.849721369
 30
0.0
 40
0.535190436
 50
150.746749672
 51
156.367253681
  0
ARC
  8
0
  6
CONTINUOUS
 62
     1
 10
105.191253018
 20
132.857416842
 30
0.0
 40
0.51637907
 50
156.385965788
 51
162.143250039
  0
ARC
  8
0
  6
CONTINUOUS
 62
     1
 10
105.177411717
 20
132.862025339
 30
0.0
 40
0.501791438
 50
162.159488627
 51
168.029161359
  0
ARC
  8
0
  6
CONTINUOUS
 62
     1
 10
105.167612983
 20
132.864215378
 30
0.0
 40
0.491751561
 50
168.041980219
 51
173.992811564
  0
ARC
  8
0
  6
CONTINUOUS
 62
     1
 10
105.162371273
 20
132.864840285
 30
0.0
 40
0.486473241
 50
174.00139913
 51
179.996851915
  0
ARC
  8
0
  6
CONTINUOUS
 62
     1
 10
105.161963748
 20
132.864872351
 30
0.0
 40
0.486065716
 50
180.000629092
 51
186.001113141
  0
ARC
  8
0
  6
CONTINUOUS
 62
     1
 10
105.166412043
 20
132.865328792
 30
0.0
 40
0.490537354
 50
185.99981437
 51
191.965388952
  0
ARC
  8
0
  6
CONTINUOUS
 62
     1
 10
105.175480725
 20
132.867194666
 30
0.0
 40
0.499795838
 50
191.959107664
 51
197.852237586
  0
ARC
  8
0
  6
CONTINUOUS
 62
     1
 10
105.188692974
 20
132.871347997
 30
0.0
 40
0.513645189
 50
197.841412899
 51
203.629366391
  0
ARC
  8
0
  6
CONTINUOUS
 62
     1
 10
105.205361935
 20
132.878492149
 30
0.0
 40
0.531780108
 50
203.614706612
 51
209.271284215
  0
ARC
  8
0
  6
CONTINUOUS
 62
     1
 10
105.224636024
 20
132.889100561
 30
0.0
 40
0.553780134
 50
209.253684658
 51
214.760131258
  0
ARC
  8
0
  6
CONTINUOUS
 62
     1
 10
105.245554765
 20
132.903377018
 30
0.0
 40
0.579105487
 50
214.740552783
 51
220.085683762
  0
ARC
  8
0
  6
CONTINUOUS
 62
     1
 10
105.267111579
 20
132.921234887
 30
0.0
 40
0.607097525
 50
220.06507254
 51
225.24477423
  0
ARC
  8
0
  6
CONTINUOUS
 62
     1
 10
105.288319297
 20
132.942296185
 30
0.0
 40
0.63698556
 50
225.223976324
 51
230.240297904
  0
ARC
  8
0
  6
CONTINUOUS
 62
     1
 10
105.308273547
 20
132.965911046
 30
0.0
 40
0.667901261
 50
230.220038585
 51
235.080095049
  0
ARC
  8
0
  6
CONTINUOUS
 62
     1
 10
105.326210472
 20
132.991196088
 30
0.0
 40
0.698901496
 50
235.060952745
 51
239.775808545
  0
ARC
  8
0
  6
CONTINUOUS
 62
     1
 10
105.341554118
 20
133.017089014
 30
0.0
 40
0.72899839
 50
239.758222005
 51
244.341874253
  0
ARC
  8
0
  6
CONTINUOUS
 62
     1
 10
105.353950689
 20
133.042415958
 30
0.0
 40
0.757195687
 50
244.32616445
 51
248.794686362
  0
ARC
  8
0
  6
CONTINUOUS
 62
     1
 10
105.363287517
 20
133.065967094
 30
0.0
 40
0.782529438
 50
248.781072964
 51
253.151935244
  0
ARC
  8
0
  6
CONTINUOUS
 62
     1
 10
105.369695023
 20
133.08657496
 30
0.0
 40
0.80410988
 50
253.140563289
 51
257.432129493
  0
ARC
  8
0
  6
CONTINUOUS
 62
     1
 10
105.373532091
 20
133.103190879
 30
0.0
 40
0.821162604
 50
257.4230888
 51
261.654258626
  0
ARC
  8
0
  6
CONTINUOUS
 62
     1
 10
105.375355499
 20
133.114953628
 30
0.0
 40
0.833065455
 50
261.64760227
 51
265.837574955
  0
ARC
  8
0
  6
CONTINUOUS
 62
     1
 10
105.375875795
 20
133.121245818
 30
0.0
 40
0.839378816
 50
265.833328511
 51
270.001456331
  0
LINE
  8
0
  6
CONTINUOUS
 62
     1
 10
115.175898032
 20
133.447585945
 30
0.0
 11
115.175898032
 21
132.281867003
 31
0.0
  0
LINE
  8
0
  6
CONTINUOUS
 62
     1
 10
105.375898032
 20
129.483678625
 30
0.0
 11
116.425898032
 21
129.483678625
 31
0.0
  0
LINE
  8
0
  6
CONTINUOUS
 62
     1
 10
116.425898032
 20
128.135487556
 30
0.0
 11
105.375898032
 21
128.135487556
 31
0.0
  0
ARC
  8
0
  6
CONTINUOUS
 62
     1
 10
105.375896979
 20
128.75661066
 30
0.0
 40
0.726876896
 50
89.999916959
 51
94.814592463
  0
ARC
  8
0
  6
CONTINUOUS
 62
     1
 10
105.375806528
 20
128.75770991
 30
0.0
 40
0.725773933
 50
94.81476062
 51
99.634094493
  0
ARC
  8
0
  6
CONTINUOUS
 62
     1
 10
105.375436781
 20
128.759951074
 30
0.0
 40
0.723502498
 50
99.634929122
 51
104.464136399
  0
ARC
  8
0
  6
CONTINUOUS
 62
     1
 10
105.374613735
 20
128.763216216
 30
0.0
 40
0.720135272
 50
104.465615314
 51
109.309672085
  0
ARC
  8
0
  6
CONTINUOUS
 62
     1
 10
105.373197973
 20
128.767335779
 30
0.0
 40
0.7157793
 50
109.311762372
 51
114.175280893
  0
ARC
  8
0
  6
CONTINUOUS
 62
     1
 10
105.371095634
 20
128.772099278
 30
0.0
 40
0.710572606
 50
114.177928545
 51
119.065031496
  0
ARC
  8
0
  6
CONTINUOUS
 62
     1
 10
105.368266312
 20
128.777269386
 30
0.0
 40
0.704679086
 50
119.068172145
 51
123.982372055
  0
ARC
  8
0
  6
CONTINUOUS
 62
     1
 10
105.364727084
 20
128.782597355
 30
0.0
 40
0.698282876
 50
123.985920137
 51
128.930005007
  0
ARC
  8
0
  6
CONTINUOUS
 62
     1
 10
105.360552821
 20
128.787839225
 30
0.0
 40
0.691582168
 50
128.933867214
 51
133.909796388
  0
ARC
  8
0
  6
CONTINUOUS
 62
     1
 10
105.355872337
 20
128.792771385
 30
0.0
 40
0.684782849
 50
133.913863032
 51
138.9226772
  0
ARC
  8
0
  6
CONTINUOUS
 62
     1
 10
105.350860635
 20
128.797205075
 30
0.0
 40
0.678091636
 50
138.926829789
 51
143.9685842
  0
ARC
  8
0
  6
CONTINUOUS
 62
     1
 10
105.345728367
 20
128.800997823
 30
0.0
 40
0.671710197
 50
143.972697897
 51
149.046420344
  0
ARC
  8
0
  6
CONTINUOUS
 62
     1
 10
105.340708135
 20
128.804062166
 30
0.0
 40
0.665828802
 50
149.05036229
 51
154.154046441
  0
ARC
  8
0
  6
CONTINUOUS
 62
     1
 10
105.336039798
 20
128.806370198
 30
0.0
 40
0.660621249
 50
154.1576876
 51
159.288322852
  0
ARC
  8
0
  6
CONTINUOUS
 62
     1
 10
105.33195481
 20
128.807954143
 30
0.0
 40
0.65624008
 50
159.291540918
 51
164.445184671
  0
ARC
  8
0
  6
CONTINUOUS
 62
     1
 10
105.328661095
 20
128.808902677
 30
0.0
 40
0.652812641
 50
164.447866043
 51
169.619758399
  0
ARC
  8
0
  6
CONTINUOUS
 62
     1
 10
105.326329375
 20
128.809353447
 30
0.0
 40
0.650437863
 50
169.621807548
 51
174.806526178
  0
ARC
  8
0
  6
CONTINUOUS
 62
     1
 10
105.325082058
 20
128.809482052
 30
0.0
 40
0.649184026
 50
174.807865133
 51
179.999514192
  0
ARC
  8
0
  6
CONTINUOUS
 62
     1
 10
105.324985107
 20
128.809488663
 30
0.0
 40
0.649087075
 50
180.000097719
 51
185.192522844
  0
ARC
  8
0
  6
CONTINUOUS
 62
     1
 10
105.326043624
 20
128.809582594
 30
0.0
 40
0.650149749
 50
185.192324249
 51
190.379342063
  0
ARC
  8
0
  6
CONTINUOUS
 62
     1
 10
105.328201607
 20
128.809966637
 30
0.0
 40
0.652341611
 50
190.378373031
 51
195.554002349
  0
ARC
  8
0
  6
CONTINUOUS
 62
     1
 10
105.331345641
 20
128.810821487
 30
0.0
 40
0.65559973
 50
195.552296585
 51
200.710977507
  0
ARC
  8
0
  6
CONTINUOUS
 62
     1
 10
105.335312302
 20
128.812291949
 30
0.0
 40
0.659830086
 50
200.708599088
 51
205.845390304
  0
ARC
  8
0
  6
CONTINUOUS
 62
     1
 10
105.339898978
 20
128.814475482
 30
0.0
 40
0.664909873
 50
205.842424913
 51
210.953167136
  0
ARC
  8
0
  6
CONTINUOUS
 62
     1
 10
105.344877157
 20
128.817414083
 30
0.0
 40
0.670690532
 50
210.94971982
 51
216.031161075
  0
ARC
  8
0
  6
CONTINUOUS
 62
     1
 10
105.350007295
 20
128.821089984
 30
0.0
 40
0.67700152
 50
216.027353896
 51
221.077231857
  0
ARC
  8
0
  6
CONTINUOUS
 62
     1
 10
105.355054447
 20
128.825425352
 30
0.0
 40
0.683654854
 50
221.073187732
 51
226.090271462
  0
ARC
  8
0
  6
CONTINUOUS
 62
     1
 10
105.359803369
 20
128.830286451
 30
0.0
 40
0.690450446
 50
226.086122965
 51
231.070213365
  0
ARC
  8
0
  6
CONTINUOUS
 62
     1
 10
105.364072281
 20
128.835491479
 30
0.0
 40
0.69718197
 50
231.066088952
 51
236.017985782
  0
ARC
  8
0
  6
CONTINUOUS
 62
     1
 10
105.367724047
 20
128.840821707
 30
0.0
 40
0.703642959
 50
236.014007715
 51
240.935448324
  0
ARC
  8
0
  6
CONTINUOUS
 62
     1
 10
105.370674451
 20
128.846035535
 30
0.0
 40
0.709633517
 50
240.931732809
 51
245.825307007
  0
ARC
  8
0
  6
CONTINUOUS
 62
     1
 10
105.372896653
 20
128.850883813
 30
0.0
 40
0.714966644
 50
245.821953243
 51
250.691003138
  0
ARC
  8
0
  6
CONTINUOUS
 62
     1
 10
105.374421672
 20
128.85512625
 30
0.0
 40
0.719474707
 50
250.688102853
 51
255.536609713
  0
ARC
  8
0
  6
CONTINUOUS
 62
     1
 10
105.375334931
 20
128.858546897
 30
0.0
 40
0.723015042
 50
255.534234724
 51
260.366699783
  0
ARC
  8
0
  6
CONTINUOUS
 62
     1
 10
105.375768909
 20
128.860968435
 30
0.0
 40
0.725475057
 50
260.364912192
 51
265.186232673
  0
ARC
  8
0
  6
CONTINUOUS
 62
     1
 10
105.375892735
 20
128.862263779
 30
0.0
 40
0.726776223
 50
265.185074807
 51
270.000417627
  0
LINE
  8
0
  6
CONTINUOUS
 62
     1
 10
115.175898032
 20
129.483678625
 30
0.0
 11
115.175898032
 21
128.135487556
 31
0.0
  0
LINE
  8
0
  6
CONTINUOUS
 62
     1
 10
105.375898032
 20
125.008009232
 30
0.0
 11
116.425898032
 21
125.008009232
 31
0.0
  0
LINE
  8
0
  6
CONTINUOUS
 62
     1
 10
116.425898032
 20
123.546454135
 30
0.0
 11
105.375898032
 21
123.546454135
 31
0.0
  0
ARC
  8
0
  6
CONTINUOUS
 62
     1
 10
105.375898032
 20
124.277454135
 30
0.0
 40
0.731
 50
90.000106212
 51
269.999893788
  0
LINE
  8
0
  6
CONTINUOUS
 62
     1
 10
115.175898032
 20
125.008009232
 30
0.0
 11
115.175898032
 21
123.546454135
 31
0.0
  0
LINE
  8
0
  6
CONTINUOUS
 62
     1
 10
104.598151936
 20
140.75
 30
0.0
 11
115.925898032
 21
140.75
 31
0.0
  0
LINE
  8
0
  6
CONTINUOUS
 62
     1
 10
115.925898032
 20
98.25
 30
0.0
 11
101.425898032
 21
98.25
 31
0.0
  0
ARC
  8
0
  6
CONTINUOUS
 62
     1
 10
115.925898032
 20
140.25
 30
0.0
 40
0.5
 50
0.0
 51
90.0
  0
LINE
  8
0
  6
CONTINUOUS
 62
     1
 10
116.425898032
 20
140.25
 30
0.0
 11
116.425898032
 21
98.75
 31
0.0
  0
ARC
  8
0
  6
CONTINUOUS
 62
     1
 10
115.925898032
 20
98.75
 30
0.0
 40
0.5
 50
270.0
 51
0.0
  0
CIRCLE
  8
0
  6
CONTINUOUS
 62
     1
 10
175.0
 20
119.5
 30
0.0
 40
21.25
  0
ARC
  8
0
  6
CONTINUOUS
 62
     1
 10
203.375
 20
144.25
 30
0.0
 40
1.625
 50
0.0
 51
90.0
  0
LINE
  8
0
  6
CONTINUOUS
 62
     1
 10
146.625
 20
145.875
 30
0.0
 11
203.375
 21
145.875
 31
0.0
  0
ARC
  8
0
  6
CONTINUOUS
 62
     1
 10
146.625
 20
144.25
 30
0.0
 40
1.625
 50
90.0
 51
180.0
  0
ARC
  8
0
  6
CONTINUOUS
 62
     1
 10
146.625
 20
97.5
 30
0.0
 40
1.625
 50
180.0
 51
270.0
  0
LINE
  8
0
  6
CONTINUOUS
 62
     1
 10
146.625
 20
95.875
 30
0.0
 11
203.375
 21
95.875
 31
0.0
  0
LINE
  8
0
  6
CONTINUOUS
 62
     1
 10
145.0
 20
144.25
 30
0.0
 11
145.0
 21
97.5
 31
0.0
  0
ARC
  8
0
  6
CONTINUOUS
 62
     1
 10
203.375
 20
97.5
 30
0.0
 40
1.625
 50
270.0
 51
0.0
  0
LINE
  8
0
  6
CONTINUOUS
 62
     1
 10
205.0
 20
97.5
 30
0.0
 11
205.0
 21
144.25
 31
0.0
  0
LINE
  8
0
  6
CONTINUOUS
 62
     1
 10
184.073286215
 20
137.183073892
 30
0.0
 11
184.654773682
 21
138.43007779
 31
0.0
  0
LINE
  8
0
  6
CONTINUOUS
 62
     1
 10
183.295312002
 20
139.064005183
 30
0.0
 11
182.713824534
 21
137.817001284
 31
0.0
  0
LINE
  8
0
  6
CONTINUOUS
 62
     1
 10
187.818564593
 20
134.688812553
 30
0.0
 11
188.665663416
 21
135.773049604
 31
0.0
  0
LINE
  8
0
  6
CONTINUOUS
 62
     1
 10
190.906765011
 20
131.415974651
 30
0.0
 11
191.976053014
 21
132.281867003
 31
0.0
  0
LINE
  8
0
  6
CONTINUOUS
 62
     1
 10
191.032072427
 20
133.447585945
 30
0.0
 11
189.962784424
 21
132.581693593
 31
0.0
  0
LINE
  8
0
  6
CONTINUOUS
 62
     1
 10
193.179586716
 20
127.532325432
 30
0.0
 11
194.416252334
 21
128.135487556
 31
0.0
  0
LINE
  8
0
  6
CONTINUOUS
 62
     1
 10
193.758695613
 20
129.483678625
 30
0.0
 11
192.522029995
 21
128.880516502
 31
0.0
  0
LINE
  8
0
  6
CONTINUOUS
 62
     1
 10
194.520525161
 20
123.236940253
 30
0.0
 11
195.861177074
 21
123.546454135
 31
0.0
  0
LINE
  8
0
  6
CONTINUOUS
 62
     1
 10
195.523750493
 20
125.008009232
 30
0.0
 11
194.183098579
 21
124.69849535
 31
0.0
  0
ARC
  8
0
  6
CONTINUOUS
 62
     1
 10
175.0
 20
119.5
 30
0.0
 40
19.875
 50
10.837381646
 51
15.162618354
  0
ARC
  8
0
  6
CONTINUOUS
 62
     1
 10
175.0
 20
119.5
 30
0.0
 40
19.875
 50
23.837381646
 51
28.162618354
  0
ARC
  8
0
  6
CONTINUOUS
 62
     1
 10
175.0
 20
119.5
 30
0.0
 40
19.875
 50
36.837381646
 51
41.162618354
  0
ARC
  8
0
  6
CONTINUOUS
 62
     1
 10
175.0
 20
119.5
 30
0.0
 40
19.875
 50
49.837381646
 51
54.162618354
  0
ARC
  8
0
  6
CONTINUOUS
 62
     1
 10
175.0
 20
119.5
 30
0.0
 40
19.875
 50
62.837381646
 51
67.162618354
  0
LINE
  8
0
  6
CONTINUOUS
 62
     1
 10
165.926713785
 20
137.183073892
 30
0.0
 11
165.345226318
 21
138.43007779
 31
0.0
  0
LINE
  8
0
  6
CONTINUOUS
 62
     1
 10
166.704687998
 20
139.064005183
 30
0.0
 11
167.286175466
 21
137.817001284
 31
0.0
  0
LINE
  8
0
  6
CONTINUOUS
 62
     1
 10
162.181435407
 20
134.688812553
 30
0.0
 11
161.334336584
 21
135.773049604
 31
0.0
  0
LINE
  8
0
  6
CONTINUOUS
 62
     1
 10
162.516352714
 20
136.696541817
 30
0.0
 11
163.363451538
 21
135.612304766
 31
0.0
  0
LINE
  8
0
  6
CONTINUOUS
 62
     1
 10
159.093234989
 20
131.415974651
 30
0.0
 11
158.023946986
 21
132.281867003
 31
0.0
  0
LINE
  8
0
  6
CONTINUOUS
 62
     1
 10
158.967927573
 20
133.447585945
 30
0.0
 11
160.037215576
 21
132.581693593
 31
0.0
  0
LINE
  8
0
  6
CONTINUOUS
 62
     1
 10
156.820413284
 20
127.532325432
 30
0.0
 11
155.583747666
 21
128.135487556
 31
0.0
  0
LINE
  8
0
  6
CONTINUOUS
 62
     1
 10
156.241304387
 20
129.483678625
 30
0.0
 11
157.477970005
 21
128.880516502
 31
0.0
  0
LINE
  8
0
  6
CONTINUOUS
 62
     1
 10
155.479474839
 20
123.236940253
 30
0.0
 11
154.138822926
 21
123.546454135
 31
0.0
  0
LINE
  8
0
  6
CONTINUOUS
 62
     1
 10
154.476249507
 20
125.008009232
 30
0.0
 11
155.816901421
 21
124.69849535
 31
0.0
  0
ARC
  8
0
  6
CONTINUOUS
 62
     1
 10
175.0
 20
119.5
 30
0.0
 40
19.875
 50
164.837381646
 51
169.162618354
  0
ARC
  8
0
  6
CONTINUOUS
 62
     1
 10
175.0
 20
119.5
 30
0.0
 40
19.875
 50
151.837381646
 51
156.162618354
  0
ARC
  8
0
  6
CONTINUOUS
 62
     1
 10
175.0
 20
119.5
 30
0.0
 40
19.875
 50
138.837381646
 51
143.162618354
  0
ARC
  8
0
  6
CONTINUOUS
 62
     1
 10
175.0
 20
119.5
 30
0.0
 40
19.875
 50
125.837381646
 51
130.162618354
  0
ARC
  8
0
  6
CONTINUOUS
 62
     1
 10
175.0
 20
119.5
 30
0.0
 40
19.875
 50
112.837381646
 51
117.162618354
  0
LINE
  8
0
  6
CONTINUOUS
 62
     1
 10
187.483647286
 20
136.696541817
 30
0.0
 11
186.636548462
 21
135.612304766
 31
0.0
  0
CIRCLE
  8
0
  6
CONTINUOUS
 62
     1
 10
45.0
 20
47.0
 30
0.0
 40
21.75
  0
CIRCLE
  8
0
  6
CONTINUOUS
 62
     1
 10
20.0
 20
69.5
 30
0.0
 40
1.25
  0
CIRCLE
  8
0
  6
CONTINUOUS
 62
     1
 10
70.0
 20
69.5
 30
0.0
 40
1.25
  0
CIRCLE
  8
0
  6
CONTINUOUS
 62
     1
 10
70.0
 20
29.5
 30
0.0
 40
1.25
  0
CIRCLE
  8
0
  6
CONTINUOUS
 62
     1
 10
20.0
 20
29.5
 30
0.0
 40
1.25
  0
ARC
  8
0
  6
CONTINUOUS
 62
     2
 10
16.5
 20
144.375
 30
0.0
 40
0.5
 50
90.0
 51
180.0
  0
ARC
  8
0
  6
CONTINUOUS
 62
     2
 10
17.35
 20
143.525
 30
0.0
 40
0.5
 50
90.0
 51
180.0
  0
LINE
  8
0
  6
CONTINUOUS
 62
     2
 10
17.35
 20
144.025
 30
0.0
 11
72.65
 21
144.025
 31
0.0
  0
LINE
  8
0
  6
CONTINUOUS
 62
     2
 10
16.85
 20
143.525
 30
0.0
 11
16.85
 21
113.375
 31
0.0
  0
ARC
  8
0
  6
CONTINUOUS
 62
     2
 10
73.5
 20
144.375
 30
0.0
 40
0.5
 50
0.0
 51
90.0
  0
ARC
  8
0
  6
CONTINUOUS
 62
     2
 10
72.65
 20
143.525
 30
0.0
 40
0.5
 50
0.0
 51
90.0
  0
LINE
  8
0
  6
CONTINUOUS
 62
     2
 10
73.15
 20
143.525
 30
0.0
 11
73.15
 21
113.375
 31
0.0
  0
LINE
  8
0
  6
CONTINUOUS
 62
     2
 10
16.5
 20
144.875
 30
0.0
 11
72.875
 21
144.875
 31
0.0
  0
LINE
  8
0
  6
CONTINUOUS
 62
     2
 10
73.5
 20
144.875
 30
0.0
 11
17.125
 21
144.875
 31
0.0
  0
LINE
  8
0
  6
CONTINUOUS
 62
     2
 10
74.0
 20
144.375
 30
0.0
 11
74.0
 21
97.375
 31
0.0
  0
LINE
  8
0
  6
CONTINUOUS
 62
     2
 10
73.15
 20
113.375
 30
0.0
 11
16.85
 21
113.375
 31
0.0
  0
ARC
  8
0
  6
CONTINUOUS
 62
     2
 10
16.5
 20
97.375
 30
0.0
 40
0.5
 50
180.0
 51
270.0
  0
LINE
  8
0
  6
CONTINUOUS
 62
     2
 10
16.0
 20
97.375
 30
0.0
 11
16.0
 21
144.375
 31
0.0
  0
ARC
  8
0
  6
CONTINUOUS
 62
     2
 10
73.5
 20
97.375
 30
0.0
 40
0.5
 50
270.0
 51
0.0
  0
LINE
  8
0
  6
CONTINUOUS
 62
     2
 10
16.5
 20
96.875
 30
0.0
 11
73.5
 21
96.875
 31
0.0
  0
CIRCLE
  8
0
  6
CONTINUOUS
 62
     2
 10
70.0
 20
110.375
 30
0.0
 40
1.5
  0
LINE
  8
0
  6
CONTINUOUS
 62
     2
 10
69.125
 20
110.575
 30
0.0
 11
69.6
 21
110.575
 31
0.0
  0
ARC
  8
0
  6
CONTINUOUS
 62
     2
 10
69.6
 20
110.775
 30
0.0
 40
0.2
 50
270.0
 51
0.0
  0
LINE
  8
0
  6
CONTINUOUS
 62
     2
 10
69.8
 20
110.775
 30
0.0
 11
69.8
 21
111.25
 31
0.0
  0
LINE
  8
0
  6
CONTINUOUS
 62
     2
 10
69.8
 20
111.25
 30
0.0
 11
70.2
 21
111.25
 31
0.0
  0
LINE
  8
0
  6
CONTINUOUS
 62
     2
 10
70.2
 20
111.25
 30
0.0
 11
70.2
 21
110.775
 31
0.0
  0
ARC
  8
0
  6
CONTINUOUS
 62
     2
 10
70.4
 20
110.775
 30
0.0
 40
0.2
 50
180.0
 51
270.0
  0
LINE
  8
0
  6
CONTINUOUS
 62
     2
 10
70.4
 20
110.575
 30
0.0
 11
70.875
 21
110.575
 31
0.0
  0
LINE
  8
0
  6
CONTINUOUS
 62
     2
 10
70.875
 20
110.575
 30
0.0
 11
70.875
 21
110.175
 31
0.0
  0
LINE
  8
0
  6
CONTINUOUS
 62
     2
 10
70.875
 20
110.175
 30
0.0
 11
70.4
 21
110.175
 31
0.0
  0
ARC
  8
0
  6
CONTINUOUS
 62
     2
 10
70.4
 20
109.975
 30
0.0
 40
0.2
 50
90.0
 51
180.0
  0
LINE
  8
0
  6
CONTINUOUS
 62
     2
 10
70.2
 20
109.975
 30
0.0
 11
70.2
 21
109.5
 31
0.0
  0
LINE
  8
0
  6
CONTINUOUS
 62
     2
 10
70.2
 20
109.5
 30
0.0
 11
69.8
 21
109.5
 31
0.0
  0
LINE
  8
0
  6
CONTINUOUS
 62
     2
 10
69.8
 20
109.5
 30
0.0
 11
69.8
 21
109.975
 31
0.0
  0
ARC
  8
0
  6
CONTINUOUS
 62
     2
 10
69.6
 20
109.975
 30
0.0
 40
0.2
 50
0.0
 51
90.0
  0
LINE
  8
0
  6
CONTINUOUS
 62
     2
 10
69.6
 20
110.175
 30
0.0
 11
69.125
 21
110.175
 31
0.0
  0
LINE
  8
0
  6
CONTINUOUS
 62
     2
 10
69.125
 20
110.175
 30
0.0
 11
69.125
 21
110.575
 31
0.0
  0
CIRCLE
  8
0
  6
CONTINUOUS
 62
     2
 10
20.0
 20
110.375
 30
0.0
 40
1.5
  0
LINE
  8
0
  6
CONTINUOUS
 62
     2
 10
19.125
 20
110.575
 30
0.0
 11
19.6
 21
110.575
 31
0.0
  0
ARC
  8
0
  6
CONTINUOUS
 62
     2
 10
19.6
 20
110.775
 30
0.0
 40
0.2
 50
270.0
 51
0.0
  0
LINE
  8
0
  6
CONTINUOUS
 62
     2
 10
19.8
 20
110.775
 30
0.0
 11
19.8
 21
111.25
 31
0.0
  0
LINE
  8
0
  6
CONTINUOUS
 62
     2
 10
19.8
 20
111.25
 30
0.0
 11
20.2
 21
111.25
 31
0.0
  0
LINE
  8
0
  6
CONTINUOUS
 62
     2
 10
20.2
 20
111.25
 30
0.0
 11
20.2
 21
110.775
 31
0.0
  0
ARC
  8
0
  6
CONTINUOUS
 62
     2
 10
20.4
 20
110.775
 30
0.0
 40
0.2
 50
180.0
 51
270.0
  0
LINE
  8
0
  6
CONTINUOUS
 62
     2
 10
20.4
 20
110.575
 30
0.0
 11
20.875
 21
110.575
 31
0.0
  0
LINE
  8
0
  6
CONTINUOUS
 62
     2
 10
20.875
 20
110.575
 30
0.0
 11
20.875
 21
110.175
 31
0.0
  0
LINE
  8
0
  6
CONTINUOUS
 62
     2
 10
20.875
 20
110.175
 30
0.0
 11
20.4
 21
110.175
 31
0.0
  0
ARC
  8
0
  6
CONTINUOUS
 62
     2
 10
20.4
 20
109.975
 30
0.0
 40
0.2
 50
90.0
 51
180.0
  0
LINE
  8
0
  6
CONTINUOUS
 62
     2
 10
20.2
 20
109.975
 30
0.0
 11
20.2
 21
109.5
 31
0.0
  0
LINE
  8
0
  6
CONTINUOUS
 62
     2
 10
20.2
 20
109.5
 30
0.0
 11
19.8
 21
109.5
 31
0.0
  0
LINE
  8
0
  6
CONTINUOUS
 62
     2
 10
19.8
 20
109.5
 30
0.0
 11
19.8
 21
109.975
 31
0.0
  0
ARC
  8
0
  6
CONTINUOUS
 62
     2
 10
19.6
 20
109.975
 30
0.0
 40
0.2
 50
0.0
 51
90.0
  0
LINE
  8
0
  6
CONTINUOUS
 62
     2
 10
19.6
 20
110.175
 30
0.0
 11
19.125
 21
110.175
 31
0.0
  0
LINE
  8
0
  6
CONTINUOUS
 62
     2
 10
19.125
 20
110.175
 30
0.0
 11
19.125
 21
110.575
 31
0.0
  0
CIRCLE
  8
0
  6
CONTINUOUS
 62
     2
 10
45.0
 20
100.425
 30
0.0
 40
1.8
  0
LINE
  8
0
  6
CONTINUOUS
 62
     2
 10
43.25
 20
100.225
 30
0.0
 11
46.7
 21
100.225
 31
0.0
  0
LINE
  8
0
  6
CONTINUOUS
 62
     2
 10
46.7
 20
100.625
 30
0.0
 11
43.25
 21
100.625
 31
0.0
  0
LINE
  8
0
  6
CONTINUOUS
 62
     2
 10
36.2
 20
15.55
 30
0.0
 11
55.55
 21
15.55
 31
0.0
  0
LINE
  8
0
  6
CONTINUOUS
 62
     2
 10
22.2
 20
128.125
 30
0.0
 11
36.05
 21
113.375
 31
0.0
  0
LINE
  8
0
  6
CONTINUOUS
 62
     2
 10
38.35
 20
113.375
 30
0.0
 11
22.25
 21
128.225
 31
0.0
  0
LINE
  8
0
  6
CONTINUOUS
 62
     2
 10
116.425898032
 20
97.75
 30
0.0
 11
116.425898032
 21
91.75
 31
0.0
  0
LINE
  8
0
  6
CONTINUOUS
 62
     2
 10
116.425898032
 20
93.75
 30
0.0
 11
118.840712598
 21
93.102952387
 31
0.0
  0
LINE
  8
0
  6
CONTINUOUS
 62
     2
 10
116.425898032
 20
93.75
 30
0.0
 11
118.840712598
 21
94.397047613
 31
0.0
  0
LINE
  8
0
  6
CONTINUOUS
 62
     2
 10
116.425898032
 20
93.75
 30
0.0
 11
123.425898032
 21
93.75
 31
0.0
  0
LINE
  8
0
  6
CONTINUOUS
 62
     2
 10
123.425898032
 20
93.75
 30
0.0
 11
121.011083467
 21
94.397047613
 31
0.0
  0
LINE
  8
0
  6
CONTINUOUS
 62
     2
 10
123.425898032
 20
93.75
 30
0.0
 11
121.011083467
 21
93.102952387
 31
0.0
  0
LINE
  8
0
  6
CONTINUOUS
 62
     2
 10
123.425898032
 20
109.5
 30
0.0
 11
123.425898032
 21
91.75
 31
0.0
  0
TEXT
  8
0
  6
CONTINUOUS
 62
     2
 10
117.775898032
 20
94.75
 30
0.3
 40
3.0
  1
１４
 50
0.0
 41
0.666666667
 51
0.0
  7
KANJI1
  0
LINE
  8
0
  6
CONTINUOUS
 62
     2
 10
111.425898032
 20
140.75
 30
0.0
 11
110.77885042
 21
138.335185434
 31
0.0
  0
LINE
  8
0
  6
CONTINUOUS
 62
     2
 10
111.425898032
 20
140.75
 30
0.0
 11
112.072945645
 21
138.335185434
 31
0.0
  0
LINE
  8
0
  6
CONTINUOUS
 62
     2
 10
111.425898032
 20
140.75
 30
0.0
 11
111.425898032
 21
98.25
 31
0.0
  0
LINE
  8
0
  6
CONTINUOUS
 62
     2
 10
111.425898032
 20
98.25
 30
0.0
 11
112.072945645
 21
100.664814566
 31
0.0
  0
LINE
  8
0
  6
CONTINUOUS
 62
     2
 10
111.425898032
 20
98.25
 30
0.0
 11
110.77885042
 21
100.664814566
 31
0.0
  0
LINE
  8
0
  6
CONTINUOUS
 62
     2
 10
150.0
 20
144.025
 30
0.0
 11
148.246298557
 21
143.0125
 31
0.0
  0
LINE
  8
0
  6
CONTINUOUS
 62
     2
 10
148.246298557
 20
143.0125
 30
0.0
 11
148.246298557
 21
140.9875
 31
0.0
  0
LINE
  8
0
  6
CONTINUOUS
 62
     2
 10
148.246298557
 20
140.9875
 30
0.0
 11
150.0
 21
139.975
 31
0.0
  0
LINE
  8
0
  6
CONTINUOUS
 62
     2
 10
150.0
 20
139.975
 30
0.0
 11
151.753701443
 21
140.9875
 31
0.0
  0
LINE
  8
0
  6
CONTINUOUS
 62
     2
 10
151.753701443
 20
140.9875
 30
0.0
 11
151.753701443
 21
143.0125
 31
0.0
  0
LINE
  8
0
  6
CONTINUOUS
 62
     2
 10
151.753701443
 20
143.0125
 30
0.0
 11
150.0
 21
144.025
 31
0.0
  0
CIRCLE
  8
0
  6
CONTINUOUS
 62
     2
 10
150.0
 20
142.0
 30
0.0
 40
0.8
  0
CIRCLE
  8
0
  6
CONTINUOUS
 62
     2
 10
150.0
 20
142.0
 30
0.0
 40
1.0
  0
LINE
  8
0
  6
CONTINUOUS
 62
     2
 10
200.0
 20
144.025
 30
0.0
 11
198.246298557
 21
143.0125
 31
0.0
  0
LINE
  8
0
  6
CONTINUOUS
 62
     2
 10
198.246298557
 20
143.0125
 30
0.0
 11
198.246298557
 21
140.9875
 31
0.0
  0
LINE
  8
0
  6
CONTINUOUS
 62
     2
 10
198.246298557
 20
140.9875
 30
0.0
 11
200.0
 21
139.975
 31
0.0
  0
LINE
  8
0
  6
CONTINUOUS
 62
     2
 10
200.0
 20
139.975
 30
0.0
 11
201.753701443
 21
140.9875
 31
0.0
  0
LINE
  8
0
  6
CONTINUOUS
 62
     2
 10
201.753701443
 20
140.9875
 30
0.0
 11
201.753701443
 21
143.0125
 31
0.0
  0
LINE
  8
0
  6
CONTINUOUS
 62
     2
 10
201.753701443
 20
143.0125
 30
0.0
 11
200.0
 21
144.025
 31
0.0
  0
CIRCLE
  8
0
  6
CONTINUOUS
 62
     2
 10
200.0
 20
142.0
 30
0.0
 40
0.8
  0
CIRCLE
  8
0
  6
CONTINUOUS
 62
     2
 10
200.0
 20
142.0
 30
0.0
 40
1.0
  0
LINE
  8
0
  6
CONTINUOUS
 62
     2
 10
200.0
 20
104.025
 30
0.0
 11
198.246298557
 21
103.0125
 31
0.0
  0
LINE
  8
0
  6
CONTINUOUS
 62
     2
 10
198.246298557
 20
103.0125
 30
0.0
 11
198.246298557
 21
100.9875
 31
0.0
  0
LINE
  8
0
  6
CONTINUOUS
 62
     2
 10
198.246298557
 20
100.9875
 30
0.0
 11
200.0
 21
99.975
 31
0.0
  0
LINE
  8
0
  6
CONTINUOUS
 62
     2
 10
200.0
 20
99.975
 30
0.0
 11
201.753701443
 21
100.9875
 31
0.0
  0
LINE
  8
0
  6
CONTINUOUS
 62
     2
 10
201.753701443
 20
100.9875
 30
0.0
 11
201.753701443
 21
103.0125
 31
0.0
  0
LINE
  8
0
  6
CONTINUOUS
 62
     2
 10
201.753701443
 20
103.0125
 30
0.0
 11
200.0
 21
104.025
 31
0.0
  0
CIRCLE
  8
0
  6
CONTINUOUS
 62
     2
 10
200.0
 20
102.0
 30
0.0
 40
0.8
  0
CIRCLE
  8
0
  6
CONTINUOUS
 62
     2
 10
200.0
 20
102.0
 30
0.0
 40
1.0
  0
LINE
  8
0
  6
CONTINUOUS
 62
     2
 10
150.0
 20
104.025
 30
0.0
 11
148.246298557
 21
103.0125
 31
0.0
  0
LINE
  8
0
  6
CONTINUOUS
 62
     2
 10
148.246298557
 20
103.0125
 30
0.0
 11
148.246298557
 21
100.9875
 31
0.0
  0
LINE
  8
0
  6
CONTINUOUS
 62
     2
 10
148.246298557
 20
100.9875
 30
0.0
 11
150.0
 21
99.975
 31
0.0
  0
LINE
  8
0
  6
CONTINUOUS
 62
     2
 10
150.0
 20
99.975
 30
0.0
 11
151.753701443
 21
100.9875
 31
0.0
  0
LINE
  8
0
  6
CONTINUOUS
 62
     2
 10
151.753701443
 20
100.9875
 30
0.0
 11
151.753701443
 21
103.0125
 31
0.0
  0
LINE
  8
0
  6
CONTINUOUS
 62
     2
 10
151.753701443
 20
103.0125
 30
0.0
 11
150.0
 21
104.025
 31
0.0
  0
CIRCLE
  8
0
  6
CONTINUOUS
 62
     2
 10
150.0
 20
102.0
 30
0.0
 40
0.8
  0
CIRCLE
  8
0
  6
CONTINUOUS
 62
     2
 10
150.0
 20
102.0
 30
0.0
 40
1.0
  0
LINE
  8
0
  6
CONTINUOUS
 62
     2
 10
174.85000375
 20
105.355616041
 30
0.0
 11
174.85000375
 21
104.893747373
 31
0.0
  0
LINE
  8
0
  6
CONTINUOUS
 62
     2
 10
174.75000625
 20
105.182415291
 30
0.0
 11
174.75000625
 21
104.951480956
 31
0.0
  0
LINE
  8
0
  6
CONTINUOUS
 62
     2
 10
174.85000375
 20
104.893747373
 30
0.0
 11
173.917976244
 21
104.355641041
 31
0.0
  0
LINE
  8
0
  6
CONTINUOUS
 62
     2
 10
173.917976244
 20
104.355641041
 30
0.0
 11
174.658983122
 21
103.927820521
 31
0.0
  0
LINE
  8
0
  6
CONTINUOUS
 62
     2
 10
173.717981244
 20
104.355641041
 30
0.0
 11
174.458988122
 21
103.927820521
 31
0.0
  0
LINE
  8
0
  6
CONTINUOUS
 62
     2
 10
174.658983122
 20
103.927820521
 30
0.0
 11
174.258993122
 21
103.696886186
 31
0.0
  0
LINE
  8
0
  6
CONTINUOUS
 62
     2
 10
174.458988122
 20
103.927820521
 30
0.0
 11
174.258993122
 21
103.812353353
 31
0.0
  0
LINE
  8
0
  6
CONTINUOUS
 62
     2
 10
173.517986244
 20
104.124706707
 30
0.0
 11
174.258993122
 21
103.696886186
 31
0.0
  0
LINE
  8
0
  6
CONTINUOUS
 62
     2
 10
173.517986244
 20
104.240173874
 30
0.0
 11
174.258993122
 21
103.812353353
 31
0.0
  0
LINE
  8
0
  6
CONTINUOUS
 62
     2
 10
174.75000625
 20
104.951480956
 30
0.0
 11
173.714981319
 21
104.353909034
 31
0.0
  0
LINE
  8
0
  6
CONTINUOUS
 62
     2
 10
173.517986244
 20
104.355641041
 30
0.0
 11
174.258993122
 21
103.927820521
 31
0.0
  0
LINE
  8
0
  6
CONTINUOUS
 62
     2
 10
174.85000375
 20
105.355616041
 30
0.0
 11
171.895783613
 21
103.64999625
 31
0.0
  0
LINE
  8
0
  6
CONTINUOUS
 62
     2
 10
174.75000625
 20
105.182415291
 30
0.0
 11
172.268979364
 21
103.74999375
 31
0.0
  0
LINE
  8
0
  6
CONTINUOUS
 62
     2
 10
174.65000875
 20
105.00921454
 30
0.0
 11
172.642175115
 21
103.84999125
 31
0.0
  0
LINE
  8
0
  6
CONTINUOUS
 62
     2
 10
173.517986244
 20
104.124706707
 30
0.0
 11
172.695763613
 21
103.64999625
 31
0.0
  0
LINE
  8
0
  6
CONTINUOUS
 62
     2
 10
171.895783613
 20
103.64999625
 30
0.0
 11
172.695763613
 21
103.64999625
 31
0.0
  0
LINE
  8
0
  6
CONTINUOUS
 62
     2
 10
173.517986244
 20
104.240173874
 30
0.0
 11
172.668969364
 21
103.74999375
 31
0.0
  0
LINE
  8
0
  6
CONTINUOUS
 62
     2
 10
172.268979364
 20
103.74999375
 30
0.0
 11
172.668969364
 21
103.74999375
 31
0.0
  0
LINE
  8
0
  6
CONTINUOUS
 62
     2
 10
175.14999625
 20
105.355616041
 30
0.0
 11
175.14999625
 21
104.893747373
 31
0.0
  0
LINE
  8
0
  6
CONTINUOUS
 62
     2
 10
175.24999375
 20
105.182415291
 30
0.0
 11
175.24999375
 21
104.951480956
 31
0.0
  0
LINE
  8
0
  6
CONTINUOUS
 62
     2
 10
175.14999625
 20
104.893747373
 30
0.0
 11
176.082023756
 21
104.355641041
 31
0.0
  0
LINE
  8
0
  6
CONTINUOUS
 62
     2
 10
176.082023756
 20
104.355641041
 30
0.0
 11
175.341016878
 21
103.927820521
 31
0.0
  0
LINE
  8
0
  6
CONTINUOUS
 62
     2
 10
176.282018756
 20
104.355641041
 30
0.0
 11
175.541011878
 21
103.927820521
 31
0.0
  0
LINE
  8
0
  6
CONTINUOUS
 62
     2
 10
175.341016878
 20
103.927820521
 30
0.0
 11
175.741006878
 21
103.696886186
 31
0.0
  0
LINE
  8
0
  6
CONTINUOUS
 62
     2
 10
175.541011878
 20
103.927820521
 30
0.0
 11
175.741006878
 21
103.812353353
 31
0.0
  0
LINE
  8
0
  6
CONTINUOUS
 62
     2
 10
176.482013756
 20
104.124706707
 30
0.0
 11
175.741006878
 21
103.696886186
 31
0.0
  0
LINE
  8
0
  6
CONTINUOUS
 62
     2
 10
176.482013756
 20
104.240173874
 30
0.0
 11
175.741006878
 21
103.812353353
 31
0.0
  0
LINE
  8
0
  6
CONTINUOUS
 62
     2
 10
175.24999375
 20
104.951480956
 30
0.0
 11
176.285018681
 21
104.353909034
 31
0.0
  0
LINE
  8
0
  6
CONTINUOUS
 62
     2
 10
176.482013756
 20
104.355641041
 30
0.0
 11
175.741006878
 21
103.927820521
 31
0.0
  0
LINE
  8
0
  6
CONTINUOUS
 62
     2
 10
175.14999625
 20
105.355616041
 30
0.0
 11
178.104216387
 21
103.64999625
 31
0.0
  0
LINE
  8
0
  6
CONTINUOUS
 62
     2
 10
175.24999375
 20
105.182415291
 30
0.0
 11
177.731020636
 21
103.74999375
 31
0.0
  0
LINE
  8
0
  6
CONTINUOUS
 62
     2
 10
175.34999125
 20
105.00921454
 30
0.0
 11
177.357824885
 21
103.84999125
 31
0.0
  0
LINE
  8
0
  6
CONTINUOUS
 62
     2
 10
176.482013756
 20
104.124706707
 30
0.0
 11
177.304236387
 21
103.64999625
 31
0.0
  0
LINE
  8
0
  6
CONTINUOUS
 62
     2
 10
178.104216387
 20
103.64999625
 30
0.0
 11
177.304236387
 21
103.64999625
 31
0.0
  0
LINE
  8
0
  6
CONTINUOUS
 62
     2
 10
176.482013756
 20
104.240173874
 30
0.0
 11
177.331030636
 21
103.74999375
 31
0.0
  0
LINE
  8
0
  6
CONTINUOUS
 62
     2
 10
177.731020636
 20
103.74999375
 30
0.0
 11
177.331030636
 21
103.74999375
 31
0.0
  0
LINE
  8
0
  6
CONTINUOUS
 62
     2
 10
174.85000375
 20
101.644383959
 30
0.0
 11
174.85000375
 21
102.106252627
 31
0.0
  0
LINE
  8
0
  6
CONTINUOUS
 62
     2
 10
174.75000625
 20
101.817584709
 30
0.0
 11
174.75000625
 21
102.048519044
 31
0.0
  0
LINE
  8
0
  6
CONTINUOUS
 62
     2
 10
174.85000375
 20
102.106252627
 30
0.0
 11
173.917976244
 21
102.644358959
 31
0.0
  0
LINE
  8
0
  6
CONTINUOUS
 62
     2
 10
173.917976244
 20
102.644358959
 30
0.0
 11
174.658983122
 21
103.072179479
 31
0.0
  0
LINE
  8
0
  6
CONTINUOUS
 62
     2
 10
173.717981244
 20
102.644358959
 30
0.0
 11
174.458988122
 21
103.072179479
 31
0.0
  0
LINE
  8
0
  6
CONTINUOUS
 62
     2
 10
174.658983122
 20
103.072179479
 30
0.0
 11
174.258993122
 21
103.303113814
 31
0.0
  0
LINE
  8
0
  6
CONTINUOUS
 62
     2
 10
174.458988122
 20
103.072179479
 30
0.0
 11
174.258993122
 21
103.187646647
 31
0.0
  0
LINE
  8
0
  6
CONTINUOUS
 62
     2
 10
173.517986244
 20
102.875293293
 30
0.0
 11
174.258993122
 21
103.303113814
 31
0.0
  0
LINE
  8
0
  6
CONTINUOUS
 62
     2
 10
173.517986244
 20
102.759826126
 30
0.0
 11
174.258993122
 21
103.187646647
 31
0.0
  0
LINE
  8
0
  6
CONTINUOUS
 62
     2
 10
174.75000625
 20
102.048519044
 30
0.0
 11
173.714981319
 21
102.646090966
 31
0.0
  0
LINE
  8
0
  6
CONTINUOUS
 62
     2
 10
173.517986244
 20
102.644358959
 30
0.0
 11
174.258993122
 21
103.072179479
 31
0.0
  0
LINE
  8
0
  6
CONTINUOUS
 62
     2
 10
174.85000375
 20
101.644383959
 30
0.0
 11
171.895783613
 21
103.35000375
 31
0.0
  0
LINE
  8
0
  6
CONTINUOUS
 62
     2
 10
174.75000625
 20
101.817584709
 30
0.0
 11
172.268979364
 21
103.25000625
 31
0.0
  0
LINE
  8
0
  6
CONTINUOUS
 62
     2
 10
174.65000875
 20
101.99078546
 30
0.0
 11
172.642175115
 21
103.15000875
 31
0.0
  0
LINE
  8
0
  6
CONTINUOUS
 62
     2
 10
173.517986244
 20
102.875293293
 30
0.0
 11
172.695763613
 21
103.35000375
 31
0.0
  0
LINE
  8
0
  6
CONTINUOUS
 62
     2
 10
171.895783613
 20
103.35000375
 30
0.0
 11
172.695763613
 21
103.35000375
 31
0.0
  0
LINE
  8
0
  6
CONTINUOUS
 62
     2
 10
173.517986244
 20
102.759826126
 30
0.0
 11
172.668969364
 21
103.25000625
 31
0.0
  0
LINE
  8
0
  6
CONTINUOUS
 62
     2
 10
172.268979364
 20
103.25000625
 30
0.0
 11
172.668969364
 21
103.25000625
 31
0.0
  0
LINE
  8
0
  6
CONTINUOUS
 62
     2
 10
175.14999625
 20
101.644383959
 30
0.0
 11
175.14999625
 21
102.106252627
 31
0.0
  0
LINE
  8
0
  6
CONTINUOUS
 62
     2
 10
175.24999375
 20
101.817584709
 30
0.0
 11
175.24999375
 21
102.048519044
 31
0.0
  0
LINE
  8
0
  6
CONTINUOUS
 62
     2
 10
175.14999625
 20
102.106252627
 30
0.0
 11
176.082023756
 21
102.644358959
 31
0.0
  0
LINE
  8
0
  6
CONTINUOUS
 62
     2
 10
176.082023756
 20
102.644358959
 30
0.0
 11
175.341016878
 21
103.072179479
 31
0.0
  0
LINE
  8
0
  6
CONTINUOUS
 62
     2
 10
176.282018756
 20
102.644358959
 30
0.0
 11
175.541011878
 21
103.072179479
 31
0.0
  0
LINE
  8
0
  6
CONTINUOUS
 62
     2
 10
175.341016878
 20
103.072179479
 30
0.0
 11
175.741006878
 21
103.303113814
 31
0.0
  0
LINE
  8
0
  6
CONTINUOUS
 62
     2
 10
175.541011878
 20
103.072179479
 30
0.0
 11
175.741006878
 21
103.187646647
 31
0.0
  0
LINE
  8
0
  6
CONTINUOUS
 62
     2
 10
176.482013756
 20
102.875293293
 30
0.0
 11
175.741006878
 21
103.303113814
 31
0.0
  0
LINE
  8
0
  6
CONTINUOUS
 62
     2
 10
176.482013756
 20
102.759826126
 30
0.0
 11
175.741006878
 21
103.187646647
 31
0.0
  0
LINE
  8
0
  6
CONTINUOUS
 62
     2
 10
175.24999375
 20
102.048519044
 30
0.0
 11
176.285018681
 21
102.646090966
 31
0.0
  0
LINE
  8
0
  6
CONTINUOUS
 62
     2
 10
176.482013756
 20
102.644358959
 30
0.0
 11
175.741006878
 21
103.072179479
 31
0.0
  0
LINE
  8
0
  6
CONTINUOUS
 62
     2
 10
175.14999625
 20
101.644383959
 30
0.0
 11
178.104216387
 21
103.35000375
 31
0.0
  0
LINE
  8
0
  6
CONTINUOUS
 62
     2
 10
175.24999375
 20
101.817584709
 30
0.0
 11
177.731020636
 21
103.25000625
 31
0.0
  0
LINE
  8
0
  6
CONTINUOUS
 62
     2
 10
175.34999125
 20
101.99078546
 30
0.0
 11
177.357824885
 21
103.15000875
 31
0.0
  0
LINE
  8
0
  6
CONTINUOUS
 62
     2
 10
176.482013756
 20
102.875293293
 30
0.0
 11
177.304236387
 21
103.35000375
 31
0.0
  0
LINE
  8
0
  6
CONTINUOUS
 62
     2
 10
178.104216387
 20
103.35000375
 30
0.0
 11
177.304236387
 21
103.35000375
 31
0.0
  0
LINE
  8
0
  6
CONTINUOUS
 62
     2
 10
176.482013756
 20
102.759826126
 30
0.0
 11
177.331030636
 21
103.25000625
 31
0.0
  0
LINE
  8
0
  6
CONTINUOUS
 62
     2
 10
177.731020636
 20
103.25000625
 30
0.0
 11
177.331030636
 21
103.25000625
 31
0.0
  0
LINE
  8
0
  6
CONTINUOUS
 62
     2
 10
143.5
 20
122.0
 30
0.0
 11
144.147047613
 21
124.414814566
 31
0.0
  0
LINE
  8
0
  6
CONTINUOUS
 62
     2
 10
143.5
 20
122.0
 30
0.0
 11
142.852952387
 21
124.414814566
 31
0.0
  0
LINE
  8
0
  6
CONTINUOUS
 62
     2
 10
143.5
 20
127.0
 30
0.0
 11
143.5
 21
114.5
 31
0.0
  0
LINE
  8
0
  6
CONTINUOUS
 62
     2
 10
143.5
 20
119.5
 30
0.0
 11
142.852952387
 21
117.085185434
 31
0.0
  0
LINE
  8
0
  6
CONTINUOUS
 62
     2
 10
143.5
 20
119.5
 30
0.0
 11
144.147047613
 21
117.085185434
 31
0.0
  0
LINE
  8
0
  6
CONTINUOUS
 62
     2
 10
149.5
 20
119.5
 30
0.0
 11
141.5
 21
119.5
 31
0.0
  0
TEXT
  8
0
  6
CONTINUOUS
 62
     2
 10
142.5
 20
119.85
 30
0.3
 40
3.0
  1
５
 50
90.0
 41
0.6
 51
0.0
  7
KANJI2
  0
ARC
  8
0
  6
CONTINUOUS
 62
     2
 10
203.375
 20
144.25
 30
0.0
 40
0.5
 50
0.0
 51
90.0
  0
LINE
  8
0
  6
CONTINUOUS
 62
     2
 10
146.625
 20
144.75
 30
0.0
 11
203.375
 21
144.75
 31
0.0
  0
ARC
  8
0
  6
CONTINUOUS
 62
     2
 10
146.625
 20
144.25
 30
0.0
 40
0.5
 50
90.0
 51
180.0
  0
ARC
  8
0
  6
CONTINUOUS
 62
     2
 10
146.625
 20
97.5
 30
0.0
 40
0.5
 50
180.0
 51
270.0
  0
LINE
  8
0
  6
CONTINUOUS
 62
     2
 10
146.625
 20
97.0
 30
0.0
 11
203.375
 21
97.0
 31
0.0
  0
LINE
  8
0
  6
CONTINUOUS
 62
     2
 10
146.125
 20
97.5
 30
0.0
 11
146.125
 21
144.25
 31
0.0
  0
ARC
  8
0
  6
CONTINUOUS
 62
     2
 10
203.375
 20
97.5
 30
0.0
 40
0.5
 50
270.0
 51
0.0
  0
LINE
  8
0
  6
CONTINUOUS
 62
     2
 10
203.875
 20
144.25
 30
0.0
 11
203.875
 21
97.5
 31
0.0
  0
ARC
  8
0
  6
LTYPE1
 62
     2
 10
168.25
 20
116.0
 30
0.0
 40
3.0
 50
90.0
 51
180.0
  0
LINE
  8
0
  6
LTYPE1
 62
     2
 10
165.25
 20
110.5
 30
0.0
 11
165.25
 21
116.0
 31
0.0
  0
LINE
  8
0
  6
LTYPE1
 62
     2
 10
181.75
 20
107.5
 30
0.0
 11
168.25
 21
107.5
 31
0.0
  0
ARC
  8
0
  6
LTYPE1
 62
     2
 10
168.25
 20
110.5
 30
0.0
 40
3.0
 50
180.0
 51
270.0
  0
LINE
  8
0
  6
LTYPE1
 62
     2
 10
168.275
 20
119.0
 30
0.0
 11
181.75
 21
119.0
 31
0.0
  0
ARC
  8
0
  6
LTYPE1
 62
     2
 10
181.75
 20
116.0
 30
0.0
 40
3.0
 50
0.0
 51
90.0
  0
ARC
  8
0
  6
LTYPE1
 62
     2
 10
181.75
 20
110.5
 30
0.0
 40
3.0
 50
270.0
 51
0.0
  0
LINE
  8
0
  6
LTYPE1
 62
     2
 10
184.75
 20
116.0
 30
0.0
 11
184.75
 21
110.5
 31
0.0
  0
LINE
  8
0
  6
CONTINUOUS
 62
     2
 10
210.0
 20
142.0
 30
0.0
 11
209.352952387
 21
139.585185434
 31
0.0
  0
LINE
  8
0
  6
CONTINUOUS
 62
     2
 10
210.0
 20
142.0
 30
0.0
 11
210.647047613
 21
139.585185434
 31
0.0
  0
LINE
  8
0
  6
CONTINUOUS
 62
     2
 10
210.0
 20
142.0
 30
0.0
 11
210.0
 21
119.5
 31
0.0
  0
LINE
  8
0
  6
CONTINUOUS
 62
     2
 10
210.0
 20
119.5
 30
0.0
 11
210.647047613
 21
121.914814566
 31
0.0
  0
LINE
  8
0
  6
CONTINUOUS
 62
     2
 10
210.0
 20
119.5
 30
0.0
 11
209.352952387
 21
121.914814566
 31
0.0
  0
TEXT
  8
0
  6
CONTINUOUS
 62
     2
 10
209.0
 20
127.0
 30
0.3
 40
3.0
  1
４５
 50
90.0
 41
0.6
 51
0.0
  7
KANJI2
  0
TEXT
  8
0
  6
CONTINUOUS
 62
     2
 10
209.0
 20
130.9
 30
0.18
 40
1.8
  1
±０．５
 50
90.0
 41
0.6
 51
0.0
  7
KANJI3
  0
LINE
  8
0
  6
CONTINUOUS
 62
     2
 10
210.0
 20
119.5
 30
0.0
 11
209.352952387
 21
117.085185434
 31
0.0
  0
LINE
  8
0
  6
CONTINUOUS
 62
     2
 10
210.0
 20
119.5
 30
0.0
 11
210.647047613
 21
117.085185434
 31
0.0
  0
LINE
  8
0
  6
CONTINUOUS
 62
     2
 10
210.0
 20
119.5
 30
0.0
 11
210.0
 21
102.0
 31
0.0
  0
LINE
  8
0
  6
CONTINUOUS
 62
     2
 10
210.0
 20
102.0
 30
0.0
 11
210.647047613
 21
104.414814566
 31
0.0
  0
LINE
  8
0
  6
CONTINUOUS
 62
     2
 10
210.0
 20
102.0
 30
0.0
 11
209.352952387
 21
104.414814566
 31
0.0
  0
TEXT
  8
0
  6
CONTINUOUS
 62
     2
 10
209.0
 20
106.37
 30
0.3
 40
3.0
  1
３５
 50
90.0
 41
0.6
 51
0.0
  7
KANJI2
  0
TEXT
  8
0
  6
CONTINUOUS
 62
     2
 10
209.0
 20
110.27
 30
0.18
 40
1.8
  1
±０．５
 50
90.0
 41
0.6
 51
0.0
  7
KANJI3
  0
LINE
  8
0
  6
CONTINUOUS
 62
     2
 10
203.5
 20
142.0
 30
0.0
 11
212.0
 21
142.0
 31
0.0
  0
LINE
  8
0
  6
CONTINUOUS
 62
     2
 10
203.5
 20
102.0
 30
0.0
 11
212.0
 21
102.0
 31
0.0
  0
TEXT
  8
0
  6
CONTINUOUS
 62
     2
 10
115.0
 20
54.0
 30
0.3
 40
3.0
  1
注）ＡＣＦ－１２ＮＢ形交流電流計で１０Ａ以上，３０Ａ以下の場合は
 50
0.0
 41
0.9
 51
0.0
  7
KANJI4
  0
LINE
  8
0
  6
CONTINUOUS
 62
     2
 10
115.0
 20
53.0
 30
0.0
 11
208.0
 21
53.0
 31
0.0
  0
TEXT
  8
0
  6
CONTINUOUS
 62
     2
 10
121.0
 20
49.0
 30
0.3
 40
3.0
  1
Ｍ５タ－ミナルネジとなります。
 50
0.0
 41
0.9
 51
0.0
  7
KANJI4
  0
LINE
  8
0
  6
CONTINUOUS
 62
     2
 10
121.0
 20
48.0
 30
0.0
 11
164.0
 21
48.0
 31
0.0
  0
LINE
  8
0
  6
LTYPE2
 62
     2
 10
45.0
 20
154.95
 30
0.0
 11
45.0
 21
89.95
 31
0.0
  0
LINE
  8
0
  6
LTYPE2
 62
     2
 10
18.0
 20
110.375
 30
0.0
 11
22.0
 21
110.375
 31
0.0
  0
LINE
  8
0
  6
LTYPE2
 62
     2
 10
20.0
 20
112.375
 30
0.0
 11
20.0
 21
108.375
 31
0.0
  0
LINE
  8
0
  6
LTYPE2
 62
     2
 10
42.0
 20
100.425
 30
0.0
 11
48.0
 21
100.425
 31
0.0
  0
LINE
  8
0
  6
LTYPE2
 62
     2
 10
68.0
 20
110.375
 30
0.0
 11
72.0
 21
110.375
 31
0.0
  0
LINE
  8
0
  6
LTYPE2
 62
     2
 10
70.0
 20
112.375
 30
0.0
 11
70.0
 21
108.375
 31
0.0
  0
LINE
  8
0
  6
LTYPE2
 62
     2
 10
98.275898032
 20
142.0
 30
0.0
 11
108.775898032
 21
142.0
 31
0.0
  0
LINE
  8
0
  6
LTYPE2
 62
     2
 10
98.275898032
 20
102.0
 30
0.0
 11
108.775898032
 21
102.0
 31
0.0
  0
LINE
  8
0
  6
LTYPE2
 62
     2
 10
113.275898032
 20
115.5
 30
0.0
 11
123.775898032
 21
115.5
 31
0.0
  0
LINE
  8
0
  6
LTYPE2
 62
     2
 10
147.0
 20
142.0
 30
0.0
 11
153.0
 21
142.0
 31
0.0
  0
LINE
  8
0
  6
LTYPE2
 62
     2
 10
150.0
 20
145.0
 30
0.0
 11
150.0
 21
139.0
 31
0.0
  0
LINE
  8
0
  6
LTYPE2
 62
     2
 10
197.0
 20
142.0
 30
0.0
 11
203.0
 21
142.0
 31
0.0
  0
LINE
  8
0
  6
LTYPE2
 62
     2
 10
200.0
 20
145.0
 30
0.0
 11
200.0
 21
139.0
 31
0.0
  0
LINE
  8
0
  6
LTYPE2
 62
     2
 10
181.25
 20
118.5
 30
0.0
 11
181.25
 21
112.5
 31
0.0
  0
LINE
  8
0
  6
LTYPE2
 62
     2
 10
178.25
 20
115.5
 30
0.0
 11
184.25
 21
115.5
 31
0.0
  0
LINE
  8
0
  6
LTYPE2
 62
     2
 10
168.75
 20
118.5
 30
0.0
 11
168.75
 21
112.5
 31
0.0
  0
LINE
  8
0
  6
LTYPE2
 62
     2
 10
165.75
 20
115.5
 30
0.0
 11
171.75
 21
115.5
 31
0.0
  0
LINE
  8
0
  6
LTYPE2
 62
     2
 10
197.0
 20
102.0
 30
0.0
 11
203.0
 21
102.0
 31
0.0
  0
LINE
  8
0
  6
LTYPE2
 62
     2
 10
200.0
 20
105.0
 30
0.0
 11
200.0
 21
99.0
 31
0.0
  0
LINE
  8
0
  6
LTYPE2
 62
     2
 10
147.0
 20
102.0
 30
0.0
 11
153.0
 21
102.0
 31
0.0
  0
LINE
  8
0
  6
LTYPE2
 62
     2
 10
150.0
 20
105.0
 30
0.0
 11
150.0
 21
99.0
 31
0.0
  0
LINE
  8
0
  6
CONTINUOUS
 62
     2
 10
95.175898032
 20
157.325
 30
0.0
 11
92.761083467
 21
157.972047613
 31
0.0
  0
LINE
  8
0
  6
CONTINUOUS
 62
     2
 10
95.175898032
 20
157.325
 30
0.0
 11
92.761083467
 21
156.677952387
 31
0.0
  0
TEXT
  8
0
  6
CONTINUOUS
 62
     2
 10
84.275898032
 20
158.325
 30
0.3
 40
3.0
  1
１２．５　
 50
0.0
 41
0.666666667
 51
0.0
  7
KANJI1
  0
LINE
  8
0
  6
CONTINUOUS
 62
     2
 10
83.925898032
 20
157.325
 30
0.0
 11
116.425898032
 21
157.325
 31
0.0
  0
LINE
  8
0
  6
CONTINUOUS
 62
     2
 10
116.425898032
 20
157.325
 30
0.0
 11
114.011083467
 21
157.972047613
 31
0.0
  0
LINE
  8
0
  6
CONTINUOUS
 62
     2
 10
116.425898032
 20
157.325
 30
0.0
 11
114.011083467
 21
156.677952387
 31
0.0
  0
LINE
  8
0
  6
CONTINUOUS
 62
     2
 10
116.425898032
 20
157.325
 30
0.0
 11
118.840712598
 21
156.677952387
 31
0.0
  0
LINE
  8
0
  6
CONTINUOUS
 62
     2
 10
116.425898032
 20
157.325
 30
0.0
 11
118.840712598
 21
157.972047613
 31
0.0
  0
LINE
  8
0
  6
CONTINUOUS
 62
     2
 10
116.425898032
 20
157.325
 30
0.0
 11
122.375898032
 21
157.325
 31
0.0
  0
LINE
  8
0
  6
CONTINUOUS
 62
     2
 10
122.375898032
 20
157.325
 30
0.0
 11
119.961083467
 21
157.972047613
 31
0.0
  0
LINE
  8
0
  6
CONTINUOUS
 62
     2
 10
122.375898032
 20
157.325
 30
0.0
 11
119.961083467
 21
156.677952387
 31
0.0
  0
TEXT
  8
0
  6
CONTINUOUS
 62
     2
 10
116.160898032
 20
158.325
 30
0.3
 40
3.0
  1
１１
 50
0.0
 41
0.666666667
 51
0.0
  7
KANJI1
  0
TEXT
  8
0
  6
CONTINUOUS
 62
     2
 10
119.960898032
 20
158.325
 30
0.18
 40
1.8
  1
±１
 50
0.0
 41
0.666666667
 51
0.0
  7
KANJI5
  0
POINT
  8
0
  6
CONTINUOUS
 62
     2
 10
116.425898032
 20
157.325
 30
0.0
  0
TEXT
  8
0
  6
CONTINUOUS
 62
     2
 10
106.850898032
 20
158.325
 30
0.3
 40
3.0
  1
３０
 50
0.0
 41
0.666666667
 51
0.0
  7
KANJI1
  0
LINE
  8
0
  6
CONTINUOUS
 62
     2
 10
101.925898032
 20
157.325
 30
0.0
 11
104.340712598
 21
156.677952387
 31
0.0
  0
LINE
  8
0
  6
CONTINUOUS
 62
     2
 10
101.925898032
 20
157.325
 30
0.0
 11
104.340712598
 21
157.972047613
 31
0.0
  0
LINE
  8
0
  6
CONTINUOUS
 62
     2
 10
101.425898032
 20
152.325
 30
0.0
 11
99.011083467
 21
152.972047613
 31
0.0
  0
LINE
  8
0
  6
CONTINUOUS
 62
     2
 10
101.425898032
 20
152.325
 30
0.0
 11
99.011083467
 21
151.677952387
 31
0.0
  0
LINE
  8
0
  6
CONTINUOUS
 62
     2
 10
101.925898032
 20
152.325
 30
0.0
 11
104.340712598
 21
151.677952387
 31
0.0
  0
LINE
  8
0
  6
CONTINUOUS
 62
     2
 10
101.925898032
 20
152.325
 30
0.0
 11
104.340712598
 21
152.972047613
 31
0.0
  0
LINE
  8
0
  6
CONTINUOUS
 62
     2
 10
101.925898032
 20
152.325
 30
0.0
 11
107.375898032
 21
152.325
 31
0.0
  0
LINE
  8
0
  6
CONTINUOUS
 62
     2
 10
107.375898032
 20
152.325
 30
0.0
 11
104.961083467
 21
152.972047613
 31
0.0
  0
LINE
  8
0
  6
CONTINUOUS
 62
     2
 10
107.375898032
 20
152.325
 30
0.0
 11
104.961083467
 21
151.677952387
 31
0.0
  0
TEXT
  8
0
  6
CONTINUOUS
 62
     2
 10
102.500898032
 20
153.325
 30
0.3
 40
3.0
  1
１０
 50
0.0
 41
0.666666667
 51
0.0
  7
KANJI1
  0
TEXT
  8
0
  6
CONTINUOUS
 62
     2
 10
95.825898032
 20
153.325
 30
0.3
 40
3.0
  1
０．５
 50
0.0
 41
0.666666667
 51
0.0
  7
KANJI1
  0
LINE
  8
0
  6
CONTINUOUS
 62
     2
 10
94.875898032
 20
152.325
 30
0.0
 11
101.925898032
 21
152.325
 31
0.0
  0
LINE
  8
0
  6
CONTINUOUS
 62
     2
 10
95.175898032
 20
146.6
 30
0.0
 11
95.175898032
 21
159.325
 31
0.0
  0
LINE
  8
0
  6
CONTINUOUS
 62
     2
 10
101.925898032
 20
145.05
 30
0.0
 11
101.925898032
 21
159.325
 31
0.0
  0
LINE
  8
0
  6
CONTINUOUS
 62
     2
 10
116.425898032
 20
141.25
 30
0.0
 11
116.425898032
 21
159.325
 31
0.0
  0
LINE
  8
0
  6
CONTINUOUS
 62
     2
 10
122.375898032
 20
117.15
 30
0.0
 11
122.375898032
 21
159.325
 31
0.0
  0
LINE
  8
0
  6
CONTINUOUS
 62
     2
 10
101.425898032
 20
148.325
 30
0.0
 11
101.425898032
 21
154.325
 31
0.0
  0
LINE
  8
0
  6
CONTINUOUS
 62
     2
 10
107.375898032
 20
144.05
 30
0.0
 11
107.375898032
 21
154.325
 31
0.0
  0
LINE
  8
0
  6
CONTINUOUS
 62
     2
 10
145.0
 20
157.325
 30
0.0
 11
147.414814566
 21
156.677952387
 31
0.0
  0
LINE
  8
0
  6
CONTINUOUS
 62
     2
 10
145.0
 20
157.325
 30
0.0
 11
147.414814566
 21
157.972047613
 31
0.0
  0
LINE
  8
0
  6
CONTINUOUS
 62
     2
 10
145.0
 20
157.325
 30
0.0
 11
205.0
 21
157.325
 31
0.0
  0
LINE
  8
0
  6
CONTINUOUS
 62
     2
 10
205.0
 20
157.325
 30
0.0
 11
202.585185434
 21
157.972047613
 31
0.0
  0
LINE
  8
0
  6
CONTINUOUS
 62
     2
 10
205.0
 20
157.325
 30
0.0
 11
202.585185434
 21
156.677952387
 31
0.0
  0
TEXT
  8
0
  6
CONTINUOUS
 62
     2
 10
169.03
 20
158.325
 30
0.3
 40
3.0
  1
１２０
 50
0.0
 41
0.666666667
 51
0.0
  7
KANJI1
  0
TEXT
  8
0
  6
CONTINUOUS
 62
     2
 10
175.63
 20
158.325
 30
0.18
 40
1.8
  1
±１．５
 50
0.0
 41
0.666666667
 51
0.0
  7
KANJI5
  0
LINE
  8
0
  6
CONTINUOUS
 62
     2
 10
145.0
 20
145.25
 30
0.0
 11
145.0
 21
159.325
 31
0.0
  0
LINE
  8
0
  6
CONTINUOUS
 62
     2
 10
205.0
 20
145.25
 30
0.0
 11
205.0
 21
159.325
 31
0.0
  0
LINE
  8
0
  6
CONTINUOUS
 62
     2
 10
150.0
 20
152.325
 30
0.0
 11
152.414814566
 21
151.677952387
 31
0.0
  0
LINE
  8
0
  6
CONTINUOUS
 62
     2
 10
150.0
 20
152.325
 30
0.0
 11
152.414814566
 21
152.972047613
 31
0.0
  0
LINE
  8
0
  6
CONTINUOUS
 62
     2
 10
150.0
 20
152.325
 30
0.0
 11
175.0
 21
152.325
 31
0.0
  0
LINE
  8
0
  6
CONTINUOUS
 62
     2
 10
175.0
 20
152.325
 30
0.0
 11
172.585185434
 21
152.972047613
 31
0.0
  0
LINE
  8
0
  6
CONTINUOUS
 62
     2
 10
175.0
 20
152.325
 30
0.0
 11
172.585185434
 21
151.677952387
 31
0.0
  0
TEXT
  8
0
  6
CONTINUOUS
 62
     2
 10
157.68
 20
153.325
 30
0.3
 40
3.0
  1
５０
 50
0.0
 41
0.666666667
 51
0.0
  7
KANJI1
  0
LINE
  8
0
  6
CONTINUOUS
 62
     2
 10
175.0
 20
152.325
 30
0.0
 11
177.414814566
 21
151.677952387
 31
0.0
  0
LINE
  8
0
  6
CONTINUOUS
 62
     2
 10
175.0
 20
152.325
 30
0.0
 11
177.414814566
 21
152.972047613
 31
0.0
  0
LINE
  8
0
  6
CONTINUOUS
 62
     2
 10
175.0
 20
152.325
 30
0.0
 11
200.0
 21
152.325
 31
0.0
  0
LINE
  8
0
  6
CONTINUOUS
 62
     2
 10
200.0
 20
152.325
 30
0.0
 11
197.585185434
 21
152.972047613
 31
0.0
  0
LINE
  8
0
  6
CONTINUOUS
 62
     2
 10
200.0
 20
152.325
 30
0.0
 11
197.585185434
 21
151.677952387
 31
0.0
  0
TEXT
  8
0
  6
CONTINUOUS
 62
     2
 10
182.68
 20
153.325
 30
0.3
 40
3.0
  1
５０
 50
0.0
 41
0.666666667
 51
0.0
  7
KANJI1
  0
TEXT
  8
0
  6
CONTINUOUS
 62
     2
 10
186.98
 20
153.325
 30
0.18
 40
1.8
  1
±０．５
 50
0.0
 41
0.666666667
 51
0.0
  7
KANJI5
  0
TEXT
  8
0
  6
CONTINUOUS
 62
     2
 10
161.98
 20
153.325
 30
0.18
 40
1.8
  1
±０．５
 50
0.0
 41
0.666666667
 51
0.0
  7
KANJI5
  0
LINE
  8
0
  6
CONTINUOUS
 62
     2
 10
200.0
 20
145.5
 30
0.0
 11
200.0
 21
154.325
 31
0.0
  0
LINE
  8
0
  6
CONTINUOUS
 62
     2
 10
150.0
 20
145.5
 30
0.0
 11
150.0
 21
154.325
 31
0.0
  0
LINE
  8
0
  6
LTYPE2
 62
     2
 10
175.0
 20
147.875
 30
0.0
 11
175.0
 21
90.5
 31
0.0
  0
LINE
  8
0
  6
CONTINUOUS
 62
     2
 10
175.0
 20
148.375
 30
0.0
 11
175.0
 21
154.325
 31
0.0
  0
LINE
  8
0
  6
CONTINUOUS
 62
     2
 10
215.5
 20
145.875
 30
0.0
 11
214.852952387
 21
143.460185434
 31
0.0
  0
LINE
  8
0
  6
CONTINUOUS
 62
     2
 10
215.5
 20
145.875
 30
0.0
 11
216.147047613
 21
143.460185434
 31
0.0
  0
LINE
  8
0
  6
CONTINUOUS
 62
     2
 10
215.5
 20
145.875
 30
0.0
 11
215.5
 21
95.875
 31
0.0
  0
LINE
  8
0
  6
CONTINUOUS
 62
     2
 10
215.5
 20
95.875
 30
0.0
 11
216.147047613
 21
98.289814566
 31
0.0
  0
LINE
  8
0
  6
CONTINUOUS
 62
     2
 10
215.5
 20
95.875
 30
0.0
 11
214.852952387
 21
98.289814566
 31
0.0
  0
TEXT
  8
0
  6
CONTINUOUS
 62
     2
 10
214.5
 20
116.285
 30
0.3
 40
3.0
  1
１００
 50
90.0
 41
0.666666667
 51
0.0
  7
KANJI1
  0
TEXT
  8
0
  6
CONTINUOUS
 62
     2
 10
214.5
 20
122.885
 30
0.18
 40
1.8
  1
±１
 50
90.0
 41
0.666666667
 51
0.0
  7
KANJI5
  0
LINE
  8
0
  6
CONTINUOUS
 62
     2
 10
204.375
 20
95.875
 30
0.0
 11
217.5
 21
95.875
 31
0.0
  0
LINE
  8
0
  6
CONTINUOUS
 62
     2
 10
204.375
 20
145.875
 30
0.0
 11
217.5
 21
145.875
 31
0.0
  0
LINE
  8
0
  6
LTYPE2
 62
     2
 10
149.5
 20
119.5
 30
0.0
 11
207.0
 21
119.5
 31
0.0
  0
LINE
  8
0
  6
CONTINUOUS
 62
     2
 10
207.5
 20
119.5
 30
0.0
 11
212.0
 21
119.5
 31
0.0
  0
LINE
  8
0
  6
CONTINUOUS
 62
     2
 10
120.2
 20
113.5
 30
0.0
 11
120.830116473
 21
111.080712247
 31
0.0
  0
LINE
  8
0
  6
CONTINUOUS
 62
     2
 10
120.2
 20
113.5
 30
0.0
 11
121.955340749
 21
111.719893584
 31
0.0
  0
TEXT
  8
0
  6
CONTINUOUS
 62
     2
 10
135.492324442
 20
90.775
 30
0.3
 40
3.0
  1
注
 50
0.0
 41
0.9
 51
0.0
  7
KANJI4
  0
TEXT
  8
0
  6
CONTINUOUS
 62
     2
 10
135.892324442
 20
86.875
 30
0.3
 40
3.0
  1
Ｍ４（Ｍ５）ターミナルネジ
 50
0.0
 41
0.9
 51
0.0
  7
KANJI4
  0
LINE
  8
0
  6
CONTINUOUS
 62
     2
 10
120.2
 20
113.5
 30
0.0
 11
135.892324442
 21
85.875
 31
0.0
  0
LINE
  8
0
  6
CONTINUOUS
 62
     2
 10
135.892324442
 20
85.875
 30
0.0
 11
174.892324442
 21
85.875
 31
0.0
  0
LINE
  8
0
  6
CONTINUOUS
 62
     2
 10
103.892324442
 20
99.375
 30
0.0
 11
104.522440915
 21
96.955712247
 31
0.0
  0
LINE
  8
0
  6
CONTINUOUS
 62
     2
 10
103.892324442
 20
99.375
 30
0.0
 11
105.647665191
 21
97.594893584
 31
0.0
  0
TEXT
  8
0
  6
CONTINUOUS
 62
     2
 10
111.560971681
 20
86.875
 30
0.3
 40
3.0
  1
Ｍ４取付ボルト
 50
0.0
 41
0.9
 51
0.0
  7
KANJI4
  0
LINE
  8
0
  6
CONTINUOUS
 62
     2
 10
103.892324442
 20
99.375
 30
0.0
 11
111.560971681
 21
85.875
 31
0.0
  0
LINE
  8
0
  6
CONTINUOUS
 62
     2
 10
111.560971681
 20
85.875
 30
0.0
 11
132.460971681
 21
85.875
 31
0.0
  0
LINE
  8
0
  6
CONTINUOUS
 62
     2
 10
63.836052532
 20
57.875
 30
0.0
 11
61.421237967
 21
57.227952387
 31
0.0
  0
LINE
  8
0
  6
CONTINUOUS
 62
     2
 10
63.836052532
 20
57.875
 30
0.0
 11
62.068285579
 21
56.107233047
 31
0.0
  0
LINE
  8
0
  6
CONTINUOUS
 62
     2
 10
63.836052532
 20
57.875
 30
0.0
 11
26.163947468
 21
36.125
 31
0.0
  0
LINE
  8
0
  6
CONTINUOUS
 62
     2
 10
26.163947468
 20
36.125
 30
0.0
 11
28.578762033
 21
36.772047613
 31
0.0
  0
LINE
  8
0
  6
CONTINUOUS
 62
     2
 10
26.163947468
 20
36.125
 30
0.0
 11
27.931714421
 21
37.892766953
 31
0.0
  0
LINE
  8
0
  6
CONTINUOUS
 62
     2
 10
71.0
 20
28.5
 30
0.0
 11
71.630116473
 21
26.080712247
 31
0.0
  0
LINE
  8
0
  6
CONTINUOUS
 62
     2
 10
71.0
 20
28.5
 30
0.0
 11
72.755340749
 21
26.719893584
 31
0.0
  0
TEXT
  8
0
  6
CONTINUOUS
 62
     2
 10
75.828407521
 20
21.0
 30
0.3
 40
3.0
  1
４－φ５
 50
0.0
 41
0.6
 51
0.0
  7
KANJI2
  0
TEXT
  8
0
  6
CONTINUOUS
 62
     2
 10
84.398407521
 20
21.0
 30
0.18
 40
1.8
  1
－０
 50
0.0
 41
0.6
 51
0.0
  7
KANJI3
  0
TEXT
  8
0
  6
CONTINUOUS
 62
     2
 10
84.398407521
 20
22.8
 30
0.18
 40
1.8
  1
＋０．５
 50
0.0
 41
0.6
 51
0.0
  7
KANJI3
  0
LINE
  8
0
  6
CONTINUOUS
 62
     2
 10
75.828407521
 20
20.0
 30
0.0
 11
89.928407521
 21
20.0
 31
0.0
  0
LINE
  8
0
  6
CONTINUOUS
 62
     2
 10
71.0
 20
28.5
 30
0.0
 11
75.828407521
 21
20.0
 31
0.0
  0
LINE
  8
0
  6
LTYPE2
 62
     2
 10
20.0
 20
72.0
 30
0.0
 11
20.0
 21
67.0
 31
0.0
  0
LINE
  8
0
  6
LTYPE2
 62
     2
 10
17.5
 20
69.5
 30
0.0
 11
22.5
 21
69.5
 31
0.0
  0
LINE
  8
0
  6
LTYPE2
 62
     2
 10
70.0
 20
72.0
 30
0.0
 11
70.0
 21
67.0
 31
0.0
  0
LINE
  8
0
  6
LTYPE2
 62
     2
 10
67.5
 20
69.5
 30
0.0
 11
72.5
 21
69.5
 31
0.0
  0
LINE
  8
0
  6
LTYPE2
 62
     2
 10
70.0
 20
32.0
 30
0.0
 11
70.0
 21
27.0
 31
0.0
  0
LINE
  8
0
  6
LTYPE2
 62
     2
 10
67.5
 20
29.5
 30
0.0
 11
72.5
 21
29.5
 31
0.0
  0
LINE
  8
0
  6
LTYPE2
 62
     2
 10
20.0
 20
32.0
 30
0.0
 11
20.0
 21
27.0
 31
0.0
  0
LINE
  8
0
  6
LTYPE2
 62
     2
 10
17.5
 20
29.5
 30
0.0
 11
22.5
 21
29.5
 31
0.0
  0
TEXT
  8
0
  6
CONTINUOUS
 62
     2
 10
31.232231473
 20
40.628525404
 30
0.3
 40
3.0
  1
φ８７　　
 50
30.0
 41
0.666666667
 51
0.0
  7
KANJI1
  0
TEXT
  8
0
  6
CONTINUOUS
 62
     2
 10
36.812217152
 20
43.47622598
 30
0.18
 40
1.8
  1
±１
 50
28.0
 41
0.6
 51
0.0
  7
KANJI3
  0
LINE
  8
0
  6
LTYPE2
 62
     2
 10
45.0
 20
72.0
 30
0.0
 11
45.0
 21
24.0
 31
0.0
  0
LINE
  8
0
  6
CONTINUOUS
 62
     2
 10
70.0
 20
75.75
 30
0.0
 11
67.585185434
 21
76.397047613
 31
0.0
  0
LINE
  8
0
  6
CONTINUOUS
 62
     2
 10
70.0
 20
75.75
 30
0.0
 11
67.585185434
 21
75.102952387
 31
0.0
  0
LINE
  8
0
  6
CONTINUOUS
 62
     2
 10
70.0
 20
75.75
 30
0.0
 11
45.0
 21
75.75
 31
0.0
  0
LINE
  8
0
  6
CONTINUOUS
 62
     2
 10
45.0
 20
75.75
 30
0.0
 11
47.414814566
 21
75.102952387
 31
0.0
  0
LINE
  8
0
  6
CONTINUOUS
 62
     2
 10
45.0
 20
75.75
 30
0.0
 11
47.414814566
 21
76.397047613
 31
0.0
  0
TEXT
  8
0
  6
CONTINUOUS
 62
     2
 10
53.12
 20
76.75
 30
0.3
 40
3.0
  1
５０
 50
0.0
 41
0.6
 51
0.0
  7
KANJI2
  0
TEXT
  8
0
  6
CONTINUOUS
 62
     2
 10
57.02
 20
76.75
 30
0.18
 40
1.8
  1
±０．５
 50
0.0
 41
0.6
 51
0.0
  7
KANJI3
  0
LINE
  8
0
  6
CONTINUOUS
 62
     2
 10
45.0
 20
75.75
 30
0.0
 11
42.585185434
 21
76.397047613
 31
0.0
  0
LINE
  8
0
  6
CONTINUOUS
 62
     2
 10
45.0
 20
75.75
 30
0.0
 11
42.585185434
 21
75.102952387
 31
0.0
  0
LINE
  8
0
  6
CONTINUOUS
 62
     2
 10
45.0
 20
75.75
 30
0.0
 11
20.0
 21
75.75
 31
0.0
  0
LINE
  8
0
  6
CONTINUOUS
 62
     2
 10
20.0
 20
75.75
 30
0.0
 11
22.414814566
 21
75.102952387
 31
0.0
  0
LINE
  8
0
  6
CONTINUOUS
 62
     2
 10
20.0
 20
75.75
 30
0.0
 11
22.414814566
 21
76.397047613
 31
0.0
  0
TEXT
  8
0
  6
CONTINUOUS
 62
     2
 10
28.12
 20
76.75
 30
0.3
 40
3.0
  1
５０
 50
0.0
 41
0.6
 51
0.0
  7
KANJI2
  0
TEXT
  8
0
  6
CONTINUOUS
 62
     2
 10
32.02
 20
76.75
 30
0.18
 40
1.8
  1
±０．５
 50
0.0
 41
0.6
 51
0.0
  7
KANJI3
  0
LINE
  8
0
  6
CONTINUOUS
 62
     2
 10
20.0
 20
72.5
 30
0.0
 11
20.0
 21
77.75
 31
0.0
  0
LINE
  8
0
  6
CONTINUOUS
 62
     2
 10
45.0
 20
72.5
 30
0.0
 11
45.0
 21
77.75
 31
0.0
  0
LINE
  8
0
  6
CONTINUOUS
 62
     2
 10
70.0
 20
72.5
 30
0.0
 11
70.0
 21
77.75
 31
0.0
  0
LINE
  8
0
  6
CONTINUOUS
 62
     2
 10
76.25
 20
69.5
 30
0.0
 11
75.602952387
 21
67.085185434
 31
0.0
  0
LINE
  8
0
  6
CONTINUOUS
 62
     2
 10
76.25
 20
69.5
 30
0.0
 11
76.897047613
 21
67.085185434
 31
0.0
  0
LINE
  8
0
  6
CONTINUOUS
 62
     2
 10
76.25
 20
69.5
 30
0.0
 11
76.25
 21
47.0
 31
0.0
  0
LINE
  8
0
  6
CONTINUOUS
 62
     2
 10
76.25
 20
47.0
 30
0.0
 11
76.897047613
 21
49.414814566
 31
0.0
  0
LINE
  8
0
  6
CONTINUOUS
 62
     2
 10
76.25
 20
47.0
 30
0.0
 11
75.602952387
 21
49.414814566
 31
0.0
  0
TEXT
  8
0
  6
CONTINUOUS
 62
     2
 10
75.25
 20
53.43
 30
0.3
 40
3.0
  1
４５
 50
90.0
 41
0.666666667
 51
0.0
  7
KANJI1
  0
TEXT
  8
0
  6
CONTINUOUS
 62
     2
 10
75.25
 20
57.73
 30
0.18
 40
1.8
  1
±０．５
 50
90.0
 41
0.666666667
 51
0.0
  7
KANJI5
  0
LINE
  8
0
  6
CONTINUOUS
 62
     2
 10
76.25
 20
47.0
 30
0.0
 11
75.602952387
 21
44.585185434
 31
0.0
  0
LINE
  8
0
  6
CONTINUOUS
 62
     2
 10
76.25
 20
47.0
 30
0.0
 11
76.897047613
 21
44.585185434
 31
0.0
  0
LINE
  8
0
  6
CONTINUOUS
 62
     2
 10
76.25
 20
47.0
 30
0.0
 11
76.25
 21
29.5
 31
0.0
  0
LINE
  8
0
  6
CONTINUOUS
 62
     2
 10
76.25
 20
29.5
 30
0.0
 11
76.897047613
 21
31.914814566
 31
0.0
  0
LINE
  8
0
  6
CONTINUOUS
 62
     2
 10
76.25
 20
29.5
 30
0.0
 11
75.602952387
 21
31.914814566
 31
0.0
  0
TEXT
  8
0
  6
CONTINUOUS
 62
     2
 10
75.25
 20
33.43
 30
0.3
 40
3.0
  1
３５
 50
90.0
 41
0.666666667
 51
0.0
  7
KANJI1
  0
TEXT
  8
0
  6
CONTINUOUS
 62
     2
 10
75.25
 20
37.73
 30
0.18
 40
1.8
  1
±０．５
 50
90.0
 41
0.666666667
 51
0.0
  7
KANJI5
  0
LINE
  8
0
  6
CONTINUOUS
 62
     2
 10
73.0
 20
69.5
 30
0.0
 11
78.25
 21
69.5
 31
0.0
  0
LINE
  8
0
  6
CONTINUOUS
 62
     2
 10
73.0
 20
29.5
 30
0.0
 11
78.25
 21
29.5
 31
0.0
  0
LINE
  8
0
  6
CONTINUOUS
 62
     2
 10
73.0
 20
47.0
 30
0.0
 11
78.25
 21
47.0
 31
0.0
  0
LINE
  8
0
  6
CONTINUOUS
 62
     2
 10
119.192923737
 20
119.875
 30
0.0
 11
119.82304021
 21
122.294287753
 31
0.0
  0
LINE
  8
0
  6
CONTINUOUS
 62
     2
 10
119.192923737
 20
119.875
 30
0.0
 11
120.948264487
 21
121.655106416
 31
0.0
  0
TEXT
  8
0
  6
CONTINUOUS
 62
     2
 10
125.881688273
 20
132.65
 30
0.3
 40
3.0
  1
端子キャップ
 50
0.0
 41
0.9
 51
0.0
  7
KANJI4
  0
LINE
  8
0
  6
CONTINUOUS
 62
     2
 10
119.192923737
 20
119.875
 30
0.0
 11
125.881688273
 21
131.65
 31
0.0
  0
LINE
  8
0
  6
CONTINUOUS
 62
     2
 10
125.881688273
 20
131.65
 30
0.0
 11
144.181688273
 21
131.65
 31
0.0
  0
LINE
  8
0
  6
CONTINUOUS
 62
     2
 10
23.681688273
 20
128.15
 30
0.0
 11
24.311804746
 21
130.569287753
 31
0.0
  0
LINE
  8
0
  6
CONTINUOUS
 62
     2
 10
23.681688273
 20
128.15
 30
0.0
 11
25.437029023
 21
129.930106416
 31
0.0
  0
TEXT
  8
0
  6
CONTINUOUS
 62
     2
 10
40.254487028
 20
158.325
 30
0.3
 40
3.0
  1
指針
 50
0.0
 41
0.9
 51
0.0
  7
KANJI4
  0
LINE
  8
0
  6
CONTINUOUS
 62
     2
 10
23.681688273
 20
128.15
 30
0.0
 11
40.254487028
 21
157.325
 31
0.0
  0
LINE
  8
0
  6
CONTINUOUS
 62
     2
 10
40.254487028
 20
157.325
 30
0.0
 11
46.654487028
 21
157.325
 31
0.0
  0
LINE
  8
0
  6
CONTINUOUS
 62
     2
 10
101.425898032
 20
144.05
 30
0.0
 11
101.925898032
 21
144.05
 31
0.0
  0
LINE
  8
0
  6
CONTINUOUS
 62
     2
 10
104.348151936
 20
144.1
 30
0.0
 11
103.098151936
 21
144.1
 31
0.0
  0
LINE
  8
0
  6
CONTINUOUS
 62
     2
 10
104.348151936
 20
144.1
 30
0.0
 11
104.598151936
 21
143.85
 31
0.0
  0
LINE
  8
0
  6
CONTINUOUS
 62
     2
 10
104.598151936
 20
143.05
 30
0.0
 11
107.375898032
 21
143.05
 31
0.0
  0
LINE
  8
0
  6
CONTINUOUS
 62
     2
 10
107.375898032
 20
142.825
 30
0.0
 11
104.598151936
 21
142.825
 31
0.0
  0
LINE
  8
0
  6
CONTINUOUS
 62
     2
 10
104.338151936
 20
143.035
 30
0.0
 11
104.598151936
 21
143.335
 31
0.0
  0
LINE
  8
0
  6
CONTINUOUS
 62
     2
 10
107.375898032
 20
141.05
 30
0.0
 11
104.598151936
 21
141.05
 31
0.0
  0
LINE
  8
0
  6
CONTINUOUS
 62
     2
 10
104.598151936
 20
141.325
 30
0.0
 11
107.375898032
 21
141.325
 31
0.0
  0
LINE
  8
0
  6
CONTINUOUS
 62
     2
 10
104.598151936
 20
140.75
 30
0.0
 11
104.298151936
 21
141.02
 31
0.0
  0
LINE
  8
0
  6
CONTINUOUS
 62
     2
 10
104.598151936
 20
141.325
 30
0.0
 11
104.298151936
 21
141.055
 31
0.0
  0
LINE
  8
0
  6
CONTINUOUS
 62
     2
 10
107.375898032
 20
143.05
 30
0.0
 11
107.375898032
 21
141.05
 31
0.0
  0
LINE
  8
0
  6
CONTINUOUS
 62
     2
 10
101.925898032
 20
140.05
 30
0.0
 11
101.425898032
 21
140.05
 31
0.0
  0
LINE
  8
0
  6
CONTINUOUS
 62
     2
 10
104.298151936
 20
140.025
 30
0.0
 11
104.598151936
 21
140.325
 31
0.0
  0
LINE
  8
0
  6
CONTINUOUS
 62
     2
 10
103.098151936
 20
140.05
 30
0.0
 11
104.348151936
 21
140.05
 31
0.0
  0
LINE
  8
0
  6
CONTINUOUS
 62
     2
 10
101.925898032
 20
144.05
 30
0.0
 11
101.925898032
 21
140.05
 31
0.0
  0
LINE
  8
0
  6
CONTINUOUS
 62
     2
 10
103.098151936
 20
144.1
 30
0.0
 11
103.098151936
 21
140.05
 31
0.0
  0
LINE
  8
0
  6
CONTINUOUS
 62
     2
 10
104.598151936
 20
140.305
 30
0.0
 11
104.598151936
 21
143.85
 31
0.0
  0
LINE
  8
0
  6
CONTINUOUS
 62
     2
 10
104.351151936
 20
143.05
 30
0.0
 11
104.601151936
 21
142.85
 31
0.0
  0
LINE
  8
0
  6
CONTINUOUS
 62
     2
 10
104.351151936
 20
143.05
 30
0.0
 11
103.098151936
 21
143.05
 31
0.0
  0
LINE
  8
0
  6
CONTINUOUS
 62
     2
 10
103.098151936
 20
141.05
 30
0.0
 11
104.314818602
 21
141.05
 31
0.0
  0
LINE
  8
0
  6
CONTINUOUS
 62
     2
 10
103.098151936
 20
144.1
 30
0.0
 11
102.698151936
 21
144.5
 31
0.0
  0
LINE
  8
0
  6
CONTINUOUS
 62
     2
 10
102.698151936
 20
144.5
 30
0.0
 11
102.698151936
 21
139.65
 31
0.0
  0
LINE
  8
0
  6
CONTINUOUS
 62
     2
 10
103.098151936
 20
140.05
 30
0.0
 11
102.698151936
 21
139.65
 31
0.0
  0
LINE
  8
0
  6
CONTINUOUS
 62
     2
 10
101.925898032
 20
141.05
 30
0.0
 11
102.698151936
 21
141.05
 31
0.0
  0
LINE
  8
0
  6
CONTINUOUS
 62
     2
 10
102.698151936
 20
141.325
 30
0.0
 11
101.925898032
 21
141.325
 31
0.0
  0
LINE
  8
0
  6
CONTINUOUS
 62
     2
 10
102.698151936
 20
143.05
 30
0.0
 11
101.925898032
 21
143.05
 31
0.0
  0
LINE
  8
0
  6
CONTINUOUS
 62
     2
 10
101.925898032
 20
142.825
 30
0.0
 11
102.698151936
 21
142.825
 31
0.0
  0
LINE
  8
0
  6
CONTINUOUS
 62
     2
 10
101.425898032
 20
104.05
 30
0.0
 11
101.925898032
 21
104.05
 31
0.0
  0
LINE
  8
0
  6
CONTINUOUS
 62
     2
 10
104.348151936
 20
104.1
 30
0.0
 11
103.098151936
 21
104.1
 31
0.0
  0
LINE
  8
0
  6
CONTINUOUS
 62
     2
 10
104.348151936
 20
104.1
 30
0.0
 11
104.598151936
 21
103.85
 31
0.0
  0
LINE
  8
0
  6
CONTINUOUS
 62
     2
 10
104.598151936
 20
103.05
 30
0.0
 11
107.375898032
 21
103.05
 31
0.0
  0
LINE
  8
0
  6
CONTINUOUS
 62
     2
 10
107.375898032
 20
102.825
 30
0.0
 11
104.598151936
 21
102.825
 31
0.0
  0
LINE
  8
0
  6
CONTINUOUS
 62
     2
 10
104.338151936
 20
103.035
 30
0.0
 11
104.598151936
 21
103.335
 31
0.0
  0
LINE
  8
0
  6
CONTINUOUS
 62
     2
 10
107.375898032
 20
101.05
 30
0.0
 11
104.598151936
 21
101.05
 31
0.0
  0
LINE
  8
0
  6
CONTINUOUS
 62
     2
 10
104.598151936
 20
101.325
 30
0.0
 11
107.375898032
 21
101.325
 31
0.0
  0
LINE
  8
0
  6
CONTINUOUS
 62
     2
 10
104.598151936
 20
100.75
 30
0.0
 11
104.298151936
 21
101.02
 31
0.0
  0
LINE
  8
0
  6
CONTINUOUS
 62
     2
 10
104.598151936
 20
101.325
 30
0.0
 11
104.298151936
 21
101.055
 31
0.0
  0
LINE
  8
0
  6
CONTINUOUS
 62
     2
 10
107.375898032
 20
103.05
 30
0.0
 11
107.375898032
 21
101.05
 31
0.0
  0
LINE
  8
0
  6
CONTINUOUS
 62
     2
 10
101.925898032
 20
100.05
 30
0.0
 11
101.425898032
 21
100.05
 31
0.0
  0
LINE
  8
0
  6
CONTINUOUS
 62
     2
 10
104.298151936
 20
100.025
 30
0.0
 11
104.598151936
 21
100.325
 31
0.0
  0
LINE
  8
0
  6
CONTINUOUS
 62
     2
 10
103.098151936
 20
100.05
 30
0.0
 11
104.348151936
 21
100.05
 31
0.0
  0
LINE
  8
0
  6
CONTINUOUS
 62
     2
 10
101.925898032
 20
104.05
 30
0.0
 11
101.925898032
 21
100.05
 31
0.0
  0
LINE
  8
0
  6
CONTINUOUS
 62
     2
 10
103.098151936
 20
104.1
 30
0.0
 11
103.098151936
 21
100.05
 31
0.0
  0
LINE
  8
0
  6
CONTINUOUS
 62
     2
 10
104.598151936
 20
100.305
 30
0.0
 11
104.598151936
 21
103.85
 31
0.0
  0
LINE
  8
0
  6
CONTINUOUS
 62
     2
 10
104.351151936
 20
103.05
 30
0.0
 11
104.601151936
 21
102.85
 31
0.0
  0
LINE
  8
0
  6
CONTINUOUS
 62
     2
 10
104.351151936
 20
103.05
 30
0.0
 11
103.098151936
 21
103.05
 31
0.0
  0
LINE
  8
0
  6
CONTINUOUS
 62
     2
 10
103.098151936
 20
101.05
 30
0.0
 11
104.314818602
 21
101.05
 31
0.0
  0
LINE
  8
0
  6
CONTINUOUS
 62
     2
 10
103.098151936
 20
104.1
 30
0.0
 11
102.698151936
 21
104.5
 31
0.0
  0
LINE
  8
0
  6
CONTINUOUS
 62
     2
 10
102.698151936
 20
104.5
 30
0.0
 11
102.698151936
 21
99.65
 31
0.0
  0
LINE
  8
0
  6
CONTINUOUS
 62
     2
 10
103.098151936
 20
100.05
 30
0.0
 11
102.698151936
 21
99.65
 31
0.0
  0
LINE
  8
0
  6
CONTINUOUS
 62
     2
 10
101.925898032
 20
101.05
 30
0.0
 11
102.698151936
 21
101.05
 31
0.0
  0
LINE
  8
0
  6
CONTINUOUS
 62
     2
 10
102.698151936
 20
101.325
 30
0.0
 11
101.925898032
 21
101.325
 31
0.0
  0
LINE
  8
0
  6
CONTINUOUS
 62
     2
 10
102.698151936
 20
103.05
 30
0.0
 11
101.925898032
 21
103.05
 31
0.0
  0
LINE
  8
0
  6
CONTINUOUS
 62
     2
 10
101.925898032
 20
102.825
 30
0.0
 11
102.698151936
 21
102.825
 31
0.0
  0
LINE
  8
0
  6
LTYPE1
 62
     2
 10
116.425898032
 20
109.55
 30
0.0
 11
116.675898032
 21
109.55
 31
0.0
  0
LINE
  8
0
  6
CONTINUOUS
 62
     2
 10
116.425898032
 20
117.55
 30
0.0
 11
116.925898032
 21
117.55
 31
0.0
  0
LINE
  8
0
  6
CONTINUOUS
 62
     2
 10
116.925898032
 20
113.55
 30
0.0
 11
116.425898032
 21
113.55
 31
0.0
  0
LINE
  8
0
  6
CONTINUOUS
 62
     2
 10
116.925898032
 20
117.55
 30
0.0
 11
116.925898032
 21
113.55
 31
0.0
  0
LINE
  8
0
  6
CONTINUOUS
 62
     2
 10
116.925898032
 20
117.35
 30
0.0
 11
116.925898032
 21
117.475
 31
0.0
  0
LINE
  8
0
  6
LTYPE1
 62
     2
 10
117.325898032
 20
117.475
 30
0.0
 11
117.325898032
 21
112.1
 31
0.0
  0
LINE
  8
0
  6
LTYPE1
 62
     2
 10
116.925898032
 20
117.475
 30
0.0
 11
117.325898032
 21
117.475
 31
0.0
  0
LINE
  8
0
  6
LTYPE1
 62
     2
 10
116.425898032
 20
112.1
 30
0.0
 11
118.925898032
 21
112.1
 31
0.0
  0
LINE
  8
0
  6
LTYPE1
 62
     2
 10
118.925898032
 20
112.1
 30
0.0
 11
118.925898032
 21
109.1
 31
0.0
  0
LINE
  8
0
  6
LTYPE1
 62
     2
 10
116.925898032
 20
113.55
 30
0.0
 11
116.925898032
 21
112.1
 31
0.0
  0
ARC
  8
0
  6
LTYPE1
 62
     2
 10
120.425898032
 20
116.0
 30
0.0
 40
3.0
 50
0.0
 51
90.0
  0
LINE
  8
0
  6
LTYPE1
 62
     2
 10
116.425898032
 20
118.4
 30
0.0
 11
116.675898032
 21
118.4
 31
0.0
  0
LINE
  8
0
  6
LTYPE1
 62
     2
 10
116.675898032
 20
107.5
 30
0.0
 11
116.675898032
 21
118.4
 31
0.0
  0
LINE
  8
0
  6
LTYPE1
 62
     2
 10
116.425898032
 20
119.0
 30
0.0
 11
120.425898032
 21
119.0
 31
0.0
  0
LINE
  8
0
  6
LTYPE1
 62
     2
 10
123.425898032
 20
116.0
 30
0.0
 11
123.425898032
 21
110.5
 31
0.0
  0
LINE
  8
0
  6
LTYPE1
 62
     2
 10
120.425898032
 20
107.5
 30
0.0
 11
116.425898032
 21
107.5
 31
0.0
  0
ARC
  8
0
  6
LTYPE1
 62
     2
 10
120.425898032
 20
110.5
 30
0.0
 40
3.0
 50
270.0
 51
0.0
  0
LINE
  8
0
  6
CONTINUOUS
 62
     2
 10
120.248151936
 20
117.6
 30
0.0
 11
118.998151936
 21
117.6
 31
0.0
  0
LINE
  8
0
  6
CONTINUOUS
 62
     2
 10
120.248151936
 20
117.6
 30
0.0
 11
120.498151936
 21
117.35
 31
0.0
  0
LINE
  8
0
  6
CONTINUOUS
 62
     2
 10
118.325898032
 20
117.35
 30
0.0
 11
118.825898032
 21
117.35
 31
0.0
  0
LINE
  8
0
  6
CONTINUOUS
 62
     2
 10
118.825898032
 20
117.35
 30
0.0
 11
118.525898032
 21
115.7
 31
0.0
  0
LINE
  8
0
  6
CONTINUOUS
 62
     2
 10
118.525898032
 20
115.7
 30
0.0
 11
118.025898032
 21
115.7
 31
0.0
  0
LINE
  8
0
  6
CONTINUOUS
 62
     2
 10
118.025898032
 20
115.7
 30
0.0
 11
118.325898032
 21
117.35
 31
0.0
  0
LINE
  8
0
  6
CONTINUOUS
 62
     2
 10
120.238151936
 20
116.535
 30
0.0
 11
120.498151936
 21
116.835
 31
0.0
  0
LINE
  8
0
  6
CONTINUOUS
 62
     2
 10
118.639534396
 20
116.325
 30
0.0
 11
118.998151936
 21
116.325
 31
0.0
  0
LINE
  8
0
  6
CONTINUOUS
 62
     2
 10
118.775898032
 20
115.4
 30
0.0
 11
118.275898032
 21
115.4
 31
0.0
  0
LINE
  8
0
  6
CONTINUOUS
 62
     2
 10
120.498151936
 20
114.825
 30
0.0
 11
120.198151936
 21
114.555
 31
0.0
  0
LINE
  8
0
  6
CONTINUOUS
 62
     2
 10
118.998151936
 20
114.825
 30
0.0
 11
118.698151936
 21
114.825
 31
0.0
  0
LINE
  8
0
  6
CONTINUOUS
 62
     2
 10
120.198151936
 20
113.525
 30
0.0
 11
120.498151936
 21
113.825
 31
0.0
  0
LINE
  8
0
  6
CONTINUOUS
 62
     2
 10
118.998151936
 20
113.55
 30
0.0
 11
120.248151936
 21
113.55
 31
0.0
  0
LINE
  8
0
  6
CONTINUOUS
 62
     2
 10
118.025898032
 20
113.8
 30
0.0
 11
118.525898032
 21
113.8
 31
0.0
  0
LINE
  8
0
  6
CONTINUOUS
 62
     2
 10
118.275898032
 20
115.4
 30
0.0
 11
118.025898032
 21
113.8
 31
0.0
  0
LINE
  8
0
  6
CONTINUOUS
 62
     2
 10
118.525898032
 20
113.8
 30
0.0
 11
118.775898032
 21
115.4
 31
0.0
  0
LINE
  8
0
  6
CONTINUOUS
 62
     2
 10
118.998151936
 20
117.6
 30
0.0
 11
118.998151936
 21
113.55
 31
0.0
  0
LINE
  8
0
  6
CONTINUOUS
 62
     2
 10
120.498151936
 20
113.805
 30
0.0
 11
120.498151936
 21
117.35
 31
0.0
  0
LINE
  8
0
  6
CONTINUOUS
 62
     2
 10
120.251151936
 20
116.55
 30
0.0
 11
120.501151936
 21
116.35
 31
0.0
  0
LINE
  8
0
  6
CONTINUOUS
 62
     2
 10
120.098151936
 20
116.55
 30
0.0
 11
120.251151936
 21
116.55
 31
0.0
  0
LINE
  8
0
  6
CONTINUOUS
 62
     2
 10
118.680443487
 20
116.55
 30
0.0
 11
120.251151936
 21
116.55
 31
0.0
  0
LINE
  8
0
  6
CONTINUOUS
 62
     2
 10
120.498151936
 20
114.25
 30
0.0
 11
120.198151936
 21
114.52
 31
0.0
  0
LINE
  8
0
  6
CONTINUOUS
 62
     2
 10
120.19259638
 20
114.55
 30
0.0
 11
118.643085532
 21
114.55
 31
0.0
  0
LINE
  8
0
  6
CONTINUOUS
 62
     2
 10
122.375898032
 20
116.325
 30
0.0
 11
120.498151936
 21
116.325
 31
0.0
  0
LINE
  8
0
  6
CONTINUOUS
 62
     2
 10
120.498151936
 20
116.55
 30
0.0
 11
122.375898032
 21
116.55
 31
0.0
  0
LINE
  8
0
  6
CONTINUOUS
 62
     2
 10
120.498151936
 20
114.825
 30
0.0
 11
122.375898032
 21
114.825
 31
0.0
  0
LINE
  8
0
  6
CONTINUOUS
 62
     2
 10
122.375898032
 20
114.55
 30
0.0
 11
120.498151936
 21
114.55
 31
0.0
  0
LINE
  8
0
  6
CONTINUOUS
 62
     2
 10
117.325898032
 20
113.25
 30
0.0
 11
117.550898032
 21
113.25
 31
0.0
  0
LINE
  8
0
  6
CONTINUOUS
 62
     2
 10
117.550898032
 20
113.25
 30
0.0
 11
117.550898032
 21
117.75
 31
0.0
  0
LINE
  8
0
  6
CONTINUOUS
 62
     2
 10
117.550898032
 20
117.75
 30
0.0
 11
117.325898032
 21
117.75
 31
0.0
  0
LINE
  8
0
  6
CONTINUOUS
 62
     2
 10
117.325898032
 20
117.75
 30
0.0
 11
117.325898032
 21
113.25
 31
0.0
  0
LINE
  8
0
  6
CONTINUOUS
 62
     2
 10
117.325898032
 20
116.55
 30
0.0
 11
116.925898032
 21
116.55
 31
0.0
  0
LINE
  8
0
  6
CONTINUOUS
 62
     2
 10
118.180298032
 20
116.55
 30
0.0
 11
117.550898032
 21
116.55
 31
0.0
  0
LINE
  8
0
  6
CONTINUOUS
 62
     2
 10
117.325898032
 20
116.325
 30
0.0
 11
116.925898032
 21
116.325
 31
0.0
  0
LINE
  8
0
  6
CONTINUOUS
 62
     2
 10
118.180298032
 20
116.325
 30
0.0
 11
117.550898032
 21
116.325
 31
0.0
  0
LINE
  8
0
  6
CONTINUOUS
 62
     2
 10
117.325898032
 20
114.825
 30
0.0
 11
116.925898032
 21
114.825
 31
0.0
  0
LINE
  8
0
  6
CONTINUOUS
 62
     2
 10
118.180298032
 20
114.825
 30
0.0
 11
117.550898032
 21
114.825
 31
0.0
  0
LINE
  8
0
  6
CONTINUOUS
 62
     2
 10
117.325898032
 20
114.55
 30
0.0
 11
116.925898032
 21
114.55
 31
0.0
  0
LINE
  8
0
  6
CONTINUOUS
 62
     2
 10
118.080298032
 20
114.55
 30
0.0
 11
117.550898032
 21
114.55
 31
0.0
  0
LINE
  8
0
  6
CONTINUOUS
 62
     2
 10
122.375898032
 20
116.55
 30
0.0
 11
122.375898032
 21
114.55
 31
0.0
  0
POINT
  8
0
  6
CONTINUOUS
 62
     2
 10
170.0
 20
112.1
 30
0.0
  0
LINE
  8
0
  6
LTYPE1
 62
     2
 10
170.0
 20
112.1
 30
0.0
 11
167.5
 21
112.1
 31
0.0
  0
LINE
  8
0
  6
LTYPE1
 62
     2
 10
167.5
 20
112.1
 30
0.0
 11
167.5
 21
109.1
 31
0.0
  0
LINE
  8
0
  6
LTYPE1
 62
     2
 10
170.0
 20
112.1
 30
0.0
 11
170.0
 21
109.1
 31
0.0
  0
LINE
  8
0
  6
CONTINUOUS
 62
     2
 10
168.75
 20
117.525
 30
0.0
 11
166.996298557
 21
116.5125
 31
0.0
  0
LINE
  8
0
  6
CONTINUOUS
 62
     2
 10
166.996298557
 20
116.5125
 30
0.0
 11
166.996298557
 21
114.4875
 31
0.0
  0
LINE
  8
0
  6
CONTINUOUS
 62
     2
 10
166.996298557
 20
114.4875
 30
0.0
 11
168.75
 21
113.475
 31
0.0
  0
LINE
  8
0
  6
CONTINUOUS
 62
     2
 10
168.75
 20
113.475
 30
0.0
 11
170.503701443
 21
114.4875
 31
0.0
  0
LINE
  8
0
  6
CONTINUOUS
 62
     2
 10
170.503701443
 20
114.4875
 30
0.0
 11
170.503701443
 21
116.5125
 31
0.0
  0
LINE
  8
0
  6
CONTINUOUS
 62
     2
 10
170.503701443
 20
116.5125
 30
0.0
 11
168.75
 21
117.525
 31
0.0
  0
CIRCLE
  8
0
  6
CONTINUOUS
 62
     2
 10
168.75
 20
115.5
 30
0.0
 40
0.8
  0
CIRCLE
  8
0
  6
CONTINUOUS
 62
     2
 10
168.75
 20
115.5
 30
0.0
 40
1.0
  0
ARC
  8
0
  6
LTYPE1
 62
     2
 10
168.75
 20
115.5
 30
0.0
 40
1.975
 50
328.025496594
 51
217.415803658
  0
LINE
  8
0
  6
LTYPE1
 62
     2
 10
170.318637944
 20
114.3
 30
0.0
 11
169.66147392
 21
113.350763076
 31
0.0
  0
LINE
  8
0
  6
LTYPE1
 62
     2
 10
167.181362056
 20
114.3
 30
0.0
 11
167.838529527
 21
113.350758098
 31
0.0
  0
ARC
  8
0
  6
LTYPE1
 62
     2
 10
166.194145143
 20
112.21233814
 30
0.0
 40
2.0
 50
10.612929601
 51
34.695153531
  0
ARC
  8
0
  6
LTYPE1
 62
     2
 10
171.305858303
 20
112.212343118
 30
0.0
 40
2.0
 50
145.304846469
 51
169.387402194
  0
LINE
  8
0
  6
LTYPE1
 62
     2
 10
169.340068544
 20
112.580678053
 30
0.0
 11
169.250002697
 21
112.1
 31
0.0
  0
LINE
  8
0
  6
LTYPE1
 62
     2
 10
168.159932769
 20
112.580684458
 30
0.0
 11
168.250002697
 21
112.1
 31
0.0
  0
CIRCLE
  8
0
  6
CONTINUOUS
 62
     2
 10
168.75
 20
115.5
 30
0.0
 40
2.25
  0
POINT
  8
0
  6
CONTINUOUS
 62
     2
 10
182.5
 20
112.1
 30
0.0
  0
LINE
  8
0
  6
LTYPE1
 62
     2
 10
182.5
 20
112.1
 30
0.0
 11
180.0
 21
112.1
 31
0.0
  0
LINE
  8
0
  6
LTYPE1
 62
     2
 10
180.0
 20
112.1
 30
0.0
 11
180.0
 21
109.1
 31
0.0
  0
LINE
  8
0
  6
LTYPE1
 62
     2
 10
182.5
 20
112.1
 30
0.0
 11
182.5
 21
109.1
 31
0.0
  0
LINE
  8
0
  6
CONTINUOUS
 62
     2
 10
181.25
 20
117.525
 30
0.0
 11
179.496298557
 21
116.5125
 31
0.0
  0
LINE
  8
0
  6
CONTINUOUS
 62
     2
 10
179.496298557
 20
116.5125
 30
0.0
 11
179.496298557
 21
114.4875
 31
0.0
  0
LINE
  8
0
  6
CONTINUOUS
 62
     2
 10
179.496298557
 20
114.4875
 30
0.0
 11
181.25
 21
113.475
 31
0.0
  0
LINE
  8
0
  6
CONTINUOUS
 62
     2
 10
181.25
 20
113.475
 30
0.0
 11
183.003701443
 21
114.4875
 31
0.0
  0
LINE
  8
0
  6
CONTINUOUS
 62
     2
 10
183.003701443
 20
114.4875
 30
0.0
 11
183.003701443
 21
116.5125
 31
0.0
  0
LINE
  8
0
  6
CONTINUOUS
 62
     2
 10
183.003701443
 20
116.5125
 30
0.0
 11
181.25
 21
117.525
 31
0.0
  0
CIRCLE
  8
0
  6
CONTINUOUS
 62
     2
 10
181.25
 20
115.5
 30
0.0
 40
0.8
  0
CIRCLE
  8
0
  6
CONTINUOUS
 62
     2
 10
181.25
 20
115.5
 30
0.0
 40
1.0
  0
ARC
  8
0
  6
LTYPE1
 62
     2
 10
181.25
 20
115.5
 30
0.0
 40
1.975
 50
328.025496594
 51
217.415803658
  0
LINE
  8
0
  6
LTYPE1
 62
     2
 10
182.818637944
 20
114.3
 30
0.0
 11
182.16147392
 21
113.350763076
 31
0.0
  0
LINE
  8
0
  6
LTYPE1
 62
     2
 10
179.681362056
 20
114.3
 30
0.0
 11
180.338529527
 21
113.350758098
 31
0.0
  0
ARC
  8
0
  6
LTYPE1
 62
     2
 10
178.694145143
 20
112.21233814
 30
0.0
 40
2.0
 50
10.612929601
 51
34.695153531
  0
ARC
  8
0
  6
LTYPE1
 62
     2
 10
183.805858303
 20
112.212343118
 30
0.0
 40
2.0
 50
145.304846469
 51
169.387402194
  0
LINE
  8
0
  6
LTYPE1
 62
     2
 10
181.840068544
 20
112.580678053
 30
0.0
 11
181.750002697
 21
112.1
 31
0.0
  0
LINE
  8
0
  6
LTYPE1
 62
     2
 10
180.659932769
 20
112.580684458
 30
0.0
 11
180.750002697
 21
112.1
 31
0.0
  0
CIRCLE
  8
0
  6
CONTINUOUS
 62
     2
 10
181.25
 20
115.5
 30
0.0
 40
2.25
  0
CIRCLE
  8
0
  6
CONTINUOUS
 62
     2
 10
150.0
 20
102.0
 30
0.0
 40
2.35
  0
CIRCLE
  8
0
  6
CONTINUOUS
 62
     2
 10
150.0
 20
142.0
 30
0.0
 40
2.35
  0
CIRCLE
  8
0
  6
CONTINUOUS
 62
     2
 10
200.0
 20
142.0
 30
0.0
 40
2.35
  0
CIRCLE
  8
0
  6
CONTINUOUS
 62
     2
 10
200.0
 20
102.0
 30
0.0
 40
2.35
  0
LINE
  8
2
  6
CONTINUOUS
 62
     2
 10
56.810426617
 20
134.620923227
 30
0.0
 11
56.533262757
 21
134.735728256
 31
0.0
  0
LINE
  8
2
  6
CONTINUOUS
 62
     2
 10
56.533262757
 20
134.735728256
 30
0.0
 11
47.334616915
 21
113.375
 31
0.0
  0
LINE
  8
2
  6
CONTINUOUS
 62
     2
 10
56.810426617
 20
134.620923227
 30
0.0
 11
48.354930493
 21
113.375
 31
0.0
  0
CIRCLE
  8
2
  6
CONTINUOUS
 62
     2
 10
45.0
 20
105.375
 30
0.0
 40
1.5
  0
CIRCLE
  8
2
  6
CONTINUOUS
 62
     2
 10
45.0
 20
105.375
 30
0.0
 40
1.375
  0
LINE
  8
2
  6
CONTINUOUS
 62
     2
 10
43.647918272
 20
105.625
 30
0.0
 11
46.352081728
 21
105.625
 31
0.0
  0
LINE
  8
2
  6
CONTINUOUS
 62
     2
 10
43.647918272
 20
105.125
 30
0.0
 11
46.352081728
 21
105.125
 31
0.0
  0
LINE
  8
2
  6
CONTINUOUS
 62
     2
 10
56.810426617
 20
134.620923227
 30
0.0
 11
57.44054309
 21
137.040210979
 31
0.0
  0
LINE
  8
2
  6
CONTINUOUS
 62
     2
 10
56.810426617
 20
134.620923227
 30
0.0
 11
58.565767366
 21
136.401029643
 31
0.0
  0
TEXT
  8
2
  6
CONTINUOUS
 62
     2
 10
67.058612927
 20
150.5
 30
0.3
 40
3.0
  1
予定指針（赤色）
 50
0.0
 41
0.9
 51
0.0
  7
KANJI4
  0
LINE
  8
2
  6
CONTINUOUS
 62
     2
 10
65.262455581
 20
149.5
 30
0.0
 11
89.958612927
 21
149.5
 31
0.0
  0
LINE
  8
2
  6
CONTINUOUS
 62
     2
 10
56.810426617
 20
134.620923227
 30
0.0
 11
65.262455581
 21
149.5
 31
0.0
  0
LINE
  8
0
  6
CONTINUOUS
 62
     2
 10
43.807675558
 20
98.375
 30
0.0
 11
43.177559085
 21
95.955712247
 31
0.0
  0
LINE
  8
0
  6
CONTINUOUS
 62
     2
 10
43.807675558
 20
98.375
 30
0.0
 11
42.052334809
 21
96.594893584
 31
0.0
  0
LINE
  8
0
  6
CONTINUOUS
 62
     2
 10
43.807675558
 20
98.375
 30
0.0
 11
36.707076263
 21
85.875
 31
0.0
  0
TEXT
  8
0
  6
CONTINUOUS
 62
     2
 10
21.507076263
 20
86.875
 30
0.3
 40
3.0
  1
零位調整器
 50
0.0
 41
0.9
 51
0.0
  7
KANJI4
  0
LINE
  8
0
  6
CONTINUOUS
 62
     2
 10
21.507076263
 20
85.875
 30
0.0
 11
36.707076263
 21
85.875
 31
0.0
  0
LINE
  8
2
  6
CONTINUOUS
 62
     2
 10
46.3
 20
104.4
 30
0.0
 11
46.930116473
 21
101.980712247
 31
0.0
  0
LINE
  8
2
  6
CONTINUOUS
 62
     2
 10
46.3
 20
104.4
 30
0.0
 11
48.055340749
 21
102.619893584
 31
0.0
  0
TEXT
  8
2
  6
CONTINUOUS
 62
     2
 10
57.944982844
 20
84.9
 30
0.3
 40
3.0
  1
予定指針調整器
 50
0.0
 41
0.9
 51
0.0
  7
KANJI4
  0
LINE
  8
2
  6
CONTINUOUS
 62
     2
 10
57.944982844
 20
83.9
 30
0.0
 11
79.344982844
 21
83.9
 31
0.0
  0
LINE
  8
2
  6
CONTINUOUS
 62
     2
 10
46.3
 20
104.4
 30
0.0
 11
57.944982844
 21
83.9
 31
0.0
  0
TEXT
  8
0
  6
CONTINUOUS
 62
     1
 10
129.0
 20
25.5
 30
0.35
 40
3.5
  1
配電盤用パネル計器
 50
0.0
 41
0.9
 51
0.0
  7
KANJI6
  0
TEXT
  8
0
  6
CONTINUOUS
 62
     1
 10
129.0
 20
37.0
 30
0.35
 40
3.5
  1
ＡＣＦ－１２ＮＢ
 50
0.0
 41
0.9
 51
0.0
  7
KANJI6
  0
TEXT
  8
0
  6
CONTINUOUS
 62
     2
 10
129.0
 20
30.0
 30
0.3
 40
3.0
  1
端子キャップ付　予定指針付
 50
0.0
 41
0.9
 51
0.0
  7
KANJI4
  0
TEXT
  8
0
  6
CONTINUOUS
 62
     3
 10
145.0
 20
10.0
 30
0.6
 40
6.0
  1
ＭＳ－１１５９８Ａ
 50
0.0
 41
0.9
 51
0.0
  7
KANJI7
  0
TEXT
  8
0
  6
CONTINUOUS
 62
     2
 10
121.881688273
 20
136.65
 30
0.3
 40
3.0
  1
（オプション）
 50
0.0
 41
0.9
 51
0.0
  7
KANJI4
  0
TEXT
  8
0
  6
CONTINUOUS
 62
     2
 10
110.425898032
 20
112.0
 30
0.5
 40
3.0
  1
φ８５
 50
90.0
 41
0.666666667
 51
0.0
  7
KANJI8
  0
LINE
  8
0
  6
LTYPE2
 62
     2
 10
9.5
 20
122.0
 30
0.0
 11
79.2
 21
122.0
 31
0.0
  0
LINE
  8
0
  6
LTYPE2
 62
     2
 10
19.9
 20
47.0
 30
0.0
 11
72.5
 21
47.0
 31
0.0
  0
LINE
  8
0
  6
LTYPE2
 62
     2
 10
137.7
 20
122.0
 30
0.0
 11
207.0
 21
122.0
 31
0.0
  0
LINE
  8
0
  6
LTYPE2
 62
     2
 10
89.9
 20
122.0
 30
0.0
 11
126.2
 21
122.0
 31
0.0
  0
ENDSEC
  0
EOF
