  0
SECTION
  2
HEADER
  9
$ACADVER
  1
AC1009
  9
$DWGCODEPAGE
  3
dos932
  9
$EXTMIN
 10
0.0
 20
0.0
 30
0.0
  9
$EXTMAX
 10
297.0
 20
210.0
 30
0.0
  9
$LIMMIN
 10
0.0
 20
0.0
  9
$LIMMAX
 10
297.0
 20
210.0
  9
$LTSCALE
 40
1.0
  9
$PDMODE
 70
     0
  0
ENDSEC
  0
SECTION
  2
TABLES
  0
TABLE
  2
VPORT
 70
     1
  0
VPORT
  2
*ACTIVE
 70
     0
 10
0.0
 20
0.0
 11
1.0
 21
1.0
 12
148.5
 22
105.0
 13
0.0
 23
0.0
 14
10.0
 24
10.0
 15
10.0
 25
10.0
 16
0.0
 26
0.0
 36
1.0
 17
0.0
 27
0.0
 37
0.0
 40
297.0
 41
1.414285714
 42
50.0
 43
0.0
 44
0.0
 50
0.0
 51
0.0
 71
     0
 72
  1000
 73
     1
 74
     3
 75
     0
 76
     0
 77
     0
 78
     0
  0
ENDTAB
  0
TABLE
  2
LTYPE
 70
     3
  0
LTYPE
  2
CONTINUOUS
 70
    64
  3
Solid line
 72
    65
 73
     0
 40
0.0
  0
LTYPE
  2
LTYPE1
 70
    64
  3
HIDDEN
 72
    65
 73
     2
 40
1.0
 49
0.6
 49
-0.4
  0
LTYPE
  2
LTYPE2
 70
    64
  3
CENTER
 72
    65
 73
     4
 40
5.0
 49
3.5
 49
-0.5
 49
0.5
 49
-0.5
  0
ENDTAB
  0
TABLE
  2
LAYER
 70
   128
  0
LAYER
  2
0
 70
     0
 62
     7
  6
CONTINUOUS
  0
LAYER
  2
2
 70
     0
 62
     7
  6
CONTINUOUS
  0
LAYER
  2
3
 70
     0
 62
     7
  6
CONTINUOUS
  0
LAYER
  2
4
 70
     0
 62
     7
  6
CONTINUOUS
  0
LAYER
  2
5
 70
     0
 62
     7
  6
CONTINUOUS
  0
LAYER
  2
6
 70
     0
 62
     7
  6
CONTINUOUS
  0
LAYER
  2
7
 70
     0
 62
     7
  6
CONTINUOUS
  0
LAYER
  2
8
 70
     0
 62
     7
  6
CONTINUOUS
  0
LAYER
  2
9
 70
     0
 62
     7
  6
CONTINUOUS
  0
LAYER
  2
10
 70
     0
 62
     7
  6
CONTINUOUS
  0
LAYER
  2
11
 70
     0
 62
     7
  6
CONTINUOUS
  0
LAYER
  2
12
 70
     0
 62
     7
  6
CONTINUOUS
  0
LAYER
  2
13
 70
     0
 62
     7
  6
CONTINUOUS
  0
LAYER
  2
14
 70
     0
 62
     7
  6
CONTINUOUS
  0
LAYER
  2
15
 70
     0
 62
     7
  6
CONTINUOUS
  0
LAYER
  2
16
 70
     0
 62
     7
  6
CONTINUOUS
  0
LAYER
  2
17
 70
     0
 62
     7
  6
CONTINUOUS
  0
LAYER
  2
18
 70
     0
 62
     7
  6
CONTINUOUS
  0
LAYER
  2
19
 70
     0
 62
     7
  6
CONTINUOUS
  0
LAYER
  2
20
 70
     0
 62
     7
  6
CONTINUOUS
  0
LAYER
  2
21
 70
     0
 62
     7
  6
CONTINUOUS
  0
LAYER
  2
22
 70
     0
 62
     7
  6
CONTINUOUS
  0
LAYER
  2
23
 70
     0
 62
     7
  6
CONTINUOUS
  0
LAYER
  2
24
 70
     0
 62
     7
  6
CONTINUOUS
  0
LAYER
  2
25
 70
     0
 62
     7
  6
CONTINUOUS
  0
LAYER
  2
26
 70
     0
 62
     7
  6
CONTINUOUS
  0
LAYER
  2
27
 70
     0
 62
     7
  6
CONTINUOUS
  0
LAYER
  2
28
 70
     0
 62
     7
  6
CONTINUOUS
  0
LAYER
  2
29
 70
     0
 62
     7
  6
CONTINUOUS
  0
LAYER
  2
30
 70
     0
 62
     7
  6
CONTINUOUS
  0
LAYER
  2
31
 70
     0
 62
     7
  6
CONTINUOUS
  0
LAYER
  2
32
 70
     0
 62
     7
  6
CONTINUOUS
  0
LAYER
  2
33
 70
     0
 62
     7
  6
CONTINUOUS
  0
LAYER
  2
34
 70
     0
 62
     7
  6
CONTINUOUS
  0
LAYER
  2
35
 70
     0
 62
     7
  6
CONTINUOUS
  0
LAYER
  2
36
 70
     0
 62
     7
  6
CONTINUOUS
  0
LAYER
  2
37
 70
     0
 62
     7
  6
CONTINUOUS
  0
LAYER
  2
38
 70
     0
 62
     7
  6
CONTINUOUS
  0
LAYER
  2
39
 70
     0
 62
     7
  6
CONTINUOUS
  0
LAYER
  2
40
 70
     0
 62
     7
  6
CONTINUOUS
  0
LAYER
  2
41
 70
     0
 62
     7
  6
CONTINUOUS
  0
LAYER
  2
42
 70
     0
 62
     7
  6
CONTINUOUS
  0
LAYER
  2
43
 70
     0
 62
     7
  6
CONTINUOUS
  0
LAYER
  2
44
 70
     0
 62
     7
  6
CONTINUOUS
  0
LAYER
  2
45
 70
     0
 62
     7
  6
CONTINUOUS
  0
LAYER
  2
46
 70
     0
 62
     7
  6
CONTINUOUS
  0
LAYER
  2
47
 70
     0
 62
     7
  6
CONTINUOUS
  0
LAYER
  2
48
 70
     0
 62
     7
  6
CONTINUOUS
  0
LAYER
  2
49
 70
     0
 62
     7
  6
CONTINUOUS
  0
LAYER
  2
50
 70
     0
 62
     7
  6
CONTINUOUS
  0
LAYER
  2
51
 70
     0
 62
     7
  6
CONTINUOUS
  0
LAYER
  2
52
 70
     0
 62
     7
  6
CONTINUOUS
  0
LAYER
  2
53
 70
     0
 62
     7
  6
CONTINUOUS
  0
LAYER
  2
54
 70
     0
 62
     7
  6
CONTINUOUS
  0
LAYER
  2
55
 70
     0
 62
     7
  6
CONTINUOUS
  0
LAYER
  2
56
 70
     0
 62
     7
  6
CONTINUOUS
  0
LAYER
  2
57
 70
     0
 62
     7
  6
CONTINUOUS
  0
LAYER
  2
58
 70
     0
 62
     7
  6
CONTINUOUS
  0
LAYER
  2
59
 70
     0
 62
     7
  6
CONTINUOUS
  0
LAYER
  2
60
 70
     0
 62
     7
  6
CONTINUOUS
  0
LAYER
  2
61
 70
     0
 62
     7
  6
CONTINUOUS
  0
LAYER
  2
62
 70
     0
 62
     7
  6
CONTINUOUS
  0
LAYER
  2
63
 70
     0
 62
     7
  6
CONTINUOUS
  0
LAYER
  2
64
 70
     0
 62
     7
  6
CONTINUOUS
  0
LAYER
  2
65
 70
     0
 62
     7
  6
CONTINUOUS
  0
LAYER
  2
66
 70
     0
 62
     7
  6
CONTINUOUS
  0
LAYER
  2
67
 70
     0
 62
     7
  6
CONTINUOUS
  0
LAYER
  2
68
 70
     0
 62
     7
  6
CONTINUOUS
  0
LAYER
  2
69
 70
     0
 62
     7
  6
CONTINUOUS
  0
LAYER
  2
70
 70
     0
 62
     7
  6
CONTINUOUS
  0
LAYER
  2
71
 70
     0
 62
     7
  6
CONTINUOUS
  0
LAYER
  2
72
 70
     0
 62
     7
  6
CONTINUOUS
  0
LAYER
  2
73
 70
     0
 62
     7
  6
CONTINUOUS
  0
LAYER
  2
74
 70
     0
 62
     7
  6
CONTINUOUS
  0
LAYER
  2
75
 70
     0
 62
     7
  6
CONTINUOUS
  0
LAYER
  2
76
 70
     0
 62
     7
  6
CONTINUOUS
  0
LAYER
  2
77
 70
     0
 62
     7
  6
CONTINUOUS
  0
LAYER
  2
78
 70
     0
 62
     7
  6
CONTINUOUS
  0
LAYER
  2
79
 70
     0
 62
     7
  6
CONTINUOUS
  0
LAYER
  2
80
 70
     0
 62
     7
  6
CONTINUOUS
  0
LAYER
  2
81
 70
     0
 62
     7
  6
CONTINUOUS
  0
LAYER
  2
82
 70
     0
 62
     7
  6
CONTINUOUS
  0
LAYER
  2
83
 70
     0
 62
     7
  6
CONTINUOUS
  0
LAYER
  2
84
 70
     0
 62
     7
  6
CONTINUOUS
  0
LAYER
  2
85
 70
     0
 62
     7
  6
CONTINUOUS
  0
LAYER
  2
86
 70
     0
 62
     7
  6
CONTINUOUS
  0
LAYER
  2
87
 70
     0
 62
     7
  6
CONTINUOUS
  0
LAYER
  2
88
 70
     0
 62
     7
  6
CONTINUOUS
  0
LAYER
  2
89
 70
     0
 62
     7
  6
CONTINUOUS
  0
LAYER
  2
90
 70
     0
 62
     7
  6
CONTINUOUS
  0
LAYER
  2
91
 70
     0
 62
     7
  6
CONTINUOUS
  0
LAYER
  2
92
 70
     0
 62
     7
  6
CONTINUOUS
  0
LAYER
  2
93
 70
     0
 62
     7
  6
CONTINUOUS
  0
LAYER
  2
94
 70
     0
 62
     7
  6
CONTINUOUS
  0
LAYER
  2
95
 70
     0
 62
     7
  6
CONTINUOUS
  0
LAYER
  2
96
 70
     0
 62
     7
  6
CONTINUOUS
  0
LAYER
  2
97
 70
     0
 62
     7
  6
CONTINUOUS
  0
LAYER
  2
98
 70
     0
 62
     7
  6
CONTINUOUS
  0
LAYER
  2
99
 70
     0
 62
     7
  6
CONTINUOUS
  0
LAYER
  2
100
 70
     0
 62
     7
  6
CONTINUOUS
  0
LAYER
  2
101
 70
     0
 62
     7
  6
CONTINUOUS
  0
LAYER
  2
102
 70
     0
 62
     7
  6
CONTINUOUS
  0
LAYER
  2
103
 70
     0
 62
     7
  6
CONTINUOUS
  0
LAYER
  2
104
 70
     0
 62
     7
  6
CONTINUOUS
  0
LAYER
  2
105
 70
     0
 62
     7
  6
CONTINUOUS
  0
LAYER
  2
106
 70
     0
 62
     7
  6
CONTINUOUS
  0
LAYER
  2
107
 70
     0
 62
     7
  6
CONTINUOUS
  0
LAYER
  2
108
 70
     0
 62
     7
  6
CONTINUOUS
  0
LAYER
  2
109
 70
     0
 62
     7
  6
CONTINUOUS
  0
LAYER
  2
110
 70
     0
 62
     7
  6
CONTINUOUS
  0
LAYER
  2
111
 70
     0
 62
     7
  6
CONTINUOUS
  0
LAYER
  2
112
 70
     0
 62
     7
  6
CONTINUOUS
  0
LAYER
  2
113
 70
     0
 62
     7
  6
CONTINUOUS
  0
LAYER
  2
114
 70
     0
 62
     7
  6
CONTINUOUS
  0
LAYER
  2
115
 70
     0
 62
     7
  6
CONTINUOUS
  0
LAYER
  2
116
 70
     0
 62
     7
  6
CONTINUOUS
  0
LAYER
  2
117
 70
     0
 62
     7
  6
CONTINUOUS
  0
LAYER
  2
118
 70
     0
 62
     7
  6
CONTINUOUS
  0
LAYER
  2
119
 70
     0
 62
     7
  6
CONTINUOUS
  0
LAYER
  2
120
 70
     0
 62
     7
  6
CONTINUOUS
  0
LAYER
  2
121
 70
     0
 62
     7
  6
CONTINUOUS
  0
LAYER
  2
122
 70
     0
 62
     7
  6
CONTINUOUS
  0
LAYER
  2
123
 70
     0
 62
     7
  6
CONTINUOUS
  0
LAYER
  2
124
 70
     0
 62
     7
  6
CONTINUOUS
  0
LAYER
  2
125
 70
     0
 62
     7
  6
CONTINUOUS
  0
LAYER
  2
126
 70
     0
 62
     7
  6
CONTINUOUS
  0
LAYER
  2
127
 70
     0
 62
     7
  6
CONTINUOUS
  0
LAYER
  2
128
 70
     0
 62
     7
  6
CONTINUOUS
  0
ENDTAB
  0
TABLE
  2
STYLE
 70
    15
  0
STYLE
  2
STANDARD
 70
     0
 40
0.0
 41
1.0
 50
0.0
 71
     0
 42
0.2
  3
txt.shx
  4
extfont.shx
  0
STYLE
  2
KANJI0
 70
     0
 40
4.0
 41
0.9
 50
0.0
 71
     0
 42
4.0
  3
txt.shx
  4
extfont.shx
  0
STYLE
  2
KANJI1
 70
     0
 40
3.0
 41
0.6
 50
0.0
 71
     0
 42
3.0
  3
txt.shx
  4
extfont.shx
  0
STYLE
  2
KANJI2
 70
     0
 40
3.0
 41
0.666666667
 50
0.0
 71
     0
 42
3.0
  3
txt.shx
  4
extfont.shx
  0
STYLE
  2
KANJI3
 70
     0
 40
3.0
 41
0.3
 50
0.0
 71
     0
 42
3.0
  3
txt.shx
  4
extfont.shx
  0
STYLE
  2
KANJI4
 70
     0
 40
3.0
 41
0.6
 50
0.0
 71
     0
 42
3.0
  3
txt.shx
  4
extfont.shx
  0
STYLE
  2
KANJI5
 70
     0
 40
1.8
 41
0.6
 50
0.0
 71
     0
 42
1.8
  3
txt.shx
  4
extfont.shx
  0
STYLE
  2
KANJI6
 70
     0
 40
1.8
 41
0.6
 50
0.0
 71
     0
 42
1.8
  3
txt.shx
  4
extfont.shx
  0
STYLE
  2
KANJI7
 70
     0
 40
3.0
 41
0.9
 50
0.0
 71
     0
 42
3.0
  3
txt.shx
  4
extfont.shx
  0
STYLE
  2
KANJI8
 70
     0
 40
3.0
 41
0.9
 50
0.0
 71
     0
 42
3.0
  3
txt.shx
  4
extfont.shx
  0
STYLE
  2
KANJI9
 70
     0
 40
4.0
 41
0.9
 50
0.0
 71
     0
 42
4.0
  3
txt.shx
  4
extfont.shx
  0
STYLE
  2
KANJI10
 70
     0
 40
3.5
 41
0.9
 50
0.0
 71
     0
 42
3.5
  3
txt.shx
  4
extfont.shx
  0
STYLE
  2
KANJI11
 70
     0
 40
3.0
 41
0.9
 50
0.0
 71
     0
 42
3.0
  3
txt.shx
  4
extfont.shx
  0
STYLE
  2
KANJI12
 70
     0
 40
2.4
 41
0.9
 50
0.0
 71
     0
 42
2.4
  3
txt.shx
  4
extfont.shx
  0
STYLE
  2
KANJI13
 70
     0
 40
6.0
 41
0.9
 50
0.0
 71
     0
 42
6.0
  3
txt.shx
  4
extfont.shx
  0
ENDTAB
  0
TABLE
  2
VIEW
 70
     0
  0
ENDTAB
  0
ENDSEC
  0
SECTION
  2
BLOCKS
  0
ENDSEC
  0
SECTION
  2
ENTITIES
  0
ARC
  8
0
  6
CONTINUOUS
 62
     1
 10
200.1
 20
101.65
 30
0.0
 40
1.65
 50
270.0
 51
0.0
  0
ARC
  8
0
  6
CONTINUOUS
 62
     1
 10
200.1
 20
138.35
 30
0.0
 40
1.65
 50
0.0
 51
90.0
  0
ARC
  8
0
  6
CONTINUOUS
 62
     1
 10
159.9
 20
138.35
 30
0.0
 40
1.65
 50
90.0
 51
180.0
  0
ARC
  8
0
  6
CONTINUOUS
 62
     1
 10
159.9
 20
101.65
 30
0.0
 40
1.65
 50
180.0
 51
270.0
  0
LINE
  8
0
  6
CONTINUOUS
 62
     1
 10
159.9
 20
100.0
 30
0.0
 11
200.1
 21
100.0
 31
0.0
  0
LINE
  8
0
  6
CONTINUOUS
 62
     1
 10
201.75
 20
101.65
 30
0.0
 11
201.75
 21
138.35
 31
0.0
  0
LINE
  8
0
  6
CONTINUOUS
 62
     1
 10
200.1
 20
140.0
 30
0.0
 11
159.9
 21
140.0
 31
0.0
  0
LINE
  8
0
  6
CONTINUOUS
 62
     1
 10
158.25
 20
138.35
 30
0.0
 11
158.25
 21
101.650002336
 31
0.0
  0
CIRCLE
  8
0
  6
CONTINUOUS
 62
     1
 10
180.0
 20
119.0
 30
0.0
 40
16.25
  0
ARC
  8
0
  6
CONTINUOUS
 62
     1
 10
25.5
 20
138.75
 30
0.0
 40
1.25
 50
90.0
 51
180.0
  0
ARC
  8
0
  6
CONTINUOUS
 62
     1
 10
25.5
 20
101.25
 30
0.0
 40
1.25
 50
180.0
 51
270.0
  0
ARC
  8
0
  6
CONTINUOUS
 62
     1
 10
66.5
 20
101.25
 30
0.0
 40
1.25
 50
270.0
 51
0.0
  0
ARC
  8
0
  6
CONTINUOUS
 62
     1
 10
66.5
 20
138.75
 30
0.0
 40
1.25
 50
0.0
 51
90.0
  0
LINE
  8
0
  6
CONTINUOUS
 62
     1
 10
66.500001652
 20
140.0
 30
0.0
 11
25.5
 21
140.0
 31
0.0
  0
LINE
  8
0
  6
CONTINUOUS
 62
     1
 10
24.25
 20
138.75
 30
0.0
 11
24.25
 21
101.25
 31
0.0
  0
LINE
  8
0
  6
CONTINUOUS
 62
     1
 10
25.5
 20
100.0
 30
0.0
 11
66.5
 21
100.0
 31
0.0
  0
LINE
  8
0
  6
CONTINUOUS
 62
     1
 10
67.75
 20
101.25
 30
0.0
 11
67.75
 21
138.75
 31
0.0
  0
LINE
  8
0
  6
CONTINUOUS
 62
     1
 10
98.0
 20
140.0
 30
0.0
 11
98.0
 21
100.0
 31
0.0
  0
ARC
  8
0
  6
CONTINUOUS
 62
     1
 10
112.75
 20
103.5
 30
0.0
 40
0.5
 50
270.0
 51
0.0
  0
ARC
  8
0
  6
CONTINUOUS
 62
     1
 10
112.75
 20
134.75
 30
0.0
 40
0.5
 50
0.0
 51
90.0
  0
LINE
  8
0
  6
CONTINUOUS
 62
     1
 10
112.75
 20
135.25
 30
0.0
 11
103.25
 21
135.25
 31
0.0
  0
LINE
  8
0
  6
CONTINUOUS
 62
     1
 10
112.75
 20
103.0
 30
0.0
 11
103.25
 21
103.0
 31
0.0
  0
LINE
  8
0
  6
CONTINUOUS
 62
     1
 10
113.25
 20
103.5
 30
0.0
 11
113.25
 21
134.75
 31
0.0
  0
ARC
  8
0
  6
CONTINUOUS
 62
     1
 10
92.760001349
 20
138.499565158
 30
0.0
 40
0.5
 50
90.0
 51
180.0
  0
LINE
  8
0
  6
CONTINUOUS
 62
     1
 10
92.760001349
 20
138.999565158
 30
0.0
 11
98.0
 21
140.0
 31
0.0
  0
ARC
  8
0
  6
CONTINUOUS
 62
     1
 10
92.760001538
 20
101.5
 30
0.0
 40
0.5
 50
180.0
 51
270.0
  0
LINE
  8
0
  6
CONTINUOUS
 62
     1
 10
92.760001538
 20
101.0
 30
0.0
 11
98.0
 21
100.0
 31
0.0
  0
LINE
  8
0
  6
CONTINUOUS
 62
     1
 10
92.260001349
 20
138.499565158
 30
0.0
 11
92.260001538
 21
101.5
 31
0.0
  0
LINE
  8
0
  6
CONTINUOUS
 62
     1
 10
133.0
 20
109.0
 30
0.0
 11
113.25
 21
109.0
 31
0.0
  0
ARC
  8
0
  6
CONTINUOUS
 62
     1
 10
133.0
 20
109.25
 30
0.0
 40
0.25
 50
270.0
 51
0.0
  0
LINE
  8
0
  6
CONTINUOUS
 62
     1
 10
170.865587047
 20
125.5
 30
0.0
 11
189.134412953
 21
125.5
 31
0.0
  0
LINE
  8
0
  6
CONTINUOUS
 62
     1
 10
169.209379073
 20
109.0
 30
0.0
 11
190.790620927
 21
109.0
 31
0.0
  0
ARC
  8
0
  6
CONTINUOUS
 62
     1
 10
180.0
 20
116.25
 30
0.0
 40
13.0
 50
134.639772959
 51
213.896355203
  0
ARC
  8
0
  6
CONTINUOUS
 62
     1
 10
180.0
 20
116.25
 30
0.0
 40
13.0
 50
326.103644797
 51
45.360227041
  0
LINE
  8
0
  6
CONTINUOUS
 62
     1
 10
113.25
 20
125.5
 30
0.0
 11
133.0
 21
125.5
 31
0.0
  0
LINE
  8
0
  6
CONTINUOUS
 62
     1
 10
133.25
 20
125.25
 30
0.0
 11
133.25
 21
109.25
 31
0.0
  0
ARC
  8
0
  6
CONTINUOUS
 62
     1
 10
133.0
 20
125.25
 30
0.0
 40
0.25
 50
0.0
 51
90.0
  0
CIRCLE
  8
0
  6
CONTINUOUS
 62
     1
 10
45.986544033
 20
58.538455967
 30
0.0
 40
16.75
  0
CIRCLE
  8
0
  6
CONTINUOUS
 62
     1
 10
62.0
 20
74.538455967
 30
0.0
 40
1.0
  0
CIRCLE
  8
0
  6
CONTINUOUS
 62
     1
 10
30.0
 20
74.538455967
 30
0.0
 40
1.0
  0
CIRCLE
  8
0
  6
CONTINUOUS
 62
     1
 10
30.0
 20
42.538455967
 30
0.0
 40
1.0
  0
CIRCLE
  8
0
  6
CONTINUOUS
 62
     1
 10
62.0
 20
42.538455967
 30
0.0
 40
1.0
  0
TEXT
  8
0
  6
CONTINUOUS
 62
     1
 10
35.4575
 20
28.778455967
 30
0.6
 40
4.0
  1
パネルカット
 50
0.0
 41
0.9
 51
0.0
  7
KANJI0
  0
LINE
  8
0
  6
CONTINUOUS
 62
     1
 10
33.6575
 20
28.178455967
 30
0.0
 11
60.2575
 21
28.178455967
 31
0.0
  0
ARC
  8
0
  6
CONTINUOUS
 62
     2
 10
159.75
 20
101.5
 30
0.0
 40
0.5
 50
180.0
 51
270.0
  0
ARC
  8
0
  6
CONTINUOUS
 62
     2
 10
159.75
 20
138.5
 30
0.0
 40
0.5
 50
90.0
 51
180.0
  0
ARC
  8
0
  6
CONTINUOUS
 62
     2
 10
200.25
 20
138.5
 30
0.0
 40
0.5
 50
0.0
 51
90.0
  0
ARC
  8
0
  6
CONTINUOUS
 62
     2
 10
200.25
 20
101.5
 30
0.0
 40
0.5
 50
270.0
 51
0.0
  0
LINE
  8
0
  6
CONTINUOUS
 62
     2
 10
200.75
 20
101.5
 30
0.0
 11
200.75
 21
138.5
 31
0.0
  0
LINE
  8
0
  6
CONTINUOUS
 62
     2
 10
200.25
 20
139.0
 30
0.0
 11
159.75
 21
139.0
 31
0.0
  0
LINE
  8
0
  6
CONTINUOUS
 62
     2
 10
159.25
 20
138.5
 30
0.0
 11
159.25
 21
101.5
 31
0.0
  0
LINE
  8
0
  6
CONTINUOUS
 62
     2
 10
159.75
 20
101.0
 30
0.0
 11
200.25
 21
101.0
 31
0.0
  0
CIRCLE
  8
0
  6
CONTINUOUS
 62
     2
 10
164.0
 20
103.0
 30
0.0
 40
2.0
  0
CIRCLE
  8
0
  6
CONTINUOUS
 62
     2
 10
164.0
 20
103.0
 30
0.0
 40
0.75
  0
LINE
  8
0
  6
CONTINUOUS
 62
     2
 10
164.0
 20
104.6
 30
0.0
 11
162.614359354
 21
103.8
 31
0.0
  0
LINE
  8
0
  6
CONTINUOUS
 62
     2
 10
162.614359354
 20
103.8
 30
0.0
 11
162.614359354
 21
102.2
 31
0.0
  0
LINE
  8
0
  6
CONTINUOUS
 62
     2
 10
162.614359354
 20
102.2
 30
0.0
 11
164.0
 21
101.4
 31
0.0
  0
LINE
  8
0
  6
CONTINUOUS
 62
     2
 10
164.0
 20
101.4
 30
0.0
 11
165.385640646
 21
102.2
 31
0.0
  0
LINE
  8
0
  6
CONTINUOUS
 62
     2
 10
165.385640646
 20
102.2
 30
0.0
 11
165.385640646
 21
103.8
 31
0.0
  0
LINE
  8
0
  6
CONTINUOUS
 62
     2
 10
165.385640646
 20
103.8
 30
0.0
 11
164.0
 21
104.6
 31
0.0
  0
CIRCLE
  8
0
  6
CONTINUOUS
 62
     2
 10
196.0
 20
103.0
 30
0.0
 40
2.0
  0
CIRCLE
  8
0
  6
CONTINUOUS
 62
     2
 10
196.0
 20
103.0
 30
0.0
 40
0.75
  0
LINE
  8
0
  6
CONTINUOUS
 62
     2
 10
196.0
 20
104.6
 30
0.0
 11
194.614359354
 21
103.8
 31
0.0
  0
LINE
  8
0
  6
CONTINUOUS
 62
     2
 10
194.614359354
 20
103.8
 30
0.0
 11
194.614359354
 21
102.2
 31
0.0
  0
LINE
  8
0
  6
CONTINUOUS
 62
     2
 10
194.614359354
 20
102.2
 30
0.0
 11
196.0
 21
101.4
 31
0.0
  0
LINE
  8
0
  6
CONTINUOUS
 62
     2
 10
196.0
 20
101.4
 30
0.0
 11
197.385640646
 21
102.2
 31
0.0
  0
LINE
  8
0
  6
CONTINUOUS
 62
     2
 10
197.385640646
 20
102.2
 30
0.0
 11
197.385640646
 21
103.8
 31
0.0
  0
LINE
  8
0
  6
CONTINUOUS
 62
     2
 10
197.385640646
 20
103.8
 30
0.0
 11
196.0
 21
104.6
 31
0.0
  0
CIRCLE
  8
0
  6
CONTINUOUS
 62
     2
 10
196.0
 20
135.0
 30
0.0
 40
2.0
  0
CIRCLE
  8
0
  6
CONTINUOUS
 62
     2
 10
196.0
 20
135.0
 30
0.0
 40
0.75
  0
LINE
  8
0
  6
CONTINUOUS
 62
     2
 10
196.0
 20
136.6
 30
0.0
 11
194.614359354
 21
135.8
 31
0.0
  0
LINE
  8
0
  6
CONTINUOUS
 62
     2
 10
194.614359354
 20
135.8
 30
0.0
 11
194.614359354
 21
134.2
 31
0.0
  0
LINE
  8
0
  6
CONTINUOUS
 62
     2
 10
194.614359354
 20
134.2
 30
0.0
 11
196.0
 21
133.4
 31
0.0
  0
LINE
  8
0
  6
CONTINUOUS
 62
     2
 10
196.0
 20
133.4
 30
0.0
 11
197.385640646
 21
134.2
 31
0.0
  0
LINE
  8
0
  6
CONTINUOUS
 62
     2
 10
197.385640646
 20
134.2
 30
0.0
 11
197.385640646
 21
135.8
 31
0.0
  0
LINE
  8
0
  6
CONTINUOUS
 62
     2
 10
197.385640646
 20
135.8
 30
0.0
 11
196.0
 21
136.6
 31
0.0
  0
CIRCLE
  8
0
  6
CONTINUOUS
 62
     2
 10
164.0
 20
135.0
 30
0.0
 40
2.0
  0
CIRCLE
  8
0
  6
CONTINUOUS
 62
     2
 10
164.0
 20
135.0
 30
0.0
 40
0.75
  0
LINE
  8
0
  6
CONTINUOUS
 62
     2
 10
164.0
 20
136.6
 30
0.0
 11
162.614359354
 21
135.8
 31
0.0
  0
LINE
  8
0
  6
CONTINUOUS
 62
     2
 10
162.614359354
 20
135.8
 30
0.0
 11
162.614359354
 21
134.2
 31
0.0
  0
LINE
  8
0
  6
CONTINUOUS
 62
     2
 10
162.614359354
 20
134.2
 30
0.0
 11
164.0
 21
133.4
 31
0.0
  0
LINE
  8
0
  6
CONTINUOUS
 62
     2
 10
164.0
 20
133.4
 30
0.0
 11
165.385640646
 21
134.2
 31
0.0
  0
LINE
  8
0
  6
CONTINUOUS
 62
     2
 10
165.385640646
 20
134.2
 30
0.0
 11
165.385640646
 21
135.8
 31
0.0
  0
LINE
  8
0
  6
CONTINUOUS
 62
     2
 10
165.385640646
 20
135.8
 30
0.0
 11
164.0
 21
136.6
 31
0.0
  0
LINE
  8
0
  6
CONTINUOUS
 62
     2
 10
153.8
 20
120.0
 30
0.0
 11
154.447047613
 21
122.414814566
 31
0.0
  0
LINE
  8
0
  6
CONTINUOUS
 62
     2
 10
153.8
 20
120.0
 30
0.0
 11
153.152952387
 21
122.414814566
 31
0.0
  0
LINE
  8
0
  6
CONTINUOUS
 62
     2
 10
153.8
 20
126.8
 30
0.0
 11
153.8
 21
114.0
 31
0.0
  0
LINE
  8
0
  6
CONTINUOUS
 62
     2
 10
153.8
 20
119.0
 30
0.0
 11
153.152952387
 21
116.585185434
 31
0.0
  0
LINE
  8
0
  6
CONTINUOUS
 62
     2
 10
153.8
 20
119.0
 30
0.0
 11
154.447047613
 21
116.585185434
 31
0.0
  0
TEXT
  8
0
  6
CONTINUOUS
 62
     2
 10
152.8
 20
125.0
 30
0.3
 40
3.0
  1
２
 50
90.0
 41
0.6
 51
0.0
  7
KANJI1
  0
LINE
  8
0
  6
CONTINUOUS
 62
     2
 10
189.25
 20
119.0
 30
0.0
 11
196.25
 21
119.0
 31
0.0
  0
ARC
  8
0
  6
CONTINUOUS
 62
     2
 10
25.75
 20
138.5
 30
0.0
 40
0.5
 50
90.0
 51
180.0
  0
ARC
  8
0
  6
CONTINUOUS
 62
     2
 10
25.75
 20
101.5
 30
0.0
 40
0.5
 50
180.0
 51
270.0
  0
ARC
  8
0
  6
CONTINUOUS
 62
     2
 10
66.25
 20
101.5
 30
0.0
 40
0.5
 50
270.0
 51
0.0
  0
ARC
  8
0
  6
CONTINUOUS
 62
     2
 10
66.25
 20
138.5
 30
0.0
 40
0.5
 50
0.0
 51
90.0
  0
LINE
  8
0
  6
CONTINUOUS
 62
     2
 10
66.75
 20
101.5
 30
0.0
 11
66.75
 21
138.5
 31
0.0
  0
LINE
  8
0
  6
CONTINUOUS
 62
     2
 10
66.25
 20
139.0
 30
0.0
 11
25.75
 21
139.0
 31
0.0
  0
LINE
  8
0
  6
CONTINUOUS
 62
     2
 10
25.25
 20
138.5
 30
0.0
 11
25.25
 21
101.5
 31
0.0
  0
LINE
  8
0
  6
CONTINUOUS
 62
     2
 10
25.75
 20
101.0
 30
0.0
 11
66.25
 21
101.0
 31
0.0
  0
ARC
  8
0
  6
CONTINUOUS
 62
     2
 10
26.5
 20
137.75
 30
0.0
 40
0.5
 50
90.0
 51
180.0
  0
ARC
  8
0
  6
CONTINUOUS
 62
     2
 10
65.5
 20
137.75
 30
0.0
 40
0.5
 50
0.0
 51
90.0
  0
LINE
  8
0
  6
CONTINUOUS
 62
     2
 10
65.5
 20
138.25
 30
0.0
 11
26.5
 21
138.25
 31
0.0
  0
LINE
  8
0
  6
CONTINUOUS
 62
     2
 10
26.0
 20
137.75
 30
0.0
 11
26.0
 21
115.5
 31
0.0
  0
LINE
  8
0
  6
CONTINUOUS
 62
     2
 10
26.0
 20
115.5
 30
0.0
 11
66.0
 21
115.5
 31
0.0
  0
LINE
  8
0
  6
CONTINUOUS
 62
     2
 10
66.0
 20
115.5
 30
0.0
 11
66.0
 21
137.75
 31
0.0
  0
CIRCLE
  8
0
  6
CONTINUOUS
 62
     2
 10
28.0
 20
112.75
 30
0.0
 40
1.5
  0
LINE
  8
0
  6
CONTINUOUS
 62
     2
 10
27.125
 20
112.95
 30
0.0
 11
27.6
 21
112.95
 31
0.0
  0
ARC
  8
0
  6
CONTINUOUS
 62
     2
 10
27.6
 20
113.15
 30
0.0
 40
0.2
 50
270.0
 51
0.0
  0
LINE
  8
0
  6
CONTINUOUS
 62
     2
 10
27.8
 20
113.15
 30
0.0
 11
27.8
 21
113.625
 31
0.0
  0
LINE
  8
0
  6
CONTINUOUS
 62
     2
 10
27.8
 20
113.625
 30
0.0
 11
28.2
 21
113.625
 31
0.0
  0
LINE
  8
0
  6
CONTINUOUS
 62
     2
 10
28.2
 20
113.625
 30
0.0
 11
28.2
 21
113.15
 31
0.0
  0
ARC
  8
0
  6
CONTINUOUS
 62
     2
 10
28.4
 20
113.15
 30
0.0
 40
0.2
 50
180.0
 51
270.0
  0
LINE
  8
0
  6
CONTINUOUS
 62
     2
 10
28.4
 20
112.95
 30
0.0
 11
28.875
 21
112.95
 31
0.0
  0
LINE
  8
0
  6
CONTINUOUS
 62
     2
 10
28.875
 20
112.95
 30
0.0
 11
28.875
 21
112.55
 31
0.0
  0
LINE
  8
0
  6
CONTINUOUS
 62
     2
 10
28.875
 20
112.55
 30
0.0
 11
28.4
 21
112.55
 31
0.0
  0
ARC
  8
0
  6
CONTINUOUS
 62
     2
 10
28.4
 20
112.35
 30
0.0
 40
0.2
 50
90.0
 51
180.0
  0
LINE
  8
0
  6
CONTINUOUS
 62
     2
 10
28.2
 20
112.35
 30
0.0
 11
28.2
 21
111.875
 31
0.0
  0
LINE
  8
0
  6
CONTINUOUS
 62
     2
 10
28.2
 20
111.875
 30
0.0
 11
27.8
 21
111.875
 31
0.0
  0
LINE
  8
0
  6
CONTINUOUS
 62
     2
 10
27.8
 20
111.875
 30
0.0
 11
27.8
 21
112.35
 31
0.0
  0
ARC
  8
0
  6
CONTINUOUS
 62
     2
 10
27.6
 20
112.35
 30
0.0
 40
0.2
 50
0.0
 51
90.0
  0
LINE
  8
0
  6
CONTINUOUS
 62
     2
 10
27.6
 20
112.55
 30
0.0
 11
27.125
 21
112.55
 31
0.0
  0
LINE
  8
0
  6
CONTINUOUS
 62
     2
 10
27.125
 20
112.55
 30
0.0
 11
27.125
 21
112.95
 31
0.0
  0
CIRCLE
  8
0
  6
CONTINUOUS
 62
     2
 10
64.0
 20
112.75
 30
0.0
 40
1.5
  0
LINE
  8
0
  6
CONTINUOUS
 62
     2
 10
63.125
 20
112.95
 30
0.0
 11
63.6
 21
112.95
 31
0.0
  0
ARC
  8
0
  6
CONTINUOUS
 62
     2
 10
63.6
 20
113.15
 30
0.0
 40
0.2
 50
270.0
 51
0.0
  0
LINE
  8
0
  6
CONTINUOUS
 62
     2
 10
63.8
 20
113.15
 30
0.0
 11
63.8
 21
113.625
 31
0.0
  0
LINE
  8
0
  6
CONTINUOUS
 62
     2
 10
63.8
 20
113.625
 30
0.0
 11
64.2
 21
113.625
 31
0.0
  0
LINE
  8
0
  6
CONTINUOUS
 62
     2
 10
64.2
 20
113.625
 30
0.0
 11
64.2
 21
113.15
 31
0.0
  0
ARC
  8
0
  6
CONTINUOUS
 62
     2
 10
64.4
 20
113.15
 30
0.0
 40
0.2
 50
180.0
 51
270.0
  0
LINE
  8
0
  6
CONTINUOUS
 62
     2
 10
64.4
 20
112.95
 30
0.0
 11
64.875
 21
112.95
 31
0.0
  0
LINE
  8
0
  6
CONTINUOUS
 62
     2
 10
64.875
 20
112.95
 30
0.0
 11
64.875
 21
112.55
 31
0.0
  0
LINE
  8
0
  6
CONTINUOUS
 62
     2
 10
64.875
 20
112.55
 30
0.0
 11
64.4
 21
112.55
 31
0.0
  0
ARC
  8
0
  6
CONTINUOUS
 62
     2
 10
64.4
 20
112.35
 30
0.0
 40
0.2
 50
90.0
 51
180.0
  0
LINE
  8
0
  6
CONTINUOUS
 62
     2
 10
64.2
 20
112.35
 30
0.0
 11
64.2
 21
111.875
 31
0.0
  0
LINE
  8
0
  6
CONTINUOUS
 62
     2
 10
64.2
 20
111.875
 30
0.0
 11
63.8
 21
111.875
 31
0.0
  0
LINE
  8
0
  6
CONTINUOUS
 62
     2
 10
63.8
 20
111.875
 30
0.0
 11
63.8
 21
112.35
 31
0.0
  0
ARC
  8
0
  6
CONTINUOUS
 62
     2
 10
63.6
 20
112.35
 30
0.0
 40
0.2
 50
0.0
 51
90.0
  0
LINE
  8
0
  6
CONTINUOUS
 62
     2
 10
63.6
 20
112.55
 30
0.0
 11
63.125
 21
112.55
 31
0.0
  0
LINE
  8
0
  6
CONTINUOUS
 62
     2
 10
63.125
 20
112.55
 30
0.0
 11
63.125
 21
112.95
 31
0.0
  0
LINE
  8
0
  6
CONTINUOUS
 62
     2
 10
29.736544033
 20
126.763455967
 30
0.0
 11
40.286544033
 21
115.513455967
 31
0.0
  0
LINE
  8
0
  6
CONTINUOUS
 62
     2
 10
29.786544033
 20
126.813455967
 30
0.0
 11
41.836544033
 21
115.488455967
 31
0.0
  0
LINE
  8
0
  6
CONTINUOUS
 62
     2
 10
92.010001538
 20
138.25
 30
0.0
 11
92.260001538
 21
138.25
 31
0.0
  0
LINE
  8
0
  6
CONTINUOUS
 62
     2
 10
92.010001538
 20
138.25
 30
0.0
 11
92.010001538
 21
115.5
 31
0.0
  0
LINE
  8
0
  6
CONTINUOUS
 62
     2
 10
92.010001538
 20
115.5
 30
0.0
 11
92.260001538
 21
115.5
 31
0.0
  0
CIRCLE
  8
0
  6
CONTINUOUS
 62
     2
 10
46.0
 20
110.5
 30
0.0
 40
1.5
  0
CIRCLE
  8
0
  6
CONTINUOUS
 62
     2
 10
46.0
 20
110.5
 30
0.0
 40
1.375
  0
LINE
  8
0
  6
CONTINUOUS
 62
     2
 10
44.647918272
 20
110.75
 30
0.0
 11
47.352081728
 21
110.75
 31
0.0
  0
LINE
  8
0
  6
CONTINUOUS
 62
     2
 10
44.647918272
 20
110.25
 30
0.0
 11
47.352081728
 21
110.25
 31
0.0
  0
LINE
  8
0
  6
CONTINUOUS
 62
     2
 10
92.260001492
 20
112.0
 30
0.0
 11
92.060001492
 21
112.0
 31
0.0
  0
LINE
  8
0
  6
CONTINUOUS
 62
     2
 10
92.060001492
 20
112.0
 30
0.0
 11
92.060001492
 21
109.0
 31
0.0
  0
LINE
  8
0
  6
CONTINUOUS
 62
     2
 10
92.060001492
 20
109.0
 30
0.0
 11
92.260001492
 21
109.0
 31
0.0
  0
LINE
  8
0
  6
CONTINUOUS
 62
     2
 10
91.410001492
 20
110.75
 30
0.0
 11
92.060001492
 21
110.75
 31
0.0
  0
LINE
  8
0
  6
CONTINUOUS
 62
     2
 10
91.410001492
 20
110.25
 30
0.0
 11
92.060001492
 21
110.25
 31
0.0
  0
LINE
  8
0
  6
CONTINUOUS
 62
     2
 10
91.660001492
 20
111.875
 30
0.0
 11
92.060001492
 21
111.875
 31
0.0
  0
LINE
  8
0
  6
CONTINUOUS
 62
     2
 10
91.660001492
 20
111.875
 30
0.0
 11
91.660001492
 21
110.75
 31
0.0
  0
LINE
  8
0
  6
CONTINUOUS
 62
     2
 10
91.660001492
 20
110.25
 30
0.0
 11
91.660001492
 21
109.125
 31
0.0
  0
LINE
  8
0
  6
CONTINUOUS
 62
     2
 10
91.660001492
 20
109.125
 30
0.0
 11
92.060001492
 21
109.125
 31
0.0
  0
LINE
  8
0
  6
CONTINUOUS
 62
     2
 10
91.410001492
 20
110.75
 30
0.0
 11
91.410001492
 21
111.206392775
 31
0.0
  0
LINE
  8
0
  6
CONTINUOUS
 62
     2
 10
91.453095717
 20
111.409462008
 30
0.0
 11
91.660001492
 21
111.875
 31
0.0
  0
ARC
  8
0
  6
CONTINUOUS
 62
     2
 10
91.910001492
 20
111.206392775
 30
0.0
 40
0.5
 50
156.037511025
 51
180.0
  0
LINE
  8
0
  6
CONTINUOUS
 62
     2
 10
91.410001492
 20
110.25
 30
0.0
 11
91.410001492
 21
109.793607225
 31
0.0
  0
LINE
  8
0
  6
CONTINUOUS
 62
     2
 10
91.453095717
 20
109.590537992
 30
0.0
 11
91.660001492
 21
109.125
 31
0.0
  0
ARC
  8
0
  6
CONTINUOUS
 62
     2
 10
91.910001492
 20
109.793607225
 30
0.0
 40
0.5
 50
180.0
 51
203.962488975
  0
LINE
  8
0
  6
CONTINUOUS
 62
     2
 10
54.366275726
 20
130.306007434
 30
0.0
 11
54.089111866
 21
130.420812464
 31
0.0
  0
LINE
  8
0
  6
CONTINUOUS
 62
     2
 10
54.089111866
 20
130.420812464
 30
0.0
 11
47.70445989
 21
115.5
 31
0.0
  0
LINE
  8
0
  6
CONTINUOUS
 62
     2
 10
54.366275726
 20
130.306007434
 30
0.0
 11
48.434161174
 21
115.5
 31
0.0
  0
LINE
  8
0
  6
CONTINUOUS
 62
     2
 10
133.25
 20
108.25
 30
0.0
 11
133.25
 21
101.25
 31
0.0
  0
LINE
  8
0
  6
CONTINUOUS
 62
     2
 10
133.25
 20
103.25
 30
0.0
 11
135.664814566
 21
102.602952387
 31
0.0
  0
LINE
  8
0
  6
CONTINUOUS
 62
     2
 10
133.25
 20
103.25
 30
0.0
 11
135.664814566
 21
103.897047613
 31
0.0
  0
LINE
  8
0
  6
CONTINUOUS
 62
     2
 10
133.25
 20
103.25
 30
0.0
 11
140.25
 21
103.25
 31
0.0
  0
LINE
  8
0
  6
CONTINUOUS
 62
     2
 10
140.25
 20
103.25
 30
0.0
 11
137.835185434
 21
103.897047613
 31
0.0
  0
LINE
  8
0
  6
CONTINUOUS
 62
     2
 10
140.25
 20
103.25
 30
0.0
 11
137.835185434
 21
102.602952387
 31
0.0
  0
TEXT
  8
0
  6
CONTINUOUS
 62
     2
 10
134.8
 20
104.25
 30
0.3
 40
3.0
  1
１４
 50
0.0
 41
0.6
 51
0.0
  7
KANJI1
  0
POINT
  8
0
  6
LTYPE1
 62
     2
 10
175.0
 20
115.6
 30
0.0
  0
LINE
  8
0
  6
LTYPE1
 62
     2
 10
175.0
 20
115.6
 30
0.0
 11
172.5
 21
115.6
 31
0.0
  0
LINE
  8
0
  6
LTYPE1
 62
     2
 10
175.0
 20
115.6
 30
0.0
 11
175.0
 21
112.6
 31
0.0
  0
LINE
  8
0
  6
LTYPE1
 62
     2
 10
172.5
 20
115.6
 30
0.0
 11
172.5
 21
112.6
 31
0.0
  0
POINT
  8
0
  6
LTYPE1
 62
     2
 10
187.5
 20
115.6
 30
0.0
  0
LINE
  8
0
  6
LTYPE1
 62
     2
 10
187.5
 20
115.6
 30
0.0
 11
185.0
 21
115.6
 31
0.0
  0
LINE
  8
0
  6
LTYPE1
 62
     2
 10
187.5
 20
115.6
 30
0.0
 11
187.5
 21
112.6
 31
0.0
  0
LINE
  8
0
  6
LTYPE1
 62
     2
 10
185.0
 20
115.6
 30
0.0
 11
185.0
 21
112.6
 31
0.0
  0
ARC
  8
0
  6
LTYPE1
 62
     2
 10
173.25
 20
119.5
 30
0.0
 40
3.0
 50
90.0
 51
180.0
  0
LINE
  8
0
  6
LTYPE1
 62
     2
 10
170.25
 20
114.0
 30
0.0
 11
170.25
 21
119.5
 31
0.0
  0
LINE
  8
0
  6
LTYPE1
 62
     2
 10
186.75
 20
111.0
 30
0.0
 11
173.25
 21
111.0
 31
0.0
  0
ARC
  8
0
  6
LTYPE1
 62
     2
 10
173.25
 20
114.0
 30
0.0
 40
3.0
 50
180.0
 51
270.0
  0
LINE
  8
0
  6
LTYPE1
 62
     2
 10
173.275
 20
122.5
 30
0.0
 11
186.75
 21
122.5
 31
0.0
  0
ARC
  8
0
  6
LTYPE1
 62
     2
 10
186.75
 20
119.5
 30
0.0
 40
3.0
 50
0.0
 51
90.0
  0
ARC
  8
0
  6
LTYPE1
 62
     2
 10
186.75
 20
114.0
 30
0.0
 40
3.0
 50
270.0
 51
0.0
  0
LINE
  8
0
  6
LTYPE1
 62
     2
 10
189.75
 20
119.5
 30
0.0
 11
189.75
 21
114.0
 31
0.0
  0
LINE
  8
0
  6
LTYPE2
 62
     2
 10
26.0
 20
112.75
 30
0.0
 11
30.0
 21
112.75
 31
0.0
  0
LINE
  8
0
  6
LTYPE2
 62
     2
 10
28.0
 20
114.75
 30
0.0
 11
28.0
 21
110.75
 31
0.0
  0
LINE
  8
0
  6
LTYPE2
 62
     2
 10
42.8
 20
105.5
 30
0.0
 11
49.2
 21
105.5
 31
0.0
  0
LINE
  8
0
  6
LTYPE2
 62
     2
 10
62.0
 20
112.75
 30
0.0
 11
66.0
 21
112.75
 31
0.0
  0
LINE
  8
0
  6
LTYPE2
 62
     2
 10
64.0
 20
114.75
 30
0.0
 11
64.0
 21
110.75
 31
0.0
  0
LINE
  8
0
  6
LTYPE2
 62
     2
 10
97.21
 20
135.01
 30
0.0
 11
104.61
 21
135.01
 31
0.0
  0
LINE
  8
0
  6
LTYPE2
 62
     2
 10
97.2
 20
103.0
 30
0.0
 11
104.6
 21
103.0
 31
0.0
  0
LINE
  8
0
  6
LTYPE2
 62
     2
 10
161.0
 20
135.0
 30
0.0
 11
167.0
 21
135.0
 31
0.0
  0
LINE
  8
0
  6
LTYPE2
 62
     2
 10
193.0
 20
135.0
 30
0.0
 11
199.0
 21
135.0
 31
0.0
  0
LINE
  8
0
  6
LTYPE2
 62
     2
 10
161.0
 20
103.0
 30
0.0
 11
167.0
 21
103.0
 31
0.0
  0
LINE
  8
0
  6
LTYPE2
 62
     2
 10
193.0
 20
103.0
 30
0.0
 11
199.0
 21
103.0
 31
0.0
  0
LINE
  8
0
  6
LTYPE2
 62
     2
 10
186.25
 20
122.0
 30
0.0
 11
186.25
 21
116.0
 31
0.0
  0
LINE
  8
0
  6
LTYPE2
 62
     2
 10
173.75
 20
122.0
 30
0.0
 11
173.75
 21
116.0
 31
0.0
  0
LINE
  8
0
  6
LTYPE2
 62
     2
 10
164.0
 20
138.0
 30
0.0
 11
164.0
 21
132.0
 31
0.0
  0
LINE
  8
0
  6
LTYPE2
 62
     2
 10
196.0
 20
138.0
 30
0.0
 11
196.0
 21
132.0
 31
0.0
  0
LINE
  8
0
  6
LTYPE2
 62
     2
 10
196.0
 20
106.0
 30
0.0
 11
196.0
 21
100.0
 31
0.0
  0
LINE
  8
0
  6
LTYPE2
 62
     2
 10
164.0
 20
106.0
 30
0.0
 11
164.0
 21
100.0
 31
0.0
  0
LINE
  8
0
  6
CONTINUOUS
 62
     2
 10
108.0
 20
135.25
 30
0.0
 11
107.352952387
 21
132.835185434
 31
0.0
  0
LINE
  8
0
  6
CONTINUOUS
 62
     2
 10
108.0
 20
135.25
 30
0.0
 11
108.647047613
 21
132.835185434
 31
0.0
  0
LINE
  8
0
  6
CONTINUOUS
 62
     2
 10
108.0
 20
135.25
 30
0.0
 11
108.0
 21
103.0
 31
0.0
  0
LINE
  8
0
  6
CONTINUOUS
 62
     2
 10
108.0
 20
103.0
 30
0.0
 11
108.647047613
 21
105.414814566
 31
0.0
  0
LINE
  8
0
  6
CONTINUOUS
 62
     2
 10
108.0
 20
103.0
 30
0.0
 11
107.352952387
 21
105.414814566
 31
0.0
  0
TEXT
  8
0
  6
CONTINUOUS
 62
     2
 10
107.0
 20
115.625
 30
0.5
 40
3.0
  1
φ６５
 50
90.0
 41
0.666666667
 51
0.0
  7
KANJI2
  0
LINE
  8
0
  6
LTYPE2
 62
     2
 10
140.6
 20
119.0
 30
0.0
 11
131.2
 21
119.0
 31
0.0
  0
LINE
  8
0
  6
CONTINUOUS
 62
     2
 10
140.25
 20
113.0
 30
0.0
 11
140.25
 21
101.25
 31
0.0
  0
TEXT
  8
0
  6
CONTINUOUS
 62
     2
 10
98.810000769
 20
146.0
 30
0.3
 40
3.0
  1
１０
 50
0.0
 41
0.6
 51
0.0
  7
KANJI1
  0
LINE
  8
0
  6
CONTINUOUS
 62
     2
 10
103.26
 20
145.0
 30
0.0
 11
101.45
 21
145.484988038
 31
0.0
  0
LINE
  8
0
  6
CONTINUOUS
 62
     2
 10
103.26
 20
145.0
 30
0.0
 11
101.45
 21
144.515011962
 31
0.0
  0
LINE
  8
0
  6
CONTINUOUS
 62
     2
 10
98.260001538
 20
145.0
 30
0.0
 11
100.05
 21
144.520371358
 31
0.0
  0
LINE
  8
0
  6
CONTINUOUS
 62
     2
 10
98.260001538
 20
145.0
 30
0.0
 11
100.05
 21
145.479628642
 31
0.0
  0
TEXT
  8
0
  6
CONTINUOUS
 62
     2
 10
93.835
 20
146.025
 30
0.3
 40
3.0
  1
０．５
 50
0.0
 41
0.3
 51
0.0
  7
KANJI3
  0
LINE
  8
0
  6
CONTINUOUS
 62
     2
 10
113.25
 20
150.0
 30
0.0
 11
110.835185434
 21
150.647047613
 31
0.0
  0
LINE
  8
0
  6
CONTINUOUS
 62
     2
 10
113.25
 20
150.0
 30
0.0
 11
110.835185434
 21
149.352952387
 31
0.0
  0
LINE
  8
0
  6
CONTINUOUS
 62
     2
 10
113.25
 20
150.0
 30
0.0
 11
98.26
 21
150.0
 31
0.0
  0
LINE
  8
0
  6
CONTINUOUS
 62
     2
 10
98.26
 20
150.0
 30
0.0
 11
100.674814566
 21
149.352952387
 31
0.0
  0
LINE
  8
0
  6
CONTINUOUS
 62
     2
 10
98.26
 20
150.0
 30
0.0
 11
100.674814566
 21
150.647047613
 31
0.0
  0
TEXT
  8
0
  6
CONTINUOUS
 62
     2
 10
103.805
 20
151.0
 30
0.3
 40
3.0
  1
３０
 50
0.0
 41
0.6
 51
0.0
  7
KANJI1
  0
TEXT
  8
0
  6
CONTINUOUS
 62
     2
 10
92.985000769
 20
151.025
 30
0.3
 40
3.0
  1
１２．５
 50
0.0
 41
0.3
 51
0.0
  7
KANJI3
  0
LINE
  8
0
  6
CONTINUOUS
 62
     2
 10
113.25
 20
150.0
 30
0.0
 11
115.664814566
 21
149.352952387
 31
0.0
  0
LINE
  8
0
  6
CONTINUOUS
 62
     2
 10
113.25
 20
150.0
 30
0.0
 11
115.664814566
 21
150.647047613
 31
0.0
  0
LINE
  8
0
  6
CONTINUOUS
 62
     2
 10
113.25
 20
150.0
 30
0.0
 11
133.25
 21
150.0
 31
0.0
  0
LINE
  8
0
  6
CONTINUOUS
 62
     2
 10
133.25
 20
150.0
 30
0.0
 11
130.835185434
 21
150.647047613
 31
0.0
  0
LINE
  8
0
  6
CONTINUOUS
 62
     2
 10
133.25
 20
150.0
 30
0.0
 11
130.835185434
 21
149.352952387
 31
0.0
  0
TEXT
  8
0
  6
CONTINUOUS
 62
     2
 10
121.3
 20
151.0
 30
0.3
 40
3.0
  1
４０
 50
0.0
 41
0.6
 51
0.0
  7
KANJI1
  0
LINE
  8
0
  6
CONTINUOUS
 62
     2
 10
133.25
 20
150.0
 30
0.0
 11
130.835185434
 21
150.647047613
 31
0.0
  0
LINE
  8
0
  6
CONTINUOUS
 62
     2
 10
133.25
 20
150.0
 30
0.0
 11
130.835185434
 21
149.352952387
 31
0.0
  0
LINE
  8
0
  6
CONTINUOUS
 62
     2
 10
128.25
 20
150.0
 30
0.0
 11
143.25
 21
150.0
 31
0.0
  0
LINE
  8
0
  6
CONTINUOUS
 62
     2
 10
138.25
 20
150.0
 30
0.0
 11
140.664814566
 21
149.352952387
 31
0.0
  0
LINE
  8
0
  6
CONTINUOUS
 62
     2
 10
138.25
 20
150.0
 30
0.0
 11
140.664814566
 21
150.647047613
 31
0.0
  0
TEXT
  8
0
  6
CONTINUOUS
 62
     2
 10
133.63
 20
151.0
 30
0.3
 40
3.0
  1
１０
 50
0.0
 41
0.6
 51
0.0
  7
KANJI4
  0
TEXT
  8
0
  6
CONTINUOUS
 62
     2
 10
137.73
 20
152.5
 30
0.18
 40
1.8
  1
±１
 50
0.0
 41
0.6
 51
0.0
  7
KANJI5
  0
LINE
  8
0
  6
CONTINUOUS
 62
     2
 10
98.0
 20
145.0
 30
0.0
 11
95.585185434
 21
145.647047613
 31
0.0
  0
LINE
  8
0
  6
CONTINUOUS
 62
     2
 10
98.0
 20
145.0
 30
0.0
 11
95.585185434
 21
144.352952387
 31
0.0
  0
LINE
  8
0
  6
CONTINUOUS
 62
     2
 10
98.0
 20
145.0
 30
0.0
 11
93.55
 21
145.0
 31
0.0
  0
LINE
  8
0
  6
CONTINUOUS
 62
     2
 10
98.0
 20
145.0
 30
0.0
 11
103.26
 21
145.0
 31
0.0
  0
LINE
  8
0
  6
CONTINUOUS
 62
     2
 10
98.26
 20
150.0
 30
0.0
 11
95.845185434
 21
150.647047613
 31
0.0
  0
LINE
  8
0
  6
CONTINUOUS
 62
     2
 10
98.26
 20
150.0
 30
0.0
 11
95.845185434
 21
149.352952387
 31
0.0
  0
LINE
  8
0
  6
CONTINUOUS
 62
     2
 10
98.26
 20
150.0
 30
0.0
 11
92.010001538
 21
150.0
 31
0.0
  0
LINE
  8
0
  6
CONTINUOUS
 62
     2
 10
92.010001538
 20
150.0
 30
0.0
 11
94.424816104
 21
149.352952387
 31
0.0
  0
LINE
  8
0
  6
CONTINUOUS
 62
     2
 10
92.010001538
 20
150.0
 30
0.0
 11
94.424816104
 21
150.647047613
 31
0.0
  0
LINE
  8
0
  6
CONTINUOUS
 62
     2
 10
98.0
 20
141.0
 30
0.0
 11
98.0
 21
147.0
 31
0.0
  0
LINE
  8
0
  6
CONTINUOUS
 62
     2
 10
103.26
 20
136.835
 30
0.0
 11
103.26
 21
147.0
 31
0.0
  0
LINE
  8
0
  6
CONTINUOUS
 62
     2
 10
92.010001538
 20
139.25
 30
0.0
 11
92.010001538
 21
152.0
 31
0.0
  0
LINE
  8
0
  6
CONTINUOUS
 62
     2
 10
98.26
 20
138.06
 30
0.0
 11
98.26
 21
152.0
 31
0.0
  0
LINE
  8
0
  6
CONTINUOUS
 62
     2
 10
113.25
 20
135.75
 30
0.0
 11
113.25
 21
152.0
 31
0.0
  0
LINE
  8
0
  6
CONTINUOUS
 62
     2
 10
133.25
 20
126.25
 30
0.0
 11
133.25
 21
152.0
 31
0.0
  0
LINE
  8
0
  6
CONTINUOUS
 62
     2
 10
138.25
 20
121.05
 30
0.0
 11
138.25
 21
152.0
 31
0.0
  0
LINE
  8
0
  6
CONTINUOUS
 62
     2
 10
164.0
 20
145.0
 30
0.0
 11
166.414814566
 21
144.352952387
 31
0.0
  0
LINE
  8
0
  6
CONTINUOUS
 62
     2
 10
164.0
 20
145.0
 30
0.0
 11
166.414814566
 21
145.647047613
 31
0.0
  0
LINE
  8
0
  6
CONTINUOUS
 62
     2
 10
164.0
 20
145.0
 30
0.0
 11
180.0
 21
145.0
 31
0.0
  0
LINE
  8
0
  6
CONTINUOUS
 62
     2
 10
180.0
 20
145.0
 30
0.0
 11
177.585185434
 21
145.647047613
 31
0.0
  0
LINE
  8
0
  6
CONTINUOUS
 62
     2
 10
180.0
 20
145.0
 30
0.0
 11
177.585185434
 21
144.352952387
 31
0.0
  0
TEXT
  8
0
  6
CONTINUOUS
 62
     2
 10
171.52
 20
146.0
 30
0.18
 40
1.8
  1
±０．５
 50
0.0
 41
0.6
 51
0.0
  7
KANJI6
  0
LINE
  8
0
  6
CONTINUOUS
 62
     2
 10
180.0
 20
145.0
 30
0.0
 11
182.414814566
 21
144.352952387
 31
0.0
  0
LINE
  8
0
  6
CONTINUOUS
 62
     2
 10
180.0
 20
145.0
 30
0.0
 11
182.414814566
 21
145.647047613
 31
0.0
  0
LINE
  8
0
  6
CONTINUOUS
 62
     2
 10
180.0
 20
145.0
 30
0.0
 11
196.0
 21
145.0
 31
0.0
  0
LINE
  8
0
  6
CONTINUOUS
 62
     2
 10
196.0
 20
145.0
 30
0.0
 11
193.585185434
 21
145.647047613
 31
0.0
  0
LINE
  8
0
  6
CONTINUOUS
 62
     2
 10
196.0
 20
145.0
 30
0.0
 11
193.585185434
 21
144.352952387
 31
0.0
  0
TEXT
  8
0
  6
CONTINUOUS
 62
     2
 10
187.52
 20
146.0
 30
0.18
 40
1.8
  1
±０．５
 50
0.0
 41
0.6
 51
0.0
  7
KANJI6
  0
TEXT
  8
0
  6
CONTINUOUS
 62
     2
 10
183.62
 20
146.0
 30
0.3
 40
3.0
  1
３２
 50
0.0
 41
0.6
 51
0.0
  7
KANJI1
  0
TEXT
  8
0
  6
CONTINUOUS
 62
     2
 10
167.62
 20
146.0
 30
0.3
 40
3.0
  1
３２
 50
0.0
 41
0.6
 51
0.0
  7
KANJI1
  0
LINE
  8
0
  6
CONTINUOUS
 62
     2
 10
158.25
 20
150.0
 30
0.0
 11
160.664814566
 21
149.352952387
 31
0.0
  0
LINE
  8
0
  6
CONTINUOUS
 62
     2
 10
158.25
 20
150.0
 30
0.0
 11
160.664814566
 21
150.647047613
 31
0.0
  0
LINE
  8
0
  6
CONTINUOUS
 62
     2
 10
158.25
 20
150.0
 30
0.0
 11
201.75
 21
150.0
 31
0.0
  0
LINE
  8
0
  6
CONTINUOUS
 62
     2
 10
201.75
 20
150.0
 30
0.0
 11
199.335185434
 21
150.647047613
 31
0.0
  0
LINE
  8
0
  6
CONTINUOUS
 62
     2
 10
201.75
 20
150.0
 30
0.0
 11
199.335185434
 21
149.352952387
 31
0.0
  0
TEXT
  8
0
  6
CONTINUOUS
 62
     2
 10
182.88
 20
151.0
 30
0.18
 40
1.8
  1
±１
 50
0.0
 41
0.6
 51
0.0
  7
KANJI6
  0
TEXT
  8
0
  6
CONTINUOUS
 62
     2
 10
177.78
 20
151.0
 30
0.3
 40
3.0
  1
８７
 50
0.0
 41
0.6
 51
0.0
  7
KANJI1
  0
LINE
  8
0
  6
CONTINUOUS
 62
     2
 10
201.75
 20
139.35
 30
0.0
 11
201.75
 21
152.0
 31
0.0
  0
LINE
  8
0
  6
CONTINUOUS
 62
     2
 10
158.25
 20
139.35
 30
0.0
 11
158.25
 21
152.0
 31
0.0
  0
LINE
  8
0
  6
CONTINUOUS
 62
     2
 10
164.0
 20
138.5
 30
0.0
 11
164.0
 21
147.0
 31
0.0
  0
LINE
  8
0
  6
CONTINUOUS
 62
     2
 10
196.0
 20
138.5
 30
0.0
 11
196.0
 21
147.0
 31
0.0
  0
LINE
  8
0
  6
CONTINUOUS
 62
     2
 10
206.75
 20
103.0
 30
0.0
 11
207.397047613
 21
105.414814566
 31
0.0
  0
LINE
  8
0
  6
CONTINUOUS
 62
     2
 10
206.75
 20
103.0
 30
0.0
 11
206.102952387
 21
105.414814566
 31
0.0
  0
LINE
  8
0
  6
CONTINUOUS
 62
     2
 10
206.75
 20
103.0
 30
0.0
 11
206.75
 21
119.0
 31
0.0
  0
LINE
  8
0
  6
CONTINUOUS
 62
     2
 10
206.75
 20
119.0
 30
0.0
 11
206.102952387
 21
116.585185434
 31
0.0
  0
LINE
  8
0
  6
CONTINUOUS
 62
     2
 10
206.75
 20
119.0
 30
0.0
 11
207.397047613
 21
116.585185434
 31
0.0
  0
TEXT
  8
0
  6
CONTINUOUS
 62
     2
 10
205.75
 20
110.52
 30
0.18
 40
1.8
  1
±０．５
 50
90.0
 41
0.6
 51
0.0
  7
KANJI6
  0
LINE
  8
0
  6
CONTINUOUS
 62
     2
 10
206.75
 20
119.0
 30
0.0
 11
207.397047613
 21
121.414814566
 31
0.0
  0
LINE
  8
0
  6
CONTINUOUS
 62
     2
 10
206.75
 20
119.0
 30
0.0
 11
206.102952387
 21
121.414814566
 31
0.0
  0
LINE
  8
0
  6
CONTINUOUS
 62
     2
 10
206.75
 20
119.0
 30
0.0
 11
206.75
 21
135.0
 31
0.0
  0
LINE
  8
0
  6
CONTINUOUS
 62
     2
 10
206.75
 20
135.0
 30
0.0
 11
206.102952387
 21
132.585185434
 31
0.0
  0
LINE
  8
0
  6
CONTINUOUS
 62
     2
 10
206.75
 20
135.0
 30
0.0
 11
207.397047613
 21
132.585185434
 31
0.0
  0
TEXT
  8
0
  6
CONTINUOUS
 62
     2
 10
205.75
 20
126.52
 30
0.18
 40
1.8
  1
±０．５
 50
90.0
 41
0.6
 51
0.0
  7
KANJI6
  0
TEXT
  8
0
  6
CONTINUOUS
 62
     2
 10
205.75
 20
122.62
 30
0.3
 40
3.0
  1
３２
 50
90.0
 41
0.6
 51
0.0
  7
KANJI1
  0
TEXT
  8
0
  6
CONTINUOUS
 62
     2
 10
205.75
 20
106.62
 30
0.3
 40
3.0
  1
３２
 50
90.0
 41
0.6
 51
0.0
  7
KANJI1
  0
LINE
  8
0
  6
CONTINUOUS
 62
     2
 10
212.25
 20
140.0
 30
0.0
 11
211.602952387
 21
137.585185434
 31
0.0
  0
LINE
  8
0
  6
CONTINUOUS
 62
     2
 10
212.25
 20
140.0
 30
0.0
 11
212.897047613
 21
137.585185434
 31
0.0
  0
LINE
  8
0
  6
CONTINUOUS
 62
     2
 10
212.25
 20
140.0
 30
0.0
 11
212.25
 21
100.0
 31
0.0
  0
LINE
  8
0
  6
CONTINUOUS
 62
     2
 10
212.25
 20
100.0
 30
0.0
 11
212.897047613
 21
102.414814566
 31
0.0
  0
LINE
  8
0
  6
CONTINUOUS
 62
     2
 10
212.25
 20
100.0
 30
0.0
 11
211.602952387
 21
102.414814566
 31
0.0
  0
TEXT
  8
0
  6
CONTINUOUS
 62
     2
 10
211.25
 20
120.78
 30
0.18
 40
1.8
  1
±１
 50
90.0
 41
0.6
 51
0.0
  7
KANJI6
  0
TEXT
  8
0
  6
CONTINUOUS
 62
     2
 10
211.25
 20
116.88
 30
0.3
 40
3.0
  1
８０
 50
90.0
 41
0.6
 51
0.0
  7
KANJI1
  0
LINE
  8
0
  6
CONTINUOUS
 62
     2
 10
201.1
 20
100.0
 30
0.0
 11
214.25
 21
100.0
 31
0.0
  0
LINE
  8
0
  6
CONTINUOUS
 62
     2
 10
201.1
 20
140.0
 30
0.0
 11
214.25
 21
140.0
 31
0.0
  0
LINE
  8
0
  6
CONTINUOUS
 62
     2
 10
204.25
 20
119.0
 30
0.0
 11
208.75
 21
119.0
 31
0.0
  0
LINE
  8
0
  6
LTYPE2
 62
     2
 10
203.75
 20
120.0
 30
0.0
 11
18.65
 21
120.0
 31
0.0
  0
LINE
  8
0
  6
LTYPE2
 62
     2
 10
46.0
 20
148.0
 30
0.0
 11
46.0
 21
90.15
 31
0.0
  0
LINE
  8
0
  6
LTYPE2
 62
     2
 10
152.0
 20
119.0
 30
0.0
 11
203.75
 21
119.0
 31
0.0
  0
LINE
  8
0
  6
CONTINUOUS
 62
     2
 10
199.5
 20
103.0
 30
0.0
 11
208.75
 21
103.0
 31
0.0
  0
LINE
  8
0
  6
CONTINUOUS
 62
     2
 10
199.5
 20
135.0
 30
0.0
 11
208.75
 21
135.0
 31
0.0
  0
LINE
  8
0
  6
LTYPE2
 62
     2
 10
180.0
 20
142.0
 30
0.0
 11
180.0
 21
91.5
 31
0.0
  0
LINE
  8
0
  6
CONTINUOUS
 62
     2
 10
180.0
 20
142.5
 30
0.0
 11
180.0
 21
147.0
 31
0.0
  0
LINE
  8
0
  6
CONTINUOUS
 62
     2
 10
32.641965245
 20
48.414982404
 30
0.0
 11
34.95689376
 21
49.358966498
 31
0.0
  0
LINE
  8
0
  6
CONTINUOUS
 62
     2
 10
32.641965245
 20
48.414982404
 30
0.0
 11
34.1747601
 21
50.389960868
 31
0.0
  0
LINE
  8
0
  6
CONTINUOUS
 62
     2
 10
32.641965245
 20
48.414982404
 30
0.0
 11
59.33112282
 21
68.66192953
 31
0.0
  0
LINE
  8
0
  6
CONTINUOUS
 62
     2
 10
59.33112282
 20
68.66192953
 30
0.0
 11
57.016194305
 21
67.717945437
 31
0.0
  0
LINE
  8
0
  6
CONTINUOUS
 62
     2
 10
59.33112282
 20
68.66192953
 30
0.0
 11
57.798327965
 21
66.686951067
 31
0.0
  0
TEXT
  8
0
  6
CONTINUOUS
 62
     2
 10
33.782157551
 20
50.535147238
 30
0.3
 40
3.0
  1
φ６７
 50
37.184706453
 41
0.6
 51
0.0
  7
KANJI1
  0
TEXT
  8
0
  6
CONTINUOUS
 62
     2
 10
38.562305177
 20
54.161466126
 30
0.18
 40
1.8
  1
±１
 50
37.184706453
 41
0.6
 51
0.0
  7
KANJI6
  0
LINE
  8
0
  6
LTYPE2
 62
     2
 10
30.0
 20
77.038455967
 30
0.0
 11
30.0
 21
72.038455967
 31
0.0
  0
LINE
  8
0
  6
LTYPE2
 62
     2
 10
27.5
 20
74.538455967
 30
0.0
 11
32.5
 21
74.538455967
 31
0.0
  0
LINE
  8
0
  6
LTYPE2
 62
     2
 10
62.0
 20
77.038455967
 30
0.0
 11
62.0
 21
72.038455967
 31
0.0
  0
LINE
  8
0
  6
LTYPE2
 62
     2
 10
59.5
 20
74.538455967
 30
0.0
 11
64.5
 21
74.538455967
 31
0.0
  0
LINE
  8
0
  6
LTYPE2
 62
     2
 10
62.0
 20
45.038455967
 30
0.0
 11
62.0
 21
40.038455967
 31
0.0
  0
LINE
  8
0
  6
LTYPE2
 62
     2
 10
59.5
 20
42.538455967
 30
0.0
 11
64.5
 21
42.538455967
 31
0.0
  0
LINE
  8
0
  6
LTYPE2
 62
     2
 10
30.0
 20
45.038455967
 30
0.0
 11
30.0
 21
40.038455967
 31
0.0
  0
LINE
  8
0
  6
LTYPE2
 62
     2
 10
27.5
 20
42.538455967
 30
0.0
 11
32.5
 21
42.538455967
 31
0.0
  0
LINE
  8
0
  6
CONTINUOUS
 62
     2
 10
62.0
 20
80.538455967
 30
0.0
 11
59.585185434
 21
81.18550358
 31
0.0
  0
LINE
  8
0
  6
CONTINUOUS
 62
     2
 10
62.0
 20
80.538455967
 30
0.0
 11
59.585185434
 21
79.891408355
 31
0.0
  0
LINE
  8
0
  6
CONTINUOUS
 62
     2
 10
62.0
 20
80.538455967
 30
0.0
 11
46.0
 21
80.538455967
 31
0.0
  0
LINE
  8
0
  6
CONTINUOUS
 62
     2
 10
46.0
 20
80.538455967
 30
0.0
 11
48.414814566
 21
79.891408355
 31
0.0
  0
LINE
  8
0
  6
CONTINUOUS
 62
     2
 10
46.0
 20
80.538455967
 30
0.0
 11
48.414814566
 21
81.18550358
 31
0.0
  0
TEXT
  8
0
  6
CONTINUOUS
 62
     2
 10
49.62
 20
81.538455967
 30
0.3
 40
3.0
  1
３２
 50
0.0
 41
0.6
 51
0.0
  7
KANJI1
  0
TEXT
  8
0
  6
CONTINUOUS
 62
     2
 10
53.52
 20
81.538455967
 30
0.18
 40
1.8
  1
±０．５
 50
0.0
 41
0.6
 51
0.0
  7
KANJI6
  0
LINE
  8
0
  6
CONTINUOUS
 62
     2
 10
46.0
 20
80.538455967
 30
0.0
 11
43.585185434
 21
81.18550358
 31
0.0
  0
LINE
  8
0
  6
CONTINUOUS
 62
     2
 10
46.0
 20
80.538455967
 30
0.0
 11
43.585185434
 21
79.891408355
 31
0.0
  0
LINE
  8
0
  6
CONTINUOUS
 62
     2
 10
46.0
 20
80.538455967
 30
0.0
 11
29.9975
 21
80.538455967
 31
0.0
  0
LINE
  8
0
  6
CONTINUOUS
 62
     2
 10
29.9975
 20
80.538455967
 30
0.0
 11
32.412314566
 21
79.891408355
 31
0.0
  0
LINE
  8
0
  6
CONTINUOUS
 62
     2
 10
29.9975
 20
80.538455967
 30
0.0
 11
32.412314566
 21
81.18550358
 31
0.0
  0
TEXT
  8
0
  6
CONTINUOUS
 62
     2
 10
33.61875
 20
81.538455967
 30
0.3
 40
3.0
  1
３２
 50
0.0
 41
0.6
 51
0.0
  7
KANJI1
  0
TEXT
  8
0
  6
CONTINUOUS
 62
     2
 10
37.51875
 20
81.538455967
 30
0.18
 40
1.8
  1
±０．５
 50
0.0
 41
0.6
 51
0.0
  7
KANJI6
  0
LINE
  8
0
  6
CONTINUOUS
 62
     2
 10
30.0
 20
77.538455967
 30
0.0
 11
30.0
 21
82.538455967
 31
0.0
  0
LINE
  8
0
  6
CONTINUOUS
 62
     2
 10
62.0
 20
77.538455967
 30
0.0
 11
62.0
 21
82.538455967
 31
0.0
  0
LINE
  8
0
  6
CONTINUOUS
 62
     2
 10
46.0
 20
77.538455967
 30
0.0
 11
46.0
 21
82.538455967
 31
0.0
  0
LINE
  8
0
  6
CONTINUOUS
 62
     2
 10
68.0
 20
74.538455967
 30
0.0
 11
67.352952387
 21
72.123641402
 31
0.0
  0
LINE
  8
0
  6
CONTINUOUS
 62
     2
 10
68.0
 20
74.538455967
 30
0.0
 11
68.647047613
 21
72.123641402
 31
0.0
  0
LINE
  8
0
  6
CONTINUOUS
 62
     2
 10
68.0
 20
74.538455967
 30
0.0
 11
68.0
 21
58.538455967
 31
0.0
  0
LINE
  8
0
  6
CONTINUOUS
 62
     2
 10
68.0
 20
58.538455967
 30
0.0
 11
68.647047613
 21
60.953270533
 31
0.0
  0
LINE
  8
0
  6
CONTINUOUS
 62
     2
 10
68.0
 20
58.538455967
 30
0.0
 11
67.352952387
 21
60.953270533
 31
0.0
  0
TEXT
  8
0
  6
CONTINUOUS
 62
     2
 10
67.0
 20
62.158455967
 30
0.3
 40
3.0
  1
３２
 50
90.0
 41
0.6
 51
0.0
  7
KANJI1
  0
TEXT
  8
0
  6
CONTINUOUS
 62
     2
 10
67.0
 20
66.058455967
 30
0.18
 40
1.8
  1
±０．５
 50
90.0
 41
0.6
 51
0.0
  7
KANJI6
  0
LINE
  8
0
  6
CONTINUOUS
 62
     2
 10
68.0
 20
58.538455967
 30
0.0
 11
67.352952387
 21
56.123641402
 31
0.0
  0
LINE
  8
0
  6
CONTINUOUS
 62
     2
 10
68.0
 20
58.538455967
 30
0.0
 11
68.647047613
 21
56.123641402
 31
0.0
  0
LINE
  8
0
  6
CONTINUOUS
 62
     2
 10
68.0
 20
58.538455967
 30
0.0
 11
68.0
 21
42.538455967
 31
0.0
  0
LINE
  8
0
  6
CONTINUOUS
 62
     2
 10
68.0
 20
42.538455967
 30
0.0
 11
68.647047613
 21
44.953270533
 31
0.0
  0
LINE
  8
0
  6
CONTINUOUS
 62
     2
 10
68.0
 20
42.538455967
 30
0.0
 11
67.352952387
 21
44.953270533
 31
0.0
  0
TEXT
  8
0
  6
CONTINUOUS
 62
     2
 10
67.0
 20
46.158455967
 30
0.3
 40
3.0
  1
３２
 50
90.0
 41
0.6
 51
0.0
  7
KANJI1
  0
TEXT
  8
0
  6
CONTINUOUS
 62
     2
 10
67.0
 20
50.058455967
 30
0.18
 40
1.8
  1
±０．５
 50
90.0
 41
0.6
 51
0.0
  7
KANJI6
  0
LINE
  8
0
  6
CONTINUOUS
 62
     2
 10
65.0
 20
74.538455967
 30
0.0
 11
70.0
 21
74.538455967
 31
0.0
  0
LINE
  8
0
  6
CONTINUOUS
 62
     2
 10
65.0
 20
42.538455967
 30
0.0
 11
70.0
 21
42.538455967
 31
0.0
  0
LINE
  8
0
  6
CONTINUOUS
 62
     2
 10
65.0
 20
58.538455967
 30
0.0
 11
70.0
 21
58.538455967
 31
0.0
  0
LINE
  8
0
  6
LTYPE2
 62
     2
 10
46.0
 20
77.038455967
 30
0.0
 11
46.0
 21
37.588455967
 31
0.0
  0
LINE
  8
0
  6
LTYPE2
 62
     2
 10
21.036544033
 20
58.538455967
 30
0.0
 11
64.5
 21
58.538455967
 31
0.0
  0
LINE
  8
0
  6
CONTINUOUS
 62
     2
 10
138.428571429
 20
117.3
 30
0.0
 11
139.058687902
 21
114.880712247
 31
0.0
  0
LINE
  8
0
  6
CONTINUOUS
 62
     2
 10
138.428571429
 20
117.3
 30
0.0
 11
140.183912178
 21
115.519893584
 31
0.0
  0
TEXT
  8
0
  6
CONTINUOUS
 62
     2
 10
151.493674132
 20
95.3
 30
0.3
 40
3.0
  1
Ｍ４ターミナルネジ
 50
0.0
 41
0.9
 51
0.0
  7
KANJI7
  0
LINE
  8
0
  6
CONTINUOUS
 62
     2
 10
138.428571429
 20
117.3
 30
0.0
 11
151.493674132
 21
94.3
 31
0.0
  0
LINE
  8
0
  6
CONTINUOUS
 62
     2
 10
151.493674132
 20
94.3
 30
0.0
 11
178.593674132
 21
94.3
 31
0.0
  0
LINE
  8
0
  6
CONTINUOUS
 62
     2
 10
123.593674132
 20
111.3
 30
0.0
 11
124.223790604
 21
108.880712247
 31
0.0
  0
LINE
  8
0
  6
CONTINUOUS
 62
     2
 10
123.593674132
 20
111.3
 30
0.0
 11
125.349014881
 21
109.519893584
 31
0.0
  0
LINE
  8
0
  6
CONTINUOUS
 62
     2
 10
101.750489173
 20
101.3
 30
0.0
 11
102.380605646
 21
98.880712247
 31
0.0
  0
LINE
  8
0
  6
CONTINUOUS
 62
     2
 10
101.750489173
 20
101.3
 30
0.0
 11
103.505829922
 21
99.519893584
 31
0.0
  0
TEXT
  8
0
  6
CONTINUOUS
 62
     2
 10
105.726824778
 20
95.3
 30
0.5
 40
3.0
  1
Ｍ３取付ボルト
 50
0.0
 41
0.9
 51
0.0
  7
KANJI8
  0
LINE
  8
0
  6
CONTINUOUS
 62
     2
 10
101.750489173
 20
101.3
 30
0.0
 11
105.726824778
 21
94.3
 31
0.0
  0
LINE
  8
0
  6
CONTINUOUS
 62
     2
 10
105.726824778
 20
94.3
 30
0.0
 11
127.826824778
 21
94.3
 31
0.0
  0
LINE
  8
0
  6
CONTINUOUS
 62
     2
 10
44.3
 20
105.7
 30
0.0
 11
47.7
 21
105.7
 31
0.0
  0
LINE
  8
0
  6
CONTINUOUS
 62
     2
 10
47.7
 20
105.3
 30
0.0
 11
44.3
 21
105.3
 31
0.0
  0
CIRCLE
  8
0
  6
CONTINUOUS
 62
     2
 10
46.0
 20
105.5
 30
0.0
 40
1.75
  0
LINE
  8
0
  6
CONTINUOUS
 62
     2
 10
47.434161174
 20
109.45
 30
0.0
 11
48.064277647
 21
107.030712247
 31
0.0
  0
LINE
  8
0
  6
CONTINUOUS
 62
     2
 10
47.434161174
 20
109.45
 30
0.0
 11
49.189501923
 21
107.669893584
 31
0.0
  0
TEXT
  8
0
  6
CONTINUOUS
 62
     2
 10
56.040087519
 20
95.3
 30
0.3
 40
3.0
  1
予定指針調整器
 50
0.0
 41
0.9
 51
0.0
  7
KANJI7
  0
LINE
  8
0
  6
CONTINUOUS
 62
     2
 10
47.434161174
 20
109.45
 30
0.0
 11
56.040087519
 21
94.3
 31
0.0
  0
LINE
  8
0
  6
CONTINUOUS
 62
     2
 10
56.040087519
 20
94.3
 30
0.0
 11
77.440087519
 21
94.3
 31
0.0
  0
LINE
  8
0
  6
CONTINUOUS
 62
     2
 10
44.440087519
 20
104.3
 30
0.0
 11
43.809971046
 21
101.880712247
 31
0.0
  0
LINE
  8
0
  6
CONTINUOUS
 62
     2
 10
44.440087519
 20
104.3
 30
0.0
 11
42.68474677
 21
102.519893584
 31
0.0
  0
TEXT
  8
0
  6
CONTINUOUS
 62
     2
 10
24.059608083
 20
95.3
 30
0.3
 40
3.0
  1
零位調整器
 50
0.0
 41
0.9
 51
0.0
  7
KANJI7
  0
LINE
  8
0
  6
CONTINUOUS
 62
     2
 10
44.440087519
 20
104.3
 30
0.0
 11
38.759608083
 21
94.3
 31
0.0
  0
LINE
  8
0
  6
CONTINUOUS
 62
     2
 10
38.759608083
 20
94.3
 30
0.0
 11
23.559608083
 21
94.3
 31
0.0
  0
LINE
  8
0
  6
CONTINUOUS
 62
     2
 10
135.059608083
 20
122.8
 30
0.0
 11
135.689724556
 21
125.219287753
 31
0.0
  0
LINE
  8
0
  6
CONTINUOUS
 62
     2
 10
135.059608083
 20
122.8
 30
0.0
 11
136.814948833
 21
124.580106416
 31
0.0
  0
LINE
  8
0
  6
CONTINUOUS
 62
     2
 10
135.059608083
 20
122.8
 30
0.0
 11
139.717601221
 21
131.0
 31
0.0
  0
TEXT
  8
0
  6
CONTINUOUS
 62
     2
 10
139.717601221
 20
132.0
 30
0.3
 40
3.0
  1
端子キャップ
 50
0.0
 41
0.9
 51
0.0
  7
KANJI7
  0
LINE
  8
0
  6
CONTINUOUS
 62
     2
 10
139.717601221
 20
131.0
 30
0.0
 11
157.517601221
 21
131.0
 31
0.0
  0
LINE
  8
0
  6
CONTINUOUS
 62
     2
 10
54.334161174
 20
130.55
 30
0.0
 11
54.964277647
 21
132.969287753
 31
0.0
  0
LINE
  8
0
  6
CONTINUOUS
 62
     2
 10
54.334161174
 20
130.55
 30
0.0
 11
56.089501923
 21
132.330106416
 31
0.0
  0
TEXT
  8
0
  6
CONTINUOUS
 62
     2
 10
65.382693677
 20
151.0
 30
0.3
 40
3.0
  1
予定指針（赤色）
 50
0.0
 41
0.9
 51
0.0
  7
KANJI7
  0
LINE
  8
0
  6
CONTINUOUS
 62
     2
 10
54.334161174
 20
130.55
 30
0.0
 11
65.382693677
 21
150.0
 31
0.0
  0
LINE
  8
0
  6
CONTINUOUS
 62
     2
 10
65.382693677
 20
150.0
 30
0.0
 11
88.382693677
 21
150.0
 31
0.0
  0
LINE
  8
0
  6
CONTINUOUS
 62
     2
 10
30.8
 20
126.5
 30
0.0
 11
31.430116473
 21
128.919287753
 31
0.0
  0
LINE
  8
0
  6
CONTINUOUS
 62
     2
 10
30.8
 20
126.5
 30
0.0
 11
32.555340749
 21
128.280106416
 31
0.0
  0
TEXT
  8
0
  6
CONTINUOUS
 62
     2
 10
44.149126675
 20
151.0
 30
0.3
 40
3.0
  1
指針
 50
0.0
 41
0.9
 51
0.0
  7
KANJI7
  0
LINE
  8
0
  6
CONTINUOUS
 62
     2
 10
30.8
 20
126.5
 30
0.0
 11
44.149126675
 21
150.0
 31
0.0
  0
LINE
  8
0
  6
CONTINUOUS
 62
     2
 10
44.149126675
 20
150.0
 30
0.0
 11
50.549126675
 21
150.0
 31
0.0
  0
LINE
  8
0
  6
CONTINUOUS
 62
     2
 10
63.0
 20
41.538455967
 30
0.0
 11
63.630116473
 21
39.119168215
 31
0.0
  0
LINE
  8
0
  6
CONTINUOUS
 62
     2
 10
63.0
 20
41.538455967
 30
0.0
 11
64.755340749
 21
39.758349551
 31
0.0
  0
LINE
  8
0
  6
CONTINUOUS
 62
     2
 10
68.418300297
 20
32.0
 30
0.0
 11
83.318300297
 21
32.0
 31
0.0
  0
TEXT
  8
0
  6
CONTINUOUS
 62
     2
 10
68.760800297
 20
32.521544033
 30
0.3
 40
3.0
  1
４－
 50
0.0
 41
0.9
 51
0.0
  7
KANJI7
  0
TEXT
  8
0
  6
CONTINUOUS
 62
     2
 10
74.980800297
 20
32.521544033
 30
0.3
 40
3.0
  1
φ４
 50
0.0
 41
0.6
 51
0.0
  7
KANJI1
  0
TEXT
  8
0
  6
CONTINUOUS
 62
     2
 10
78.880800297
 20
32.521544033
 30
0.18
 40
1.8
  1
－０
 50
0.0
 41
0.6
 51
0.0
  7
KANJI6
  0
TEXT
  8
0
  6
CONTINUOUS
 62
     2
 10
78.880800297
 20
34.321544033
 30
0.18
 40
1.8
  1
＋０．５
 50
0.0
 41
0.6
 51
0.0
  7
KANJI6
  0
LINE
  8
0
  6
CONTINUOUS
 62
     2
 10
63.0
 20
41.538455967
 30
0.0
 11
68.418300297
 21
32.0
 31
0.0
  0
LINE
  8
0
  6
CONTINUOUS
 62
     2
 10
98.0
 20
136.96
 30
0.0
 11
98.25
 21
136.96
 31
0.0
  0
LINE
  8
0
  6
CONTINUOUS
 62
     2
 10
98.25
 20
132.96
 30
0.0
 11
98.0
 21
132.96
 31
0.0
  0
LINE
  8
0
  6
CONTINUOUS
 62
     2
 10
98.25
 20
136.96
 30
0.0
 11
98.25
 21
132.96
 31
0.0
  0
LINE
  8
0
  6
CONTINUOUS
 62
     2
 10
100.6
 20
136.535
 30
0.0
 11
100.8
 21
136.335
 31
0.0
  0
LINE
  8
0
  6
CONTINUOUS
 62
     2
 10
100.575
 20
135.71
 30
0.0
 11
100.775
 21
135.91
 31
0.0
  0
LINE
  8
0
  6
CONTINUOUS
 62
     2
 10
100.775
 20
135.51
 30
0.0
 11
100.575
 21
135.71
 31
0.0
  0
LINE
  8
0
  6
CONTINUOUS
 62
     2
 10
99.6
 20
136.535
 30
0.0
 11
100.6
 21
136.535
 31
0.0
  0
LINE
  8
0
  6
CONTINUOUS
 62
     2
 10
99.6
 20
135.71
 30
0.0
 11
100.575
 21
135.71
 31
0.0
  0
LINE
  8
0
  6
CONTINUOUS
 62
     2
 10
100.6
 20
133.435
 30
0.0
 11
100.8
 21
133.635
 31
0.0
  0
LINE
  8
0
  6
CONTINUOUS
 62
     2
 10
100.6
 20
133.435
 30
0.0
 11
99.6
 21
133.435
 31
0.0
  0
LINE
  8
0
  6
CONTINUOUS
 62
     2
 10
99.6
 20
133.435
 30
0.0
 11
99.6
 21
136.535
 31
0.0
  0
LINE
  8
0
  6
CONTINUOUS
 62
     2
 10
100.8
 20
136.335
 30
0.0
 11
100.8
 21
133.635
 31
0.0
  0
LINE
  8
0
  6
CONTINUOUS
 62
     2
 10
100.8
 20
135.735
 30
0.0
 11
103.25
 21
135.735
 31
0.0
  0
LINE
  8
0
  6
CONTINUOUS
 62
     2
 10
103.23
 20
135.56
 30
0.0
 11
100.8
 21
135.56
 31
0.0
  0
LINE
  8
0
  6
CONTINUOUS
 62
     2
 10
99.6
 20
136.535
 30
0.0
 11
99.3
 21
136.835
 31
0.0
  0
LINE
  8
0
  6
CONTINUOUS
 62
     2
 10
99.3
 20
136.835
 30
0.0
 11
99.3
 21
133.135
 31
0.0
  0
LINE
  8
0
  6
CONTINUOUS
 62
     2
 10
99.6
 20
133.435
 30
0.0
 11
99.3
 21
133.135
 31
0.0
  0
LINE
  8
0
  6
CONTINUOUS
 62
     2
 10
99.3
 20
134.46
 30
0.0
 11
98.25
 21
134.46
 31
0.0
  0
LINE
  8
0
  6
CONTINUOUS
 62
     2
 10
98.25
 20
135.71
 30
0.0
 11
99.3
 21
135.71
 31
0.0
  0
LINE
  8
0
  6
CONTINUOUS
 62
     2
 10
99.3
 20
135.56
 30
0.0
 11
98.25
 21
135.56
 31
0.0
  0
LINE
  8
0
  6
CONTINUOUS
 62
     2
 10
103.25
 20
135.735
 30
0.0
 11
103.25
 21
134.285
 31
0.0
  0
LINE
  8
0
  6
CONTINUOUS
 62
     2
 10
103.25
 20
134.285
 30
0.0
 11
100.8
 21
134.285
 31
0.0
  0
LINE
  8
0
  6
CONTINUOUS
 62
     2
 10
100.8
 20
134.46
 30
0.0
 11
103.25
 21
134.46
 31
0.0
  0
LINE
  8
0
  6
CONTINUOUS
 62
     2
 10
100.585
 20
134.285
 30
0.0
 11
99.6
 21
134.285
 31
0.0
  0
LINE
  8
0
  6
CONTINUOUS
 62
     2
 10
98.25
 20
134.285
 30
0.0
 11
99.3
 21
134.285
 31
0.0
  0
LINE
  8
0
  6
CONTINUOUS
 62
     2
 10
100.585
 20
134.285
 30
0.0
 11
100.785
 21
134.485
 31
0.0
  0
LINE
  8
0
  6
CONTINUOUS
 62
     2
 10
100.785
 20
134.085
 30
0.0
 11
100.585
 21
134.285
 31
0.0
  0
LINE
  8
0
  6
CONTINUOUS
 62
     2
 10
98.0
 20
104.95
 30
0.0
 11
98.25
 21
104.95
 31
0.0
  0
LINE
  8
0
  6
CONTINUOUS
 62
     2
 10
98.25
 20
100.95
 30
0.0
 11
98.0
 21
100.95
 31
0.0
  0
LINE
  8
0
  6
CONTINUOUS
 62
     2
 10
98.25
 20
104.95
 30
0.0
 11
98.25
 21
100.95
 31
0.0
  0
LINE
  8
0
  6
CONTINUOUS
 62
     2
 10
100.6
 20
104.525
 30
0.0
 11
100.8
 21
104.325
 31
0.0
  0
LINE
  8
0
  6
CONTINUOUS
 62
     2
 10
100.575
 20
103.7
 30
0.0
 11
100.775
 21
103.9
 31
0.0
  0
LINE
  8
0
  6
CONTINUOUS
 62
     2
 10
100.775
 20
103.5
 30
0.0
 11
100.575
 21
103.7
 31
0.0
  0
LINE
  8
0
  6
CONTINUOUS
 62
     2
 10
99.6
 20
104.525
 30
0.0
 11
100.6
 21
104.525
 31
0.0
  0
LINE
  8
0
  6
CONTINUOUS
 62
     2
 10
99.6
 20
103.7
 30
0.0
 11
100.575
 21
103.7
 31
0.0
  0
LINE
  8
0
  6
CONTINUOUS
 62
     2
 10
100.6
 20
101.425
 30
0.0
 11
100.8
 21
101.625
 31
0.0
  0
LINE
  8
0
  6
CONTINUOUS
 62
     2
 10
100.6
 20
101.425
 30
0.0
 11
99.6
 21
101.425
 31
0.0
  0
LINE
  8
0
  6
CONTINUOUS
 62
     2
 10
99.6
 20
101.425
 30
0.0
 11
99.6
 21
104.525
 31
0.0
  0
LINE
  8
0
  6
CONTINUOUS
 62
     2
 10
100.8
 20
104.325
 30
0.0
 11
100.8
 21
101.625
 31
0.0
  0
LINE
  8
0
  6
CONTINUOUS
 62
     2
 10
100.8
 20
103.725
 30
0.0
 11
103.25
 21
103.725
 31
0.0
  0
LINE
  8
0
  6
CONTINUOUS
 62
     2
 10
103.23
 20
103.55
 30
0.0
 11
100.8
 21
103.55
 31
0.0
  0
LINE
  8
0
  6
CONTINUOUS
 62
     2
 10
99.6
 20
104.525
 30
0.0
 11
99.3
 21
104.825
 31
0.0
  0
LINE
  8
0
  6
CONTINUOUS
 62
     2
 10
99.3
 20
104.825
 30
0.0
 11
99.3
 21
101.125
 31
0.0
  0
LINE
  8
0
  6
CONTINUOUS
 62
     2
 10
99.6
 20
101.425
 30
0.0
 11
99.3
 21
101.125
 31
0.0
  0
LINE
  8
0
  6
CONTINUOUS
 62
     2
 10
99.3
 20
102.45
 30
0.0
 11
98.25
 21
102.45
 31
0.0
  0
LINE
  8
0
  6
CONTINUOUS
 62
     2
 10
98.25
 20
103.7
 30
0.0
 11
99.3
 21
103.7
 31
0.0
  0
LINE
  8
0
  6
CONTINUOUS
 62
     2
 10
99.3
 20
103.55
 30
0.0
 11
98.25
 21
103.55
 31
0.0
  0
LINE
  8
0
  6
CONTINUOUS
 62
     2
 10
103.25
 20
103.725
 30
0.0
 11
103.25
 21
102.275
 31
0.0
  0
LINE
  8
0
  6
CONTINUOUS
 62
     2
 10
103.25
 20
102.275
 30
0.0
 11
100.8
 21
102.275
 31
0.0
  0
LINE
  8
0
  6
CONTINUOUS
 62
     2
 10
100.8
 20
102.45
 30
0.0
 11
103.25
 21
102.45
 31
0.0
  0
LINE
  8
0
  6
CONTINUOUS
 62
     2
 10
100.585
 20
102.275
 30
0.0
 11
99.6
 21
102.275
 31
0.0
  0
LINE
  8
0
  6
CONTINUOUS
 62
     2
 10
98.25
 20
102.275
 30
0.0
 11
99.3
 21
102.275
 31
0.0
  0
LINE
  8
0
  6
CONTINUOUS
 62
     2
 10
100.585
 20
102.275
 30
0.0
 11
100.785
 21
102.475
 31
0.0
  0
LINE
  8
0
  6
CONTINUOUS
 62
     2
 10
100.785
 20
102.075
 30
0.0
 11
100.585
 21
102.275
 31
0.0
  0
LINE
  8
0
  6
LTYPE1
 62
     2
 10
137.25
 20
111.0
 30
0.0
 11
133.25
 21
111.0
 31
0.0
  0
LINE
  8
0
  6
LTYPE1
 62
     2
 10
133.25
 20
111.6
 30
0.0
 11
133.5
 21
111.6
 31
0.0
  0
ARC
  8
0
  6
LTYPE1
 62
     2
 10
137.25
 20
119.5
 30
0.0
 40
3.0
 50
0.0
 51
90.0
  0
LINE
  8
0
  6
LTYPE1
 62
     2
 10
140.25
 20
119.5
 30
0.0
 11
140.25
 21
114.0
 31
0.0
  0
ARC
  8
0
  6
LTYPE1
 62
     2
 10
137.25
 20
114.0
 30
0.0
 40
3.0
 50
270.0
 51
0.0
  0
LINE
  8
0
  6
LTYPE1
 62
     2
 10
133.25
 20
121.9
 30
0.0
 11
133.5
 21
121.9
 31
0.0
  0
LINE
  8
0
  6
LTYPE1
 62
     2
 10
133.5
 20
111.0
 30
0.0
 11
133.5
 21
121.9
 31
0.0
  0
LINE
  8
0
  6
LTYPE1
 62
     2
 10
133.25
 20
122.5
 30
0.0
 11
137.25
 21
122.5
 31
0.0
  0
LINE
  8
0
  6
CONTINUOUS
 62
     2
 10
134.45
 20
120.05
 30
0.0
 11
134.25
 21
120.05
 31
0.0
  0
LINE
  8
0
  6
CONTINUOUS
 62
     2
 10
133.7
 20
120.05
 30
0.0
 11
133.35
 21
120.05
 31
0.0
  0
LINE
  8
0
  6
CONTINUOUS
 62
     2
 10
133.35
 20
118.05
 30
0.0
 11
133.65
 21
118.05
 31
0.0
  0
LINE
  8
0
  6
CONTINUOUS
 62
     2
 10
134.2
 20
118.05
 30
0.0
 11
134.45
 21
118.05
 31
0.0
  0
LINE
  8
0
  6
CONTINUOUS
 62
     2
 10
134.5
 20
121.1
 30
0.0
 11
133.25
 21
121.1
 31
0.0
  0
LINE
  8
0
  6
CONTINUOUS
 62
     2
 10
134.5
 20
121.1
 30
0.0
 11
134.75
 21
120.85
 31
0.0
  0
LINE
  8
0
  6
CONTINUOUS
 62
     2
 10
134.49
 20
120.035
 30
0.0
 11
134.75
 21
120.335
 31
0.0
  0
LINE
  8
0
  6
CONTINUOUS
 62
     2
 10
134.75
 20
117.75
 30
0.0
 11
134.45
 21
118.02
 31
0.0
  0
LINE
  8
0
  6
CONTINUOUS
 62
     2
 10
134.75
 20
118.325
 30
0.0
 11
134.45
 21
118.055
 31
0.0
  0
LINE
  8
0
  6
CONTINUOUS
 62
     2
 10
134.45
 20
117.025
 30
0.0
 11
134.75
 21
117.325
 31
0.0
  0
LINE
  8
0
  6
CONTINUOUS
 62
     2
 10
133.25
 20
117.05
 30
0.0
 11
134.5
 21
117.05
 31
0.0
  0
LINE
  8
0
  6
CONTINUOUS
 62
     2
 10
134.75
 20
117.305
 30
0.0
 11
134.75
 21
120.85
 31
0.0
  0
LINE
  8
0
  6
CONTINUOUS
 62
     2
 10
134.503
 20
120.05
 30
0.0
 11
134.753
 21
119.85
 31
0.0
  0
LINE
  8
0
  6
CONTINUOUS
 62
     2
 10
134.503
 20
120.05
 30
0.0
 11
133.25
 21
120.05
 31
0.0
  0
LINE
  8
0
  6
CONTINUOUS
 62
     2
 10
133.25
 20
118.05
 30
0.0
 11
134.466666667
 21
118.05
 31
0.0
  0
LINE
  8
0
  6
CONTINUOUS
 62
     2
 10
134.75
 20
120.85
 30
0.0
 11
134.75
 21
120.975
 31
0.0
  0
LINE
  8
0
  6
LTYPE1
 62
     2
 10
135.15
 20
120.975
 30
0.0
 11
135.15
 21
115.6
 31
0.0
  0
LINE
  8
0
  6
LTYPE1
 62
     2
 10
134.75
 20
120.975
 30
0.0
 11
135.15
 21
120.975
 31
0.0
  0
LINE
  8
0
  6
LTYPE1
 62
     2
 10
134.75
 20
117.325
 30
0.0
 11
134.75
 21
115.6
 31
0.0
  0
LINE
  8
0
  6
LTYPE1
 62
     2
 10
134.25
 20
115.6
 30
0.0
 11
136.75
 21
115.6
 31
0.0
  0
LINE
  8
0
  6
LTYPE1
 62
     2
 10
136.75
 20
115.6
 30
0.0
 11
136.75
 21
112.6
 31
0.0
  0
LINE
  8
0
  6
LTYPE1
 62
     2
 10
134.25
 20
115.6
 30
0.0
 11
134.25
 21
112.6
 31
0.0
  0
LINE
  8
0
  6
CONTINUOUS
 62
     2
 10
135.936253903
 20
120.7725
 30
0.0
 11
136.436253903
 21
120.7725
 31
0.0
  0
LINE
  8
0
  6
CONTINUOUS
 62
     2
 10
136.436253903
 20
120.7725
 30
0.0
 11
136.136253903
 21
119.1225
 31
0.0
  0
LINE
  8
0
  6
CONTINUOUS
 62
     2
 10
136.136253903
 20
119.1225
 30
0.0
 11
135.636253903
 21
119.1225
 31
0.0
  0
LINE
  8
0
  6
CONTINUOUS
 62
     2
 10
135.636253903
 20
119.1225
 30
0.0
 11
135.936253903
 21
120.7725
 31
0.0
  0
LINE
  8
0
  6
CONTINUOUS
 62
     2
 10
136.386253903
 20
118.8225
 30
0.0
 11
135.886253903
 21
118.8225
 31
0.0
  0
LINE
  8
0
  6
CONTINUOUS
 62
     2
 10
135.636253903
 20
117.2225
 30
0.0
 11
136.136253903
 21
117.2225
 31
0.0
  0
LINE
  8
0
  6
CONTINUOUS
 62
     2
 10
135.886253903
 20
118.8225
 30
0.0
 11
135.636253903
 21
117.2225
 31
0.0
  0
LINE
  8
0
  6
CONTINUOUS
 62
     2
 10
136.136253903
 20
117.2225
 30
0.0
 11
136.386253903
 21
118.8225
 31
0.0
  0
LINE
  8
0
  6
CONTINUOUS
 62
     2
 10
137.925253903
 20
120.05
 30
0.0
 11
136.304890267
 21
120.05
 31
0.0
  0
LINE
  8
0
  6
CONTINUOUS
 62
     2
 10
136.265550778
 20
118.05
 30
0.0
 11
137.88892057
 21
118.05
 31
0.0
  0
LINE
  8
0
  6
CONTINUOUS
 62
     2
 10
135.15
 20
116.75
 30
0.0
 11
135.4
 21
116.75
 31
0.0
  0
LINE
  8
0
  6
CONTINUOUS
 62
     2
 10
135.4
 20
116.75
 30
0.0
 11
135.4
 21
121.25
 31
0.0
  0
LINE
  8
0
  6
CONTINUOUS
 62
     2
 10
135.4
 20
121.25
 30
0.0
 11
135.15
 21
121.25
 31
0.0
  0
LINE
  8
0
  6
CONTINUOUS
 62
     2
 10
135.15
 20
121.25
 30
0.0
 11
135.15
 21
116.75
 31
0.0
  0
LINE
  8
0
  6
CONTINUOUS
 62
     2
 10
135.4
 20
120.05
 30
0.0
 11
135.804890267
 21
120.05
 31
0.0
  0
LINE
  8
0
  6
CONTINUOUS
 62
     2
 10
135.763981176
 20
119.825
 30
0.0
 11
135.4
 21
119.825
 31
0.0
  0
LINE
  8
0
  6
CONTINUOUS
 62
     2
 10
135.808519528
 20
118.325
 30
0.0
 11
135.4
 21
118.325
 31
0.0
  0
LINE
  8
0
  6
CONTINUOUS
 62
     2
 10
135.4
 20
118.05
 30
0.0
 11
135.765550778
 21
118.05
 31
0.0
  0
LINE
  8
0
  6
CONTINUOUS
 62
     2
 10
135.15
 20
119.825
 30
0.0
 11
135.0
 21
119.825
 31
0.0
  0
LINE
  8
0
  6
CONTINUOUS
 62
     2
 10
134.75
 20
120.05
 30
0.0
 11
135.15
 21
120.05
 31
0.0
  0
LINE
  8
0
  6
CONTINUOUS
 62
     2
 10
135.15
 20
119.825
 30
0.0
 11
134.75
 21
119.825
 31
0.0
  0
LINE
  8
0
  6
CONTINUOUS
 62
     2
 10
135.15
 20
118.325
 30
0.0
 11
134.75
 21
118.325
 31
0.0
  0
LINE
  8
0
  6
CONTINUOUS
 62
     2
 10
134.75
 20
118.05
 30
0.0
 11
135.15
 21
118.05
 31
0.0
  0
LINE
  8
0
  6
CONTINUOUS
 62
     2
 10
137.672253903
 20
121.1
 30
0.0
 11
136.422253903
 21
121.1
 31
0.0
  0
LINE
  8
0
  6
CONTINUOUS
 62
     2
 10
137.672253903
 20
121.1
 30
0.0
 11
137.922253903
 21
120.85
 31
0.0
  0
LINE
  8
0
  6
CONTINUOUS
 62
     2
 10
137.662253903
 20
120.035
 30
0.0
 11
137.922253903
 21
120.335
 31
0.0
  0
LINE
  8
0
  6
CONTINUOUS
 62
     2
 10
137.922253903
 20
117.75
 30
0.0
 11
137.622253903
 21
118.02
 31
0.0
  0
LINE
  8
0
  6
CONTINUOUS
 62
     2
 10
137.922253903
 20
118.325
 30
0.0
 11
137.622253903
 21
118.055
 31
0.0
  0
LINE
  8
0
  6
CONTINUOUS
 62
     2
 10
137.622253903
 20
117.025
 30
0.0
 11
137.922253903
 21
117.325
 31
0.0
  0
LINE
  8
0
  6
CONTINUOUS
 62
     2
 10
136.422253903
 20
117.05
 30
0.0
 11
137.672253903
 21
117.05
 31
0.0
  0
LINE
  8
0
  6
CONTINUOUS
 62
     2
 10
136.422253903
 20
121.1
 30
0.0
 11
136.422253903
 21
117.05
 31
0.0
  0
LINE
  8
0
  6
CONTINUOUS
 62
     2
 10
137.922253903
 20
117.305
 30
0.0
 11
137.922253903
 21
120.85
 31
0.0
  0
LINE
  8
0
  6
CONTINUOUS
 62
     2
 10
137.675253903
 20
120.05
 30
0.0
 11
137.925253903
 21
119.85
 31
0.0
  0
LINE
  8
0
  6
CONTINUOUS
 62
     2
 10
136.422253903
 20
119.825
 30
0.0
 11
136.263981176
 21
119.825
 31
0.0
  0
LINE
  8
0
  6
CONTINUOUS
 62
     2
 10
136.422253903
 20
118.325
 30
0.0
 11
136.308519528
 21
118.325
 31
0.0
  0
LINE
  8
0
  6
CONTINUOUS
 62
     2
 10
138.25
 20
120.05
 30
0.0
 11
138.25
 21
118.05
 31
0.0
  0
LINE
  8
0
  6
CONTINUOUS
 62
     2
 10
138.25
 20
119.825
 30
0.0
 11
137.922253903
 21
119.825
 31
0.0
  0
LINE
  8
0
  6
CONTINUOUS
 62
     2
 10
137.922253903
 20
120.05
 30
0.0
 11
138.25
 21
120.05
 31
0.0
  0
LINE
  8
0
  6
CONTINUOUS
 62
     2
 10
138.25
 20
118.05
 30
0.0
 11
137.922253903
 21
118.05
 31
0.0
  0
LINE
  8
0
  6
CONTINUOUS
 62
     2
 10
137.922253903
 20
118.325
 30
0.0
 11
138.25
 21
118.325
 31
0.0
  0
LINE
  8
0
  6
CONTINUOUS
 62
     2
 10
173.75
 20
121.025
 30
0.0
 11
171.996298557
 21
120.0125
 31
0.0
  0
LINE
  8
0
  6
CONTINUOUS
 62
     2
 10
171.996298557
 20
120.0125
 30
0.0
 11
171.996298557
 21
117.9875
 31
0.0
  0
LINE
  8
0
  6
CONTINUOUS
 62
     2
 10
171.996298557
 20
117.9875
 30
0.0
 11
173.75
 21
116.975
 31
0.0
  0
LINE
  8
0
  6
CONTINUOUS
 62
     2
 10
173.75
 20
116.975
 30
0.0
 11
175.503701443
 21
117.9875
 31
0.0
  0
LINE
  8
0
  6
CONTINUOUS
 62
     2
 10
175.503701443
 20
117.9875
 30
0.0
 11
175.503701443
 21
120.0125
 31
0.0
  0
LINE
  8
0
  6
CONTINUOUS
 62
     2
 10
175.503701443
 20
120.0125
 30
0.0
 11
173.75
 21
121.025
 31
0.0
  0
CIRCLE
  8
0
  6
CONTINUOUS
 62
     2
 10
173.75
 20
119.0
 30
0.0
 40
0.8
  0
CIRCLE
  8
0
  6
CONTINUOUS
 62
     2
 10
173.75
 20
119.0
 30
0.0
 40
1.0
  0
ARC
  8
0
  6
LTYPE1
 62
     2
 10
173.75
 20
119.0
 30
0.0
 40
1.975
 50
328.025496594
 51
217.415803658
  0
LINE
  8
0
  6
LTYPE1
 62
     2
 10
175.318637944
 20
117.8
 30
0.0
 11
174.66147392
 21
116.850763076
 31
0.0
  0
LINE
  8
0
  6
LTYPE1
 62
     2
 10
172.181362056
 20
117.8
 30
0.0
 11
172.838529527
 21
116.850758098
 31
0.0
  0
ARC
  8
0
  6
LTYPE1
 62
     2
 10
171.194145143
 20
115.71233814
 30
0.0
 40
2.0
 50
10.612929601
 51
34.695153531
  0
ARC
  8
0
  6
LTYPE1
 62
     2
 10
176.305858303
 20
115.712343118
 30
0.0
 40
2.0
 50
145.304846469
 51
169.387402194
  0
LINE
  8
0
  6
LTYPE1
 62
     2
 10
174.340068544
 20
116.080678053
 30
0.0
 11
174.250002697
 21
115.6
 31
0.0
  0
LINE
  8
0
  6
LTYPE1
 62
     2
 10
173.159932769
 20
116.080684458
 30
0.0
 11
173.250002697
 21
115.6
 31
0.0
  0
CIRCLE
  8
0
  6
CONTINUOUS
 62
     2
 10
173.75
 20
119.0
 30
0.0
 40
2.25
  0
LINE
  8
0
  6
CONTINUOUS
 62
     2
 10
186.25
 20
121.025
 30
0.0
 11
184.496298557
 21
120.0125
 31
0.0
  0
LINE
  8
0
  6
CONTINUOUS
 62
     2
 10
184.496298557
 20
120.0125
 30
0.0
 11
184.496298557
 21
117.9875
 31
0.0
  0
LINE
  8
0
  6
CONTINUOUS
 62
     2
 10
184.496298557
 20
117.9875
 30
0.0
 11
186.25
 21
116.975
 31
0.0
  0
LINE
  8
0
  6
CONTINUOUS
 62
     2
 10
186.25
 20
116.975
 30
0.0
 11
188.003701443
 21
117.9875
 31
0.0
  0
LINE
  8
0
  6
CONTINUOUS
 62
     2
 10
188.003701443
 20
117.9875
 30
0.0
 11
188.003701443
 21
120.0125
 31
0.0
  0
LINE
  8
0
  6
CONTINUOUS
 62
     2
 10
188.003701443
 20
120.0125
 30
0.0
 11
186.25
 21
121.025
 31
0.0
  0
CIRCLE
  8
0
  6
CONTINUOUS
 62
     2
 10
186.25
 20
119.0
 30
0.0
 40
0.8
  0
CIRCLE
  8
0
  6
CONTINUOUS
 62
     2
 10
186.25
 20
119.0
 30
0.0
 40
1.0
  0
ARC
  8
0
  6
LTYPE1
 62
     2
 10
186.25
 20
119.0
 30
0.0
 40
1.975
 50
328.025496594
 51
217.415803658
  0
LINE
  8
0
  6
LTYPE1
 62
     2
 10
187.818637944
 20
117.8
 30
0.0
 11
187.16147392
 21
116.850763076
 31
0.0
  0
LINE
  8
0
  6
LTYPE1
 62
     2
 10
184.681362056
 20
117.8
 30
0.0
 11
185.338529527
 21
116.850758098
 31
0.0
  0
ARC
  8
0
  6
LTYPE1
 62
     2
 10
183.694145143
 20
115.71233814
 30
0.0
 40
2.0
 50
10.612929601
 51
34.695153531
  0
ARC
  8
0
  6
LTYPE1
 62
     2
 10
188.805858303
 20
115.712343118
 30
0.0
 40
2.0
 50
145.304846469
 51
169.387402194
  0
LINE
  8
0
  6
LTYPE1
 62
     2
 10
186.840068544
 20
116.080678053
 30
0.0
 11
186.750002697
 21
115.6
 31
0.0
  0
LINE
  8
0
  6
LTYPE1
 62
     2
 10
185.659932769
 20
116.080684458
 30
0.0
 11
185.750002697
 21
115.6
 31
0.0
  0
CIRCLE
  8
0
  6
CONTINUOUS
 62
     2
 10
186.25
 20
119.0
 30
0.0
 40
2.25
  0
TEXT
  8
0
  6
CONTINUOUS
 62
     1
 10
111.0
 20
63.1
 30
0.5
 40
4.0
  1
ＡＣＦ－８（電圧計）
 50
0.0
 41
0.9
 51
0.0
  7
KANJI9
  0
TEXT
  8
0
  6
CONTINUOUS
 62
     1
 10
125.3
 20
52.1
 30
0.4375
 40
3.5
  1
パネル用計器外形図
 50
0.0
 41
0.9
 51
0.0
  7
KANJI10
  0
TEXT
  8
0
  6
CONTINUOUS
 62
     2
 10
125.3
 20
56.6
 30
0.375
 40
3.0
  1
予定指針付　端子キャップ付
 50
0.0
 41
0.9
 51
0.0
  7
KANJI11
  0
LINE
  8
0
  6
CONTINUOUS
 62
     2
 10
123.593674132
 20
111.3
 30
0.0
 11
136.090728891
 21
89.3
 31
0.0
  0
TEXT
  8
0
  6
CONTINUOUS
 62
     2
 10
137.250489173
 20
90.3
 30
0.3
 40
3.0
  1
直列抵抗器
 50
0.0
 41
0.9
 51
0.0
  7
KANJI7
  0
LINE
  8
0
  6
CONTINUOUS
 62
     2
 10
136.090728891
 20
89.3
 30
0.0
 11
153.250489173
 21
89.3
 31
0.0
  0
TEXT
  8
0
  6
CONTINUOUS
 62
     2
 10
141.724178811
 20
135.46
 30
0.24
 40
2.4
  1
（オプション）
 50
0.0
 41
0.9
 51
0.0
  7
KANJI12
  0
TEXT
  8
0
  6
CONTINUOUS
 62
     3
 10
125.5
 20
30.0
 30
0.6
 40
6.0
  1
ＭＳ－１１４６５Ｂ
 50
0.0
 41
0.9
 51
0.0
  7
KANJI13
  0
ENDSEC
  0
EOF
