  0
SECTION
  2
HEADER
  9
$ACADVER
  1
AC1009
  9
$DWGCODEPAGE
  3
dos932
  9
$EXTMIN
 10
0.0
 20
0.0
 30
0.0
  9
$EXTMAX
 10
297.0
 20
210.0
 30
0.0
  9
$LIMMIN
 10
0.0
 20
0.0
  9
$LIMMAX
 10
297.0
 20
210.0
  9
$LTSCALE
 40
1.0
  9
$PDMODE
 70
     0
  0
ENDSEC
  0
SECTION
  2
TABLES
  0
TABLE
  2
VPORT
 70
     1
  0
VPORT
  2
*ACTIVE
 70
     0
 10
0.0
 20
0.0
 11
1.0
 21
1.0
 12
148.5
 22
105.0
 13
0.0
 23
0.0
 14
10.0
 24
10.0
 15
10.0
 25
10.0
 16
0.0
 26
0.0
 36
1.0
 17
0.0
 27
0.0
 37
0.0
 40
297.0
 41
1.414285714
 42
50.0
 43
0.0
 44
0.0
 50
0.0
 51
0.0
 71
     0
 72
  1000
 73
     1
 74
     3
 75
     0
 76
     0
 77
     0
 78
     0
  0
ENDTAB
  0
TABLE
  2
LTYPE
 70
     4
  0
LTYPE
  2
CONTINUOUS
 70
    64
  3
Solid line
 72
    65
 73
     0
 40
0.0
  0
LTYPE
  2
LTYPE1
 70
    64
  3
CENTER
 72
    65
 73
     4
 40
5.0
 49
3.5
 49
-0.5
 49
0.5
 49
-0.5
  0
LTYPE
  2
LTYPE2
 70
    64
  3
CENTER
 72
    65
 73
     4
 40
15.0
 49
10.5
 49
-1.5
 49
1.5
 49
-1.5
  0
LTYPE
  2
LTYPE3
 70
    64
  3
CENTER
 72
    65
 73
     4
 40
3.0
 49
2.1
 49
-0.3
 49
0.3
 49
-0.3
  0
ENDTAB
  0
TABLE
  2
LAYER
 70
   128
  0
LAYER
  2
0
 70
     0
 62
     7
  6
CONTINUOUS
  0
LAYER
  2
2
 70
     0
 62
     7
  6
CONTINUOUS
  0
LAYER
  2
3
 70
     0
 62
     7
  6
CONTINUOUS
  0
LAYER
  2
4
 70
     0
 62
     7
  6
CONTINUOUS
  0
LAYER
  2
5
 70
     0
 62
     7
  6
CONTINUOUS
  0
LAYER
  2
6
 70
     0
 62
     7
  6
CONTINUOUS
  0
LAYER
  2
7
 70
     0
 62
     7
  6
CONTINUOUS
  0
LAYER
  2
8
 70
     0
 62
     7
  6
CONTINUOUS
  0
LAYER
  2
9
 70
     0
 62
     7
  6
CONTINUOUS
  0
LAYER
  2
10
 70
     0
 62
     7
  6
CONTINUOUS
  0
LAYER
  2
11
 70
     0
 62
     7
  6
CONTINUOUS
  0
LAYER
  2
12
 70
     0
 62
     7
  6
CONTINUOUS
  0
LAYER
  2
13
 70
     0
 62
     7
  6
CONTINUOUS
  0
LAYER
  2
14
 70
     0
 62
     7
  6
CONTINUOUS
  0
LAYER
  2
15
 70
     0
 62
     7
  6
CONTINUOUS
  0
LAYER
  2
16
 70
     0
 62
     7
  6
CONTINUOUS
  0
LAYER
  2
17
 70
     0
 62
     7
  6
CONTINUOUS
  0
LAYER
  2
18
 70
     0
 62
     7
  6
CONTINUOUS
  0
LAYER
  2
19
 70
     0
 62
     7
  6
CONTINUOUS
  0
LAYER
  2
20
 70
     0
 62
     7
  6
CONTINUOUS
  0
LAYER
  2
21
 70
     0
 62
     7
  6
CONTINUOUS
  0
LAYER
  2
22
 70
     0
 62
     7
  6
CONTINUOUS
  0
LAYER
  2
23
 70
     0
 62
     7
  6
CONTINUOUS
  0
LAYER
  2
24
 70
     0
 62
     7
  6
CONTINUOUS
  0
LAYER
  2
25
 70
     0
 62
     7
  6
CONTINUOUS
  0
LAYER
  2
26
 70
     0
 62
     7
  6
CONTINUOUS
  0
LAYER
  2
27
 70
     0
 62
     7
  6
CONTINUOUS
  0
LAYER
  2
28
 70
     0
 62
     7
  6
CONTINUOUS
  0
LAYER
  2
29
 70
     0
 62
     7
  6
CONTINUOUS
  0
LAYER
  2
30
 70
     0
 62
     7
  6
CONTINUOUS
  0
LAYER
  2
31
 70
     0
 62
     7
  6
CONTINUOUS
  0
LAYER
  2
32
 70
     0
 62
     7
  6
CONTINUOUS
  0
LAYER
  2
33
 70
     0
 62
     7
  6
CONTINUOUS
  0
LAYER
  2
34
 70
     0
 62
     7
  6
CONTINUOUS
  0
LAYER
  2
35
 70
     0
 62
     7
  6
CONTINUOUS
  0
LAYER
  2
36
 70
     0
 62
     7
  6
CONTINUOUS
  0
LAYER
  2
37
 70
     0
 62
     7
  6
CONTINUOUS
  0
LAYER
  2
38
 70
     0
 62
     7
  6
CONTINUOUS
  0
LAYER
  2
39
 70
     0
 62
     7
  6
CONTINUOUS
  0
LAYER
  2
40
 70
     0
 62
     7
  6
CONTINUOUS
  0
LAYER
  2
41
 70
     0
 62
     7
  6
CONTINUOUS
  0
LAYER
  2
42
 70
     0
 62
     7
  6
CONTINUOUS
  0
LAYER
  2
43
 70
     0
 62
     7
  6
CONTINUOUS
  0
LAYER
  2
44
 70
     0
 62
     7
  6
CONTINUOUS
  0
LAYER
  2
45
 70
     0
 62
     7
  6
CONTINUOUS
  0
LAYER
  2
46
 70
     0
 62
     7
  6
CONTINUOUS
  0
LAYER
  2
47
 70
     0
 62
     7
  6
CONTINUOUS
  0
LAYER
  2
48
 70
     0
 62
     7
  6
CONTINUOUS
  0
LAYER
  2
49
 70
     0
 62
     7
  6
CONTINUOUS
  0
LAYER
  2
50
 70
     0
 62
     7
  6
CONTINUOUS
  0
LAYER
  2
51
 70
     0
 62
     7
  6
CONTINUOUS
  0
LAYER
  2
52
 70
     0
 62
     7
  6
CONTINUOUS
  0
LAYER
  2
53
 70
     0
 62
     7
  6
CONTINUOUS
  0
LAYER
  2
54
 70
     0
 62
     7
  6
CONTINUOUS
  0
LAYER
  2
55
 70
     0
 62
     7
  6
CONTINUOUS
  0
LAYER
  2
56
 70
     0
 62
     7
  6
CONTINUOUS
  0
LAYER
  2
57
 70
     0
 62
     7
  6
CONTINUOUS
  0
LAYER
  2
58
 70
     0
 62
     7
  6
CONTINUOUS
  0
LAYER
  2
59
 70
     0
 62
     7
  6
CONTINUOUS
  0
LAYER
  2
60
 70
     0
 62
     7
  6
CONTINUOUS
  0
LAYER
  2
61
 70
     0
 62
     7
  6
CONTINUOUS
  0
LAYER
  2
62
 70
     0
 62
     7
  6
CONTINUOUS
  0
LAYER
  2
63
 70
     0
 62
     7
  6
CONTINUOUS
  0
LAYER
  2
64
 70
     0
 62
     7
  6
CONTINUOUS
  0
LAYER
  2
65
 70
     0
 62
     7
  6
CONTINUOUS
  0
LAYER
  2
66
 70
     0
 62
     7
  6
CONTINUOUS
  0
LAYER
  2
67
 70
     0
 62
     7
  6
CONTINUOUS
  0
LAYER
  2
68
 70
     0
 62
     7
  6
CONTINUOUS
  0
LAYER
  2
69
 70
     0
 62
     7
  6
CONTINUOUS
  0
LAYER
  2
70
 70
     0
 62
     7
  6
CONTINUOUS
  0
LAYER
  2
71
 70
     0
 62
     7
  6
CONTINUOUS
  0
LAYER
  2
72
 70
     0
 62
     7
  6
CONTINUOUS
  0
LAYER
  2
73
 70
     0
 62
     7
  6
CONTINUOUS
  0
LAYER
  2
74
 70
     0
 62
     7
  6
CONTINUOUS
  0
LAYER
  2
75
 70
     0
 62
     7
  6
CONTINUOUS
  0
LAYER
  2
76
 70
     0
 62
     7
  6
CONTINUOUS
  0
LAYER
  2
77
 70
     0
 62
     7
  6
CONTINUOUS
  0
LAYER
  2
78
 70
     0
 62
     7
  6
CONTINUOUS
  0
LAYER
  2
79
 70
     0
 62
     7
  6
CONTINUOUS
  0
LAYER
  2
80
 70
     0
 62
     7
  6
CONTINUOUS
  0
LAYER
  2
81
 70
     0
 62
     7
  6
CONTINUOUS
  0
LAYER
  2
82
 70
     0
 62
     7
  6
CONTINUOUS
  0
LAYER
  2
83
 70
     0
 62
     7
  6
CONTINUOUS
  0
LAYER
  2
84
 70
     0
 62
     7
  6
CONTINUOUS
  0
LAYER
  2
85
 70
     0
 62
     7
  6
CONTINUOUS
  0
LAYER
  2
86
 70
     0
 62
     7
  6
CONTINUOUS
  0
LAYER
  2
87
 70
     0
 62
     7
  6
CONTINUOUS
  0
LAYER
  2
88
 70
     0
 62
     7
  6
CONTINUOUS
  0
LAYER
  2
89
 70
     0
 62
     7
  6
CONTINUOUS
  0
LAYER
  2
90
 70
     0
 62
     7
  6
CONTINUOUS
  0
LAYER
  2
91
 70
     0
 62
     7
  6
CONTINUOUS
  0
LAYER
  2
92
 70
     0
 62
     7
  6
CONTINUOUS
  0
LAYER
  2
93
 70
     0
 62
     7
  6
CONTINUOUS
  0
LAYER
  2
94
 70
     0
 62
     7
  6
CONTINUOUS
  0
LAYER
  2
95
 70
     0
 62
     7
  6
CONTINUOUS
  0
LAYER
  2
96
 70
     0
 62
     7
  6
CONTINUOUS
  0
LAYER
  2
97
 70
     0
 62
     7
  6
CONTINUOUS
  0
LAYER
  2
98
 70
     0
 62
     7
  6
CONTINUOUS
  0
LAYER
  2
99
 70
     0
 62
     7
  6
CONTINUOUS
  0
LAYER
  2
100
 70
     0
 62
     7
  6
CONTINUOUS
  0
LAYER
  2
101
 70
     0
 62
     7
  6
CONTINUOUS
  0
LAYER
  2
102
 70
     0
 62
     7
  6
CONTINUOUS
  0
LAYER
  2
103
 70
     0
 62
     7
  6
CONTINUOUS
  0
LAYER
  2
104
 70
     0
 62
     7
  6
CONTINUOUS
  0
LAYER
  2
105
 70
     0
 62
     7
  6
CONTINUOUS
  0
LAYER
  2
106
 70
     0
 62
     7
  6
CONTINUOUS
  0
LAYER
  2
107
 70
     0
 62
     7
  6
CONTINUOUS
  0
LAYER
  2
108
 70
     0
 62
     7
  6
CONTINUOUS
  0
LAYER
  2
109
 70
     0
 62
     7
  6
CONTINUOUS
  0
LAYER
  2
110
 70
     0
 62
     7
  6
CONTINUOUS
  0
LAYER
  2
111
 70
     0
 62
     7
  6
CONTINUOUS
  0
LAYER
  2
112
 70
     0
 62
     7
  6
CONTINUOUS
  0
LAYER
  2
113
 70
     0
 62
     7
  6
CONTINUOUS
  0
LAYER
  2
114
 70
     0
 62
     7
  6
CONTINUOUS
  0
LAYER
  2
115
 70
     0
 62
     7
  6
CONTINUOUS
  0
LAYER
  2
116
 70
     0
 62
     7
  6
CONTINUOUS
  0
LAYER
  2
117
 70
     0
 62
     7
  6
CONTINUOUS
  0
LAYER
  2
118
 70
     0
 62
     7
  6
CONTINUOUS
  0
LAYER
  2
119
 70
     0
 62
     7
  6
CONTINUOUS
  0
LAYER
  2
120
 70
     0
 62
     7
  6
CONTINUOUS
  0
LAYER
  2
121
 70
     0
 62
     7
  6
CONTINUOUS
  0
LAYER
  2
122
 70
     0
 62
     7
  6
CONTINUOUS
  0
LAYER
  2
123
 70
     0
 62
     7
  6
CONTINUOUS
  0
LAYER
  2
124
 70
     0
 62
     7
  6
CONTINUOUS
  0
LAYER
  2
125
 70
     0
 62
     7
  6
CONTINUOUS
  0
LAYER
  2
126
 70
     0
 62
     7
  6
CONTINUOUS
  0
LAYER
  2
127
 70
     0
 62
     7
  6
CONTINUOUS
  0
LAYER
  2
128
 70
     0
 62
     7
  6
CONTINUOUS
  0
ENDTAB
  0
TABLE
  2
STYLE
 70
    13
  0
STYLE
  2
STANDARD
 70
     0
 40
0.0
 41
1.0
 50
0.0
 71
     0
 42
0.2
  3
txt.shx
  4
extfont.shx
  0
STYLE
  2
KANJI0
 70
     0
 40
3.0
 41
0.6
 50
0.0
 71
     0
 42
3.0
  3
txt.shx
  4
extfont.shx
  0
STYLE
  2
KANJI1
 70
     0
 40
3.0
 41
0.6
 50
0.0
 71
     0
 42
3.0
  3
txt.shx
  4
extfont.shx
  0
STYLE
  2
KANJI2
 70
     0
 40
3.0
 41
0.9
 50
0.0
 71
     0
 42
3.0
  3
txt.shx
  4
extfont.shx
  0
STYLE
  2
KANJI3
 70
     0
 40
1.8
 41
0.6
 50
0.0
 71
     0
 42
1.8
  3
txt.shx
  4
extfont.shx
  0
STYLE
  2
KANJI4
 70
     0
 40
3.0
 41
0.6
 50
0.0
 71
     0
 42
3.0
  3
txt.shx
  4
extfont.shx
  0
STYLE
  2
KANJI5
 70
     0
 40
2.5
 41
0.6
 50
0.0
 71
     0
 42
2.5
  3
txt.shx
  4
extfont.shx
  0
STYLE
  2
KANJI6
 70
     0
 40
1.8
 41
0.6
 50
0.0
 71
     0
 42
1.8
  3
txt.shx
  4
extfont.shx
  0
STYLE
  2
KANJI7
 70
     0
 40
3.0
 41
0.9
 50
0.0
 71
     0
 42
3.0
  3
txt.shx
  4
extfont.shx
  0
STYLE
  2
KANJI8
 70
     0
 40
3.0
 41
0.8
 50
0.0
 71
     0
 42
3.0
  3
txt.shx
  4
extfont.shx
  0
STYLE
  2
KANJI9
 70
     0
 40
4.0
 41
0.8
 50
0.0
 71
     0
 42
4.0
  3
txt.shx
  4
extfont.shx
  0
STYLE
  2
KANJI10
 70
     0
 40
4.0
 41
0.9
 50
0.0
 71
     0
 42
4.0
  3
txt.shx
  4
extfont.shx
  0
STYLE
  2
KANJI11
 70
     0
 40
6.0
 41
0.833333333
 50
0.0
 71
     0
 42
6.0
  3
txt.shx
  4
extfont.shx
  0
ENDTAB
  0
TABLE
  2
VIEW
 70
     0
  0
ENDTAB
  0
ENDSEC
  0
SECTION
  2
BLOCKS
  0
ENDSEC
  0
SECTION
  2
ENTITIES
  0
ARC
  8
0
  6
CONTINUOUS
 62
     1
 10
159.55
 20
111.55
 30
0.0
 40
1.0
 50
180.0
 51
270.0
  0
LINE
  8
0
  6
CONTINUOUS
 62
     1
 10
159.55
 20
110.55
 30
0.0
 11
210.45
 21
110.55
 31
0.0
  0
ARC
  8
0
  6
CONTINUOUS
 62
     1
 10
210.45
 20
111.55
 30
0.0
 40
1.0
 50
270.0
 51
0.0
  0
LINE
  8
0
  6
CONTINUOUS
 62
     1
 10
211.45
 20
111.55
 30
0.0
 11
211.45
 21
158.45
 31
0.0
  0
ARC
  8
0
  6
CONTINUOUS
 62
     1
 10
210.45
 20
158.45
 30
0.0
 40
1.0
 50
0.0
 51
90.0
  0
LINE
  8
0
  6
CONTINUOUS
 62
     1
 10
210.45
 20
159.45
 30
0.0
 11
159.55
 21
159.45
 31
0.0
  0
ARC
  8
0
  6
CONTINUOUS
 62
     1
 10
159.55
 20
158.45
 30
0.0
 40
1.0
 50
90.0
 51
180.0
  0
LINE
  8
0
  6
CONTINUOUS
 62
     1
 10
158.55
 20
158.45
 30
0.0
 11
158.55
 21
111.55
 31
0.0
  0
LINE
  8
0
  6
CONTINUOUS
 62
     1
 10
213.0
 20
111.5
 30
0.0
 11
213.0
 21
158.5
 31
0.0
  0
ARC
  8
0
  6
CONTINUOUS
 62
     1
 10
210.5
 20
158.5
 30
0.0
 40
2.5
 50
0.0
 51
90.0
  0
LINE
  8
0
  6
CONTINUOUS
 62
     1
 10
159.5
 20
109.0
 30
0.0
 11
210.5
 21
109.0
 31
0.0
  0
ARC
  8
0
  6
CONTINUOUS
 62
     1
 10
210.5
 20
111.5
 30
0.0
 40
2.5
 50
270.0
 51
0.0
  0
ARC
  8
0
  6
CONTINUOUS
 62
     1
 10
159.5
 20
111.5
 30
0.0
 40
2.5
 50
180.0
 51
270.0
  0
LINE
  8
0
  6
CONTINUOUS
 62
     1
 10
157.0
 20
158.5
 30
0.0
 11
157.0
 21
111.5
 31
0.0
  0
LINE
  8
0
  6
CONTINUOUS
 62
     1
 10
210.5
 20
161.0
 30
0.0
 11
159.5
 21
161.0
 31
0.0
  0
ARC
  8
0
  6
CONTINUOUS
 62
     1
 10
159.5
 20
158.5
 30
0.0
 40
2.5
 50
90.0
 51
180.0
  0
CIRCLE
  8
0
  6
CONTINUOUS
 62
     1
 10
50.0
 20
60.0
 30
0.0
 40
23.5
  0
ARC
  8
0
  6
CONTINUOUS
 62
     1
 10
24.5
 20
111.5
 30
0.0
 40
2.5
 50
180.0
 51
270.0
  0
LINE
  8
0
  6
CONTINUOUS
 62
     1
 10
24.5
 20
109.0
 30
0.0
 11
75.5
 21
109.0
 31
0.0
  0
ARC
  8
0
  6
CONTINUOUS
 62
     1
 10
75.5
 20
111.5
 30
0.0
 40
2.5
 50
270.0
 51
0.0
  0
LINE
  8
0
  6
CONTINUOUS
 62
     1
 10
78.0
 20
111.5
 30
0.0
 11
78.0
 21
158.5
 31
0.0
  0
ARC
  8
0
  6
CONTINUOUS
 62
     1
 10
75.5
 20
158.5
 30
0.0
 40
2.5
 50
0.0
 51
90.0
  0
LINE
  8
0
  6
CONTINUOUS
 62
     1
 10
75.5
 20
161.0
 30
0.0
 11
24.5
 21
161.0
 31
0.0
  0
ARC
  8
0
  6
CONTINUOUS
 62
     1
 10
24.5
 20
158.5
 30
0.0
 40
2.5
 50
90.0
 51
180.0
  0
LINE
  8
0
  6
CONTINUOUS
 62
     1
 10
22.0
 20
158.5
 30
0.0
 11
22.0
 21
111.5
 31
0.0
  0
ARC
  8
0
  6
CONTINUOUS
 62
     1
 10
24.5
 20
111.5
 30
0.0
 40
1.0
 50
180.0
 51
270.0
  0
LINE
  8
0
  6
CONTINUOUS
 62
     1
 10
24.5
 20
110.5
 30
0.0
 11
75.5
 21
110.5
 31
0.0
  0
ARC
  8
0
  6
CONTINUOUS
 62
     1
 10
75.5
 20
111.5
 30
0.0
 40
1.0
 50
270.0
 51
0.0
  0
LINE
  8
0
  6
CONTINUOUS
 62
     1
 10
76.5
 20
111.5
 30
0.0
 11
76.5
 21
158.5
 31
0.0
  0
ARC
  8
0
  6
CONTINUOUS
 62
     1
 10
75.5
 20
158.5
 30
0.0
 40
1.0
 50
0.0
 51
90.0
  0
LINE
  8
0
  6
CONTINUOUS
 62
     1
 10
75.5
 20
159.5
 30
0.0
 11
24.5
 21
159.5
 31
0.0
  0
ARC
  8
0
  6
CONTINUOUS
 62
     1
 10
24.5
 20
158.5
 30
0.0
 40
1.0
 50
90.0
 51
180.0
  0
LINE
  8
0
  6
CONTINUOUS
 62
     1
 10
23.5
 20
158.5
 30
0.0
 11
23.5
 21
111.5
 31
0.0
  0
ARC
  8
0
  6
CONTINUOUS
 62
     1
 10
74.5
 20
157.5
 30
0.0
 40
1.0
 50
0.0
 51
90.0
  0
LINE
  8
0
  6
CONTINUOUS
 62
     1
 10
74.5
 20
158.5
 30
0.0
 11
25.5
 21
158.5
 31
0.0
  0
ARC
  8
0
  6
CONTINUOUS
 62
     1
 10
25.5
 20
157.5
 30
0.0
 40
1.0
 50
90.0
 51
180.0
  0
LINE
  8
0
  6
CONTINUOUS
 62
     1
 10
24.5
 20
157.5
 30
0.0
 11
24.5
 21
132.0
 31
0.0
  0
LINE
  8
0
  6
CONTINUOUS
 62
     1
 10
24.5
 20
132.0
 30
0.0
 11
75.5
 21
132.0
 31
0.0
  0
LINE
  8
0
  6
CONTINUOUS
 62
     1
 10
75.5
 20
132.0
 30
0.0
 11
75.5
 21
157.5
 31
0.0
  0
ARC
  8
0
  6
CONTINUOUS
 62
     1
 10
127.0
 20
155.5
 30
0.0
 40
1.0
 50
0.0
 51
90.0
  0
LINE
  8
0
  6
CONTINUOUS
 62
     1
 10
128.0
 20
155.5
 30
0.0
 11
128.0
 21
112.5
 31
0.0
  0
ARC
  8
0
  6
CONTINUOUS
 62
     1
 10
127.0
 20
112.5
 30
0.0
 40
1.0
 50
270.0
 51
0.0
  0
LINE
  8
0
  6
CONTINUOUS
 62
     1
 10
98.0
 20
111.0
 30
0.0
 11
98.0
 21
110.55
 31
0.0
  0
LINE
  8
0
  6
CONTINUOUS
 62
     1
 10
86.8
 20
132.0
 30
0.0
 11
86.5
 21
132.0
 31
0.0
  0
LINE
  8
0
  6
CONTINUOUS
 62
     1
 10
86.5
 20
132.0
 30
0.0
 11
86.5
 21
158.5
 31
0.0
  0
LINE
  8
0
  6
CONTINUOUS
 62
     1
 10
86.5
 20
158.5
 30
0.0
 11
86.8
 21
158.5
 31
0.0
  0
LINE
  8
0
  6
CONTINUOUS
 62
     1
 10
86.8
 20
158.5
 30
0.0
 11
86.8
 21
158.625
 31
0.0
  0
LINE
  8
0
  6
CONTINUOUS
 62
     1
 10
98.0
 20
109.0
 30
0.0
 11
87.233628319
 21
110.441924779
 31
0.0
  0
LINE
  8
0
  6
CONTINUOUS
 62
     1
 10
86.8
 20
110.9375
 30
0.0
 11
86.8
 21
132.0
 31
0.0
  0
ARC
  8
0
  6
CONTINUOUS
 62
     1
 10
87.3
 20
110.9375
 30
0.0
 40
0.5
 50
180.0
 51
262.371850331
  0
LINE
  8
0
  6
CONTINUOUS
 62
     1
 10
86.8
 20
158.5
 30
0.0
 11
86.8
 21
159.0625
 31
0.0
  0
LINE
  8
0
  6
CONTINUOUS
 62
     1
 10
87.233628319
 20
159.558075221
 30
0.0
 11
98.0
 21
161.0
 31
0.0
  0
ARC
  8
0
  6
CONTINUOUS
 62
     1
 10
87.3
 20
159.0625
 30
0.0
 40
0.5
 50
97.628149669
 51
180.0
  0
LINE
  8
0
  6
CONTINUOUS
 62
     1
 10
98.0
 20
161.0
 30
0.0
 11
98.0
 21
109.0
 31
0.0
  0
ARC
  8
0
  6
CONTINUOUS
 62
     1
 10
100.3
 20
117.0
 30
0.0
 40
14.0
 50
165.522487814
 51
194.477512186
  0
LINE
  8
0
  6
CONTINUOUS
 62
     1
 10
100.75
 20
156.5
 30
0.0
 11
127.0
 21
156.5
 31
0.0
  0
LINE
  8
0
  6
CONTINUOUS
 62
     1
 10
98.5
 20
156.5
 30
0.0
 11
100.6
 21
156.5
 31
0.0
  0
LINE
  8
0
  6
CONTINUOUS
 62
     1
 10
127.0
 20
111.5
 30
0.0
 11
100.85
 21
111.5
 31
0.0
  0
LINE
  8
0
  6
CONTINUOUS
 62
     1
 10
100.6
 20
111.5
 30
0.0
 11
98.5
 21
111.5
 31
0.0
  0
CIRCLE
  8
0
  6
CONTINUOUS
 62
     2
 10
166.0
 20
153.0
 30
0.0
 40
1.5
  0
CIRCLE
  8
0
  6
CONTINUOUS
 62
     2
 10
166.0
 20
153.0
 30
0.0
 40
1.2
  0
LINE
  8
0
  6
CONTINUOUS
 62
     2
 10
182.0
 20
159.45
 30
0.0
 11
182.0
 21
158.75
 31
0.0
  0
LINE
  8
0
  6
CONTINUOUS
 62
     2
 10
182.0
 20
158.75
 30
0.0
 11
188.0
 21
158.75
 31
0.0
  0
LINE
  8
0
  6
CONTINUOUS
 62
     2
 10
188.0
 20
158.75
 30
0.0
 11
188.0
 21
159.45
 31
0.0
  0
LINE
  8
0
  6
CONTINUOUS
 62
     2
 10
221.5
 20
134.0
 30
0.0
 11
222.147047613
 21
136.414814566
 31
0.0
  0
LINE
  8
0
  6
CONTINUOUS
 62
     2
 10
221.5
 20
134.0
 30
0.0
 11
220.852952387
 21
136.414814566
 31
0.0
  0
LINE
  8
0
  6
CONTINUOUS
 62
     2
 10
221.5
 20
134.0
 30
0.0
 11
221.5
 21
153.0
 31
0.0
  0
LINE
  8
0
  6
CONTINUOUS
 62
     2
 10
221.5
 20
153.0
 30
0.0
 11
220.852952387
 21
150.585185434
 31
0.0
  0
LINE
  8
0
  6
CONTINUOUS
 62
     2
 10
221.5
 20
153.0
 30
0.0
 11
222.147047613
 21
150.585185434
 31
0.0
  0
TEXT
  8
0
  6
CONTINUOUS
 62
     2
 10
220.5
 20
139.12
 30
0.3
 40
3.0
  1
１９
 50
90.0
 41
0.6
 51
0.0
  7
KANJI0
  0
LINE
  8
0
  6
CONTINUOUS
 62
     2
 10
221.5
 20
134.0
 30
0.0
 11
220.852952387
 21
131.585185434
 31
0.0
  0
LINE
  8
0
  6
CONTINUOUS
 62
     2
 10
221.5
 20
134.0
 30
0.0
 11
222.147047613
 21
131.585185434
 31
0.0
  0
LINE
  8
0
  6
CONTINUOUS
 62
     2
 10
221.5
 20
134.0
 30
0.0
 11
221.5
 21
115.0
 31
0.0
  0
LINE
  8
0
  6
CONTINUOUS
 62
     2
 10
221.5
 20
115.0
 30
0.0
 11
222.147047613
 21
117.414814566
 31
0.0
  0
LINE
  8
0
  6
CONTINUOUS
 62
     2
 10
221.5
 20
115.0
 30
0.0
 11
220.852952387
 21
117.414814566
 31
0.0
  0
TEXT
  8
0
  6
CONTINUOUS
 62
     2
 10
220.5
 20
120.12
 30
0.3
 40
3.0
  1
１９
 50
90.0
 41
0.6
 51
0.0
  7
KANJI0
  0
LINE
  8
0
  6
CONTINUOUS
 62
     2
 10
185.0
 20
175.0
 30
0.0
 11
182.585185434
 21
175.647047613
 31
0.0
  0
LINE
  8
0
  6
CONTINUOUS
 62
     2
 10
185.0
 20
175.0
 30
0.0
 11
182.585185434
 21
174.352952387
 31
0.0
  0
LINE
  8
0
  6
CONTINUOUS
 62
     2
 10
185.0
 20
175.0
 30
0.0
 11
166.0
 21
175.0
 31
0.0
  0
LINE
  8
0
  6
CONTINUOUS
 62
     2
 10
166.0
 20
175.0
 30
0.0
 11
168.414814566
 21
174.352952387
 31
0.0
  0
LINE
  8
0
  6
CONTINUOUS
 62
     2
 10
166.0
 20
175.0
 30
0.0
 11
168.414814566
 21
175.647047613
 31
0.0
  0
TEXT
  8
0
  6
CONTINUOUS
 62
     2
 10
171.12
 20
176.0
 30
0.3
 40
3.0
  1
１９
 50
0.0
 41
0.6
 51
0.0
  7
KANJI0
  0
LINE
  8
0
  6
CONTINUOUS
 62
     2
 10
185.0
 20
175.0
 30
0.0
 11
187.414814566
 21
174.352952387
 31
0.0
  0
LINE
  8
0
  6
CONTINUOUS
 62
     2
 10
185.0
 20
175.0
 30
0.0
 11
187.414814566
 21
175.647047613
 31
0.0
  0
LINE
  8
0
  6
CONTINUOUS
 62
     2
 10
185.0
 20
175.0
 30
0.0
 11
204.0
 21
175.0
 31
0.0
  0
LINE
  8
0
  6
CONTINUOUS
 62
     2
 10
204.0
 20
175.0
 30
0.0
 11
201.585185434
 21
175.647047613
 31
0.0
  0
LINE
  8
0
  6
CONTINUOUS
 62
     2
 10
204.0
 20
175.0
 30
0.0
 11
201.585185434
 21
174.352952387
 31
0.0
  0
TEXT
  8
0
  6
CONTINUOUS
 62
     2
 10
190.12
 20
176.0
 30
0.3
 40
3.0
  1
１９
 50
0.0
 41
0.6
 51
0.0
  7
KANJI0
  0
LINE
  8
0
  6
CONTINUOUS
 62
     2
 10
172.5
 20
170.0
 30
0.0
 11
174.914814566
 21
169.352952387
 31
0.0
  0
LINE
  8
0
  6
CONTINUOUS
 62
     2
 10
172.5
 20
170.0
 30
0.0
 11
174.914814566
 21
170.647047613
 31
0.0
  0
LINE
  8
0
  6
CONTINUOUS
 62
     2
 10
172.5
 20
170.0
 30
0.0
 11
197.5
 21
170.0
 31
0.0
  0
LINE
  8
0
  6
CONTINUOUS
 62
     2
 10
197.5
 20
170.0
 30
0.0
 11
195.085185434
 21
170.647047613
 31
0.0
  0
LINE
  8
0
  6
CONTINUOUS
 62
     2
 10
197.5
 20
170.0
 30
0.0
 11
195.085185434
 21
169.352952387
 31
0.0
  0
TEXT
  8
0
  6
CONTINUOUS
 62
     2
 10
183.05
 20
171.0
 30
0.3
 40
3.0
  1
２５
 50
0.0
 41
0.6
 51
0.0
  7
KANJI0
  0
LINE
  8
0
  6
LTYPE1
 62
     2
 10
166.0
 20
158.0
 30
0.0
 11
166.0
 21
148.0
 31
0.0
  0
LINE
  8
0
  6
LTYPE1
 62
     2
 10
161.0
 20
153.0
 30
0.0
 11
171.0
 21
153.0
 31
0.0
  0
LINE
  8
0
  6
LTYPE1
 62
     2
 10
204.0
 20
148.0
 30
0.0
 11
204.0
 21
158.0
 31
0.0
  0
LINE
  8
0
  6
LTYPE1
 62
     2
 10
199.0
 20
153.0
 30
0.0
 11
209.0
 21
153.0
 31
0.0
  0
LINE
  8
0
  6
LTYPE1
 62
     2
 10
166.0
 20
120.0
 30
0.0
 11
166.0
 21
110.0
 31
0.0
  0
LINE
  8
0
  6
LTYPE1
 62
     2
 10
161.0
 20
115.0
 30
0.0
 11
171.0
 21
115.0
 31
0.0
  0
LINE
  8
0
  6
LTYPE1
 62
     2
 10
204.0
 20
120.0
 30
0.0
 11
204.0
 21
110.0
 31
0.0
  0
LINE
  8
0
  6
LTYPE1
 62
     2
 10
199.0
 20
115.0
 30
0.0
 11
209.0
 21
115.0
 31
0.0
  0
LINE
  8
0
  6
CONTINUOUS
 62
     2
 10
209.0
 20
134.0
 30
0.0
 11
223.5
 21
134.0
 31
0.0
  0
LINE
  8
0
  6
CONTINUOUS
 62
     2
 10
210.0
 20
115.0
 30
0.0
 11
223.5
 21
115.0
 31
0.0
  0
LINE
  8
0
  6
CONTINUOUS
 62
     2
 10
210.0
 20
153.0
 30
0.0
 11
223.5
 21
153.0
 31
0.0
  0
LINE
  8
0
  6
CONTINUOUS
 62
     2
 10
204.0
 20
159.0
 30
0.0
 11
204.0
 21
177.0
 31
0.0
  0
LINE
  8
0
  6
CONTINUOUS
 62
     2
 10
197.5
 20
148.5
 30
0.0
 11
197.5
 21
172.0
 31
0.0
  0
LINE
  8
0
  6
CONTINUOUS
 62
     2
 10
172.5
 20
148.5
 30
0.0
 11
172.5
 21
172.0
 31
0.0
  0
LINE
  8
0
  6
CONTINUOUS
 62
     2
 10
166.0
 20
159.0
 30
0.0
 11
166.0
 21
177.0
 31
0.0
  0
LINE
  8
0
  6
CONTINUOUS
 62
     2
 10
216.0
 20
135.0
 30
0.0
 11
216.647047613
 21
137.414814566
 31
0.0
  0
LINE
  8
0
  6
CONTINUOUS
 62
     2
 10
216.0
 20
135.0
 30
0.0
 11
215.352952387
 21
137.414814566
 31
0.0
  0
LINE
  8
0
  6
CONTINUOUS
 62
     2
 10
216.0
 20
141.8
 30
0.0
 11
216.0
 21
129.0
 31
0.0
  0
LINE
  8
0
  6
CONTINUOUS
 62
     2
 10
216.0
 20
134.0
 30
0.0
 11
215.352952387
 21
131.585185434
 31
0.0
  0
LINE
  8
0
  6
CONTINUOUS
 62
     2
 10
216.0
 20
134.0
 30
0.0
 11
216.647047613
 21
131.585185434
 31
0.0
  0
TEXT
  8
0
  6
CONTINUOUS
 62
     2
 10
215.0
 20
140.0
 30
0.3
 40
3.0
  1
１
 50
90.0
 41
0.6
 51
0.0
  7
KANJI1
  0
LINE
  8
0
  6
CONTINUOUS
 62
     2
 10
17.0
 20
161.0
 30
0.0
 11
16.352952387
 21
158.585185434
 31
0.0
  0
LINE
  8
0
  6
CONTINUOUS
 62
     2
 10
17.0
 20
161.0
 30
0.0
 11
17.647047613
 21
158.585185434
 31
0.0
  0
LINE
  8
0
  6
CONTINUOUS
 62
     2
 10
17.0
 20
161.0
 30
0.0
 11
17.0
 21
109.0
 31
0.0
  0
LINE
  8
0
  6
CONTINUOUS
 62
     2
 10
17.0
 20
109.0
 30
0.0
 11
17.647047613
 21
111.414814566
 31
0.0
  0
LINE
  8
0
  6
CONTINUOUS
 62
     2
 10
17.0
 20
109.0
 30
0.0
 11
16.352952387
 21
111.414814566
 31
0.0
  0
TEXT
  8
0
  6
CONTINUOUS
 62
     2
 10
16.0
 20
133.05
 30
0.3
 40
3.0
  1
５２
 50
90.0
 41
0.6
 51
0.0
  7
KANJI1
  0
LINE
  8
0
  6
CONTINUOUS
 62
     2
 10
166.0
 20
156.2
 30
0.0
 11
163.228718708
 21
154.6
 31
0.0
  0
LINE
  8
0
  6
CONTINUOUS
 62
     2
 10
163.228718708
 20
154.6
 30
0.0
 11
163.228718708
 21
151.4
 31
0.0
  0
LINE
  8
0
  6
CONTINUOUS
 62
     2
 10
163.228718708
 20
151.4
 30
0.0
 11
166.0
 21
149.8
 31
0.0
  0
LINE
  8
0
  6
CONTINUOUS
 62
     2
 10
166.0
 20
149.8
 30
0.0
 11
168.771281292
 21
151.4
 31
0.0
  0
LINE
  8
0
  6
CONTINUOUS
 62
     2
 10
168.771281292
 20
151.4
 30
0.0
 11
168.771281292
 21
154.6
 31
0.0
  0
LINE
  8
0
  6
CONTINUOUS
 62
     2
 10
168.771281292
 20
154.6
 30
0.0
 11
166.0
 21
156.2
 31
0.0
  0
CIRCLE
  8
0
  6
CONTINUOUS
 62
     2
 10
204.0
 20
153.0
 30
0.0
 40
1.5
  0
CIRCLE
  8
0
  6
CONTINUOUS
 62
     2
 10
204.0
 20
153.0
 30
0.0
 40
1.2
  0
LINE
  8
0
  6
CONTINUOUS
 62
     2
 10
204.0
 20
156.2
 30
0.0
 11
201.228718708
 21
154.6
 31
0.0
  0
LINE
  8
0
  6
CONTINUOUS
 62
     2
 10
201.228718708
 20
154.6
 30
0.0
 11
201.228718708
 21
151.4
 31
0.0
  0
LINE
  8
0
  6
CONTINUOUS
 62
     2
 10
201.228718708
 20
151.4
 30
0.0
 11
204.0
 21
149.8
 31
0.0
  0
LINE
  8
0
  6
CONTINUOUS
 62
     2
 10
204.0
 20
149.8
 30
0.0
 11
206.771281292
 21
151.4
 31
0.0
  0
LINE
  8
0
  6
CONTINUOUS
 62
     2
 10
206.771281292
 20
151.4
 30
0.0
 11
206.771281292
 21
154.6
 31
0.0
  0
LINE
  8
0
  6
CONTINUOUS
 62
     2
 10
206.771281292
 20
154.6
 30
0.0
 11
204.0
 21
156.2
 31
0.0
  0
CIRCLE
  8
0
  6
CONTINUOUS
 62
     2
 10
204.0
 20
115.0
 30
0.0
 40
4.0
  0
CIRCLE
  8
0
  6
CONTINUOUS
 62
     2
 10
204.0
 20
115.0
 30
0.0
 40
1.5
  0
CIRCLE
  8
0
  6
CONTINUOUS
 62
     2
 10
204.0
 20
115.0
 30
0.0
 40
1.2
  0
LINE
  8
0
  6
CONTINUOUS
 62
     2
 10
204.0
 20
118.2
 30
0.0
 11
201.228718708
 21
116.6
 31
0.0
  0
LINE
  8
0
  6
CONTINUOUS
 62
     2
 10
201.228718708
 20
116.6
 30
0.0
 11
201.228718708
 21
113.4
 31
0.0
  0
LINE
  8
0
  6
CONTINUOUS
 62
     2
 10
201.228718708
 20
113.4
 30
0.0
 11
204.0
 21
111.8
 31
0.0
  0
LINE
  8
0
  6
CONTINUOUS
 62
     2
 10
204.0
 20
111.8
 30
0.0
 11
206.771281292
 21
113.4
 31
0.0
  0
LINE
  8
0
  6
CONTINUOUS
 62
     2
 10
206.771281292
 20
113.4
 30
0.0
 11
206.771281292
 21
116.6
 31
0.0
  0
LINE
  8
0
  6
CONTINUOUS
 62
     2
 10
206.771281292
 20
116.6
 30
0.0
 11
204.0
 21
118.2
 31
0.0
  0
CIRCLE
  8
0
  6
CONTINUOUS
 62
     2
 10
204.0
 20
115.0
 30
0.0
 40
3.7
  0
CIRCLE
  8
0
  6
CONTINUOUS
 62
     2
 10
166.0
 20
115.0
 30
0.0
 40
4.0
  0
CIRCLE
  8
0
  6
CONTINUOUS
 62
     2
 10
166.0
 20
115.0
 30
0.0
 40
1.5
  0
CIRCLE
  8
0
  6
CONTINUOUS
 62
     2
 10
166.0
 20
115.0
 30
0.0
 40
1.2
  0
LINE
  8
0
  6
CONTINUOUS
 62
     2
 10
166.0
 20
118.2
 30
0.0
 11
163.228718708
 21
116.6
 31
0.0
  0
LINE
  8
0
  6
CONTINUOUS
 62
     2
 10
163.228718708
 20
116.6
 30
0.0
 11
163.228718708
 21
113.4
 31
0.0
  0
LINE
  8
0
  6
CONTINUOUS
 62
     2
 10
163.228718708
 20
113.4
 30
0.0
 11
166.0
 21
111.8
 31
0.0
  0
LINE
  8
0
  6
CONTINUOUS
 62
     2
 10
166.0
 20
111.8
 30
0.0
 11
168.771281292
 21
113.4
 31
0.0
  0
LINE
  8
0
  6
CONTINUOUS
 62
     2
 10
168.771281292
 20
113.4
 30
0.0
 11
168.771281292
 21
116.6
 31
0.0
  0
LINE
  8
0
  6
CONTINUOUS
 62
     2
 10
168.771281292
 20
116.6
 30
0.0
 11
166.0
 21
118.2
 31
0.0
  0
CIRCLE
  8
0
  6
CONTINUOUS
 62
     2
 10
166.0
 20
115.0
 30
0.0
 40
3.7
  0
LINE
  8
0
  6
CONTINUOUS
 62
     2
 10
185.0
 20
177.0
 30
0.0
 11
185.0
 21
174.0
 31
0.0
  0
LINE
  8
0
  6
LTYPE2
 62
     2
 10
185.0
 20
171.0
 30
0.0
 11
185.0
 21
102.0
 31
0.0
  0
CIRCLE
  8
0
  6
CONTINUOUS
 62
     2
 10
31.0
 20
79.0
 30
0.0
 40
2.0
  0
CIRCLE
  8
0
  6
CONTINUOUS
 62
     2
 10
69.0
 20
79.0
 30
0.0
 40
2.0
  0
CIRCLE
  8
0
  6
CONTINUOUS
 62
     2
 10
31.0
 20
41.0
 30
0.0
 40
2.0
  0
CIRCLE
  8
0
  6
CONTINUOUS
 62
     2
 10
69.0
 20
41.0
 30
0.0
 40
2.0
  0
LINE
  8
0
  6
CONTINUOUS
 62
     2
 10
69.987842817
 20
39.260986898
 30
0.0
 11
70.61795929
 21
36.841699145
 31
0.0
  0
LINE
  8
0
  6
CONTINUOUS
 62
     2
 10
69.987842817
 20
39.260986898
 30
0.0
 11
71.743183566
 21
37.480880481
 31
0.0
  0
LINE
  8
0
  6
CONTINUOUS
 62
     2
 10
74.617433557
 20
31.110986898
 30
0.0
 11
87.617433557
 21
31.110986898
 31
0.0
  0
LINE
  8
0
  6
CONTINUOUS
 62
     2
 10
69.987842817
 20
39.260986898
 30
0.0
 11
74.617433557
 21
31.110986898
 31
0.0
  0
TEXT
  8
0
  6
CONTINUOUS
 62
     2
 10
41.55
 20
30.55
 30
0.3
 40
3.0
  1
パネルカット
 50
0.0
 41
0.9
 51
0.0
  7
KANJI2
  0
LINE
  8
0
  6
CONTINUOUS
 62
     2
 10
40.8
 20
30.0
 30
0.0
 11
59.3
 21
30.0
 31
0.0
  0
LINE
  8
0
  6
LTYPE1
 62
     2
 10
31.0
 20
44.5
 30
0.0
 11
31.0
 21
37.5
 31
0.0
  0
LINE
  8
0
  6
LTYPE1
 62
     2
 10
27.5
 20
41.0
 30
0.0
 11
34.5
 21
41.0
 31
0.0
  0
LINE
  8
0
  6
LTYPE1
 62
     2
 10
69.0
 20
44.5
 30
0.0
 11
69.0
 21
37.5
 31
0.0
  0
LINE
  8
0
  6
LTYPE1
 62
     2
 10
65.5
 20
41.0
 30
0.0
 11
72.5
 21
41.0
 31
0.0
  0
LINE
  8
0
  6
LTYPE1
 62
     2
 10
69.0
 20
82.5
 30
0.0
 11
69.0
 21
75.5
 31
0.0
  0
LINE
  8
0
  6
LTYPE1
 62
     2
 10
65.5
 20
79.0
 30
0.0
 11
72.5
 21
79.0
 31
0.0
  0
LINE
  8
0
  6
LTYPE1
 62
     2
 10
31.0
 20
82.5
 30
0.0
 11
31.0
 21
75.5
 31
0.0
  0
LINE
  8
0
  6
LTYPE1
 62
     2
 10
27.5
 20
79.0
 30
0.0
 11
34.5
 21
79.0
 31
0.0
  0
LINE
  8
0
  6
CONTINUOUS
 62
     2
 10
72.5
 20
79.0
 30
0.0
 11
81.0
 21
79.0
 31
0.0
  0
LINE
  8
0
  6
CONTINUOUS
 62
     2
 10
79.0
 20
79.0
 30
0.0
 11
78.352952387
 21
76.585185434
 31
0.0
  0
LINE
  8
0
  6
CONTINUOUS
 62
     2
 10
79.0
 20
79.0
 30
0.0
 11
79.647047613
 21
76.585185434
 31
0.0
  0
LINE
  8
0
  6
CONTINUOUS
 62
     2
 10
79.0
 20
79.0
 30
0.0
 11
79.0
 21
60.0
 31
0.0
  0
LINE
  8
0
  6
CONTINUOUS
 62
     2
 10
79.0
 20
60.0
 30
0.0
 11
79.647047613
 21
62.414814566
 31
0.0
  0
LINE
  8
0
  6
CONTINUOUS
 62
     2
 10
79.0
 20
60.0
 30
0.0
 11
78.352952387
 21
62.414814566
 31
0.0
  0
TEXT
  8
0
  6
CONTINUOUS
 62
     2
 10
78.0
 20
65.12
 30
0.3
 40
3.0
  1
１９
 50
90.0
 41
0.6
 51
0.0
  7
KANJI1
  0
TEXT
  8
0
  6
CONTINUOUS
 62
     2
 10
78.0
 20
69.02
 30
0.18
 40
1.8
  1
±０．５
 50
90.0
 41
0.6
 51
0.0
  7
KANJI3
  0
LINE
  8
0
  6
CONTINUOUS
 62
     2
 10
79.0
 20
60.0
 30
0.0
 11
78.352952387
 21
57.585185434
 31
0.0
  0
LINE
  8
0
  6
CONTINUOUS
 62
     2
 10
79.0
 20
60.0
 30
0.0
 11
79.647047613
 21
57.585185434
 31
0.0
  0
LINE
  8
0
  6
CONTINUOUS
 62
     2
 10
79.0
 20
60.0
 30
0.0
 11
79.0
 21
41.0
 31
0.0
  0
LINE
  8
0
  6
CONTINUOUS
 62
     2
 10
79.0
 20
41.0
 30
0.0
 11
79.647047613
 21
43.414814566
 31
0.0
  0
LINE
  8
0
  6
CONTINUOUS
 62
     2
 10
79.0
 20
41.0
 30
0.0
 11
78.352952387
 21
43.414814566
 31
0.0
  0
LINE
  8
0
  6
CONTINUOUS
 62
     2
 10
72.5
 20
41.0
 30
0.0
 11
81.0
 21
41.0
 31
0.0
  0
TEXT
  8
0
  6
CONTINUOUS
 62
     2
 10
78.0
 20
46.12
 30
0.3
 40
3.0
  1
１９
 50
90.0
 41
0.6
 51
0.0
  7
KANJI1
  0
TEXT
  8
0
  6
CONTINUOUS
 62
     2
 10
78.0
 20
50.02
 30
0.18
 40
1.8
  1
±０．５
 50
90.0
 41
0.6
 51
0.0
  7
KANJI3
  0
LINE
  8
0
  6
CONTINUOUS
 62
     2
 10
30.465621438
 20
46.936384337
 30
0.0
 11
32.832629234
 21
47.740917799
 31
0.0
  0
LINE
  8
0
  6
CONTINUOUS
 62
     2
 10
30.465621438
 20
46.936384337
 30
0.0
 11
32.113243589
 21
48.816634652
 31
0.0
  0
LINE
  8
0
  6
CONTINUOUS
 62
     2
 10
69.534378562
 20
73.063615663
 30
0.0
 11
67.167370766
 21
72.259082201
 31
0.0
  0
LINE
  8
0
  6
CONTINUOUS
 62
     2
 10
69.534378562
 20
73.063615663
 30
0.0
 11
67.886756411
 21
71.183365348
 31
0.0
  0
TEXT
  8
0
  6
CONTINUOUS
 62
     2
 10
74.617433557
 20
32.110986898
 30
0.3
 40
3.0
  1
４－φ４
 50
0.0
 41
0.6
 51
0.0
  7
KANJI4
  0
TEXT
  8
0
  6
CONTINUOUS
 62
     2
 10
82.907842817
 20
32.010986898
 30
0.18
 40
1.8
  1
－０
 50
0.0
 41
0.6
 51
0.0
  7
KANJI3
  0
TEXT
  8
0
  6
CONTINUOUS
 62
     2
 10
82.907842817
 20
33.810986898
 30
0.18
 40
1.8
  1
＋０．５
 50
0.0
 41
0.6
 51
0.0
  7
KANJI3
  0
LINE
  8
0
  6
CONTINUOUS
 62
     2
 10
30.465621438
 20
46.936384337
 30
0.0
 11
69.534378562
 21
73.063615663
 31
0.0
  0
LINE
  8
0
  6
LTYPE1
 62
     2
 10
25.0
 20
60.0
 30
0.0
 11
75.0
 21
60.0
 31
0.0
  0
LINE
  8
0
  6
CONTINUOUS
 62
     2
 10
75.0
 20
60.0
 30
0.0
 11
81.0
 21
60.0
 31
0.0
  0
LINE
  8
0
  6
LTYPE1
 62
     2
 10
50.0
 20
85.0
 30
0.0
 11
50.0
 21
35.0
 31
0.0
  0
LINE
  8
0
  6
CONTINUOUS
 62
     2
 10
31.0
 20
89.0
 30
0.0
 11
33.414814566
 21
88.352952387
 31
0.0
  0
LINE
  8
0
  6
CONTINUOUS
 62
     2
 10
31.0
 20
89.0
 30
0.0
 11
33.414814566
 21
89.647047613
 31
0.0
  0
LINE
  8
0
  6
CONTINUOUS
 62
     2
 10
31.0
 20
89.0
 30
0.0
 11
50.0
 21
89.0
 31
0.0
  0
LINE
  8
0
  6
CONTINUOUS
 62
     2
 10
50.0
 20
89.0
 30
0.0
 11
47.585185434
 21
89.647047613
 31
0.0
  0
LINE
  8
0
  6
CONTINUOUS
 62
     2
 10
50.0
 20
89.0
 30
0.0
 11
47.585185434
 21
88.352952387
 31
0.0
  0
TEXT
  8
0
  6
CONTINUOUS
 62
     2
 10
36.12
 20
90.0
 30
0.3
 40
3.0
  1
１９
 50
0.0
 41
0.6
 51
0.0
  7
KANJI1
  0
TEXT
  8
0
  6
CONTINUOUS
 62
     2
 10
40.02
 20
90.0
 30
0.18
 40
1.8
  1
±０．５
 50
0.0
 41
0.6
 51
0.0
  7
KANJI3
  0
LINE
  8
0
  6
CONTINUOUS
 62
     2
 10
50.0
 20
89.0
 30
0.0
 11
52.414814566
 21
88.352952387
 31
0.0
  0
LINE
  8
0
  6
CONTINUOUS
 62
     2
 10
50.0
 20
89.0
 30
0.0
 11
52.414814566
 21
89.647047613
 31
0.0
  0
LINE
  8
0
  6
CONTINUOUS
 62
     2
 10
50.0
 20
89.0
 30
0.0
 11
69.0
 21
89.0
 31
0.0
  0
LINE
  8
0
  6
CONTINUOUS
 62
     2
 10
69.0
 20
89.0
 30
0.0
 11
66.585185434
 21
89.647047613
 31
0.0
  0
LINE
  8
0
  6
CONTINUOUS
 62
     2
 10
69.0
 20
89.0
 30
0.0
 11
66.585185434
 21
88.352952387
 31
0.0
  0
TEXT
  8
0
  6
CONTINUOUS
 62
     2
 10
55.12
 20
90.0
 30
0.3
 40
3.0
  1
１９
 50
0.0
 41
0.6
 51
0.0
  7
KANJI1
  0
TEXT
  8
0
  6
CONTINUOUS
 62
     2
 10
59.02
 20
90.0
 30
0.18
 40
1.8
  1
±０．５
 50
0.0
 41
0.6
 51
0.0
  7
KANJI3
  0
LINE
  8
0
  6
CONTINUOUS
 62
     2
 10
31.0
 20
82.5
 30
0.0
 11
31.0
 21
91.0
 31
0.0
  0
LINE
  8
0
  6
CONTINUOUS
 62
     2
 10
50.0
 20
81.0
 30
0.0
 11
50.0
 21
91.0
 31
0.0
  0
LINE
  8
0
  6
CONTINUOUS
 62
     2
 10
69.0
 20
82.5
 30
0.0
 11
69.0
 21
91.0
 31
0.0
  0
LINE
  8
0
  6
LTYPE1
 62
     2
 10
72.0
 20
125.5
 30
0.0
 11
72.0
 21
119.5
 31
0.0
  0
LINE
  8
0
  6
LTYPE1
 62
     2
 10
75.0
 20
122.5
 30
0.0
 11
69.0
 21
122.5
 31
0.0
  0
LINE
  8
0
  6
LTYPE2
 62
     2
 10
50.0
 20
166.0
 30
0.0
 11
50.0
 21
102.0
 31
0.0
  0
LINE
  8
0
  6
CONTINUOUS
 62
     2
 10
22.0
 20
159.6
 30
0.0
 11
22.0
 21
173.0
 31
0.0
  0
LINE
  8
0
  6
CONTINUOUS
 62
     2
 10
22.0
 20
171.0
 30
0.0
 11
24.414814566
 21
170.352952387
 31
0.0
  0
LINE
  8
0
  6
CONTINUOUS
 62
     2
 10
22.0
 20
171.0
 30
0.0
 11
24.414814566
 21
171.647047613
 31
0.0
  0
LINE
  8
0
  6
CONTINUOUS
 62
     2
 10
22.0
 20
171.0
 30
0.0
 11
78.0
 21
171.0
 31
0.0
  0
LINE
  8
0
  6
CONTINUOUS
 62
     2
 10
78.0
 20
171.0
 30
0.0
 11
75.585185434
 21
171.647047613
 31
0.0
  0
LINE
  8
0
  6
CONTINUOUS
 62
     2
 10
78.0
 20
171.0
 30
0.0
 11
75.585185434
 21
170.352952387
 31
0.0
  0
LINE
  8
0
  6
CONTINUOUS
 62
     2
 10
78.0
 20
159.6
 30
0.0
 11
78.0
 21
173.0
 31
0.0
  0
TEXT
  8
0
  6
CONTINUOUS
 62
     2
 10
48.05
 20
172.0
 30
0.3
 40
3.0
  1
５６
 50
0.0
 41
0.6
 51
0.0
  7
KANJI1
  0
CIRCLE
  8
0
  6
CONTINUOUS
 62
     2
 10
50.0
 20
117.0
 30
0.0
 40
3.5
  0
CIRCLE
  8
0
  6
CONTINUOUS
 62
     2
 10
28.0
 20
122.5
 30
0.0
 40
2.9
  0
CIRCLE
  8
0
  6
CONTINUOUS
 62
     2
 10
72.0
 20
122.5
 30
0.0
 40
2.9
  0
LINE
  8
0
  6
CONTINUOUS
 62
     2
 10
73.75
 20
122.1
 30
0.0
 11
72.8
 21
122.1
 31
0.0
  0
ARC
  8
0
  6
CONTINUOUS
 62
     2
 10
72.8
 20
121.7
 30
0.0
 40
0.4
 50
90.0
 51
180.0
  0
ARC
  8
0
  6
CONTINUOUS
 62
     2
 10
71.2
 20
121.7
 30
0.0
 40
0.4
 50
0.0
 51
90.0
  0
LINE
  8
0
  6
CONTINUOUS
 62
     2
 10
71.2
 20
122.1
 30
0.0
 11
70.25
 21
122.1
 31
0.0
  0
LINE
  8
0
  6
CONTINUOUS
 62
     2
 10
70.25
 20
122.1
 30
0.0
 11
70.25
 21
122.9
 31
0.0
  0
LINE
  8
0
  6
CONTINUOUS
 62
     2
 10
70.25
 20
122.9
 30
0.0
 11
71.2
 21
122.9
 31
0.0
  0
ARC
  8
0
  6
CONTINUOUS
 62
     2
 10
71.2
 20
123.3
 30
0.0
 40
0.4
 50
270.0
 51
0.0
  0
ARC
  8
0
  6
CONTINUOUS
 62
     2
 10
72.8
 20
123.3
 30
0.0
 40
0.4
 50
180.0
 51
270.0
  0
LINE
  8
0
  6
CONTINUOUS
 62
     2
 10
72.8
 20
122.9
 30
0.0
 11
73.75
 21
122.9
 31
0.0
  0
LINE
  8
0
  6
CONTINUOUS
 62
     2
 10
73.75
 20
122.9
 30
0.0
 11
73.75
 21
122.1
 31
0.0
  0
LINE
  8
0
  6
LTYPE1
 62
     2
 10
76.0
 20
122.5
 30
0.0
 11
68.0
 21
122.5
 31
0.0
  0
LINE
  8
0
  6
LTYPE1
 62
     2
 10
72.0
 20
118.5
 30
0.0
 11
72.0
 21
126.5
 31
0.0
  0
LINE
  8
0
  6
LTYPE1
 62
     2
 10
72.0
 20
126.5
 30
0.0
 11
72.0
 21
118.5
 31
0.0
  0
LINE
  8
0
  6
LTYPE1
 62
     2
 10
76.0
 20
122.5
 30
0.0
 11
68.0
 21
122.5
 31
0.0
  0
LINE
  8
0
  6
CONTINUOUS
 62
     2
 10
72.4
 20
124.25
 30
0.0
 11
72.4
 21
123.3
 31
0.0
  0
LINE
  8
0
  6
CONTINUOUS
 62
     2
 10
71.6
 20
123.3
 30
0.0
 11
71.6
 21
124.25
 31
0.0
  0
LINE
  8
0
  6
CONTINUOUS
 62
     2
 10
71.6
 20
124.25
 30
0.0
 11
72.4
 21
124.25
 31
0.0
  0
LINE
  8
0
  6
CONTINUOUS
 62
     2
 10
72.4
 20
120.75
 30
0.0
 11
72.4
 21
121.7
 31
0.0
  0
LINE
  8
0
  6
CONTINUOUS
 62
     2
 10
71.6
 20
121.7
 30
0.0
 11
71.6
 21
120.75
 31
0.0
  0
LINE
  8
0
  6
CONTINUOUS
 62
     2
 10
71.6
 20
120.75
 30
0.0
 11
72.4
 21
120.75
 31
0.0
  0
LINE
  8
0
  6
LTYPE1
 62
     2
 10
25.0
 20
122.5
 30
0.0
 11
31.0
 21
122.5
 31
0.0
  0
LINE
  8
0
  6
LTYPE1
 62
     2
 10
28.0
 20
125.5
 30
0.0
 11
28.0
 21
119.5
 31
0.0
  0
LINE
  8
0
  6
CONTINUOUS
 62
     2
 10
28.4
 20
124.25
 30
0.0
 11
28.4
 21
123.3
 31
0.0
  0
ARC
  8
0
  6
CONTINUOUS
 62
     2
 10
28.8
 20
123.3
 30
0.0
 40
0.4
 50
180.0
 51
270.0
  0
ARC
  8
0
  6
CONTINUOUS
 62
     2
 10
28.8
 20
121.7
 30
0.0
 40
0.4
 50
90.0
 51
180.0
  0
LINE
  8
0
  6
CONTINUOUS
 62
     2
 10
28.4
 20
121.7
 30
0.0
 11
28.4
 21
120.75
 31
0.0
  0
LINE
  8
0
  6
CONTINUOUS
 62
     2
 10
28.4
 20
120.75
 30
0.0
 11
27.6
 21
120.75
 31
0.0
  0
LINE
  8
0
  6
CONTINUOUS
 62
     2
 10
27.6
 20
120.75
 30
0.0
 11
27.6
 21
121.7
 31
0.0
  0
ARC
  8
0
  6
CONTINUOUS
 62
     2
 10
27.2
 20
121.7
 30
0.0
 40
0.4
 50
0.0
 51
90.0
  0
ARC
  8
0
  6
CONTINUOUS
 62
     2
 10
27.2
 20
123.3
 30
0.0
 40
0.4
 50
270.0
 51
0.0
  0
LINE
  8
0
  6
CONTINUOUS
 62
     2
 10
27.6
 20
123.3
 30
0.0
 11
27.6
 21
124.25
 31
0.0
  0
LINE
  8
0
  6
CONTINUOUS
 62
     2
 10
27.6
 20
124.25
 30
0.0
 11
28.4
 21
124.25
 31
0.0
  0
LINE
  8
0
  6
LTYPE1
 62
     2
 10
28.0
 20
126.5
 30
0.0
 11
28.0
 21
118.5
 31
0.0
  0
LINE
  8
0
  6
LTYPE1
 62
     2
 10
32.0
 20
122.5
 30
0.0
 11
24.0
 21
122.5
 31
0.0
  0
LINE
  8
0
  6
LTYPE1
 62
     2
 10
24.0
 20
122.5
 30
0.0
 11
32.0
 21
122.5
 31
0.0
  0
LINE
  8
0
  6
LTYPE1
 62
     2
 10
28.0
 20
126.5
 30
0.0
 11
28.0
 21
118.5
 31
0.0
  0
LINE
  8
0
  6
CONTINUOUS
 62
     2
 10
26.25
 20
122.9
 30
0.0
 11
27.2
 21
122.9
 31
0.0
  0
LINE
  8
0
  6
CONTINUOUS
 62
     2
 10
27.2
 20
122.1
 30
0.0
 11
26.25
 21
122.1
 31
0.0
  0
LINE
  8
0
  6
CONTINUOUS
 62
     2
 10
26.25
 20
122.1
 30
0.0
 11
26.25
 21
122.9
 31
0.0
  0
LINE
  8
0
  6
CONTINUOUS
 62
     2
 10
29.75
 20
122.9
 30
0.0
 11
28.8
 21
122.9
 31
0.0
  0
LINE
  8
0
  6
CONTINUOUS
 62
     2
 10
28.8
 20
122.1
 30
0.0
 11
29.75
 21
122.1
 31
0.0
  0
LINE
  8
0
  6
CONTINUOUS
 62
     2
 10
29.75
 20
122.1
 30
0.0
 11
29.75
 21
122.9
 31
0.0
  0
LINE
  8
0
  6
CONTINUOUS
 62
     2
 10
46.535898385
 20
116.5
 30
0.0
 11
53.464101615
 21
116.5
 31
0.0
  0
LINE
  8
0
  6
CONTINUOUS
 62
     2
 10
53.464101615
 20
117.5
 30
0.0
 11
46.535898385
 21
117.5
 31
0.0
  0
LINE
  8
0
  6
CONTINUOUS
 62
     2
 10
98.0
 20
175.0
 30
0.0
 11
100.414814566
 21
174.352952387
 31
0.0
  0
LINE
  8
0
  6
CONTINUOUS
 62
     2
 10
98.0
 20
175.0
 30
0.0
 11
100.414814566
 21
175.647047613
 31
0.0
  0
LINE
  8
0
  6
CONTINUOUS
 62
     2
 10
98.0
 20
175.0
 30
0.0
 11
100.414814566
 21
174.352952387
 31
0.0
  0
LINE
  8
0
  6
CONTINUOUS
 62
     2
 10
98.0
 20
175.0
 30
0.0
 11
100.414814566
 21
175.647047613
 31
0.0
  0
LINE
  8
0
  6
CONTINUOUS
 62
     2
 10
128.0
 20
175.0
 30
0.0
 11
125.585185434
 21
175.647047613
 31
0.0
  0
LINE
  8
0
  6
CONTINUOUS
 62
     2
 10
128.0
 20
175.0
 30
0.0
 11
125.585185434
 21
174.352952387
 31
0.0
  0
LINE
  8
0
  6
CONTINUOUS
 62
     2
 10
128.0
 20
156.5
 30
0.0
 11
128.0
 21
177.0
 31
0.0
  0
TEXT
  8
0
  6
CONTINUOUS
 62
     2
 10
111.05
 20
176.0
 30
0.3
 40
3.0
  1
３０
 50
0.0
 41
0.6
 51
0.0
  7
KANJI0
  0
LINE
  8
0
  6
LTYPE1
 62
     2
 10
127.5
 20
124.5
 30
0.0
 11
93.5
 21
124.5
 31
0.0
  0
LINE
  8
0
  6
CONTINUOUS
 62
     2
 10
98.0
 20
162.0
 30
0.0
 11
98.0
 21
177.0
 31
0.0
  0
LINE
  8
0
  6
LTYPE3
 62
     2
 10
88.8
 20
117.0
 30
0.0
 11
84.8
 21
117.0
 31
0.0
  0
LINE
  8
0
  6
CONTINUOUS
 62
     2
 10
98.0
 20
156.9
 30
0.0
 11
98.5
 21
156.9
 31
0.0
  0
LINE
  8
0
  6
CONTINUOUS
 62
     2
 10
98.5
 20
148.9
 30
0.0
 11
98.0
 21
148.9
 31
0.0
  0
LINE
  8
0
  6
CONTINUOUS
 62
     2
 10
98.5
 20
156.9
 30
0.0
 11
98.5
 21
148.9
 31
0.0
  0
LINE
  8
0
  6
CONTINUOUS
 62
     2
 10
103.2
 20
156.05
 30
0.0
 11
103.6
 21
155.65
 31
0.0
  0
LINE
  8
0
  6
CONTINUOUS
 62
     2
 10
103.15
 20
154.4
 30
0.0
 11
103.55
 21
154.8
 31
0.0
  0
LINE
  8
0
  6
CONTINUOUS
 62
     2
 10
103.55
 20
154.0
 30
0.0
 11
103.15
 21
154.4
 31
0.0
  0
LINE
  8
0
  6
CONTINUOUS
 62
     2
 10
101.2
 20
156.05
 30
0.0
 11
103.2
 21
156.05
 31
0.0
  0
LINE
  8
0
  6
CONTINUOUS
 62
     2
 10
101.2
 20
154.4
 30
0.0
 11
103.15
 21
154.4
 31
0.0
  0
LINE
  8
0
  6
CONTINUOUS
 62
     2
 10
103.2
 20
149.85
 30
0.0
 11
103.6
 21
150.25
 31
0.0
  0
LINE
  8
0
  6
CONTINUOUS
 62
     2
 10
103.2
 20
149.85
 30
0.0
 11
101.2
 21
149.85
 31
0.0
  0
LINE
  8
0
  6
CONTINUOUS
 62
     2
 10
101.2
 20
149.85
 30
0.0
 11
101.2
 21
156.05
 31
0.0
  0
LINE
  8
0
  6
CONTINUOUS
 62
     2
 10
103.6
 20
155.65
 30
0.0
 11
103.6
 21
150.25
 31
0.0
  0
LINE
  8
0
  6
CONTINUOUS
 62
     2
 10
101.2
 20
156.05
 30
0.0
 11
100.6
 21
156.65
 31
0.0
  0
LINE
  8
0
  6
CONTINUOUS
 62
     2
 10
100.6
 20
156.65
 30
0.0
 11
100.6
 21
149.25
 31
0.0
  0
LINE
  8
0
  6
CONTINUOUS
 62
     2
 10
101.2
 20
149.85
 30
0.0
 11
100.6
 21
149.25
 31
0.0
  0
LINE
  8
0
  6
CONTINUOUS
 62
     2
 10
103.17
 20
151.55
 30
0.0
 11
101.2
 21
151.55
 31
0.0
  0
LINE
  8
0
  6
CONTINUOUS
 62
     2
 10
103.17
 20
151.55
 30
0.0
 11
103.57
 21
151.95
 31
0.0
  0
LINE
  8
0
  6
CONTINUOUS
 62
     2
 10
103.57
 20
151.15
 30
0.0
 11
103.17
 21
151.55
 31
0.0
  0
LINE
  8
0
  6
CONTINUOUS
 62
     2
 10
98.0
 20
118.9
 30
0.0
 11
98.5
 21
118.9
 31
0.0
  0
LINE
  8
0
  6
CONTINUOUS
 62
     2
 10
98.5
 20
110.9
 30
0.0
 11
98.0
 21
110.9
 31
0.0
  0
LINE
  8
0
  6
CONTINUOUS
 62
     2
 10
98.5
 20
118.9
 30
0.0
 11
98.5
 21
110.9
 31
0.0
  0
LINE
  8
0
  6
CONTINUOUS
 62
     2
 10
103.2
 20
118.05
 30
0.0
 11
103.6
 21
117.65
 31
0.0
  0
LINE
  8
0
  6
CONTINUOUS
 62
     2
 10
103.15
 20
116.4
 30
0.0
 11
103.55
 21
116.8
 31
0.0
  0
LINE
  8
0
  6
CONTINUOUS
 62
     2
 10
103.55
 20
116.0
 30
0.0
 11
103.15
 21
116.4
 31
0.0
  0
LINE
  8
0
  6
CONTINUOUS
 62
     2
 10
101.2
 20
118.05
 30
0.0
 11
103.2
 21
118.05
 31
0.0
  0
LINE
  8
0
  6
CONTINUOUS
 62
     2
 10
101.2
 20
116.4
 30
0.0
 11
103.15
 21
116.4
 31
0.0
  0
LINE
  8
0
  6
CONTINUOUS
 62
     2
 10
103.2
 20
111.85
 30
0.0
 11
103.6
 21
112.25
 31
0.0
  0
LINE
  8
0
  6
CONTINUOUS
 62
     2
 10
103.2
 20
111.85
 30
0.0
 11
101.2
 21
111.85
 31
0.0
  0
LINE
  8
0
  6
CONTINUOUS
 62
     2
 10
101.2
 20
111.85
 30
0.0
 11
101.2
 21
118.05
 31
0.0
  0
LINE
  8
0
  6
CONTINUOUS
 62
     2
 10
103.6
 20
117.65
 30
0.0
 11
103.6
 21
112.25
 31
0.0
  0
LINE
  8
0
  6
CONTINUOUS
 62
     2
 10
101.2
 20
118.05
 30
0.0
 11
100.6
 21
118.65
 31
0.0
  0
LINE
  8
0
  6
CONTINUOUS
 62
     2
 10
100.6
 20
118.65
 30
0.0
 11
100.6
 21
111.25
 31
0.0
  0
LINE
  8
0
  6
CONTINUOUS
 62
     2
 10
101.2
 20
111.85
 30
0.0
 11
100.6
 21
111.25
 31
0.0
  0
LINE
  8
0
  6
CONTINUOUS
 62
     2
 10
103.17
 20
113.55
 30
0.0
 11
101.2
 21
113.55
 31
0.0
  0
LINE
  8
0
  6
CONTINUOUS
 62
     2
 10
103.17
 20
113.55
 30
0.0
 11
103.57
 21
113.95
 31
0.0
  0
LINE
  8
0
  6
CONTINUOUS
 62
     2
 10
103.57
 20
113.15
 30
0.0
 11
103.17
 21
113.55
 31
0.0
  0
LINE
  8
0
  6
LTYPE3
 62
     2
 10
95.0
 20
153.0
 30
0.0
 11
111.5
 21
153.0
 31
0.0
  0
LINE
  8
0
  6
LTYPE3
 62
     2
 10
95.0
 20
115.0
 30
0.0
 11
111.5
 21
115.0
 31
0.0
  0
LINE
  8
0
  6
CONTINUOUS
 62
     2
 10
95.0
 20
160.598214286
 30
0.0
 11
95.0
 21
109.401785714
 31
0.0
  0
LINE
  8
0
  6
CONTINUOUS
 62
     2
 10
86.8
 20
132.0
 30
0.0
 11
95.0
 21
132.0
 31
0.0
  0
LINE
  8
0
  6
CONTINUOUS
 62
     2
 10
100.6
 20
154.5
 30
0.0
 11
98.5
 21
154.5
 31
0.0
  0
LINE
  8
0
  6
CONTINUOUS
 62
     2
 10
98.5
 20
151.5
 30
0.0
 11
100.6
 21
151.5
 31
0.0
  0
LINE
  8
0
  6
CONTINUOUS
 62
     2
 10
108.5
 20
154.2
 30
0.0
 11
103.6
 21
154.2
 31
0.0
  0
LINE
  8
0
  6
CONTINUOUS
 62
     2
 10
100.6
 20
154.2
 30
0.0
 11
98.5
 21
154.2
 31
0.0
  0
LINE
  8
0
  6
CONTINUOUS
 62
     2
 10
98.5
 20
151.8
 30
0.0
 11
100.6
 21
151.8
 31
0.0
  0
LINE
  8
0
  6
CONTINUOUS
 62
     2
 10
103.6
 20
151.8
 30
0.0
 11
108.5
 21
151.8
 31
0.0
  0
LINE
  8
0
  6
CONTINUOUS
 62
     2
 10
100.6
 20
116.5
 30
0.0
 11
98.5
 21
116.5
 31
0.0
  0
LINE
  8
0
  6
CONTINUOUS
 62
     2
 10
98.5
 20
113.5
 30
0.0
 11
100.6
 21
113.5
 31
0.0
  0
LINE
  8
0
  6
CONTINUOUS
 62
     2
 10
100.6
 20
116.2
 30
0.0
 11
98.5
 21
116.2
 31
0.0
  0
LINE
  8
0
  6
CONTINUOUS
 62
     2
 10
98.5
 20
113.8
 30
0.0
 11
100.6
 21
113.8
 31
0.0
  0
LINE
  8
0
  6
CONTINUOUS
 62
     2
 10
98.5
 20
157.9
 30
0.0
 11
98.5
 21
172.0
 31
0.0
  0
LINE
  8
0
  6
CONTINUOUS
 62
     2
 10
128.0
 20
175.0
 30
0.0
 11
125.585185434
 21
175.647047613
 31
0.0
  0
LINE
  8
0
  6
CONTINUOUS
 62
     2
 10
128.0
 20
175.0
 30
0.0
 11
125.585185434
 21
174.352952387
 31
0.0
  0
LINE
  8
0
  6
CONTINUOUS
 62
     2
 10
98.5
 20
165.0
 30
0.0
 11
100.914814566
 21
164.352952387
 31
0.0
  0
LINE
  8
0
  6
CONTINUOUS
 62
     2
 10
98.5
 20
165.0
 30
0.0
 11
100.914814566
 21
165.647047613
 31
0.0
  0
LINE
  8
0
  6
CONTINUOUS
 62
     2
 10
98.5
 20
165.0
 30
0.0
 11
108.5
 21
165.0
 31
0.0
  0
LINE
  8
0
  6
CONTINUOUS
 62
     2
 10
108.5
 20
165.0
 30
0.0
 11
106.085185434
 21
165.647047613
 31
0.0
  0
LINE
  8
0
  6
CONTINUOUS
 62
     2
 10
108.5
 20
165.0
 30
0.0
 11
106.085185434
 21
164.352952387
 31
0.0
  0
TEXT
  8
0
  6
CONTINUOUS
 62
     2
 10
101.55
 20
166.0
 30
0.3
 40
3.0
  1
１０
 50
0.0
 41
0.6
 51
0.0
  7
KANJI1
  0
LINE
  8
0
  6
CONTINUOUS
 62
     2
 10
98.5
 20
165.0
 30
0.0
 11
100.914814566
 21
164.352952387
 31
0.0
  0
LINE
  8
0
  6
CONTINUOUS
 62
     2
 10
98.5
 20
165.0
 30
0.0
 11
100.914814566
 21
165.647047613
 31
0.0
  0
LINE
  8
0
  6
CONTINUOUS
 62
     2
 10
103.5
 20
165.0
 30
0.0
 11
87.0
 21
165.0
 31
0.0
  0
LINE
  8
0
  6
CONTINUOUS
 62
     2
 10
98.0
 20
165.0
 30
0.0
 11
95.585185434
 21
165.647047613
 31
0.0
  0
LINE
  8
0
  6
CONTINUOUS
 62
     2
 10
98.0
 20
165.0
 30
0.0
 11
95.585185434
 21
164.352952387
 31
0.0
  0
TEXT
  8
0
  6
CONTINUOUS
 62
     2
 10
87.0
 20
166.0
 30
0.3
 40
3.0
  1
０．５
 50
0.0
 41
0.6
 51
0.0
  7
KANJI1
  0
LINE
  8
0
  6
CONTINUOUS
 62
     2
 10
98.5
 20
170.0
 30
0.0
 11
96.085185434
 21
170.647047613
 31
0.0
  0
LINE
  8
0
  6
CONTINUOUS
 62
     2
 10
98.5
 20
170.0
 30
0.0
 11
96.085185434
 21
169.352952387
 31
0.0
  0
LINE
  8
0
  6
CONTINUOUS
 62
     2
 10
98.5
 20
170.0
 30
0.0
 11
86.5
 21
170.0
 31
0.0
  0
LINE
  8
0
  6
CONTINUOUS
 62
     2
 10
86.5
 20
170.0
 30
0.0
 11
88.914814566
 21
169.352952387
 31
0.0
  0
LINE
  8
0
  6
CONTINUOUS
 62
     2
 10
86.5
 20
170.0
 30
0.0
 11
88.914814566
 21
170.647047613
 31
0.0
  0
LINE
  8
0
  6
CONTINUOUS
 62
     2
 10
86.5
 20
159.5
 30
0.0
 11
86.5
 21
172.0
 31
0.0
  0
TEXT
  8
0
  6
CONTINUOUS
 62
     2
 10
90.55
 20
171.0
 30
0.3
 40
3.0
  1
１２
 50
0.0
 41
0.6
 51
0.0
  7
KANJI1
  0
LINE
  8
0
  6
CONTINUOUS
 62
     2
 10
108.5
 20
154.2
 30
0.0
 11
108.2
 21
154.5
 31
0.0
  0
LINE
  8
0
  6
CONTINUOUS
 62
     2
 10
108.5
 20
151.8
 30
0.0
 11
108.2
 21
151.5
 31
0.0
  0
LINE
  8
0
  6
CONTINUOUS
 62
     2
 10
108.2
 20
151.5
 30
0.0
 11
103.6
 21
151.5
 31
0.0
  0
LINE
  8
0
  6
CONTINUOUS
 62
     2
 10
108.2
 20
154.5
 30
0.0
 11
103.6
 21
154.5
 31
0.0
  0
LINE
  8
0
  6
CONTINUOUS
 62
     2
 10
108.5
 20
154.2
 30
0.0
 11
108.5
 21
151.8
 31
0.0
  0
LINE
  8
0
  6
CONTINUOUS
 62
     2
 10
108.2
 20
151.5
 30
0.0
 11
108.2
 21
154.5
 31
0.0
  0
LINE
  8
0
  6
CONTINUOUS
 62
     2
 10
108.5
 20
155.2
 30
0.0
 11
108.5
 21
167.0
 31
0.0
  0
LINE
  8
0
  6
CONTINUOUS
 62
     2
 10
108.5
 20
116.2
 30
0.0
 11
103.6
 21
116.2
 31
0.0
  0
LINE
  8
0
  6
CONTINUOUS
 62
     2
 10
103.6
 20
113.8
 30
0.0
 11
108.5
 21
113.8
 31
0.0
  0
LINE
  8
0
  6
CONTINUOUS
 62
     2
 10
108.5
 20
116.2
 30
0.0
 11
108.2
 21
116.5
 31
0.0
  0
LINE
  8
0
  6
CONTINUOUS
 62
     2
 10
108.5
 20
113.8
 30
0.0
 11
108.2
 21
113.5
 31
0.0
  0
LINE
  8
0
  6
CONTINUOUS
 62
     2
 10
108.2
 20
113.5
 30
0.0
 11
103.6
 21
113.5
 31
0.0
  0
LINE
  8
0
  6
CONTINUOUS
 62
     2
 10
108.2
 20
116.5
 30
0.0
 11
103.6
 21
116.5
 31
0.0
  0
LINE
  8
0
  6
CONTINUOUS
 62
     2
 10
108.5
 20
116.2
 30
0.0
 11
108.5
 21
113.8
 31
0.0
  0
LINE
  8
0
  6
CONTINUOUS
 62
     2
 10
108.2
 20
113.5
 30
0.0
 11
108.2
 21
116.5
 31
0.0
  0
LINE
  8
0
  6
CONTINUOUS
 62
     2
 10
107.2
 20
113.5
 30
0.0
 11
107.847047613
 21
111.085185434
 31
0.0
  0
LINE
  8
0
  6
CONTINUOUS
 62
     2
 10
107.2
 20
113.5
 30
0.0
 11
108.967766953
 21
111.732233047
 31
0.0
  0
LINE
  8
0
  6
CONTINUOUS
 62
     2
 10
107.2
 20
113.5
 30
0.0
 11
112.684827557
 21
104.0
 31
0.0
  0
LINE
  8
0
  6
CONTINUOUS
 62
     2
 10
112.684827557
 20
104.0
 30
0.0
 11
131.284827557
 21
104.0
 31
0.0
  0
TEXT
  8
0
  6
CONTINUOUS
 62
     2
 10
112.684827557
 20
105.0
 30
0.3
 40
3.0
  1
４－Ｍ３取付ボルト
 50
0.0
 41
0.6
 51
0.0
  7
KANJI1
  0
LINE
  8
0
  6
CONTINUOUS
 62
     2
 10
23.5
 20
161.0
 30
0.0
 11
15.0
 21
161.0
 31
0.0
  0
LINE
  8
0
  6
CONTINUOUS
 62
     2
 10
23.5
 20
109.0
 30
0.0
 11
15.0
 21
109.0
 31
0.0
  0
ARC
  8
0
  6
CONTINUOUS
 62
     2
 10
50.0
 20
124.5
 30
0.0
 40
28.0
 50
134.181461021
 51
135.818538979
  0
LINE
  8
0
  6
CONTINUOUS
 62
     2
 10
43.065685425
 20
132.0
 30
0.0
 11
30.485873247
 21
144.579812178
 31
0.0
  0
LINE
  8
0
  6
CONTINUOUS
 62
     2
 10
41.934314575
 20
132.0
 30
0.0
 11
29.920187822
 21
144.014126753
 31
0.0
  0
LINE
  8
0
  6
CONTINUOUS
 62
     2
 10
30.485873247
 20
144.579812178
 30
0.0
 11
32.2536402
 21
146.34757913
 31
0.0
  0
LINE
  8
0
  6
CONTINUOUS
 62
     2
 10
30.485873247
 20
144.579812178
 30
0.0
 11
31.13292086
 21
146.994626743
 31
0.0
  0
LINE
  8
0
  6
CONTINUOUS
 62
     2
 10
30.485873247
 20
144.579812178
 30
0.0
 11
40.485873247
 21
161.900320253
 31
0.0
  0
LINE
  8
0
  6
CONTINUOUS
 62
     2
 10
42.852824453
 20
166.0
 30
0.0
 11
46.752824453
 21
166.0
 31
0.0
  0
TEXT
  8
0
  6
CONTINUOUS
 62
     2
 10
42.852824453
 20
167.0
 30
0.3
 40
3.0
  1
指針
 50
0.0
 41
0.6
 51
0.0
  7
KANJI1
  0
LINE
  8
0
  6
CONTINUOUS
 62
     2
 10
30.485873247
 20
144.579812178
 30
0.0
 11
42.852824453
 21
166.0
 31
0.0
  0
TEXT
  8
0
  6
CONTINUOUS
 62
     2
 10
41.444101461
 20
55.481250152
 30
0.25
 40
2.5
  1
φ４７
 50
33.772626229
 41
0.6
 51
0.0
  7
KANJI5
  0
TEXT
  8
0
  6
CONTINUOUS
 62
     2
 10
46.422853007
 20
58.645165248
 30
0.18
 40
1.8
  1
－０
 50
33.772626229
 41
0.6
 51
0.0
  7
KANJI3
  0
TEXT
  8
0
  6
CONTINUOUS
 62
     2
 10
45.422235637
 20
60.141415521
 30
0.18
 40
1.8
  1
＋０．５
 50
33.772626229
 41
0.6
 51
0.0
  7
KANJI3
  0
CIRCLE
  8
0
  6
CONTINUOUS
 62
     2
 10
173.5
 20
149.0
 30
0.0
 40
2.0
  0
LINE
  8
0
  6
CONTINUOUS
 62
     2
 10
172.5
 20
149.0
 30
0.0
 11
174.5
 21
149.0
 31
0.0
  0
LINE
  8
0
  6
CONTINUOUS
 62
     2
 10
173.5
 20
150.0
 30
0.0
 11
173.5
 21
148.0
 31
0.0
  0
LINE
  8
0
  6
LTYPE1
 62
     2
 10
155.2
 20
134.0
 30
0.0
 11
221.5
 21
134.0
 31
0.0
  0
LINE
  8
0
  6
LTYPE1
 62
     2
 10
19.1
 20
135.0
 30
0.0
 11
80.4
 21
135.0
 31
0.0
  0
LINE
  8
0
  6
LTYPE1
 62
     2
 10
83.6
 20
135.0
 30
0.0
 11
145.2
 21
135.0
 31
0.0
  0
LINE
  8
0
  6
LTYPE1
 62
     2
 10
155.1
 20
135.0
 30
0.0
 11
221.5
 21
135.0
 31
0.0
  0
TEXT
  8
0
  6
CONTINUOUS
 62
     2
 10
175.02
 20
176.0
 30
0.18
 40
1.8
  1
±０．５
 50
0.0
 41
0.6
 51
0.0
  7
KANJI6
  0
TEXT
  8
0
  6
CONTINUOUS
 62
     2
 10
220.5
 20
143.02
 30
0.18
 40
1.8
  1
±０．５
 50
90.0
 41
0.6
 51
0.0
  7
KANJI6
  0
TEXT
  8
0
  6
CONTINUOUS
 62
     2
 10
194.02
 20
176.0
 30
0.18
 40
1.8
  1
±０．５
 50
0.0
 41
0.6
 51
0.0
  7
KANJI6
  0
TEXT
  8
0
  6
CONTINUOUS
 62
     2
 10
220.5
 20
124.02
 30
0.18
 40
1.8
  1
±０．５
 50
90.0
 41
0.6
 51
0.0
  7
KANJI6
  0
LINE
  8
0
  6
CONTINUOUS
 62
     1
 10
172.5
 20
145.55
 30
0.0
 11
168.992597115
 21
143.525
 31
0.0
  0
LINE
  8
0
  6
CONTINUOUS
 62
     1
 10
168.992597115
 20
143.525
 30
0.0
 11
168.992597115
 21
139.475
 31
0.0
  0
LINE
  8
0
  6
CONTINUOUS
 62
     1
 10
168.992597115
 20
139.475
 30
0.0
 11
172.5
 21
137.45
 31
0.0
  0
LINE
  8
0
  6
CONTINUOUS
 62
     1
 10
172.5
 20
137.45
 30
0.0
 11
176.007402885
 21
139.475
 31
0.0
  0
LINE
  8
0
  6
CONTINUOUS
 62
     1
 10
176.007402885
 20
139.475
 30
0.0
 11
176.007402885
 21
143.525
 31
0.0
  0
LINE
  8
0
  6
CONTINUOUS
 62
     1
 10
176.007402885
 20
143.525
 30
0.0
 11
172.5
 21
145.55
 31
0.0
  0
CIRCLE
  8
0
  6
CONTINUOUS
 62
     1
 10
172.5
 20
141.5
 30
0.0
 40
1.6
  0
CIRCLE
  8
0
  6
CONTINUOUS
 62
     1
 10
172.5
 20
141.5
 30
0.0
 40
2.0
  0
LINE
  8
0
  6
CONTINUOUS
 62
     1
 10
197.5
 20
145.55
 30
0.0
 11
193.992597115
 21
143.525
 31
0.0
  0
LINE
  8
0
  6
CONTINUOUS
 62
     1
 10
193.992597115
 20
143.525
 30
0.0
 11
193.992597115
 21
139.475
 31
0.0
  0
LINE
  8
0
  6
CONTINUOUS
 62
     1
 10
193.992597115
 20
139.475
 30
0.0
 11
197.5
 21
137.45
 31
0.0
  0
LINE
  8
0
  6
CONTINUOUS
 62
     1
 10
197.5
 20
137.45
 30
0.0
 11
201.007402885
 21
139.475
 31
0.0
  0
LINE
  8
0
  6
CONTINUOUS
 62
     1
 10
201.007402885
 20
139.475
 30
0.0
 11
201.007402885
 21
143.525
 31
0.0
  0
LINE
  8
0
  6
CONTINUOUS
 62
     1
 10
201.007402885
 20
143.525
 30
0.0
 11
197.5
 21
145.55
 31
0.0
  0
CIRCLE
  8
0
  6
CONTINUOUS
 62
     1
 10
197.5
 20
141.5
 30
0.0
 40
1.6
  0
CIRCLE
  8
0
  6
CONTINUOUS
 62
     1
 10
197.5
 20
141.5
 30
0.0
 40
2.0
  0
LINE
  8
0
  6
CONTINUOUS
 62
     1
 10
163.0
 20
124.5
 30
0.0
 11
177.0
 21
124.5
 31
0.0
  0
LINE
  8
0
  6
CONTINUOUS
 62
     1
 10
177.0
 20
124.5
 30
0.0
 11
177.0
 21
149.5
 31
0.0
  0
LINE
  8
0
  6
CONTINUOUS
 62
     1
 10
177.0
 20
149.5
 30
0.0
 11
163.0
 21
149.5
 31
0.0
  0
LINE
  8
0
  6
CONTINUOUS
 62
     1
 10
163.0
 20
149.5
 30
0.0
 11
163.0
 21
124.5
 31
0.0
  0
LINE
  8
0
  6
CONTINUOUS
 62
     1
 10
193.0
 20
124.5
 30
0.0
 11
207.0
 21
124.5
 31
0.0
  0
LINE
  8
0
  6
CONTINUOUS
 62
     1
 10
207.0
 20
124.5
 30
0.0
 11
207.0
 21
149.5
 31
0.0
  0
LINE
  8
0
  6
CONTINUOUS
 62
     1
 10
207.0
 20
149.5
 30
0.0
 11
193.0
 21
149.5
 31
0.0
  0
LINE
  8
0
  6
CONTINUOUS
 62
     1
 10
193.0
 20
149.5
 30
0.0
 11
193.0
 21
124.5
 31
0.0
  0
LINE
  8
0
  6
CONTINUOUS
 62
     1
 10
177.0
 20
126.5
 30
0.0
 11
193.0
 21
126.5
 31
0.0
  0
LINE
  8
0
  6
CONTINUOUS
 62
     1
 10
177.0
 20
132.5
 30
0.0
 11
193.0
 21
132.5
 31
0.0
  0
LINE
  8
0
  6
CONTINUOUS
 62
     1
 10
181.0
 20
126.5
 30
0.0
 11
181.0
 21
132.5
 31
0.0
  0
LINE
  8
0
  6
CONTINUOUS
 62
     1
 10
189.0
 20
132.5
 30
0.0
 11
189.0
 21
126.5
 31
0.0
  0
CIRCLE
  8
0
  6
CONTINUOUS
 62
     1
 10
197.5
 20
141.5
 30
0.0
 40
4.5
  0
CIRCLE
  8
0
  6
CONTINUOUS
 62
     1
 10
172.5
 20
141.5
 30
0.0
 40
4.5
  0
CIRCLE
  8
0
  6
CONTINUOUS
 62
     1
 10
200.0
 20
130.5
 30
0.0
 40
4.501
  0
CIRCLE
  8
0
  6
CONTINUOUS
 62
     1
 10
170.0
 20
130.5
 30
0.0
 40
4.501
  0
LINE
  8
0
  6
CONTINUOUS
 62
     1
 10
174.456671918
 20
131.13014
 30
0.0
 11
171.98044
 21
131.13014
 31
0.0
  0
ARC
  8
0
  6
CONTINUOUS
 62
     1
 10
171.98044
 20
132.48044
 30
0.0
 40
1.3503
 50
180.0
 51
270.0
  0
ARC
  8
0
  6
CONTINUOUS
 62
     1
 10
168.01956
 20
132.48044
 30
0.0
 40
1.3503
 50
270.0
 51
0.0
  0
LINE
  8
0
  6
CONTINUOUS
 62
     1
 10
170.63014
 20
132.97555
 30
0.0
 11
169.36986
 21
132.97555
 31
0.0
  0
LINE
  8
0
  6
CONTINUOUS
 62
     1
 10
169.36986
 20
132.97555
 30
0.0
 11
169.36986
 21
132.48044
 31
0.0
  0
LINE
  8
0
  6
CONTINUOUS
 62
     1
 10
170.63014
 20
132.48044
 30
0.0
 11
170.63014
 21
132.97555
 31
0.0
  0
LINE
  8
0
  6
CONTINUOUS
 62
     1
 10
169.36986
 20
128.02445
 30
0.0
 11
170.63014
 21
128.02445
 31
0.0
  0
LINE
  8
0
  6
CONTINUOUS
 62
     1
 10
170.63014
 20
128.02445
 30
0.0
 11
170.63014
 21
128.51956
 31
0.0
  0
LINE
  8
0
  6
CONTINUOUS
 62
     1
 10
171.98044
 20
129.86986
 30
0.0
 11
174.456671918
 21
129.86986
 31
0.0
  0
ARC
  8
0
  6
CONTINUOUS
 62
     1
 10
171.98044
 20
128.51956
 30
0.0
 40
1.3503
 50
90.0
 51
180.0
  0
LINE
  8
0
  6
CONTINUOUS
 62
     1
 10
169.36986
 20
128.51956
 30
0.0
 11
169.36986
 21
128.02445
 31
0.0
  0
LINE
  8
0
  6
CONTINUOUS
 62
     1
 10
165.58902
 20
129.86986
 30
0.0
 11
168.01956
 21
129.86986
 31
0.0
  0
ARC
  8
0
  6
CONTINUOUS
 62
     1
 10
168.01956
 20
128.51956
 30
0.0
 40
1.3503
 50
0.0
 51
90.0
  0
LINE
  8
0
  6
CONTINUOUS
 62
     1
 10
168.01956
 20
131.13014
 30
0.0
 11
165.543328082
 21
131.13014
 31
0.0
  0
LINE
  8
0
  6
CONTINUOUS
 62
     1
 10
200.63014
 20
132.97555
 30
0.0
 11
199.36986
 21
132.97555
 31
0.0
  0
LINE
  8
0
  6
CONTINUOUS
 62
     1
 10
199.36986
 20
132.97555
 30
0.0
 11
199.36986
 21
132.48044
 31
0.0
  0
LINE
  8
0
  6
CONTINUOUS
 62
     1
 10
198.01956
 20
131.13014
 30
0.0
 11
195.543328082
 21
131.13014
 31
0.0
  0
ARC
  8
0
  6
CONTINUOUS
 62
     1
 10
198.01956
 20
132.48044
 30
0.0
 40
1.3503
 50
270.0
 51
0.0
  0
LINE
  8
0
  6
CONTINUOUS
 62
     1
 10
200.63014
 20
132.48044
 30
0.0
 11
200.63014
 21
132.97555
 31
0.0
  0
LINE
  8
0
  6
CONTINUOUS
 62
     1
 10
204.456671918
 20
131.13014
 30
0.0
 11
201.98044
 21
131.13014
 31
0.0
  0
ARC
  8
0
  6
CONTINUOUS
 62
     1
 10
201.98044
 20
132.48044
 30
0.0
 40
1.3503
 50
180.0
 51
270.0
  0
LINE
  8
0
  6
CONTINUOUS
 62
     1
 10
199.36986
 20
128.02445
 30
0.0
 11
200.63014
 21
128.02445
 31
0.0
  0
LINE
  8
0
  6
CONTINUOUS
 62
     1
 10
200.63014
 20
128.02445
 30
0.0
 11
200.63014
 21
128.51956
 31
0.0
  0
LINE
  8
0
  6
CONTINUOUS
 62
     1
 10
201.98044
 20
129.86986
 30
0.0
 11
204.456671918
 21
129.86986
 31
0.0
  0
ARC
  8
0
  6
CONTINUOUS
 62
     1
 10
201.98044
 20
128.51956
 30
0.0
 40
1.3503
 50
90.0
 51
180.0
  0
LINE
  8
0
  6
CONTINUOUS
 62
     1
 10
199.36986
 20
128.51956
 30
0.0
 11
199.36986
 21
128.02445
 31
0.0
  0
LINE
  8
0
  6
CONTINUOUS
 62
     1
 10
195.58902
 20
129.86986
 30
0.0
 11
198.01956
 21
129.86986
 31
0.0
  0
ARC
  8
0
  6
CONTINUOUS
 62
     1
 10
198.01956
 20
128.51956
 30
0.0
 40
1.3503
 50
0.0
 51
90.0
  0
LINE
  8
0
  6
LTYPE2
 62
     2
 10
166.5
 20
141.5
 30
0.0
 11
178.5
 21
141.5
 31
0.0
  0
LINE
  8
0
  6
LTYPE2
 62
     2
 10
172.5
 20
147.5
 30
0.0
 11
172.5
 21
135.5
 31
0.0
  0
LINE
  8
0
  6
LTYPE2
 62
     2
 10
191.5
 20
141.5
 30
0.0
 11
203.5
 21
141.5
 31
0.0
  0
LINE
  8
0
  6
LTYPE2
 62
     2
 10
197.5
 20
147.5
 30
0.0
 11
197.5
 21
135.5
 31
0.0
  0
CIRCLE
  8
0
  6
CONTINUOUS
 62
     2
 10
172.5
 20
141.5
 30
0.0
 40
2.25
  0
LINE
  8
0
  6
LTYPE1
 62
     2
 10
169.5
 20
141.5
 30
0.0
 11
175.5
 21
141.5
 31
0.0
  0
LINE
  8
0
  6
LTYPE1
 62
     2
 10
172.5
 20
144.5
 30
0.0
 11
172.5
 21
138.5
 31
0.0
  0
CIRCLE
  8
0
  6
CONTINUOUS
 62
     2
 10
197.5
 20
141.5
 30
0.0
 40
2.25
  0
LINE
  8
0
  6
LTYPE1
 62
     2
 10
200.5
 20
141.5
 30
0.0
 11
194.5
 21
141.5
 31
0.0
  0
LINE
  8
0
  6
LTYPE1
 62
     2
 10
170.0
 20
138.859
 30
0.0
 11
170.0
 21
122.141
 31
0.0
  0
LINE
  8
0
  6
LTYPE1
 62
     2
 10
161.641
 20
130.5
 30
0.0
 11
177.716
 21
130.5
 31
0.0
  0
LINE
  8
0
  6
LTYPE1
 62
     2
 10
200.0
 20
138.859
 30
0.0
 11
200.0
 21
122.141
 31
0.0
  0
LINE
  8
0
  6
LTYPE1
 62
     2
 10
191.641
 20
130.5
 30
0.0
 11
207.716
 21
130.5
 31
0.0
  0
ARC
  8
0
  6
CONTINUOUS
 62
     1
 10
185.0
 20
134.0
 30
0.0
 40
22.5
 50
167.898507968
 51
192.101492032
  0
ARC
  8
0
  6
CONTINUOUS
 62
     1
 10
185.0
 20
134.0
 30
0.0
 40
22.5
 50
43.542219028
 51
136.457780972
  0
ARC
  8
0
  6
CONTINUOUS
 62
     1
 10
185.0
 20
134.0
 30
0.0
 40
22.5
 50
347.898507968
 51
12.101492032
  0
ARC
  8
0
  6
CONTINUOUS
 62
     1
 10
185.0
 20
134.0
 30
0.0
 40
22.5
 50
204.974965368
 51
335.025034632
  0
ARC
  8
0
  6
CONTINUOUS
 62
     2
 10
166.0
 20
153.0
 30
0.0
 40
4.0
 50
298.955024372
 51
241.044975628
  0
ARC
  8
0
  6
CONTINUOUS
 62
     2
 10
166.0
 20
153.0
 30
0.0
 40
3.7
 50
288.924644416
 51
251.075355584
  0
ARC
  8
0
  6
CONTINUOUS
 62
     2
 10
204.0
 20
153.0
 30
0.0
 40
4.0
 50
298.955024372
 51
241.044975628
  0
ARC
  8
0
  6
CONTINUOUS
 62
     2
 10
204.0
 20
153.0
 30
0.0
 40
3.7
 50
288.924644416
 51
251.075355584
  0
POLYLINE
  8
0
  6
CONTINUOUS
 62
     1
 66
     1
  0
VERTEX
  8
0
  6
CONTINUOUS
 62
     1
 10
128.0
 20
136.03338
 30
0.0
  0
VERTEX
  8
0
  6
CONTINUOUS
 62
     1
 10
129.0
 20
136.53338
 30
0.0
  0
VERTEX
  8
0
  6
CONTINUOUS
 62
     1
 10
129.0
 20
146.53338
 30
0.0
  0
VERTEX
  8
0
  6
CONTINUOUS
 62
     1
 10
128.0
 20
147.03338
 30
0.0
  0
SEQEND
  0
LINE
  8
0
  6
CONTINUOUS
 62
     1
 10
129.0
 20
136.993446
 30
0.0
 11
129.66665
 21
136.993446
 31
0.0
  0
LINE
  8
0
  6
CONTINUOUS
 62
     1
 10
129.66665
 20
146.326546
 30
0.0
 11
129.0
 21
146.326546
 31
0.0
  0
LINE
  8
0
  6
CONTINUOUS
 62
     1
 10
129.0
 20
146.326546
 30
0.0
 11
129.0
 21
136.993446
 31
0.0
  0
LINE
  8
0
  6
CONTINUOUS
 62
     1
 10
129.66665
 20
136.993446
 30
0.0
 11
129.66665
 21
146.326546
 31
0.0
  0
LINE
  8
0
  6
CONTINUOUS
 62
     1
 10
129.66665
 20
124.53338
 30
0.0
 11
132.46665
 21
124.53338
 31
0.0
  0
LINE
  8
0
  6
CONTINUOUS
 62
     1
 10
132.46665
 20
124.53338
 30
0.0
 11
132.46665
 21
149.53338
 31
0.0
  0
LINE
  8
0
  6
CONTINUOUS
 62
     1
 10
132.46665
 20
149.53338
 30
0.0
 11
129.66665
 21
149.53338
 31
0.0
  0
LINE
  8
0
  6
CONTINUOUS
 62
     1
 10
129.66665
 20
149.53338
 30
0.0
 11
129.66665
 21
124.53338
 31
0.0
  0
LINE
  8
0
  6
CONTINUOUS
 62
     1
 10
136.053487
 20
137.566765
 30
0.0
 11
136.586807
 21
138.100085
 31
0.0
  0
LINE
  8
0
  6
CONTINUOUS
 62
     1
 10
136.053487
 20
137.566765
 30
0.0
 11
133.386887
 21
137.566765
 31
0.0
  0
LINE
  8
0
  6
CONTINUOUS
 62
     1
 10
136.053487
 20
145.833225
 30
0.0
 11
136.586807
 21
145.299905
 31
0.0
  0
LINE
  8
0
  6
CONTINUOUS
 62
     1
 10
135.986822
 20
143.63328
 30
0.0
 11
136.520142
 21
144.1666
 31
0.0
  0
LINE
  8
0
  6
CONTINUOUS
 62
     1
 10
136.520142
 20
143.09996
 30
0.0
 11
135.986822
 21
143.63328
 31
0.0
  0
LINE
  8
0
  6
CONTINUOUS
 62
     1
 10
133.386887
 20
143.63328
 30
0.0
 11
135.986822
 21
143.63328
 31
0.0
  0
LINE
  8
0
  6
CONTINUOUS
 62
     1
 10
133.386887
 20
145.833225
 30
0.0
 11
136.053487
 21
145.833225
 31
0.0
  0
LINE
  8
0
  6
CONTINUOUS
 62
     1
 10
133.386887
 20
137.566765
 30
0.0
 11
133.386887
 21
145.833225
 31
0.0
  0
LINE
  8
0
  6
CONTINUOUS
 62
     1
 10
136.586807
 20
145.299905
 30
0.0
 11
136.586807
 21
138.100085
 31
0.0
  0
LINE
  8
0
  6
CONTINUOUS
 62
     1
 10
135.986822
 20
139.63338
 30
0.0
 11
136.520142
 21
140.1667
 31
0.0
  0
LINE
  8
0
  6
CONTINUOUS
 62
     1
 10
136.520142
 20
139.10006
 30
0.0
 11
135.986822
 21
139.63338
 31
0.0
  0
LINE
  8
0
  6
CONTINUOUS
 62
     1
 10
133.386887
 20
139.63338
 30
0.0
 11
135.986822
 21
139.63338
 31
0.0
  0
ARC
  8
0
  6
CONTINUOUS
 62
     1
 10
134.820722185
 20
128.518035255
 30
0.0
 40
2.558774115
 50
268.472474559
 51
0.0
  0
ARC
  8
0
  6
CONTINUOUS
 62
     1
 10
134.820722185
 20
132.475605885
 30
0.0
 40
2.558774115
 50
0.0
 51
90.0
  0
LINE
  8
0
  6
CONTINUOUS
 62
     1
 10
137.3794963
 20
132.475605885
 30
0.0
 11
137.3794963
 21
128.518035255
 31
0.0
  0
LINE
  8
0
  6
CONTINUOUS
 62
     1
 10
137.140677383
 20
131.247394311
 30
0.0
 11
137.140677383
 21
129.950948759
 31
0.0
  0
LINE
  8
0
  6
CONTINUOUS
 62
     1
 10
133.79721254
 20
135.03438
 30
0.0
 11
134.854839174
 21
135.03438
 31
0.0
  0
LINE
  8
0
  6
CONTINUOUS
 62
     1
 10
134.854839174
 20
126.027495117
 30
0.0
 11
133.79721254
 21
125.959261141
 31
0.0
  0
LINE
  8
0
  6
CONTINUOUS
 62
     1
 10
133.79721254
 20
135.03438
 30
0.0
 11
133.79721254
 21
125.959261141
 31
0.0
  0
LINE
  8
0
  6
CONTINUOUS
 62
     1
 10
137.3794963
 20
132.4756097
 30
0.0
 11
139.66665
 21
132.53338
 31
0.0
  0
LINE
  8
0
  6
CONTINUOUS
 62
     1
 10
139.66665
 20
132.53338
 30
0.0
 11
139.66665
 21
126.53338
 31
0.0
  0
LINE
  8
0
  6
CONTINUOUS
 62
     1
 10
139.66665
 20
126.53338
 30
0.0
 11
136.46665
 21
126.53338
 31
0.0
  0
LINE
  8
0
  6
CONTINUOUS
 62
     2
 10
133.386887
 20
142.1
 30
0.0
 11
132.453577
 21
142.1
 31
0.0
  0
LINE
  8
0
  6
CONTINUOUS
 62
     2
 10
133.386887
 20
140.9
 30
0.0
 11
132.453577
 21
140.9
 31
0.0
  0
LINE
  8
0
  6
CONTINUOUS
 62
     2
 10
132.46665
 20
145.23324
 30
0.0
 11
133.386887
 21
145.23324
 31
0.0
  0
LINE
  8
0
  6
CONTINUOUS
 62
     2
 10
133.386887
 20
145.23324
 30
0.0
 11
133.386887
 21
138.03342
 31
0.0
  0
LINE
  8
0
  6
CONTINUOUS
 62
     2
 10
133.386887
 20
138.03342
 30
0.0
 11
132.46665
 21
138.03342
 31
0.0
  0
LINE
  8
0
  6
CONTINUOUS
 62
     2
 10
132.46665
 20
125.959261141
 30
0.0
 11
133.763095551
 21
125.959261141
 31
0.0
  0
LINE
  8
0
  6
CONTINUOUS
 62
     2
 10
132.46665
 20
130.087416712
 30
0.0
 11
133.763095551
 21
131.145043346
 31
0.0
  0
LINE
  8
0
  6
CONTINUOUS
 62
     2
 10
132.46665
 20
129.268608995
 30
0.0
 11
133.79721254
 21
130.258001653
 31
0.0
  0
LINE
  8
0
  6
CONTINUOUS
 62
     2
 10
137.3794963
 20
131.213277322
 30
0.0
 11
137.140677383
 21
131.213277322
 31
0.0
  0
LINE
  8
0
  6
CONTINUOUS
 62
     2
 10
137.140677383
 20
129.950948759
 30
0.0
 11
137.345379312
 21
129.950948759
 31
0.0
  0
LINE
  8
0
  6
CONTINUOUS
 62
     2
 10
132.47381254
 20
135.03438
 30
0.0
 11
133.79721254
 21
135.03438
 31
0.0
  0
LINE
  8
0
  6
CONTINUOUS
 62
     2
 10
132.46665
 20
135.036443976
 30
0.0
 11
132.46665
 21
125.959261141
 31
0.0
  0
LINE
  8
0
  6
LTYPE1
 62
     2
 10
121.6
 20
141.5
 30
0.0
 11
144.6
 21
141.5
 31
0.0
  0
LINE
  8
0
  6
LTYPE1
 62
     2
 10
121.6
 20
130.49682057
 30
0.0
 11
144.6
 21
130.49682057
 31
0.0
  0
LINE
  8
0
  6
CONTINUOUS
 62
     1
 10
136.586807
 20
143.699945
 30
0.0
 11
139.0
 21
143.699945
 31
0.0
  0
LINE
  8
0
  6
CONTINUOUS
 62
     2
 10
139.0
 20
143.23329
 30
0.0
 11
136.586807
 21
143.23329
 31
0.0
  0
LINE
  8
0
  6
CONTINUOUS
 62
     2
 10
136.586807
 20
140.03337
 30
0.0
 11
139.0
 21
140.03337
 31
0.0
  0
LINE
  8
0
  6
CONTINUOUS
 62
     1
 10
136.586807
 20
139.63338
 30
0.0
 11
139.0
 21
139.63338
 31
0.0
  0
LINE
  8
0
  6
CONTINUOUS
 62
     1
 10
139.0
 20
143.699945
 30
0.0
 11
139.0
 21
139.63338
 31
0.0
  0
LINE
  8
0
  6
CONTINUOUS
 62
     1
 10
128.0
 20
132.99682057
 30
0.0
 11
129.66665
 21
132.99682057
 31
0.0
  0
LINE
  8
0
  6
CONTINUOUS
 62
     1
 10
128.0
 20
127.99682057
 30
0.0
 11
129.66665
 21
127.99682057
 31
0.0
  0
LINE
  8
0
  6
CONTINUOUS
 62
     2
 10
139.66665
 20
175.0
 30
0.0
 11
137.251835434
 21
175.647047613
 31
0.0
  0
LINE
  8
0
  6
CONTINUOUS
 62
     2
 10
139.66665
 20
175.0
 30
0.0
 11
137.251835434
 21
174.352952387
 31
0.0
  0
LINE
  8
0
  6
CONTINUOUS
 62
     2
 10
139.66665
 20
144.1
 30
0.0
 11
139.66665
 21
177.0
 31
0.0
  0
LINE
  8
0
  6
CONTINUOUS
 62
     2
 10
98.0
 20
175.0
 30
0.0
 11
139.66665
 21
175.0
 31
0.0
  0
TEXT
  8
0
  6
CONTINUOUS
 62
     2
 10
129.5
 20
176.0
 30
0.3
 40
3.0
  1
１５以下
 50
0.0
 41
0.6
 51
0.0
  7
KANJI1
  0
LINE
  8
0
  6
CONTINUOUS
 62
     2
 10
42.5
 20
100.0
 30
0.0
 11
20.2
 21
100.0
 31
0.0
  0
TEXT
  8
0
  6
CONTINUOUS
 62
     2
 10
20.2
 20
101.0
 30
0.1
 40
3.0
  1
機械的零位調整器
 50
0.0
 41
0.9
 51
0.0
  7
KANJI7
  0
LINE
  8
0
  6
CONTINUOUS
 62
     2
 10
48.679919348
 20
113.758490001
 30
0.0
 11
47.100243445
 21
111.820804774
 31
0.0
  0
LINE
  8
0
  6
CONTINUOUS
 62
     2
 10
48.679919348
 20
113.758490001
 30
0.0
 11
48.2807225
 21
111.290567418
 31
0.0
  0
LINE
  8
0
  6
CONTINUOUS
 62
     2
 10
48.679919348
 20
113.758490001
 30
0.0
 11
42.5
 21
100.0
 31
0.0
  0
LINE
  8
0
  6
CONTINUOUS
 62
     2
 10
134.752512457
 20
125.960170442
 30
0.0
 11
134.778627394
 21
123.460306844
 31
0.0
  0
LINE
  8
0
  6
CONTINUOUS
 62
     2
 10
134.752512457
 20
125.960170442
 30
0.0
 11
136.025060455
 21
123.808282528
 31
0.0
  0
LINE
  8
0
  6
CONTINUOUS
 62
     2
 10
134.752512457
 20
125.960170442
 30
0.0
 11
142.0
 21
100.0
 31
0.0
  0
TEXT
  8
0
  6
CONTINUOUS
 62
     2
 10
137.5
 20
93.5
 30
0.1
 40
3.0
  1
背負い分流器
 50
0.0
 41
0.8
 51
0.0
  7
KANJI8
  0
LINE
  8
0
  6
CONTINUOUS
 62
     2
 10
131.06665
 20
124.53338
 30
0.0
 11
130.832535561
 21
122.044366053
 31
0.0
  0
LINE
  8
0
  6
CONTINUOUS
 62
     2
 10
131.06665
 20
124.53338
 30
0.0
 11
132.108407922
 21
122.260773472
 31
0.0
  0
LINE
  8
0
  6
CONTINUOUS
 62
     2
 10
131.06665
 20
124.53338
 30
0.0
 11
136.5
 21
92.5
 31
0.0
  0
LINE
  8
0
  6
CONTINUOUS
 62
     2
 10
136.5
 20
92.5
 30
0.0
 11
153.0
 21
92.5
 31
0.0
  0
LINE
  8
0
  6
CONTINUOUS
 62
     2
 10
118.0
 20
156.5
 30
0.0
 11
117.352952387
 21
154.085185434
 31
0.0
  0
LINE
  8
0
  6
CONTINUOUS
 62
     2
 10
118.0
 20
156.5
 30
0.0
 11
118.647047613
 21
154.085185434
 31
0.0
  0
LINE
  8
0
  6
CONTINUOUS
 62
     2
 10
118.0
 20
111.5
 30
0.0
 11
118.647047613
 21
113.914814566
 31
0.0
  0
LINE
  8
0
  6
CONTINUOUS
 62
     2
 10
118.0
 20
111.5
 30
0.0
 11
117.352952387
 21
113.914814566
 31
0.0
  0
LINE
  8
0
  6
CONTINUOUS
 62
     2
 10
118.0
 20
156.5
 30
0.0
 11
118.0
 21
111.5
 31
0.0
  0
TEXT
  8
0
  6
CONTINUOUS
 62
     2
 10
117.2
 20
132.05
 30
0.3
 40
3.0
  1
φ４５
 50
90.0
 41
0.6
 51
0.0
  7
KANJI1
  0
TEXT
  8
0
  6
CONTINUOUS
 62
     2
 10
143.0
 20
101.0
 30
0.1
 40
3.0
  1
２－Ｍ５ターミナルネジ
 50
0.0
 41
0.8
 51
0.0
  7
KANJI8
  0
LINE
  8
0
  6
CONTINUOUS
 62
     2
 10
142.0
 20
100.0
 30
0.0
 11
171.5
 21
100.0
 31
0.0
  0
TEXT
  8
0
  6
CONTINUOUS
 62
     1
 10
123.0
 20
51.8
 30
0.2
 40
4.0
  1
分流器背負い直流電流計　外形図
 50
0.0
 41
0.8
 51
0.0
  7
KANJI9
  0
TEXT
  8
0
  6
CONTINUOUS
 62
     1
 10
123.0
 20
62.0
 30
0.0
 40
4.0
  1
ＤＣＦ－５（１５～３０Ａ用）
 50
0.0
 41
0.9
 51
0.0
  7
KANJI10
  0
TEXT
  8
0
  6
CONTINUOUS
 62
     3
 10
124.0
 20
36.0
 30
0.0
 40
6.0
  1
ＭＳ－１１０２７　Ａ
 50
0.0
 41
0.833333333
 51
0.0
  7
KANJI11
  0
ENDSEC
  0
EOF
