  0
SECTION
  2
HEADER
  9
$ACADVER
  1
AC1009
  9
$DWGCODEPAGE
  3
dos932
  9
$EXTMIN
 10
0.0
 20
0.0
 30
0.0
  9
$EXTMAX
 10
297.0
 20
210.0
 30
0.0
  9
$LIMMIN
 10
0.0
 20
0.0
  9
$LIMMAX
 10
297.0
 20
210.0
  9
$LTSCALE
 40
1.0
  9
$PDMODE
 70
     0
  0
ENDSEC
  0
SECTION
  2
TABLES
  0
TABLE
  2
VPORT
 70
     1
  0
VPORT
  2
*ACTIVE
 70
     0
 10
0.0
 20
0.0
 11
1.0
 21
1.0
 12
148.5
 22
105.0
 13
0.0
 23
0.0
 14
10.0
 24
10.0
 15
10.0
 25
10.0
 16
0.0
 26
0.0
 36
1.0
 17
0.0
 27
0.0
 37
0.0
 40
297.0
 41
1.414285714
 42
50.0
 43
0.0
 44
0.0
 50
0.0
 51
0.0
 71
     0
 72
  1000
 73
     1
 74
     3
 75
     0
 76
     0
 77
     0
 78
     0
  0
ENDTAB
  0
TABLE
  2
LTYPE
 70
     5
  0
LTYPE
  2
CONTINUOUS
 70
    64
  3
Solid line
 72
    65
 73
     0
 40
0.0
  0
LTYPE
  2
LTYPE1
 70
    64
  3
HIDDEN
 72
    65
 73
     2
 40
2.0
 49
1.2
 49
-0.8
  0
LTYPE
  2
LTYPE2
 70
    64
  3
CENTER
 72
    65
 73
     4
 40
5.0
 49
3.5
 49
-0.5
 49
0.5
 49
-0.5
  0
LTYPE
  2
LTYPE3
 70
    64
  3
CENTER
 72
    65
 73
     4
 40
8.0
 49
5.6
 49
-0.8
 49
0.8
 49
-0.8
  0
LTYPE
  2
LTYPE4
 70
    64
  3
CENTER
 72
    65
 73
     4
 40
15.0
 49
10.5
 49
-1.5
 49
1.5
 49
-1.5
  0
ENDTAB
  0
TABLE
  2
LAYER
 70
   128
  0
LAYER
  2
0
 70
     0
 62
     7
  6
CONTINUOUS
  0
LAYER
  2
2
 70
     0
 62
     7
  6
CONTINUOUS
  0
LAYER
  2
3
 70
     0
 62
     7
  6
CONTINUOUS
  0
LAYER
  2
4
 70
     0
 62
     7
  6
CONTINUOUS
  0
LAYER
  2
5
 70
     0
 62
     7
  6
CONTINUOUS
  0
LAYER
  2
6
 70
     0
 62
     7
  6
CONTINUOUS
  0
LAYER
  2
7
 70
     0
 62
     7
  6
CONTINUOUS
  0
LAYER
  2
8
 70
     0
 62
     7
  6
CONTINUOUS
  0
LAYER
  2
9
 70
     0
 62
     7
  6
CONTINUOUS
  0
LAYER
  2
10
 70
     0
 62
     7
  6
CONTINUOUS
  0
LAYER
  2
11
 70
     0
 62
     7
  6
CONTINUOUS
  0
LAYER
  2
12
 70
     0
 62
     7
  6
CONTINUOUS
  0
LAYER
  2
13
 70
     0
 62
     7
  6
CONTINUOUS
  0
LAYER
  2
14
 70
     0
 62
     7
  6
CONTINUOUS
  0
LAYER
  2
15
 70
     0
 62
     7
  6
CONTINUOUS
  0
LAYER
  2
16
 70
     0
 62
     7
  6
CONTINUOUS
  0
LAYER
  2
17
 70
     0
 62
     7
  6
CONTINUOUS
  0
LAYER
  2
18
 70
     0
 62
     7
  6
CONTINUOUS
  0
LAYER
  2
19
 70
     0
 62
     7
  6
CONTINUOUS
  0
LAYER
  2
20
 70
     0
 62
     7
  6
CONTINUOUS
  0
LAYER
  2
21
 70
     0
 62
     7
  6
CONTINUOUS
  0
LAYER
  2
22
 70
     0
 62
     7
  6
CONTINUOUS
  0
LAYER
  2
23
 70
     0
 62
     7
  6
CONTINUOUS
  0
LAYER
  2
24
 70
     0
 62
     7
  6
CONTINUOUS
  0
LAYER
  2
25
 70
     0
 62
     7
  6
CONTINUOUS
  0
LAYER
  2
26
 70
     0
 62
     7
  6
CONTINUOUS
  0
LAYER
  2
27
 70
     0
 62
     7
  6
CONTINUOUS
  0
LAYER
  2
28
 70
     0
 62
     7
  6
CONTINUOUS
  0
LAYER
  2
29
 70
     0
 62
     7
  6
CONTINUOUS
  0
LAYER
  2
30
 70
     0
 62
     7
  6
CONTINUOUS
  0
LAYER
  2
31
 70
     0
 62
     7
  6
CONTINUOUS
  0
LAYER
  2
32
 70
     0
 62
     7
  6
CONTINUOUS
  0
LAYER
  2
33
 70
     0
 62
     7
  6
CONTINUOUS
  0
LAYER
  2
34
 70
     0
 62
     7
  6
CONTINUOUS
  0
LAYER
  2
35
 70
     0
 62
     7
  6
CONTINUOUS
  0
LAYER
  2
36
 70
     0
 62
     7
  6
CONTINUOUS
  0
LAYER
  2
37
 70
     0
 62
     7
  6
CONTINUOUS
  0
LAYER
  2
38
 70
     0
 62
     7
  6
CONTINUOUS
  0
LAYER
  2
39
 70
     0
 62
     7
  6
CONTINUOUS
  0
LAYER
  2
40
 70
     0
 62
     7
  6
CONTINUOUS
  0
LAYER
  2
41
 70
     0
 62
     7
  6
CONTINUOUS
  0
LAYER
  2
42
 70
     0
 62
     7
  6
CONTINUOUS
  0
LAYER
  2
43
 70
     0
 62
     7
  6
CONTINUOUS
  0
LAYER
  2
44
 70
     0
 62
     7
  6
CONTINUOUS
  0
LAYER
  2
45
 70
     0
 62
     7
  6
CONTINUOUS
  0
LAYER
  2
46
 70
     0
 62
     7
  6
CONTINUOUS
  0
LAYER
  2
47
 70
     0
 62
     7
  6
CONTINUOUS
  0
LAYER
  2
48
 70
     0
 62
     7
  6
CONTINUOUS
  0
LAYER
  2
49
 70
     0
 62
     7
  6
CONTINUOUS
  0
LAYER
  2
50
 70
     0
 62
     7
  6
CONTINUOUS
  0
LAYER
  2
51
 70
     0
 62
     7
  6
CONTINUOUS
  0
LAYER
  2
52
 70
     0
 62
     7
  6
CONTINUOUS
  0
LAYER
  2
53
 70
     0
 62
     7
  6
CONTINUOUS
  0
LAYER
  2
54
 70
     0
 62
     7
  6
CONTINUOUS
  0
LAYER
  2
55
 70
     0
 62
     7
  6
CONTINUOUS
  0
LAYER
  2
56
 70
     0
 62
     7
  6
CONTINUOUS
  0
LAYER
  2
57
 70
     0
 62
     7
  6
CONTINUOUS
  0
LAYER
  2
58
 70
     0
 62
     7
  6
CONTINUOUS
  0
LAYER
  2
59
 70
     0
 62
     7
  6
CONTINUOUS
  0
LAYER
  2
60
 70
     0
 62
     7
  6
CONTINUOUS
  0
LAYER
  2
61
 70
     0
 62
     7
  6
CONTINUOUS
  0
LAYER
  2
62
 70
     0
 62
     7
  6
CONTINUOUS
  0
LAYER
  2
63
 70
     0
 62
     7
  6
CONTINUOUS
  0
LAYER
  2
64
 70
     0
 62
     7
  6
CONTINUOUS
  0
LAYER
  2
65
 70
     0
 62
     7
  6
CONTINUOUS
  0
LAYER
  2
66
 70
     0
 62
     7
  6
CONTINUOUS
  0
LAYER
  2
67
 70
     0
 62
     7
  6
CONTINUOUS
  0
LAYER
  2
68
 70
     0
 62
     7
  6
CONTINUOUS
  0
LAYER
  2
69
 70
     0
 62
     7
  6
CONTINUOUS
  0
LAYER
  2
70
 70
     0
 62
     7
  6
CONTINUOUS
  0
LAYER
  2
71
 70
     0
 62
     7
  6
CONTINUOUS
  0
LAYER
  2
72
 70
     0
 62
     7
  6
CONTINUOUS
  0
LAYER
  2
73
 70
     0
 62
     7
  6
CONTINUOUS
  0
LAYER
  2
74
 70
     0
 62
     7
  6
CONTINUOUS
  0
LAYER
  2
75
 70
     0
 62
     7
  6
CONTINUOUS
  0
LAYER
  2
76
 70
     0
 62
     7
  6
CONTINUOUS
  0
LAYER
  2
77
 70
     0
 62
     7
  6
CONTINUOUS
  0
LAYER
  2
78
 70
     0
 62
     7
  6
CONTINUOUS
  0
LAYER
  2
79
 70
     0
 62
     7
  6
CONTINUOUS
  0
LAYER
  2
80
 70
     0
 62
     7
  6
CONTINUOUS
  0
LAYER
  2
81
 70
     0
 62
     7
  6
CONTINUOUS
  0
LAYER
  2
82
 70
     0
 62
     7
  6
CONTINUOUS
  0
LAYER
  2
83
 70
     0
 62
     7
  6
CONTINUOUS
  0
LAYER
  2
84
 70
     0
 62
     7
  6
CONTINUOUS
  0
LAYER
  2
85
 70
     0
 62
     7
  6
CONTINUOUS
  0
LAYER
  2
86
 70
     0
 62
     7
  6
CONTINUOUS
  0
LAYER
  2
87
 70
     0
 62
     7
  6
CONTINUOUS
  0
LAYER
  2
88
 70
     0
 62
     7
  6
CONTINUOUS
  0
LAYER
  2
89
 70
     0
 62
     7
  6
CONTINUOUS
  0
LAYER
  2
90
 70
     0
 62
     7
  6
CONTINUOUS
  0
LAYER
  2
91
 70
     0
 62
     7
  6
CONTINUOUS
  0
LAYER
  2
92
 70
     0
 62
     7
  6
CONTINUOUS
  0
LAYER
  2
93
 70
     0
 62
     7
  6
CONTINUOUS
  0
LAYER
  2
94
 70
     0
 62
     7
  6
CONTINUOUS
  0
LAYER
  2
95
 70
     0
 62
     7
  6
CONTINUOUS
  0
LAYER
  2
96
 70
     0
 62
     7
  6
CONTINUOUS
  0
LAYER
  2
97
 70
     0
 62
     7
  6
CONTINUOUS
  0
LAYER
  2
98
 70
     0
 62
     7
  6
CONTINUOUS
  0
LAYER
  2
99
 70
     0
 62
     7
  6
CONTINUOUS
  0
LAYER
  2
100
 70
     0
 62
     7
  6
CONTINUOUS
  0
LAYER
  2
101
 70
     0
 62
     7
  6
CONTINUOUS
  0
LAYER
  2
102
 70
     0
 62
     7
  6
CONTINUOUS
  0
LAYER
  2
103
 70
     0
 62
     7
  6
CONTINUOUS
  0
LAYER
  2
104
 70
     0
 62
     7
  6
CONTINUOUS
  0
LAYER
  2
105
 70
     0
 62
     7
  6
CONTINUOUS
  0
LAYER
  2
106
 70
     0
 62
     7
  6
CONTINUOUS
  0
LAYER
  2
107
 70
     0
 62
     7
  6
CONTINUOUS
  0
LAYER
  2
108
 70
     0
 62
     7
  6
CONTINUOUS
  0
LAYER
  2
109
 70
     0
 62
     7
  6
CONTINUOUS
  0
LAYER
  2
110
 70
     0
 62
     7
  6
CONTINUOUS
  0
LAYER
  2
111
 70
     0
 62
     7
  6
CONTINUOUS
  0
LAYER
  2
112
 70
     0
 62
     7
  6
CONTINUOUS
  0
LAYER
  2
113
 70
     0
 62
     7
  6
CONTINUOUS
  0
LAYER
  2
114
 70
     0
 62
     7
  6
CONTINUOUS
  0
LAYER
  2
115
 70
     0
 62
     7
  6
CONTINUOUS
  0
LAYER
  2
116
 70
     0
 62
     7
  6
CONTINUOUS
  0
LAYER
  2
117
 70
     0
 62
     7
  6
CONTINUOUS
  0
LAYER
  2
118
 70
     0
 62
     7
  6
CONTINUOUS
  0
LAYER
  2
119
 70
     0
 62
     7
  6
CONTINUOUS
  0
LAYER
  2
120
 70
     0
 62
     7
  6
CONTINUOUS
  0
LAYER
  2
121
 70
     0
 62
     7
  6
CONTINUOUS
  0
LAYER
  2
122
 70
     0
 62
     7
  6
CONTINUOUS
  0
LAYER
  2
123
 70
     0
 62
     7
  6
CONTINUOUS
  0
LAYER
  2
124
 70
     0
 62
     7
  6
CONTINUOUS
  0
LAYER
  2
125
 70
     0
 62
     7
  6
CONTINUOUS
  0
LAYER
  2
126
 70
     0
 62
     7
  6
CONTINUOUS
  0
LAYER
  2
127
 70
     0
 62
     7
  6
CONTINUOUS
  0
LAYER
  2
128
 70
     0
 62
     7
  6
CONTINUOUS
  0
ENDTAB
  0
TABLE
  2
STYLE
 70
    16
  0
STYLE
  2
STANDARD
 70
     0
 40
0.0
 41
1.0
 50
0.0
 71
     0
 42
0.2
  3
txt.shx
  4
extfont.shx
  0
STYLE
  2
KANJI0
 70
     0
 40
3.0
 41
0.9
 50
0.0
 71
     0
 42
3.0
  3
txt.shx
  4
extfont.shx
  0
STYLE
  2
KANJI1
 70
     0
 40
2.5
 41
0.72
 50
0.0
 71
     0
 42
2.5
  3
txt.shx
  4
extfont.shx
  0
STYLE
  2
KANJI2
 70
     0
 40
1.8
 41
0.833333333
 50
0.0
 71
     0
 42
1.8
  3
txt.shx
  4
extfont.shx
  0
STYLE
  2
KANJI3
 70
     0
 40
1.0
 41
1.0
 50
0.0
 71
     0
 42
1.0
  3
txt.shx
  4
extfont.shx
  0
STYLE
  2
KANJI4
 70
     0
 40
1.5
 41
1.0
 50
0.0
 71
     0
 42
1.5
  3
txt.shx
  4
extfont.shx
  0
STYLE
  2
KANJI5
 70
     0
 40
4.0
 41
0.9
 50
0.0
 71
     0
 42
4.0
  3
txt.shx
  4
extfont.shx
  0
STYLE
  2
KANJI6
 70
     0
 40
2.0
 41
0.9
 50
0.0
 71
     0
 42
2.0
  3
txt.shx
  4
extfont.shx
  0
STYLE
  2
KANJI7
 70
     0
 40
3.0
 41
0.6
 50
0.0
 71
     0
 42
3.0
  3
txt.shx
  4
extfont.shx
  0
STYLE
  2
KANJI8
 70
     0
 40
1.8
 41
0.6
 50
0.0
 71
     0
 42
1.8
  3
txt.shx
  4
extfont.shx
  0
STYLE
  2
KANJI9
 70
     0
 40
5.0
 41
0.9
 50
0.0
 71
     0
 42
5.0
  3
txt.shx
  4
extfont.shx
  0
STYLE
  2
KANJI10
 70
     0
 40
3.0
 41
0.5
 50
0.0
 71
     0
 42
3.0
  3
txt.shx
  4
extfont.shx
  0
STYLE
  2
KANJI11
 70
     0
 40
1.0
 41
1.5
 50
0.0
 71
     0
 42
1.0
  3
txt.shx
  4
extfont.shx
  0
STYLE
  2
KANJI12
 70
     0
 40
2.5
 41
0.72
 50
0.0
 71
     0
 42
2.5
  3
txt.shx
  4
extfont.shx
  0
STYLE
  2
KANJI13
 70
     0
 40
6.0
 41
0.9
 50
0.0
 71
     0
 42
6.0
  3
txt.shx
  4
extfont.shx
  0
STYLE
  2
KANJI14
 70
     0
 40
8.0
 41
0.9
 50
0.0
 71
     0
 42
8.0
  3
txt.shx
  4
extfont.shx
  0
ENDTAB
  0
TABLE
  2
VIEW
 70
     0
  0
ENDTAB
  0
ENDSEC
  0
SECTION
  2
BLOCKS
  0
ENDSEC
  0
SECTION
  2
ENTITIES
  0
LINE
  8
0
  6
CONTINUOUS
 62
     2
 10
138.0
 20
20.7
 30
0.0
 11
138.0
 21
56.7
 31
0.0
  0
LINE
  8
0
  6
CONTINUOUS
 62
     5
 10
135.3
 20
33.9
 30
0.0
 11
116.3
 21
33.9
 31
0.0
  0
LINE
  8
0
  6
CONTINUOUS
 62
     5
 10
135.3
 20
30.9
 30
0.0
 11
116.3
 21
30.9
 31
0.0
  0
LINE
  8
0
  6
CONTINUOUS
 62
     5
 10
135.3
 20
27.9
 30
0.0
 11
116.3
 21
27.9
 31
0.0
  0
LINE
  8
0
  6
CONTINUOUS
 62
     5
 10
116.3
 20
36.9
 30
0.0
 11
116.3
 21
24.9
 31
0.0
  0
LINE
  8
0
  6
CONTINUOUS
 62
     5
 10
135.3
 20
24.9
 30
0.0
 11
122.4
 21
24.9
 31
0.0
  0
LINE
  8
0
  6
CONTINUOUS
 62
     5
 10
122.4
 20
24.9
 30
0.0
 11
116.3
 21
24.9
 31
0.0
  0
TEXT
  8
0
  6
CONTINUOUS
 62
     5
 10
116.3
 20
37.9
 30
0.3
 40
3.0
  1
（接触子構成）
 50
0.0
 41
0.9
 51
0.0
  7
KANJI0
  0
TEXT
  8
0
  6
CONTINUOUS
 62
     5
 10
116.5
 20
34.1
 30
0.25
 40
2.5
  1
ＯＦＦ
 50
0.0
 41
0.72
 51
0.0
  7
KANJI1
  0
TEXT
  8
0
  6
CONTINUOUS
 62
     5
 10
116.5
 20
31.1
 30
0.25
 40
2.5
  1
Ｒ－Ｓ
 50
0.0
 41
0.72
 51
0.0
  7
KANJI1
  0
TEXT
  8
0
  6
CONTINUOUS
 62
     5
 10
116.5
 20
28.1
 30
0.25
 40
2.5
  1
Ｓ－Ｔ
 50
0.0
 41
0.72
 51
0.0
  7
KANJI1
  0
TEXT
  8
0
  6
CONTINUOUS
 62
     5
 10
116.5
 20
25.1
 30
0.25
 40
2.5
  1
Ｔ－Ｒ
 50
0.0
 41
0.72
 51
0.0
  7
KANJI1
  0
LINE
  8
0
  6
CONTINUOUS
 62
     5
 10
116.3
 20
36.9
 30
0.0
 11
135.3
 21
36.9
 31
0.0
  0
LINE
  8
0
  6
CONTINUOUS
 62
     5
 10
135.3
 20
36.9
 30
0.0
 11
135.3
 21
24.9
 31
0.0
  0
LINE
  8
0
  6
CONTINUOUS
 62
     5
 10
122.3
 20
24.9
 30
0.0
 11
122.3
 21
36.9
 31
0.0
  0
CIRCLE
  8
0
  6
CONTINUOUS
 62
     5
 10
123.8
 20
32.4
 30
0.0
 40
1.2
  0
LINE
  8
0
  6
CONTINUOUS
 62
     5
 10
125.0
 20
32.4
 30
0.0
 11
126.2
 21
32.4
 31
0.0
  0
CIRCLE
  8
0
  6
CONTINUOUS
 62
     5
 10
127.4
 20
32.4
 30
0.0
 40
1.2
  0
TEXT
  8
0
  6
CONTINUOUS
 62
     5
 10
126.65
 20
31.5
 30
0.18
 40
1.8
  1
１
 50
0.0
 41
0.833333333
 51
0.0
  7
KANJI2
  0
CIRCLE
  8
0
  6
CONTINUOUS
 62
     5
 10
123.8
 20
29.4
 30
0.0
 40
1.2
  0
LINE
  8
0
  6
CONTINUOUS
 62
     5
 10
125.0
 20
29.4
 30
0.0
 11
126.2
 21
29.4
 31
0.0
  0
CIRCLE
  8
0
  6
CONTINUOUS
 62
     5
 10
127.4
 20
29.4
 30
0.0
 40
1.2
  0
CIRCLE
  8
0
  6
CONTINUOUS
 62
     5
 10
123.8
 20
26.4
 30
0.0
 40
1.2
  0
LINE
  8
0
  6
CONTINUOUS
 62
     5
 10
125.0
 20
26.4
 30
0.0
 11
126.2
 21
26.4
 31
0.0
  0
CIRCLE
  8
0
  6
CONTINUOUS
 62
     5
 10
127.4
 20
26.4
 30
0.0
 40
1.2
  0
TEXT
  8
0
  6
CONTINUOUS
 62
     5
 10
126.65
 20
25.5
 30
0.18
 40
1.8
  1
１
 50
0.0
 41
0.833333333
 51
0.0
  7
KANJI2
  0
TEXT
  8
0
  6
CONTINUOUS
 62
     5
 10
126.65
 20
28.5
 30
0.18
 40
1.8
  1
３
 50
0.0
 41
0.833333333
 51
0.0
  7
KANJI2
  0
CIRCLE
  8
0
  6
CONTINUOUS
 62
     5
 10
133.8
 20
32.4
 30
0.0
 40
1.2
  0
LINE
  8
0
  6
CONTINUOUS
 62
     5
 10
132.6
 20
32.4
 30
0.0
 11
131.4
 21
32.4
 31
0.0
  0
CIRCLE
  8
0
  6
CONTINUOUS
 62
     5
 10
130.2
 20
32.4
 30
0.0
 40
1.2
  0
LINE
  8
0
  6
CONTINUOUS
 62
     5
 10
132.6
 20
29.4
 30
0.0
 11
131.4
 21
29.4
 31
0.0
  0
CIRCLE
  8
0
  6
CONTINUOUS
 62
     5
 10
130.2
 20
29.4
 30
0.0
 40
1.2
  0
LINE
  8
0
  6
CONTINUOUS
 62
     5
 10
132.6
 20
26.4
 30
0.0
 11
131.4
 21
26.4
 31
0.0
  0
CIRCLE
  8
0
  6
CONTINUOUS
 62
     5
 10
130.2
 20
26.4
 30
0.0
 40
1.2
  0
CIRCLE
  8
0
  6
CONTINUOUS
 62
     5
 10
133.8
 20
29.4
 30
0.0
 40
1.2
  0
CIRCLE
  8
0
  6
CONTINUOUS
 62
     5
 10
133.8
 20
26.4
 30
0.0
 40
1.2
  0
TEXT
  8
0
  6
CONTINUOUS
 62
     5
 10
133.95
 20
31.7
 30
0.18
 40
1.0
  1
２
 50
0.0
 41
1.0
 51
0.0
  7
KANJI3
  0
TEXT
  8
0
  6
CONTINUOUS
 62
     5
 10
132.75
 20
31.6
 30
0.18
 40
1.5
  1
Ｍ
 50
0.0
 41
1.0
 51
0.0
  7
KANJI4
  0
TEXT
  8
0
  6
CONTINUOUS
 62
     5
 10
133.95
 20
28.7
 30
0.18
 40
1.0
  1
２
 50
0.0
 41
1.0
 51
0.0
  7
KANJI3
  0
TEXT
  8
0
  6
CONTINUOUS
 62
     5
 10
132.75
 20
28.6
 30
0.18
 40
1.5
  1
Ｍ
 50
0.0
 41
1.0
 51
0.0
  7
KANJI4
  0
TEXT
  8
0
  6
CONTINUOUS
 62
     5
 10
133.95
 20
25.7
 30
0.18
 40
1.0
  1
２
 50
0.0
 41
1.0
 51
0.0
  7
KANJI3
  0
TEXT
  8
0
  6
CONTINUOUS
 62
     5
 10
132.75
 20
25.6
 30
0.18
 40
1.5
  1
Ｍ
 50
0.0
 41
1.0
 51
0.0
  7
KANJI4
  0
TEXT
  8
0
  6
CONTINUOUS
 62
     5
 10
129.45
 20
31.5
 30
0.18
 40
1.8
  1
２
 50
0.0
 41
0.833333333
 51
0.0
  7
KANJI2
  0
TEXT
  8
0
  6
CONTINUOUS
 62
     5
 10
129.45
 20
28.5
 30
0.18
 40
1.8
  1
２
 50
0.0
 41
0.833333333
 51
0.0
  7
KANJI2
  0
TEXT
  8
0
  6
CONTINUOUS
 62
     5
 10
129.45
 20
25.5
 30
0.18
 40
1.8
  1
３
 50
0.0
 41
0.833333333
 51
0.0
  7
KANJI2
  0
CIRCLE
  8
0
  6
CONTINUOUS
 62
     5
 10
128.8
 20
31.3
 30
0.0
 40
0.1
  0
CIRCLE
  8
0
  6
CONTINUOUS
 62
     5
 10
128.8
 20
28.3
 30
0.0
 40
0.1
  0
CIRCLE
  8
0
  6
CONTINUOUS
 62
     5
 10
128.8
 20
25.3
 30
0.0
 40
0.1
  0
LINE
  8
0
  6
CONTINUOUS
 62
     5
 10
123.3
 20
35.4
 30
0.0
 11
134.3
 21
35.4
 31
0.0
  0
TEXT
  8
0
  6
CONTINUOUS
 62
     2
 10
80.3
 20
50.7
 30
0.4
 40
4.0
  1
電圧計結線図
 50
0.0
 41
0.9
 51
0.0
  7
KANJI5
  0
CIRCLE
  8
0
  6
CONTINUOUS
 62
     5
 10
107.0
 20
34.8
 30
0.0
 40
7.0
  0
CIRCLE
  8
0
  6
CONTINUOUS
 62
     5
 10
111.0
 20
34.8
 30
0.0
 40
2.0
  0
CIRCLE
  8
0
  6
CONTINUOUS
 62
     5
 10
102.0
 20
34.8
 30
0.0
 40
1.2
  0
CIRCLE
  8
0
  6
CONTINUOUS
 62
     5
 10
103.0
 20
31.8
 30
0.0
 40
1.2
  0
TEXT
  8
0
  6
CONTINUOUS
 62
     5
 10
102.25
 20
30.9
 30
0.18
 40
1.8
  1
２
 50
0.0
 41
0.833333333
 51
0.0
  7
KANJI2
  0
CIRCLE
  8
0
  6
CONTINUOUS
 62
     5
 10
103.0
 20
37.8
 30
0.0
 40
1.2
  0
TEXT
  8
0
  6
CONTINUOUS
 62
     5
 10
102.25
 20
36.9
 30
0.18
 40
1.8
  1
３
 50
0.0
 41
0.833333333
 51
0.0
  7
KANJI2
  0
CIRCLE
  8
0
  6
CONTINUOUS
 62
     5
 10
105.5
 20
29.8
 30
0.0
 40
1.2
  0
CIRCLE
  8
0
  6
CONTINUOUS
 62
     5
 10
105.5
 20
39.8
 30
0.0
 40
1.2
  0
TEXT
  8
0
  6
CONTINUOUS
 62
     5
 10
105.65
 20
29.1
 30
0.18
 40
1.0
  1
２
 50
0.0
 41
1.0
 51
0.0
  7
KANJI3
  0
TEXT
  8
0
  6
CONTINUOUS
 62
     5
 10
104.45
 20
29.0
 30
0.18
 40
1.5
  1
Ｍ
 50
0.0
 41
1.0
 51
0.0
  7
KANJI4
  0
TEXT
  8
0
  6
CONTINUOUS
 62
     5
 10
109.65
 20
33.3
 30
0.3
 40
3.0
  1
Ｖ
 50
0.0
 41
0.9
 51
0.0
  7
KANJI0
  0
TEXT
  8
0
  6
CONTINUOUS
 62
     5
 10
81.1
 20
43.3
 30
0.2
 40
2.0
  1
Ｒ
 50
0.0
 41
0.9
 51
0.0
  7
KANJI6
  0
TEXT
  8
0
  6
CONTINUOUS
 62
     5
 10
83.6
 20
43.3
 30
0.2
 40
2.0
  1
Ｓ
 50
0.0
 41
0.9
 51
0.0
  7
KANJI6
  0
TEXT
  8
0
  6
CONTINUOUS
 62
     5
 10
86.1
 20
43.3
 30
0.2
 40
2.0
  1
Ｔ
 50
0.0
 41
0.9
 51
0.0
  7
KANJI6
  0
TEXT
  8
0
  6
CONTINUOUS
 62
     5
 10
101.25
 20
33.9
 30
0.18
 40
1.8
  1
１
 50
0.0
 41
0.833333333
 51
0.0
  7
KANJI2
  0
LINE
  8
0
  6
CONTINUOUS
 62
     5
 10
101.8
 20
37.8
 30
0.0
 11
98.4
 21
37.8
 31
0.0
  0
LINE
  8
0
  6
CONTINUOUS
 62
     5
 10
98.4
 20
28.8
 30
0.0
 11
98.4
 21
37.8
 31
0.0
  0
LINE
  8
0
  6
CONTINUOUS
 62
     5
 10
100.8
 20
34.8
 30
0.0
 11
94.8
 21
34.8
 31
0.0
  0
LINE
  8
0
  6
CONTINUOUS
 62
     5
 10
94.8
 20
28.8
 30
0.0
 11
98.4
 21
28.8
 31
0.0
  0
LINE
  8
0
  6
CONTINUOUS
 62
     5
 10
94.8
 20
32.1
 30
0.0
 11
95.5
 21
32.1
 31
0.0
  0
LINE
  8
0
  6
CONTINUOUS
 62
     5
 10
95.5
 20
31.5
 30
0.0
 11
95.5
 21
32.1
 31
0.0
  0
LINE
  8
0
  6
CONTINUOUS
 62
     5
 10
94.8
 20
31.5
 30
0.0
 11
95.5
 21
31.5
 31
0.0
  0
LINE
  8
0
  6
CONTINUOUS
 62
     5
 10
101.8
 20
31.8
 30
0.0
 11
95.5
 21
31.8
 31
0.0
  0
CIRCLE
  8
0
  6
CONTINUOUS
 62
     5
 10
95.5
 20
31.8
 30
0.0
 40
0.2
  0
CIRCLE
  8
0
  6
CONTINUOUS
 62
     5
 10
95.5
 20
34.8
 30
0.0
 40
0.2
  0
CIRCLE
  8
0
  6
CONTINUOUS
 62
     5
 10
95.5
 20
28.8
 30
0.0
 40
0.2
  0
LINE
  8
0
  6
CONTINUOUS
 62
     5
 10
91.6
 20
32.1
 30
0.0
 11
90.9
 21
32.1
 31
0.0
  0
LINE
  8
0
  6
CONTINUOUS
 62
     5
 10
90.9
 20
31.5
 30
0.0
 11
90.9
 21
32.1
 31
0.0
  0
LINE
  8
0
  6
CONTINUOUS
 62
     5
 10
91.6
 20
31.5
 30
0.0
 11
90.9
 21
31.5
 31
0.0
  0
CIRCLE
  8
0
  6
CONTINUOUS
 62
     5
 10
90.9
 20
31.8
 30
0.0
 40
0.2
  0
CIRCLE
  8
0
  6
CONTINUOUS
 62
     5
 10
90.9
 20
34.8
 30
0.0
 40
0.2
  0
CIRCLE
  8
0
  6
CONTINUOUS
 62
     5
 10
90.9
 20
28.8
 30
0.0
 40
0.2
  0
LINE
  8
0
  6
CONTINUOUS
 62
     5
 10
91.6
 20
28.8
 30
0.0
 11
87.0
 21
28.8
 31
0.0
  0
LINE
  8
0
  6
CONTINUOUS
 62
     5
 10
84.5
 20
31.8
 30
0.0
 11
90.9
 21
31.8
 31
0.0
  0
LINE
  8
0
  6
CONTINUOUS
 62
     5
 10
82.0
 20
34.8
 30
0.0
 11
91.6
 21
34.8
 31
0.0
  0
ARC
  8
0
  6
CONTINUOUS
 62
     5
 10
94.8
 20
34.4625
 30
0.0
 40
0.3375
 50
90.0
 51
270.0
  0
ARC
  8
0
  6
CONTINUOUS
 62
     5
 10
94.8
 20
33.7875
 30
0.0
 40
0.3375
 50
90.0
 51
270.0
  0
ARC
  8
0
  6
CONTINUOUS
 62
     5
 10
94.8
 20
33.1125
 30
0.0
 40
0.3375
 50
90.0
 51
270.0
  0
ARC
  8
0
  6
CONTINUOUS
 62
     5
 10
94.8
 20
32.4375
 30
0.0
 40
0.3375
 50
90.0
 51
270.0
  0
ARC
  8
0
  6
CONTINUOUS
 62
     5
 10
94.8
 20
31.1625
 30
0.0
 40
0.3375
 50
90.0
 51
270.0
  0
ARC
  8
0
  6
CONTINUOUS
 62
     5
 10
94.8
 20
30.4875
 30
0.0
 40
0.3375
 50
90.0
 51
270.0
  0
ARC
  8
0
  6
CONTINUOUS
 62
     5
 10
94.8
 20
29.8125
 30
0.0
 40
0.3375
 50
90.0
 51
270.0
  0
ARC
  8
0
  6
CONTINUOUS
 62
     5
 10
94.8
 20
29.1375
 30
0.0
 40
0.3375
 50
90.0
 51
270.0
  0
ARC
  8
0
  6
CONTINUOUS
 62
     5
 10
91.6
 20
34.4625
 30
0.0
 40
0.3375
 50
270.0
 51
90.0
  0
ARC
  8
0
  6
CONTINUOUS
 62
     5
 10
91.6
 20
33.7875
 30
0.0
 40
0.3375
 50
270.0
 51
90.0
  0
ARC
  8
0
  6
CONTINUOUS
 62
     5
 10
91.6
 20
33.1125
 30
0.0
 40
0.3375
 50
270.0
 51
90.0
  0
ARC
  8
0
  6
CONTINUOUS
 62
     5
 10
91.6
 20
32.4375
 30
0.0
 40
0.3375
 50
270.0
 51
90.0
  0
ARC
  8
0
  6
CONTINUOUS
 62
     5
 10
91.6
 20
31.1625
 30
0.0
 40
0.3375
 50
270.0
 51
90.0
  0
ARC
  8
0
  6
CONTINUOUS
 62
     5
 10
91.6
 20
30.4875
 30
0.0
 40
0.3375
 50
270.0
 51
90.0
  0
ARC
  8
0
  6
CONTINUOUS
 62
     5
 10
91.6
 20
29.8125
 30
0.0
 40
0.3375
 50
270.0
 51
90.0
  0
ARC
  8
0
  6
CONTINUOUS
 62
     5
 10
91.6
 20
29.1375
 30
0.0
 40
0.3375
 50
270.0
 51
90.0
  0
LINE
  8
0
  6
CONTINUOUS
 62
     5
 10
82.0
 20
42.8
 30
0.0
 11
82.0
 21
24.8
 31
0.0
  0
LINE
  8
0
  6
CONTINUOUS
 62
     5
 10
84.5
 20
42.8
 30
0.0
 11
84.5
 21
24.8
 31
0.0
  0
LINE
  8
0
  6
CONTINUOUS
 62
     5
 10
87.0
 20
42.8
 30
0.0
 11
87.0
 21
24.8
 31
0.0
  0
LINE
  8
0
  6
CONTINUOUS
 62
     5
 10
82.0
 20
24.8
 30
0.0
 11
82.647047613
 21
27.214814566
 31
0.0
  0
LINE
  8
0
  6
CONTINUOUS
 62
     5
 10
82.0
 20
24.8
 30
0.0
 11
81.352952387
 21
27.214814566
 31
0.0
  0
LINE
  8
0
  6
CONTINUOUS
 62
     5
 10
84.5
 20
24.8
 30
0.0
 11
85.147047613
 21
27.214814566
 31
0.0
  0
LINE
  8
0
  6
CONTINUOUS
 62
     5
 10
84.5
 20
24.8
 30
0.0
 11
83.852952387
 21
27.214814566
 31
0.0
  0
LINE
  8
0
  6
CONTINUOUS
 62
     5
 10
87.0
 20
24.8
 30
0.0
 11
87.647047613
 21
27.214814566
 31
0.0
  0
LINE
  8
0
  6
CONTINUOUS
 62
     5
 10
87.0
 20
24.8
 30
0.0
 11
86.352952387
 21
27.214814566
 31
0.0
  0
CIRCLE
  8
0
  6
CONTINUOUS
 62
     5
 10
82.0
 20
34.8
 30
0.0
 40
0.2
  0
CIRCLE
  8
0
  6
CONTINUOUS
 62
     5
 10
84.5
 20
31.8
 30
0.0
 40
0.2
  0
CIRCLE
  8
0
  6
CONTINUOUS
 62
     5
 10
87.0
 20
28.8
 30
0.0
 40
0.2
  0
LINE
  8
0
  6
LTYPE1
 62
     5
 10
106.7
 20
39.8
 30
0.0
 11
111.0
 21
39.8
 31
0.0
  0
LINE
  8
0
  6
LTYPE1
 62
     5
 10
111.0
 20
36.8
 30
0.0
 11
111.0
 21
39.8
 31
0.0
  0
LINE
  8
0
  6
LTYPE1
 62
     5
 10
111.0
 20
32.8
 30
0.0
 11
111.0
 21
29.8
 31
0.0
  0
LINE
  8
0
  6
LTYPE1
 62
     5
 10
106.7
 20
29.8
 30
0.0
 11
111.0
 21
29.8
 31
0.0
  0
LINE
  8
0
  6
CONTINUOUS
 62
     2
 10
161.5
 20
112.025
 30
0.0
 11
159.746298557
 21
111.0125
 31
0.0
  0
LINE
  8
0
  6
CONTINUOUS
 62
     2
 10
159.746298557
 20
111.0125
 30
0.0
 11
159.746298557
 21
108.9875
 31
0.0
  0
LINE
  8
0
  6
CONTINUOUS
 62
     2
 10
159.746298557
 20
108.9875
 30
0.0
 11
161.5
 21
107.975
 31
0.0
  0
LINE
  8
0
  6
CONTINUOUS
 62
     2
 10
161.5
 20
107.975
 30
0.0
 11
163.253701443
 21
108.9875
 31
0.0
  0
LINE
  8
0
  6
CONTINUOUS
 62
     2
 10
163.253701443
 20
108.9875
 30
0.0
 11
163.253701443
 21
111.0125
 31
0.0
  0
LINE
  8
0
  6
CONTINUOUS
 62
     2
 10
163.253701443
 20
111.0125
 30
0.0
 11
161.5
 21
112.025
 31
0.0
  0
CIRCLE
  8
0
  6
CONTINUOUS
 62
     2
 10
161.5
 20
110.0
 30
0.0
 40
0.8
  0
CIRCLE
  8
0
  6
CONTINUOUS
 62
     2
 10
161.5
 20
110.0
 30
0.0
 40
1.0
  0
LINE
  8
0
  6
LTYPE2
 62
     2
 10
158.5
 20
110.0
 30
0.0
 11
164.5
 21
110.0
 31
0.0
  0
LINE
  8
0
  6
LTYPE2
 62
     2
 10
161.5
 20
113.0
 30
0.0
 11
161.5
 21
107.0
 31
0.0
  0
LINE
  8
0
  6
CONTINUOUS
 62
     2
 10
161.5
 20
147.975
 30
0.0
 11
159.746298557
 21
148.9875
 31
0.0
  0
LINE
  8
0
  6
CONTINUOUS
 62
     2
 10
159.746298557
 20
148.9875
 30
0.0
 11
159.746298557
 21
151.0125
 31
0.0
  0
LINE
  8
0
  6
CONTINUOUS
 62
     2
 10
159.746298557
 20
151.0125
 30
0.0
 11
161.5
 21
152.025
 31
0.0
  0
LINE
  8
0
  6
CONTINUOUS
 62
     2
 10
161.5
 20
152.025
 30
0.0
 11
163.253701443
 21
151.0125
 31
0.0
  0
LINE
  8
0
  6
CONTINUOUS
 62
     2
 10
163.253701443
 20
151.0125
 30
0.0
 11
163.253701443
 21
148.9875
 31
0.0
  0
LINE
  8
0
  6
CONTINUOUS
 62
     2
 10
163.253701443
 20
148.9875
 30
0.0
 11
161.5
 21
147.975
 31
0.0
  0
CIRCLE
  8
0
  6
CONTINUOUS
 62
     2
 10
161.5
 20
150.0
 30
0.0
 40
0.8
  0
CIRCLE
  8
0
  6
CONTINUOUS
 62
     2
 10
161.5
 20
150.0
 30
0.0
 40
1.0
  0
LINE
  8
0
  6
LTYPE2
 62
     2
 10
158.5
 20
150.0
 30
0.0
 11
164.5
 21
150.0
 31
0.0
  0
LINE
  8
0
  6
LTYPE2
 62
     2
 10
161.5
 20
147.0
 30
0.0
 11
161.5
 21
153.0
 31
0.0
  0
LINE
  8
0
  6
CONTINUOUS
 62
     2
 10
201.5
 20
112.025
 30
0.0
 11
203.253701443
 21
111.0125
 31
0.0
  0
LINE
  8
0
  6
CONTINUOUS
 62
     2
 10
203.253701443
 20
111.0125
 30
0.0
 11
203.253701443
 21
108.9875
 31
0.0
  0
LINE
  8
0
  6
CONTINUOUS
 62
     2
 10
203.253701443
 20
108.9875
 30
0.0
 11
201.5
 21
107.975
 31
0.0
  0
LINE
  8
0
  6
CONTINUOUS
 62
     2
 10
201.5
 20
107.975
 30
0.0
 11
199.746298557
 21
108.9875
 31
0.0
  0
LINE
  8
0
  6
CONTINUOUS
 62
     2
 10
199.746298557
 20
108.9875
 30
0.0
 11
199.746298557
 21
111.0125
 31
0.0
  0
LINE
  8
0
  6
CONTINUOUS
 62
     2
 10
199.746298557
 20
111.0125
 30
0.0
 11
201.5
 21
112.025
 31
0.0
  0
CIRCLE
  8
0
  6
CONTINUOUS
 62
     2
 10
201.5
 20
110.0
 30
0.0
 40
0.8
  0
CIRCLE
  8
0
  6
CONTINUOUS
 62
     2
 10
201.5
 20
110.0
 30
0.0
 40
1.0
  0
LINE
  8
0
  6
LTYPE2
 62
     2
 10
204.5
 20
110.0
 30
0.0
 11
198.5
 21
110.0
 31
0.0
  0
LINE
  8
0
  6
LTYPE2
 62
     2
 10
201.5
 20
113.0
 30
0.0
 11
201.5
 21
107.0
 31
0.0
  0
LINE
  8
0
  6
CONTINUOUS
 62
     2
 10
201.5
 20
147.975
 30
0.0
 11
203.253701443
 21
148.9875
 31
0.0
  0
LINE
  8
0
  6
CONTINUOUS
 62
     2
 10
203.253701443
 20
148.9875
 30
0.0
 11
203.253701443
 21
151.0125
 31
0.0
  0
LINE
  8
0
  6
CONTINUOUS
 62
     2
 10
203.253701443
 20
151.0125
 30
0.0
 11
201.5
 21
152.025
 31
0.0
  0
LINE
  8
0
  6
CONTINUOUS
 62
     2
 10
201.5
 20
152.025
 30
0.0
 11
199.746298557
 21
151.0125
 31
0.0
  0
LINE
  8
0
  6
CONTINUOUS
 62
     2
 10
199.746298557
 20
151.0125
 30
0.0
 11
199.746298557
 21
148.9875
 31
0.0
  0
LINE
  8
0
  6
CONTINUOUS
 62
     2
 10
199.746298557
 20
148.9875
 30
0.0
 11
201.5
 21
147.975
 31
0.0
  0
CIRCLE
  8
0
  6
CONTINUOUS
 62
     2
 10
201.5
 20
150.0
 30
0.0
 40
0.8
  0
CIRCLE
  8
0
  6
CONTINUOUS
 62
     2
 10
201.5
 20
150.0
 30
0.0
 40
1.0
  0
LINE
  8
0
  6
LTYPE2
 62
     2
 10
204.5
 20
150.0
 30
0.0
 11
198.5
 21
150.0
 31
0.0
  0
LINE
  8
0
  6
LTYPE2
 62
     2
 10
201.5
 20
147.0
 30
0.0
 11
201.5
 21
153.0
 31
0.0
  0
LINE
  8
0
  6
CONTINUOUS
 62
     2
 10
161.5
 20
154.0
 30
0.0
 11
161.5
 21
162.5
 31
0.0
  0
LINE
  8
0
  6
CONTINUOUS
 62
     2
 10
161.5
 20
160.5
 30
0.0
 11
163.914814566
 21
159.852952387
 31
0.0
  0
LINE
  8
0
  6
CONTINUOUS
 62
     2
 10
161.5
 20
160.5
 30
0.0
 11
163.914814566
 21
161.147047613
 31
0.0
  0
LINE
  8
0
  6
CONTINUOUS
 62
     2
 10
161.5
 20
160.5
 30
0.0
 11
181.5
 21
160.5
 31
0.0
  0
LINE
  8
0
  6
CONTINUOUS
 62
     2
 10
181.5
 20
160.5
 30
0.0
 11
179.085185434
 21
161.147047613
 31
0.0
  0
LINE
  8
0
  6
CONTINUOUS
 62
     2
 10
181.5
 20
160.5
 30
0.0
 11
179.085185434
 21
159.852952387
 31
0.0
  0
TEXT
  8
0
  6
CONTINUOUS
 62
     2
 10
167.12
 20
161.5
 30
0.3
 40
3.0
  1
４０
 50
0.0
 41
0.6
 51
0.0
  7
KANJI7
  0
TEXT
  8
0
  6
CONTINUOUS
 62
     2
 10
171.47
 20
161.5
 30
0.18
 40
1.8
  1
±０．５
 50
0.0
 41
0.6
 51
0.0
  7
KANJI8
  0
TEXT
  8
0
  6
CONTINUOUS
 62
     2
 10
187.12
 20
161.5
 30
0.3
 40
3.0
  1
４０
 50
0.0
 41
0.6
 51
0.0
  7
KANJI7
  0
TEXT
  8
0
  6
CONTINUOUS
 62
     2
 10
191.47
 20
161.5
 30
0.18
 40
1.8
  1
±０．５
 50
0.0
 41
0.6
 51
0.0
  7
KANJI8
  0
LINE
  8
0
  6
CONTINUOUS
 62
     2
 10
181.5
 20
160.5
 30
0.0
 11
183.914814566
 21
159.852952387
 31
0.0
  0
LINE
  8
0
  6
CONTINUOUS
 62
     2
 10
181.5
 20
160.5
 30
0.0
 11
183.914814566
 21
161.147047613
 31
0.0
  0
LINE
  8
0
  6
CONTINUOUS
 62
     2
 10
181.5
 20
160.5
 30
0.0
 11
201.5
 21
160.5
 31
0.0
  0
LINE
  8
0
  6
CONTINUOUS
 62
     2
 10
201.5
 20
160.5
 30
0.0
 11
199.085185434
 21
161.147047613
 31
0.0
  0
LINE
  8
0
  6
CONTINUOUS
 62
     2
 10
201.5
 20
160.5
 30
0.0
 11
199.085185434
 21
159.852952387
 31
0.0
  0
LINE
  8
0
  6
CONTINUOUS
 62
     2
 10
201.5
 20
154.0
 30
0.0
 11
201.5
 21
162.5
 31
0.0
  0
LINE
  8
0
  6
CONTINUOUS
 62
     2
 10
205.0
 20
150.0
 30
0.0
 11
216.0
 21
150.0
 31
0.0
  0
LINE
  8
0
  6
CONTINUOUS
 62
     2
 10
214.0
 20
150.0
 30
0.0
 11
213.352952387
 21
147.585185434
 31
0.0
  0
LINE
  8
0
  6
CONTINUOUS
 62
     2
 10
214.0
 20
150.0
 30
0.0
 11
214.647047613
 21
147.585185434
 31
0.0
  0
LINE
  8
0
  6
CONTINUOUS
 62
     2
 10
214.0
 20
150.0
 30
0.0
 11
214.0
 21
130.0
 31
0.0
  0
LINE
  8
0
  6
CONTINUOUS
 62
     2
 10
214.0
 20
130.0
 30
0.0
 11
214.647047613
 21
132.414814566
 31
0.0
  0
LINE
  8
0
  6
CONTINUOUS
 62
     2
 10
214.0
 20
130.0
 30
0.0
 11
213.352952387
 21
132.414814566
 31
0.0
  0
TEXT
  8
0
  6
CONTINUOUS
 62
     2
 10
213.0
 20
135.62
 30
0.3
 40
3.0
  1
４０
 50
90.0
 41
0.6
 51
0.0
  7
KANJI7
  0
TEXT
  8
0
  6
CONTINUOUS
 62
     2
 10
213.0
 20
139.97
 30
0.18
 40
1.8
  1
±０．５
 50
90.0
 41
0.6
 51
0.0
  7
KANJI8
  0
LINE
  8
0
  6
CONTINUOUS
 62
     2
 10
214.0
 20
130.0
 30
0.0
 11
213.352952387
 21
127.585185434
 31
0.0
  0
LINE
  8
0
  6
CONTINUOUS
 62
     2
 10
214.0
 20
130.0
 30
0.0
 11
214.647047613
 21
127.585185434
 31
0.0
  0
LINE
  8
0
  6
CONTINUOUS
 62
     2
 10
214.0
 20
130.0
 30
0.0
 11
214.0
 21
110.0
 31
0.0
  0
LINE
  8
0
  6
CONTINUOUS
 62
     2
 10
214.0
 20
110.0
 30
0.0
 11
214.647047613
 21
112.414814566
 31
0.0
  0
LINE
  8
0
  6
CONTINUOUS
 62
     2
 10
214.0
 20
110.0
 30
0.0
 11
213.352952387
 21
112.414814566
 31
0.0
  0
TEXT
  8
0
  6
CONTINUOUS
 62
     2
 10
213.0
 20
115.62
 30
0.3
 40
3.0
  1
４０
 50
90.0
 41
0.6
 51
0.0
  7
KANJI7
  0
TEXT
  8
0
  6
CONTINUOUS
 62
     2
 10
213.0
 20
119.97
 30
0.18
 40
1.8
  1
±０．５
 50
90.0
 41
0.6
 51
0.0
  7
KANJI8
  0
LINE
  8
0
  6
CONTINUOUS
 62
     2
 10
205.0
 20
110.0
 30
0.0
 11
216.0
 21
110.0
 31
0.0
  0
LINE
  8
0
  6
LTYPE3
 62
     2
 10
216.0
 20
130.0
 30
0.0
 11
151.0
 21
130.0
 31
0.0
  0
LINE
  8
0
  6
LTYPE3
 62
     2
 10
181.5
 20
162.5
 30
0.0
 11
181.5
 21
104.5
 31
0.0
  0
LINE
  8
0
  6
LTYPE3
 62
     2
 10
152.0
 20
131.5
 30
0.0
 11
211.0
 21
131.5
 31
0.0
  0
LINE
  8
0
  6
CONTINUOUS
 62
     2
 10
206.5
 20
131.5
 30
0.0
 11
207.147047613
 21
133.914814566
 31
0.0
  0
LINE
  8
0
  6
CONTINUOUS
 62
     2
 10
206.5
 20
131.5
 30
0.0
 11
205.852952387
 21
133.914814566
 31
0.0
  0
LINE
  8
0
  6
CONTINUOUS
 62
     2
 10
206.5
 20
137.05
 30
0.0
 11
206.5
 21
131.5
 31
0.0
  0
LINE
  8
0
  6
CONTINUOUS
 62
     2
 10
206.5
 20
131.5
 30
0.0
 11
206.5
 21
130.0
 31
0.0
  0
LINE
  8
0
  6
CONTINUOUS
 62
     2
 10
206.5
 20
130.0
 30
0.0
 11
206.5
 21
126.25
 31
0.0
  0
LINE
  8
0
  6
CONTINUOUS
 62
     2
 10
206.5
 20
130.0
 30
0.0
 11
205.852952387
 21
127.585185434
 31
0.0
  0
LINE
  8
0
  6
CONTINUOUS
 62
     2
 10
206.5
 20
130.0
 30
0.0
 11
207.147047613
 21
127.585185434
 31
0.0
  0
TEXT
  8
0
  6
CONTINUOUS
 62
     2
 10
205.5
 20
135.25
 30
0.3
 40
3.0
  1
３
 50
90.0
 41
0.6
 51
0.0
  7
KANJI7
  0
LINE
  8
0
  6
CONTINUOUS
 62
     2
 10
199.90303983
 20
140.625
 30
0.0
 11
197.488225265
 21
139.977952387
 31
0.0
  0
LINE
  8
0
  6
CONTINUOUS
 62
     2
 10
199.90303983
 20
140.625
 30
0.0
 11
198.135272877
 21
138.857233047
 31
0.0
  0
LINE
  8
0
  6
CONTINUOUS
 62
     2
 10
199.90303983
 20
140.625
 30
0.0
 11
163.09696017
 21
119.375
 31
0.0
  0
LINE
  8
0
  6
CONTINUOUS
 62
     2
 10
163.09696017
 20
119.375
 30
0.0
 11
165.511774735
 21
120.022047613
 31
0.0
  0
LINE
  8
0
  6
CONTINUOUS
 62
     2
 10
163.09696017
 20
119.375
 30
0.0
 11
164.864727123
 21
121.142766953
 31
0.0
  0
ARC
  8
0
  6
CONTINUOUS
 62
     1
 10
181.5
 20
149.0
 30
0.0
 40
0.5
 50
0.0
 51
180.0
  0
ARC
  8
0
  6
CONTINUOUS
 62
     1
 10
181.5
 20
142.35
 30
0.0
 40
0.5
 50
180.0
 51
0.0
  0
LINE
  8
0
  6
CONTINUOUS
 62
     1
 10
181.0
 20
142.35
 30
0.0
 11
181.0
 21
149.0
 31
0.0
  0
LINE
  8
0
  6
CONTINUOUS
 62
     1
 10
182.0
 20
142.35
 30
0.0
 11
182.0
 21
149.0
 31
0.0
  0
ARC
  8
0
  6
CONTINUOUS
 62
     1
 10
175.001617277
 20
147.854159795
 30
0.0
 40
0.5
 50
20.0
 51
200.0
  0
ARC
  8
0
  6
CONTINUOUS
 62
     1
 10
177.27605123
 20
141.605203867
 30
0.0
 40
0.5
 50
200.0
 51
20.0
  0
LINE
  8
0
  6
CONTINUOUS
 62
     1
 10
176.80620492
 20
141.434193795
 30
0.0
 11
174.531770966
 21
147.683149723
 31
0.0
  0
ARC
  8
0
  6
CONTINUOUS
 62
     1
 10
187.998382723
 20
147.854159795
 30
0.0
 40
0.5
 50
340.0
 51
160.0
  0
ARC
  8
0
  6
CONTINUOUS
 62
     1
 10
185.72394877
 20
141.605203867
 30
0.0
 40
0.5
 50
160.0
 51
340.0
  0
LINE
  8
0
  6
CONTINUOUS
 62
     1
 10
185.25410246
 20
141.776213938
 30
0.0
 11
187.528536413
 21
148.025169867
 31
0.0
  0
LINE
  8
0
  6
CONTINUOUS
 62
     1
 10
186.19379508
 20
141.434193795
 30
0.0
 11
188.468229034
 21
147.683149723
 31
0.0
  0
ARC
  8
0
  6
CONTINUOUS
 62
     1
 10
174.324430176
 20
147.245420572
 30
0.0
 40
0.5
 50
257.318855388
 51
333.558718207
  0
LINE
  8
0
  6
CONTINUOUS
 62
     1
 10
177.742066306
 20
141.736213938
 30
0.0
 11
175.467632352
 21
147.985169867
 31
0.0
  0
ARC
  8
0
  6
CONTINUOUS
 62
     1
 10
175.90966798
 20
147.803955822
 30
0.0
 40
0.375
 50
219.541972704
 51
307.298356589
  0
ARC
  8
0
  6
CONTINUOUS
 62
     1
 10
175.90966798
 20
147.803955822
 30
0.0
 40
0.5
 50
245.025052835
 51
321.663989012
  0
ARC
  8
0
  6
CONTINUOUS
 62
     1
 10
174.324430176
 20
147.245420572
 30
0.0
 40
0.375
 50
271.559159341
 51
7.307337855
  0
ARC
  8
0
  6
CONTINUOUS
 62
     1
 10
173.5
 20
143.856406461
 30
0.0
 40
3.0
 50
76.161602861
 51
326.971594487
  0
ARC
  8
0
  6
CONTINUOUS
 62
     1
 10
176.312695056
 20
141.819374686
 30
0.0
 40
0.5
 50
66.975211086
 51
126.511735038
  0
ARC
  8
0
  6
CONTINUOUS
 62
     1
 10
173.5
 20
143.856406461
 30
0.0
 40
3.15
 50
74.522331433
 51
326.129706622
  0
ARC
  8
0
  6
CONTINUOUS
 62
     1
 10
176.312695056
 20
141.819374686
 30
0.0
 40
0.375
 50
36.944483472
 51
125.019666561
  0
ARC
  8
0
  6
CONTINUOUS
 62
     1
 10
177.897198982
 20
142.367909937
 30
0.0
 40
0.5
 50
77.318855388
 51
156.357454138
  0
ARC
  8
0
  6
CONTINUOUS
 62
     1
 10
177.897198982
 20
142.367909937
 30
0.0
 40
0.375
 50
100.675458803
 51
200.0
  0
ARC
  8
0
  6
CONTINUOUS
 62
     1
 10
178.721629157
 20
145.756924048
 30
0.0
 40
3.15
 50
253.514246482
 51
303.542726589
  0
ARC
  8
0
  6
CONTINUOUS
 62
     1
 10
178.721629157
 20
145.756924048
 30
0.0
 40
3.0
 50
256.161602861
 51
303.57867157
  0
ARC
  8
0
  6
CONTINUOUS
 62
     1
 10
180.648681872
 20
142.839972004
 30
0.0
 40
0.5
 50
45.361104202
 51
122.681144612
  0
ARC
  8
0
  6
CONTINUOUS
 62
     1
 10
180.648681872
 20
142.839972004
 30
0.0
 40
0.375
 50
20.471160955
 51
122.681144612
  0
ARC
  8
0
  6
CONTINUOUS
 62
     1
 10
180.672363743
 20
148.623876093
 30
0.0
 40
0.5
 50
242.786728815
 51
310.94031664
  0
ARC
  8
0
  6
CONTINUOUS
 62
     1
 10
178.721629157
 20
145.756924048
 30
0.0
 40
3.0
 50
54.589850467
 51
144.329428248
  0
ARC
  8
0
  6
CONTINUOUS
 62
     1
 10
180.672363743
 20
148.623876093
 30
0.0
 40
0.375
 50
257.144965862
 51
330.891102052
  0
ARC
  8
0
  6
CONTINUOUS
 62
     1
 10
178.721629157
 20
145.756924048
 30
0.0
 40
3.15
 50
53.258011048
 51
145.91926328
  0
LINE
  8
0
  6
CONTINUOUS
 62
     1
 10
182.0
 20
142.35
 30
0.0
 11
182.0
 21
149.0
 31
0.0
  0
ARC
  8
0
  6
CONTINUOUS
 62
     1
 10
187.09033202
 20
147.803955822
 30
0.0
 40
0.375
 50
232.701643411
 51
320.458027296
  0
ARC
  8
0
  6
CONTINUOUS
 62
     1
 10
187.09033202
 20
147.803955822
 30
0.0
 40
0.5
 50
218.336010988
 51
294.974947165
  0
ARC
  8
0
  6
CONTINUOUS
 62
     1
 10
185.102801018
 20
142.367909937
 30
0.0
 40
0.5
 50
23.642545862
 51
102.681144612
  0
ARC
  8
0
  6
CONTINUOUS
 62
     1
 10
185.102801018
 20
142.367909937
 30
0.0
 40
0.375
 50
340.0
 51
79.324541197
  0
ARC
  8
0
  6
CONTINUOUS
 62
     1
 10
184.278370843
 20
145.756924048
 30
0.0
 40
3.15
 50
236.457273411
 51
286.485753518
  0
ARC
  8
0
  6
CONTINUOUS
 62
     1
 10
184.278370843
 20
145.756924048
 30
0.0
 40
3.0
 50
236.42132843
 51
283.838397139
  0
ARC
  8
0
  6
CONTINUOUS
 62
     1
 10
182.351318128
 20
142.839972004
 30
0.0
 40
0.5
 50
57.318855388
 51
134.638895798
  0
ARC
  8
0
  6
CONTINUOUS
 62
     1
 10
182.351318128
 20
142.839972004
 30
0.0
 40
0.375
 50
57.318855388
 51
159.528839045
  0
ARC
  8
0
  6
CONTINUOUS
 62
     1
 10
182.327636257
 20
148.623876093
 30
0.0
 40
0.5
 50
229.05968336
 51
297.213271185
  0
ARC
  8
0
  6
CONTINUOUS
 62
     1
 10
184.278370843
 20
145.756924048
 30
0.0
 40
3.0
 50
35.670571752
 51
125.410149533
  0
ARC
  8
0
  6
CONTINUOUS
 62
     1
 10
182.327636257
 20
148.623876093
 30
0.0
 40
0.375
 50
209.108897948
 51
282.855034138
  0
ARC
  8
0
  6
CONTINUOUS
 62
     1
 10
184.278370843
 20
145.756924048
 30
0.0
 40
3.15
 50
34.08073672
 51
126.741988952
  0
ARC
  8
0
  6
CONTINUOUS
 62
     1
 10
188.675569824
 20
147.245420572
 30
0.0
 40
0.5
 50
206.441281793
 51
282.681144612
  0
ARC
  8
0
  6
CONTINUOUS
 62
     1
 10
188.675569824
 20
147.245420572
 30
0.0
 40
0.375
 50
172.692662145
 51
268.440840659
  0
ARC
  8
0
  6
CONTINUOUS
 62
     1
 10
189.5
 20
143.856406461
 30
0.0
 40
3.0
 50
213.028405513
 51
103.838397139
  0
ARC
  8
0
  6
CONTINUOUS
 62
     1
 10
186.687304944
 20
141.819374686
 30
0.0
 40
0.5
 50
53.488264962
 51
113.024788914
  0
ARC
  8
0
  6
CONTINUOUS
 62
     1
 10
189.5
 20
143.856406461
 30
0.0
 40
3.15
 50
213.870293378
 51
105.477668567
  0
ARC
  8
0
  6
CONTINUOUS
 62
     1
 10
186.687304944
 20
141.819374686
 30
0.0
 40
0.375
 50
54.980333439
 51
143.055516528
  0
CIRCLE
  8
0
  6
CONTINUOUS
 62
     2
 10
161.5
 20
110.0
 30
0.0
 40
2.5
  0
CIRCLE
  8
0
  6
CONTINUOUS
 62
     2
 10
201.5
 20
110.0
 30
0.0
 40
2.5
  0
CIRCLE
  8
0
  6
CONTINUOUS
 62
     2
 10
201.5
 20
150.0
 30
0.0
 40
2.5
  0
CIRCLE
  8
0
  6
CONTINUOUS
 62
     2
 10
161.5
 20
150.0
 30
0.0
 40
2.5
  0
CIRCLE
  8
0
  6
CONTINUOUS
 62
     2
 10
173.5
 20
143.856406461
 30
0.0
 40
1.75
  0
LINE
  8
0
  6
CONTINUOUS
 62
     2
 10
173.795993649
 20
142.843730422
 30
0.0
 11
174.229006351
 21
143.093730422
 31
0.0
  0
LINE
  8
0
  6
CONTINUOUS
 62
     2
 10
173.204006351
 20
144.869082499
 30
0.0
 11
172.770993649
 21
144.619082499
 31
0.0
  0
LINE
  8
0
  6
CONTINUOUS
 62
     2
 10
174.512676039
 20
144.15240011
 30
0.0
 11
174.262676039
 21
144.585412811
 31
0.0
  0
LINE
  8
0
  6
CONTINUOUS
 62
     2
 10
172.487323961
 20
143.560412811
 30
0.0
 11
172.737323961
 21
143.12740011
 31
0.0
  0
LINE
  8
0
  6
LTYPE4
 62
     2
 10
171.767949192
 20
142.856406461
 30
0.0
 11
173.283493649
 21
143.731406461
 31
0.0
  0
LINE
  8
0
  6
LTYPE4
 62
     2
 10
174.5
 20
142.124355653
 30
0.0
 11
173.625
 21
143.63990011
 31
0.0
  0
LINE
  8
0
  6
LTYPE4
 62
     2
 10
173.625
 20
143.63990011
 30
0.0
 11
173.375
 21
144.072912811
 31
0.0
  0
LINE
  8
0
  6
LTYPE4
 62
     2
 10
173.375
 20
144.072912811
 30
0.0
 11
172.5
 21
145.588457268
 31
0.0
  0
LINE
  8
0
  6
LTYPE4
 62
     2
 10
173.283493649
 20
143.731406461
 30
0.0
 11
173.716506351
 21
143.981406461
 31
0.0
  0
LINE
  8
0
  6
LTYPE4
 62
     2
 10
173.716506351
 20
143.981406461
 30
0.0
 11
175.232050808
 21
144.856406461
 31
0.0
  0
LINE
  8
0
  6
CONTINUOUS
 62
     2
 10
172.770993649
 20
144.619082499
 30
0.0
 11
173.033493649
 21
144.164419162
 31
0.0
  0
LINE
  8
0
  6
CONTINUOUS
 62
     2
 10
172.941987298
 20
143.822912811
 30
0.0
 11
172.487323961
 21
143.560412811
 31
0.0
  0
ARC
  8
0
  6
CONTINUOUS
 62
     2
 10
172.816987298
 20
144.039419162
 30
0.0
 40
0.25
 50
300.0
 51
30.0
  0
LINE
  8
0
  6
CONTINUOUS
 62
     2
 10
172.737323961
 20
143.12740011
 30
0.0
 11
173.191987298
 21
143.38990011
 31
0.0
  0
LINE
  8
0
  6
CONTINUOUS
 62
     2
 10
173.533493649
 20
143.298393759
 30
0.0
 11
173.795993649
 21
142.843730422
 31
0.0
  0
ARC
  8
0
  6
CONTINUOUS
 62
     2
 10
173.316987298
 20
143.173393759
 30
0.0
 40
0.25
 50
30.0
 51
120.0
  0
LINE
  8
0
  6
CONTINUOUS
 62
     2
 10
174.229006351
 20
143.093730422
 30
0.0
 11
173.966506351
 21
143.548393759
 31
0.0
  0
LINE
  8
0
  6
CONTINUOUS
 62
     2
 10
174.058012702
 20
143.88990011
 30
0.0
 11
174.512676039
 21
144.15240011
 31
0.0
  0
ARC
  8
0
  6
CONTINUOUS
 62
     2
 10
174.183012702
 20
143.673393759
 30
0.0
 40
0.25
 50
120.0
 51
210.0
  0
LINE
  8
0
  6
CONTINUOUS
 62
     2
 10
174.262676039
 20
144.585412811
 30
0.0
 11
173.808012702
 21
144.322912811
 31
0.0
  0
LINE
  8
0
  6
CONTINUOUS
 62
     2
 10
173.466506351
 20
144.414419162
 30
0.0
 11
173.204006351
 21
144.869082499
 31
0.0
  0
ARC
  8
0
  6
CONTINUOUS
 62
     2
 10
173.683012702
 20
144.539419162
 30
0.0
 40
0.25
 50
210.0
 51
300.0
  0
CIRCLE
  8
0
  6
CONTINUOUS
 62
     2
 10
178.721629157
 20
145.756924048
 30
0.0
 40
1.75
  0
LINE
  8
0
  6
CONTINUOUS
 62
     2
 10
178.653416601
 20
144.704084057
 30
0.0
 11
179.145820478
 21
144.790908146
 31
0.0
  0
LINE
  8
0
  6
CONTINUOUS
 62
     2
 10
178.789841713
 20
146.809764039
 30
0.0
 11
178.297437837
 21
146.722939951
 31
0.0
  0
LINE
  8
0
  6
CONTINUOUS
 62
     2
 10
179.774469149
 20
145.688711492
 30
0.0
 11
179.68764506
 21
146.181115369
 31
0.0
  0
LINE
  8
0
  6
CONTINUOUS
 62
     2
 10
177.668789166
 20
145.825136604
 30
0.0
 11
177.755613255
 21
145.332732728
 31
0.0
  0
LINE
  8
0
  6
LTYPE4
 62
     2
 10
176.752013651
 20
145.409627693
 30
0.0
 11
178.475427219
 21
145.713512004
 31
0.0
  0
LINE
  8
0
  6
LTYPE4
 62
     2
 10
179.068925513
 20
143.787308542
 30
0.0
 11
178.765041202
 21
145.51072211
 31
0.0
  0
LINE
  8
0
  6
LTYPE4
 62
     2
 10
178.765041202
 20
145.51072211
 30
0.0
 11
178.678217113
 21
146.003125986
 31
0.0
  0
LINE
  8
0
  6
LTYPE4
 62
     2
 10
178.678217113
 20
146.003125986
 30
0.0
 11
178.374332802
 21
147.726539554
 31
0.0
  0
LINE
  8
0
  6
LTYPE4
 62
     2
 10
178.475427219
 20
145.713512004
 30
0.0
 11
178.967831096
 21
145.800336093
 31
0.0
  0
LINE
  8
0
  6
LTYPE4
 62
     2
 10
178.967831096
 20
145.800336093
 30
0.0
 11
180.691244663
 21
146.104220404
 31
0.0
  0
LINE
  8
0
  6
CONTINUOUS
 62
     2
 10
178.297437837
 20
146.722939951
 30
0.0
 11
178.38860313
 21
146.20591588
 31
0.0
  0
LINE
  8
0
  6
CONTINUOUS
 62
     2
 10
178.185813236
 20
145.916301898
 30
0.0
 11
177.668789166
 21
145.825136604
 31
0.0
  0
ARC
  8
0
  6
CONTINUOUS
 62
     2
 10
178.142401192
 20
146.162503836
 30
0.0
 40
0.25
 50
280.0
 51
10.0
  0
LINE
  8
0
  6
CONTINUOUS
 62
     2
 10
177.755613255
 20
145.332732728
 30
0.0
 11
178.272637325
 21
145.423898021
 31
0.0
  0
LINE
  8
0
  6
CONTINUOUS
 62
     2
 10
178.562251308
 20
145.221108127
 30
0.0
 11
178.653416601
 21
144.704084057
 31
0.0
  0
ARC
  8
0
  6
CONTINUOUS
 62
     2
 10
178.31604937
 20
145.177696083
 30
0.0
 40
0.25
 50
10.0
 51
100.0
  0
LINE
  8
0
  6
CONTINUOUS
 62
     2
 10
179.145820478
 20
144.790908146
 30
0.0
 11
179.054655184
 21
145.307932216
 31
0.0
  0
LINE
  8
0
  6
CONTINUOUS
 62
     2
 10
179.257445078
 20
145.597546199
 30
0.0
 11
179.774469149
 21
145.688711492
 31
0.0
  0
ARC
  8
0
  6
CONTINUOUS
 62
     2
 10
179.300857123
 20
145.351344261
 30
0.0
 40
0.25
 50
100.0
 51
190.0
  0
LINE
  8
0
  6
CONTINUOUS
 62
     2
 10
179.68764506
 20
146.181115369
 30
0.0
 11
179.170620989
 21
146.089950075
 31
0.0
  0
LINE
  8
0
  6
CONTINUOUS
 62
     2
 10
178.881007007
 20
146.292739969
 30
0.0
 11
178.789841713
 21
146.809764039
 31
0.0
  0
ARC
  8
0
  6
CONTINUOUS
 62
     2
 10
179.127208945
 20
146.336152014
 30
0.0
 40
0.25
 50
190.0
 51
280.0
  0
CIRCLE
  8
0
  6
CONTINUOUS
 62
     2
 10
184.278370843
 20
145.756924048
 30
0.0
 40
1.75
  0
LINE
  8
0
  6
CONTINUOUS
 62
     2
 10
183.854179522
 20
144.790908146
 30
0.0
 11
184.346583399
 21
144.704084057
 31
0.0
  0
LINE
  8
0
  6
CONTINUOUS
 62
     2
 10
184.702562163
 20
146.722939951
 30
0.0
 11
184.210158287
 21
146.809764039
 31
0.0
  0
LINE
  8
0
  6
CONTINUOUS
 62
     2
 10
185.244386745
 20
145.332732728
 30
0.0
 11
185.331210834
 21
145.825136604
 31
0.0
  0
LINE
  8
0
  6
CONTINUOUS
 62
     2
 10
183.31235494
 20
146.181115369
 30
0.0
 11
183.225530851
 21
145.688711492
 31
0.0
  0
LINE
  8
0
  6
LTYPE4
 62
     2
 10
182.308755337
 20
146.104220404
 30
0.0
 11
184.032168904
 21
145.800336093
 31
0.0
  0
LINE
  8
0
  6
LTYPE4
 62
     2
 10
183.931074487
 20
143.787308542
 30
0.0
 11
184.234958798
 21
145.51072211
 31
0.0
  0
LINE
  8
0
  6
LTYPE4
 62
     2
 10
184.234958798
 20
145.51072211
 30
0.0
 11
184.321782887
 21
146.003125986
 31
0.0
  0
LINE
  8
0
  6
LTYPE4
 62
     2
 10
184.321782887
 20
146.003125986
 30
0.0
 11
184.625667198
 21
147.726539554
 31
0.0
  0
LINE
  8
0
  6
LTYPE4
 62
     2
 10
184.032168904
 20
145.800336093
 30
0.0
 11
184.524572781
 21
145.713512004
 31
0.0
  0
LINE
  8
0
  6
LTYPE4
 62
     2
 10
184.524572781
 20
145.713512004
 30
0.0
 11
186.247986349
 21
145.409627693
 31
0.0
  0
LINE
  8
0
  6
CONTINUOUS
 62
     2
 10
184.210158287
 20
146.809764039
 30
0.0
 11
184.118992993
 21
146.292739969
 31
0.0
  0
LINE
  8
0
  6
CONTINUOUS
 62
     2
 10
183.829379011
 20
146.089950075
 30
0.0
 11
183.31235494
 21
146.181115369
 31
0.0
  0
ARC
  8
0
  6
CONTINUOUS
 62
     2
 10
183.872791055
 20
146.336152014
 30
0.0
 40
0.25
 50
260.0
 51
350.0
  0
LINE
  8
0
  6
CONTINUOUS
 62
     2
 10
183.225530851
 20
145.688711492
 30
0.0
 11
183.742554922
 21
145.597546199
 31
0.0
  0
LINE
  8
0
  6
CONTINUOUS
 62
     2
 10
183.945344816
 20
145.307932216
 30
0.0
 11
183.854179522
 21
144.790908146
 31
0.0
  0
ARC
  8
0
  6
CONTINUOUS
 62
     2
 10
183.699142877
 20
145.351344261
 30
0.0
 40
0.25
 50
350.0
 51
80.0
  0
LINE
  8
0
  6
CONTINUOUS
 62
     2
 10
184.346583399
 20
144.704084057
 30
0.0
 11
184.437748692
 21
145.221108127
 31
0.0
  0
LINE
  8
0
  6
CONTINUOUS
 62
     2
 10
184.727362675
 20
145.423898021
 30
0.0
 11
185.244386745
 21
145.332732728
 31
0.0
  0
ARC
  8
0
  6
CONTINUOUS
 62
     2
 10
184.68395063
 20
145.177696083
 30
0.0
 40
0.25
 50
80.0
 51
170.0
  0
LINE
  8
0
  6
CONTINUOUS
 62
     2
 10
185.331210834
 20
145.825136604
 30
0.0
 11
184.814186764
 21
145.916301898
 31
0.0
  0
LINE
  8
0
  6
CONTINUOUS
 62
     2
 10
184.61139687
 20
146.20591588
 30
0.0
 11
184.702562163
 21
146.722939951
 31
0.0
  0
ARC
  8
0
  6
CONTINUOUS
 62
     2
 10
184.857598808
 20
146.162503836
 30
0.0
 40
0.25
 50
170.0
 51
260.0
  0
LINE
  8
0
  6
LTYPE3
 62
     2
 10
162.5
 20
132.0
 30
0.0
 11
162.5
 21
128.0
 31
0.0
  0
LINE
  8
0
  6
LTYPE3
 62
     2
 10
160.5
 20
130.0
 30
0.0
 11
164.5
 21
130.0
 31
0.0
  0
LINE
  8
0
  6
LTYPE3
 62
     2
 10
200.5
 20
132.0
 30
0.0
 11
200.5
 21
128.0
 31
0.0
  0
LINE
  8
0
  6
LTYPE3
 62
     2
 10
202.5
 20
130.0
 30
0.0
 11
198.5
 21
130.0
 31
0.0
  0
ARC
  8
0
  6
CONTINUOUS
 62
     2
 10
205.0
 20
103.5
 30
0.0
 40
0.5
 50
120.0
 51
240.0
  0
LINE
  8
0
  6
CONTINUOUS
 62
     2
 10
204.75
 20
103.933012702
 30
0.0
 11
204.75
 21
104.066987298
 31
0.0
  0
ARC
  8
0
  6
CONTINUOUS
 62
     2
 10
205.0
 20
104.5
 30
0.0
 40
0.5
 50
120.0
 51
240.0
  0
LINE
  8
0
  6
CONTINUOUS
 62
     2
 10
204.75
 20
104.933012702
 30
0.0
 11
204.75
 21
105.066987298
 31
0.0
  0
ARC
  8
0
  6
CONTINUOUS
 62
     2
 10
205.0
 20
105.5
 30
0.0
 40
0.5
 50
120.0
 51
240.0
  0
LINE
  8
0
  6
CONTINUOUS
 62
     2
 10
204.75
 20
105.933012702
 30
0.0
 11
204.75
 21
106.066987298
 31
0.0
  0
LINE
  8
0
  6
CONTINUOUS
 62
     2
 10
204.75
 20
102.75
 30
0.0
 11
204.75
 21
103.066987298
 31
0.0
  0
ARC
  8
0
  6
CONTINUOUS
 62
     2
 10
204.5
 20
102.75
 30
0.0
 40
0.25
 50
270.0
 51
0.0
  0
LINE
  8
0
  6
CONTINUOUS
 62
     2
 10
158.25
 20
103.933012702
 30
0.0
 11
158.25
 21
104.066987298
 31
0.0
  0
LINE
  8
0
  6
CONTINUOUS
 62
     2
 10
158.25
 20
104.933012702
 30
0.0
 11
158.25
 21
105.066987298
 31
0.0
  0
LINE
  8
0
  6
CONTINUOUS
 62
     2
 10
158.25
 20
105.933012702
 30
0.0
 11
158.25
 21
106.066987298
 31
0.0
  0
LINE
  8
0
  6
CONTINUOUS
 62
     2
 10
158.25
 20
102.75
 30
0.0
 11
158.25
 21
103.066987298
 31
0.0
  0
ARC
  8
0
  6
CONTINUOUS
 62
     2
 10
158.5
 20
102.75
 30
0.0
 40
0.25
 50
180.0
 51
270.0
  0
ARC
  8
0
  6
CONTINUOUS
 62
     2
 10
158.0
 20
106.5
 30
0.0
 40
0.5
 50
300.0
 51
0.0
  0
LINE
  8
0
  6
CONTINUOUS
 62
     2
 10
158.5
 20
106.5
 30
0.0
 11
159.35
 21
106.5
 31
0.0
  0
ARC
  8
0
  6
CONTINUOUS
 62
     2
 10
205.0
 20
106.5
 30
0.0
 40
0.5
 50
180.0
 51
240.0
  0
LINE
  8
0
  6
CONTINUOUS
 62
     2
 10
203.65
 20
106.5
 30
0.0
 11
204.5
 21
106.5
 31
0.0
  0
CIRCLE
  8
0
  6
CONTINUOUS
 62
     5
 10
160.75
 20
105.0
 30
0.0
 40
0.575
  0
CIRCLE
  8
0
  6
CONTINUOUS
 62
     5
 10
160.75
 20
105.0
 30
0.0
 40
0.46
  0
LINE
  8
0
  6
LTYPE3
 62
     2
 10
160.75
 20
106.0
 30
0.0
 11
160.75
 21
104.0
 31
0.0
  0
LINE
  8
0
  6
LTYPE3
 62
     2
 10
159.75
 20
105.0
 30
0.0
 11
161.75
 21
105.0
 31
0.0
  0
CIRCLE
  8
0
  6
CONTINUOUS
 62
     5
 10
202.25
 20
105.0
 30
0.0
 40
0.575
  0
CIRCLE
  8
0
  6
CONTINUOUS
 62
     5
 10
202.25
 20
105.0
 30
0.0
 40
0.46
  0
LINE
  8
0
  6
LTYPE3
 62
     2
 10
202.25
 20
106.0
 30
0.0
 11
202.25
 21
104.0
 31
0.0
  0
LINE
  8
0
  6
LTYPE3
 62
     2
 10
203.25
 20
105.0
 30
0.0
 11
201.25
 21
105.0
 31
0.0
  0
ARC
  8
0
  6
CONTINUOUS
 62
     1
 10
196.125
 20
104.668756939
 30
0.0
 40
0.775
 50
210.0
 51
30.0
  0
ARC
  8
0
  6
CONTINUOUS
 62
     1
 10
193.375
 20
109.43189666
 30
0.0
 40
0.775
 50
30.0
 51
210.0
  0
LINE
  8
0
  6
CONTINUOUS
 62
     1
 10
192.703830312
 20
109.04439666
 30
0.0
 11
195.453830312
 21
104.281256939
 31
0.0
  0
LINE
  8
0
  6
CONTINUOUS
 62
     1
 10
196.796169688
 20
105.056256939
 30
0.0
 11
194.046169688
 21
109.81939666
 31
0.0
  0
ARC
  8
0
  6
CONTINUOUS
 62
     1
 10
197.142521024
 20
107.906358829
 30
0.0
 40
5.0
 50
210.0
 51
258.189685104
  0
ARC
  8
0
  6
CONTINUOUS
 62
     1
 10
192.812394005
 20
105.406358829
 30
0.0
 40
5.0
 50
341.810314896
 51
30.0
  0
ARC
  8
0
  6
CONTINUOUS
 62
     1
 10
196.375
 20
104.235744237
 30
0.0
 40
1.25
 50
258.189685104
 51
341.810323655
  0
LINE
  8
0
  6
CONTINUOUS
 62
     1
 10
192.812394005
 20
105.406358829
 30
0.0
 11
189.886150876
 21
110.474760603
 31
0.0
  0
LINE
  8
0
  6
CONTINUOUS
 62
     1
 10
194.216277895
 20
112.974760603
 30
0.0
 11
197.142521024
 21
107.906358829
 31
0.0
  0
POINT
  8
0
  6
CONTINUOUS
 62
     5
 10
199.925
 20
106.25
 30
0.0
  0
LINE
  8
0
  6
CONTINUOUS
 62
     5
 10
191.925
 20
104.0
 30
0.0
 11
192.675
 21
104.0
 31
0.0
  0
LINE
  8
0
  6
CONTINUOUS
 62
     1
 10
154.75
 20
154.035357107
 30
0.0
 11
154.75
 21
108.964642893
 31
0.0
  0
LINE
  8
0
  6
CONTINUOUS
 62
     1
 10
154.0
 20
154.0
 30
0.0
 11
154.0
 21
109.0
 31
0.0
  0
ARC
  8
0
  6
CONTINUOUS
 62
     1
 10
156.5
 20
108.964642893
 30
0.0
 40
1.75
 50
180.0
 51
270.0
  0
ARC
  8
0
  6
CONTINUOUS
 62
     1
 10
156.5
 20
109.0
 30
0.0
 40
2.5
 50
180.0
 51
270.0
  0
ARC
  8
0
  6
CONTINUOUS
 62
     1
 10
206.5
 20
108.964642893
 30
0.0
 40
1.75
 50
270.0
 51
0.0
  0
ARC
  8
0
  6
CONTINUOUS
 62
     1
 10
206.5
 20
109.0
 30
0.0
 40
2.5
 50
270.0
 51
0.0
  0
ARC
  8
0
  6
CONTINUOUS
 62
     1
 10
206.5
 20
154.035357107
 30
0.0
 40
1.75
 50
0.0
 51
90.0
  0
ARC
  8
0
  6
CONTINUOUS
 62
     1
 10
206.5
 20
154.0
 30
0.0
 40
2.5
 50
0.0
 51
90.0
  0
LINE
  8
0
  6
CONTINUOUS
 62
     1
 10
208.25
 20
108.964642893
 30
0.0
 11
208.25
 21
154.035357107
 31
0.0
  0
LINE
  8
0
  6
CONTINUOUS
 62
     1
 10
209.0
 20
109.0
 30
0.0
 11
209.0
 21
154.0
 31
0.0
  0
ARC
  8
0
  6
CONTINUOUS
 62
     1
 10
156.5
 20
154.035357107
 30
0.0
 40
1.75
 50
90.0
 51
180.0
  0
LINE
  8
0
  6
CONTINUOUS
 62
     1
 10
206.5
 20
155.785357107
 30
0.0
 11
156.5
 21
155.785357107
 31
0.0
  0
LINE
  8
0
  6
CONTINUOUS
 62
     1
 10
206.5
 20
156.5
 30
0.0
 11
156.5
 21
156.5
 31
0.0
  0
ARC
  8
0
  6
CONTINUOUS
 62
     1
 10
156.5
 20
154.0
 30
0.0
 40
2.5
 50
90.0
 51
180.0
  0
LINE
  8
0
  6
CONTINUOUS
 62
     1
 10
191.768380713
 20
107.214642893
 30
0.0
 11
156.5
 21
107.214642893
 31
0.0
  0
LINE
  8
0
  6
CONTINUOUS
 62
     1
 10
206.5
 20
107.214642893
 30
0.0
 11
197.473950477
 21
107.214642893
 31
0.0
  0
LINE
  8
0
  6
CONTINUOUS
 62
     1
 10
197.691323087
 20
106.5
 30
0.0
 11
206.5
 21
106.5
 31
0.0
  0
LINE
  8
0
  6
CONTINUOUS
 62
     1
 10
156.5
 20
106.5
 30
0.0
 11
192.18097998
 21
106.5
 31
0.0
  0
ARC
  8
0
  6
CONTINUOUS
 62
     1
 10
161.185288582
 20
132.75
 30
0.0
 40
0.75
 50
172.29074014
 51
270.0
  0
LINE
  8
0
  6
CONTINUOUS
 62
     1
 10
161.185288582
 20
132.0
 30
0.0
 11
162.5
 21
132.0
 31
0.0
  0
ARC
  8
0
  6
CONTINUOUS
 62
     1
 10
161.185288582
 20
127.25
 30
0.0
 40
0.75
 50
90.0
 51
187.70925986
  0
LINE
  8
0
  6
CONTINUOUS
 62
     1
 10
162.5
 20
128.0
 30
0.0
 11
161.185288582
 21
128.0
 31
0.0
  0
ARC
  8
0
  6
CONTINUOUS
 62
     1
 10
162.5
 20
130.0
 30
0.0
 40
2.0
 50
270.0
 51
90.0
  0
LINE
  8
0
  6
CONTINUOUS
 62
     1
 10
201.814711418
 20
132.0
 30
0.0
 11
200.5
 21
132.0
 31
0.0
  0
ARC
  8
0
  6
CONTINUOUS
 62
     1
 10
200.5
 20
130.0
 30
0.0
 40
2.0
 50
90.0
 51
270.0
  0
ARC
  8
0
  6
CONTINUOUS
 62
     1
 10
201.814711418
 20
127.25
 30
0.0
 40
0.75
 50
352.29074014
 51
90.0
  0
LINE
  8
0
  6
CONTINUOUS
 62
     1
 10
200.5
 20
128.0
 30
0.0
 11
201.814711418
 21
128.0
 31
0.0
  0
ARC
  8
0
  6
CONTINUOUS
 62
     1
 10
201.814711418
 20
132.75
 30
0.0
 40
0.75
 50
270.0
 51
7.70925986
  0
CIRCLE
  8
0
  6
CONTINUOUS
 62
     1
 10
181.5
 20
130.0
 30
0.0
 40
21.25
  0
CIRCLE
  8
0
  6
CONTINUOUS
 62
     2
 10
162.5
 20
130.0
 30
0.0
 40
1.75
  0
LINE
  8
0
  6
CONTINUOUS
 62
     2
 10
162.25
 20
128.975
 30
0.0
 11
162.75
 21
128.975
 31
0.0
  0
LINE
  8
0
  6
CONTINUOUS
 62
     2
 10
162.75
 20
131.025
 30
0.0
 11
162.25
 21
131.025
 31
0.0
  0
LINE
  8
0
  6
CONTINUOUS
 62
     2
 10
163.525
 20
129.75
 30
0.0
 11
163.525
 21
130.25
 31
0.0
  0
LINE
  8
0
  6
CONTINUOUS
 62
     2
 10
161.475
 20
130.25
 30
0.0
 11
161.475
 21
129.75
 31
0.0
  0
LINE
  8
0
  6
CONTINUOUS
 62
     2
 10
162.25
 20
131.025
 30
0.0
 11
162.25
 21
130.5
 31
0.0
  0
LINE
  8
0
  6
CONTINUOUS
 62
     2
 10
162.0
 20
130.25
 30
0.0
 11
161.475
 21
130.25
 31
0.0
  0
ARC
  8
0
  6
CONTINUOUS
 62
     2
 10
162.0
 20
130.5
 30
0.0
 40
0.25
 50
270.0
 51
0.0
  0
LINE
  8
0
  6
CONTINUOUS
 62
     2
 10
162.75
 20
130.5
 30
0.0
 11
162.75
 21
131.025
 31
0.0
  0
LINE
  8
0
  6
CONTINUOUS
 62
     2
 10
163.525
 20
130.25
 30
0.0
 11
163.0
 21
130.25
 31
0.0
  0
ARC
  8
0
  6
CONTINUOUS
 62
     2
 10
163.0
 20
130.5
 30
0.0
 40
0.25
 50
180.0
 51
270.0
  0
LINE
  8
0
  6
CONTINUOUS
 62
     2
 10
162.75
 20
128.975
 30
0.0
 11
162.75
 21
129.5
 31
0.0
  0
LINE
  8
0
  6
CONTINUOUS
 62
     2
 10
163.0
 20
129.75
 30
0.0
 11
163.525
 21
129.75
 31
0.0
  0
ARC
  8
0
  6
CONTINUOUS
 62
     2
 10
163.0
 20
129.5
 30
0.0
 40
0.25
 50
90.0
 51
180.0
  0
LINE
  8
0
  6
CONTINUOUS
 62
     2
 10
162.25
 20
129.5
 30
0.0
 11
162.25
 21
128.975
 31
0.0
  0
LINE
  8
0
  6
CONTINUOUS
 62
     2
 10
161.475
 20
129.75
 30
0.0
 11
162.0
 21
129.75
 31
0.0
  0
ARC
  8
0
  6
CONTINUOUS
 62
     2
 10
162.0
 20
129.5
 30
0.0
 40
0.25
 50
0.0
 51
90.0
  0
CIRCLE
  8
0
  6
CONTINUOUS
 62
     2
 10
200.5
 20
130.0
 30
0.0
 40
1.75
  0
LINE
  8
0
  6
CONTINUOUS
 62
     2
 10
200.25
 20
128.975
 30
0.0
 11
200.75
 21
128.975
 31
0.0
  0
LINE
  8
0
  6
CONTINUOUS
 62
     2
 10
200.75
 20
131.025
 30
0.0
 11
200.25
 21
131.025
 31
0.0
  0
LINE
  8
0
  6
CONTINUOUS
 62
     2
 10
201.525
 20
129.75
 30
0.0
 11
201.525
 21
130.25
 31
0.0
  0
LINE
  8
0
  6
CONTINUOUS
 62
     2
 10
199.475
 20
130.25
 30
0.0
 11
199.475
 21
129.75
 31
0.0
  0
LINE
  8
0
  6
CONTINUOUS
 62
     2
 10
200.25
 20
131.025
 30
0.0
 11
200.25
 21
130.5
 31
0.0
  0
LINE
  8
0
  6
CONTINUOUS
 62
     2
 10
200.0
 20
130.25
 30
0.0
 11
199.475
 21
130.25
 31
0.0
  0
ARC
  8
0
  6
CONTINUOUS
 62
     2
 10
200.0
 20
130.5
 30
0.0
 40
0.25
 50
270.0
 51
0.0
  0
LINE
  8
0
  6
CONTINUOUS
 62
     2
 10
200.75
 20
130.5
 30
0.0
 11
200.75
 21
131.025
 31
0.0
  0
LINE
  8
0
  6
CONTINUOUS
 62
     2
 10
201.525
 20
130.25
 30
0.0
 11
201.0
 21
130.25
 31
0.0
  0
ARC
  8
0
  6
CONTINUOUS
 62
     2
 10
201.0
 20
130.5
 30
0.0
 40
0.25
 50
180.0
 51
270.0
  0
LINE
  8
0
  6
CONTINUOUS
 62
     2
 10
200.75
 20
128.975
 30
0.0
 11
200.75
 21
129.5
 31
0.0
  0
LINE
  8
0
  6
CONTINUOUS
 62
     2
 10
201.0
 20
129.75
 30
0.0
 11
201.525
 21
129.75
 31
0.0
  0
ARC
  8
0
  6
CONTINUOUS
 62
     2
 10
201.0
 20
129.5
 30
0.0
 40
0.25
 50
90.0
 51
180.0
  0
LINE
  8
0
  6
CONTINUOUS
 62
     2
 10
200.25
 20
129.5
 30
0.0
 11
200.25
 21
128.975
 31
0.0
  0
LINE
  8
0
  6
CONTINUOUS
 62
     2
 10
199.475
 20
129.75
 30
0.0
 11
200.0
 21
129.75
 31
0.0
  0
ARC
  8
0
  6
CONTINUOUS
 62
     2
 10
200.0
 20
129.5
 30
0.0
 40
0.25
 50
0.0
 51
90.0
  0
ARC
  8
0
  6
CONTINUOUS
 62
     2
 10
167.25
 20
136.5
 30
0.0
 40
1.0
 50
90.0
 51
180.0
  0
LINE
  8
0
  6
CONTINUOUS
 62
     2
 10
195.75
 20
137.5
 30
0.0
 11
167.25
 21
137.5
 31
0.0
  0
ARC
  8
0
  6
CONTINUOUS
 62
     2
 10
195.75
 20
136.5
 30
0.0
 40
1.0
 50
0.0
 51
90.0
  0
LINE
  8
0
  6
CONTINUOUS
 62
     2
 10
196.75
 20
120.0
 30
0.0
 11
196.75
 21
136.5
 31
0.0
  0
ARC
  8
0
  6
CONTINUOUS
 62
     2
 10
195.75
 20
120.0
 30
0.0
 40
1.0
 50
270.0
 51
0.0
  0
LINE
  8
0
  6
CONTINUOUS
 62
     2
 10
167.25
 20
119.0
 30
0.0
 11
195.75
 21
119.0
 31
0.0
  0
LINE
  8
0
  6
CONTINUOUS
 62
     2
 10
166.25
 20
136.5
 30
0.0
 11
166.25
 21
120.0
 31
0.0
  0
ARC
  8
0
  6
CONTINUOUS
 62
     2
 10
167.25
 20
120.0
 30
0.0
 40
1.0
 50
180.0
 51
270.0
  0
ARC
  8
0
  6
CONTINUOUS
 62
     2
 10
167.25
 20
136.5
 30
0.0
 40
1.15
 50
90.0
 51
180.0
  0
LINE
  8
0
  6
CONTINUOUS
 62
     2
 10
195.75
 20
137.65
 30
0.0
 11
167.25
 21
137.65
 31
0.0
  0
ARC
  8
0
  6
CONTINUOUS
 62
     2
 10
195.75
 20
136.5
 30
0.0
 40
1.15
 50
0.0
 51
90.0
  0
LINE
  8
0
  6
CONTINUOUS
 62
     2
 10
196.9
 20
120.0
 30
0.0
 11
196.9
 21
136.5
 31
0.0
  0
ARC
  8
0
  6
CONTINUOUS
 62
     2
 10
195.75
 20
120.0
 30
0.0
 40
1.15
 50
270.0
 51
0.0
  0
LINE
  8
0
  6
CONTINUOUS
 62
     2
 10
167.25
 20
118.85
 30
0.0
 11
195.75
 21
118.85
 31
0.0
  0
LINE
  8
0
  6
CONTINUOUS
 62
     2
 10
166.1
 20
136.5
 30
0.0
 11
166.1
 21
120.0
 31
0.0
  0
ARC
  8
0
  6
CONTINUOUS
 62
     2
 10
167.25
 20
120.0
 30
0.0
 40
1.15
 50
180.0
 51
270.0
  0
TEXT
  8
0
  6
CONTINUOUS
 62
     1
 10
174.25
 20
131.5
 30
0.5
 40
5.0
  1
銘　板
 50
0.0
 41
0.9
 51
0.0
  7
KANJI9
  0
LINE
  8
0
  6
CONTINUOUS
 62
     2
 10
175.265
 20
140.695798494
 30
0.0
 11
175.274003244
 21
140.775806479
 31
0.0
  0
LINE
  8
0
  6
CONTINUOUS
 62
     2
 10
175.274003244
 20
140.775806479
 30
0.0
 11
175.299881783
 21
140.850388743
 31
0.0
  0
LINE
  8
0
  6
CONTINUOUS
 62
     2
 10
175.299881783
 20
140.850388743
 30
0.0
 11
175.336121182
 21
140.910621744
 31
0.0
  0
LINE
  8
0
  6
CONTINUOUS
 62
     2
 10
175.336121182
 20
140.910621744
 30
0.0
 11
175.383872872
 21
140.963114241
 31
0.0
  0
LINE
  8
0
  6
CONTINUOUS
 62
     2
 10
175.383872872
 20
140.963114241
 30
0.0
 11
175.439254659
 21
141.004179214
 31
0.0
  0
LINE
  8
0
  6
CONTINUOUS
 62
     2
 10
175.439254659
 20
141.004179214
 30
0.0
 11
175.511509985
 21
141.037441607
 31
0.0
  0
LINE
  8
0
  6
CONTINUOUS
 62
     2
 10
175.511509985
 20
141.037441607
 30
0.0
 11
175.611763364
 21
141.055555067
 31
0.0
  0
LINE
  8
0
  6
CONTINUOUS
 62
     2
 10
175.611763364
 20
141.055555067
 30
0.0
 11
175.715321623
 21
141.044283795
 31
0.0
  0
LINE
  8
0
  6
CONTINUOUS
 62
     2
 10
175.715321623
 20
141.044283795
 30
0.0
 11
175.788827953
 21
141.016361127
 31
0.0
  0
LINE
  8
0
  6
CONTINUOUS
 62
     2
 10
175.788827953
 20
141.016361127
 30
0.0
 11
175.848217173
 21
140.978241575
 31
0.0
  0
LINE
  8
0
  6
CONTINUOUS
 62
     2
 10
175.848217173
 20
140.978241575
 30
0.0
 11
175.899194879
 21
140.929073372
 31
0.0
  0
LINE
  8
0
  6
CONTINUOUS
 62
     2
 10
175.899194879
 20
140.929073372
 30
0.0
 11
175.93838842
 21
140.87296423
 31
0.0
  0
LINE
  8
0
  6
CONTINUOUS
 62
     2
 10
175.93838842
 20
140.87296423
 30
0.0
 11
175.969634949
 21
140.799850173
 31
0.0
  0
LINE
  8
0
  6
CONTINUOUS
 62
     2
 10
175.969634949
 20
140.799850173
 30
0.0
 11
175.983893217
 21
140.72400592
 31
0.0
  0
LINE
  8
0
  6
CONTINUOUS
 62
     2
 10
175.983893217
 20
140.72400592
 30
0.0
 11
175.981978646
 21
140.649255542
 31
0.0
  0
LINE
  8
0
  6
CONTINUOUS
 62
     2
 10
175.981978646
 20
140.649255542
 30
0.0
 11
175.963055517
 21
140.572030698
 31
0.0
  0
LINE
  8
0
  6
CONTINUOUS
 62
     2
 10
175.963055517
 20
140.572030698
 30
0.0
 11
175.928938272
 21
140.502332738
 31
0.0
  0
LINE
  8
0
  6
CONTINUOUS
 62
     2
 10
175.928938272
 20
140.502332738
 30
0.0
 11
175.885651652
 21
140.427898244
 31
0.0
  0
LINE
  8
0
  6
CONTINUOUS
 62
     2
 10
175.885651652
 20
140.427898244
 30
0.0
 11
175.820465793
 21
140.315806415
 31
0.0
  0
LINE
  8
0
  6
CONTINUOUS
 62
     2
 10
175.820465793
 20
140.315806415
 30
0.0
 11
175.755279934
 21
140.203714586
 31
0.0
  0
LINE
  8
0
  6
CONTINUOUS
 62
     2
 10
175.755279934
 20
140.203714586
 30
0.0
 11
175.690094075
 21
140.091622756
 31
0.0
  0
LINE
  8
0
  6
CONTINUOUS
 62
     2
 10
175.690094075
 20
140.091622756
 30
0.0
 11
175.624908216
 21
139.979530927
 31
0.0
  0
LINE
  8
0
  6
CONTINUOUS
 62
     2
 10
175.624908216
 20
139.979530927
 30
0.0
 11
175.559722357
 21
139.867439098
 31
0.0
  0
LINE
  8
0
  6
CONTINUOUS
 62
     2
 10
175.559722357
 20
139.867439098
 30
0.0
 11
175.494536499
 21
139.755347269
 31
0.0
  0
LINE
  8
0
  6
CONTINUOUS
 62
     2
 10
175.494536499
 20
139.755347269
 30
0.0
 11
175.42935064
 21
139.643255439
 31
0.0
  0
LINE
  8
0
  6
CONTINUOUS
 62
     2
 10
175.42935064
 20
139.643255439
 30
0.0
 11
175.364164781
 21
139.53116361
 31
0.0
  0
LINE
  8
0
  6
CONTINUOUS
 62
     2
 10
175.364164781
 20
139.53116361
 30
0.0
 11
175.298978922
 21
139.419071781
 31
0.0
  0
LINE
  8
0
  6
CONTINUOUS
 62
     2
 10
175.298978922
 20
139.419071781
 30
0.0
 11
175.227290601
 21
139.295798494
 31
0.0
  0
LINE
  8
0
  6
CONTINUOUS
 62
     2
 10
175.227290601
 20
139.295798494
 30
0.0
 11
175.377290601
 21
139.295798494
 31
0.0
  0
LINE
  8
0
  6
CONTINUOUS
 62
     2
 10
175.377290601
 20
139.295798494
 30
0.0
 11
175.527290601
 21
139.295798494
 31
0.0
  0
LINE
  8
0
  6
CONTINUOUS
 62
     2
 10
175.527290601
 20
139.295798494
 30
0.0
 11
175.677290601
 21
139.295798494
 31
0.0
  0
LINE
  8
0
  6
CONTINUOUS
 62
     2
 10
175.677290601
 20
139.295798494
 30
0.0
 11
175.827290601
 21
139.295798494
 31
0.0
  0
LINE
  8
0
  6
CONTINUOUS
 62
     2
 10
175.827290601
 20
139.295798494
 30
0.0
 11
175.98500001
 21
139.295798494
 31
0.0
  0
LINE
  8
0
  6
CONTINUOUS
 62
     2
 10
179.459633912
 20
142.451491098
 30
0.0
 11
179.459633912
 21
142.301491098
 31
0.0
  0
LINE
  8
0
  6
CONTINUOUS
 62
     2
 10
179.459633912
 20
142.301491098
 30
0.0
 11
179.459633912
 21
142.151491098
 31
0.0
  0
LINE
  8
0
  6
CONTINUOUS
 62
     2
 10
179.459633912
 20
142.151491098
 30
0.0
 11
179.459633912
 21
142.001491098
 31
0.0
  0
LINE
  8
0
  6
CONTINUOUS
 62
     2
 10
179.459633912
 20
142.001491098
 30
0.0
 11
179.459633912
 21
141.851491098
 31
0.0
  0
LINE
  8
0
  6
CONTINUOUS
 62
     2
 10
179.459633912
 20
141.851491098
 30
0.0
 11
179.459633912
 21
141.701491098
 31
0.0
  0
LINE
  8
0
  6
CONTINUOUS
 62
     2
 10
179.459633912
 20
141.701491098
 30
0.0
 11
179.459633912
 21
141.551491098
 31
0.0
  0
LINE
  8
0
  6
CONTINUOUS
 62
     2
 10
179.459633912
 20
141.551491098
 30
0.0
 11
179.459633912
 21
141.401491098
 31
0.0
  0
LINE
  8
0
  6
CONTINUOUS
 62
     2
 10
179.459633912
 20
141.401491098
 30
0.0
 11
179.459633912
 21
141.251491098
 31
0.0
  0
LINE
  8
0
  6
CONTINUOUS
 62
     2
 10
179.459633912
 20
141.251491098
 30
0.0
 11
179.459633912
 21
141.101491098
 31
0.0
  0
LINE
  8
0
  6
CONTINUOUS
 62
     2
 10
179.459633912
 20
141.101491098
 30
0.0
 11
179.459633912
 21
140.951491098
 31
0.0
  0
LINE
  8
0
  6
CONTINUOUS
 62
     2
 10
179.459633912
 20
140.951491098
 30
0.0
 11
179.459633912
 21
140.801491098
 31
0.0
  0
LINE
  8
0
  6
CONTINUOUS
 62
     2
 10
179.459633912
 20
140.801491098
 30
0.0
 11
179.459633912
 21
140.691491098
 31
0.0
  0
LINE
  8
0
  6
CONTINUOUS
 62
     2
 10
183.247383875
 20
142.291491098
 30
0.0
 11
183.284751904
 21
142.350126268
 31
0.0
  0
LINE
  8
0
  6
CONTINUOUS
 62
     2
 10
183.284751904
 20
142.350126268
 30
0.0
 11
183.3361103
 21
142.398250963
 31
0.0
  0
LINE
  8
0
  6
CONTINUOUS
 62
     2
 10
183.3361103
 20
142.398250963
 30
0.0
 11
183.384652797
 21
142.426462536
 31
0.0
  0
LINE
  8
0
  6
CONTINUOUS
 62
     2
 10
183.384652797
 20
142.426462536
 30
0.0
 11
183.460072455
 21
142.448576686
 31
0.0
  0
LINE
  8
0
  6
CONTINUOUS
 62
     2
 10
183.460072455
 20
142.448576686
 30
0.0
 11
183.535165581
 21
142.449320174
 31
0.0
  0
LINE
  8
0
  6
CONTINUOUS
 62
     2
 10
183.535165581
 20
142.449320174
 30
0.0
 11
183.611901582
 21
142.428317564
 31
0.0
  0
LINE
  8
0
  6
CONTINUOUS
 62
     2
 10
183.611901582
 20
142.428317564
 30
0.0
 11
183.675896432
 21
142.389640355
 31
0.0
  0
LINE
  8
0
  6
CONTINUOUS
 62
     2
 10
183.675896432
 20
142.389640355
 30
0.0
 11
183.724204094
 21
142.33834943
 31
0.0
  0
LINE
  8
0
  6
CONTINUOUS
 62
     2
 10
183.724204094
 20
142.33834943
 30
0.0
 11
183.761141304
 21
142.281264624
 31
0.0
  0
LINE
  8
0
  6
CONTINUOUS
 62
     2
 10
183.761141304
 20
142.281264624
 30
0.0
 11
183.784697973
 21
142.230323538
 31
0.0
  0
LINE
  8
0
  6
CONTINUOUS
 62
     2
 10
183.784697973
 20
142.230323538
 30
0.0
 11
183.806427786
 21
142.154693794
 31
0.0
  0
LINE
  8
0
  6
CONTINUOUS
 62
     2
 10
183.806427786
 20
142.154693794
 30
0.0
 11
183.814286814
 21
142.079842998
 31
0.0
  0
LINE
  8
0
  6
CONTINUOUS
 62
     2
 10
183.814286814
 20
142.079842998
 30
0.0
 11
183.80940187
 21
142.005583068
 31
0.0
  0
LINE
  8
0
  6
CONTINUOUS
 62
     2
 10
183.80940187
 20
142.005583068
 30
0.0
 11
183.790481221
 21
141.92849391
 31
0.0
  0
LINE
  8
0
  6
CONTINUOUS
 62
     2
 10
183.790481221
 20
141.92849391
 30
0.0
 11
183.758698313
 21
141.857274523
 31
0.0
  0
LINE
  8
0
  6
CONTINUOUS
 62
     2
 10
183.758698313
 20
141.857274523
 30
0.0
 11
183.719578833
 21
141.798675849
 31
0.0
  0
LINE
  8
0
  6
CONTINUOUS
 62
     2
 10
183.719578833
 20
141.798675849
 30
0.0
 11
183.671301446
 21
141.746792171
 31
0.0
  0
LINE
  8
0
  6
CONTINUOUS
 62
     2
 10
183.671301446
 20
141.746792171
 30
0.0
 11
183.616486674
 21
141.704098091
 31
0.0
  0
LINE
  8
0
  6
CONTINUOUS
 62
     2
 10
183.616486674
 20
141.704098091
 30
0.0
 11
183.567849358
 21
141.676314904
 31
0.0
  0
LINE
  8
0
  6
CONTINUOUS
 62
     2
 10
183.567849358
 20
141.676314904
 30
0.0
 11
183.541703123
 21
141.664553367
 31
0.0
  0
LINE
  8
0
  6
CONTINUOUS
 62
     2
 10
183.541703123
 20
141.664553367
 30
0.0
 11
183.501079135
 21
141.664553367
 31
0.0
  0
LINE
  8
0
  6
CONTINUOUS
 62
     2
 10
183.501079135
 20
141.664553367
 30
0.0
 11
183.579974473
 21
141.647420661
 31
0.0
  0
LINE
  8
0
  6
CONTINUOUS
 62
     2
 10
183.579974473
 20
141.647420661
 30
0.0
 11
183.628550236
 21
141.620163734
 31
0.0
  0
LINE
  8
0
  6
CONTINUOUS
 62
     2
 10
183.628550236
 20
141.620163734
 30
0.0
 11
183.685637853
 21
141.578686724
 31
0.0
  0
LINE
  8
0
  6
CONTINUOUS
 62
     2
 10
183.685637853
 20
141.578686724
 30
0.0
 11
183.736995179
 21
141.529940772
 31
0.0
  0
LINE
  8
0
  6
CONTINUOUS
 62
     2
 10
183.736995179
 20
141.529940772
 30
0.0
 11
183.780978634
 21
141.475677875
 31
0.0
  0
LINE
  8
0
  6
CONTINUOUS
 62
     2
 10
183.780978634
 20
141.475677875
 30
0.0
 11
183.826532242
 21
141.398528266
 31
0.0
  0
LINE
  8
0
  6
CONTINUOUS
 62
     2
 10
183.826532242
 20
141.398528266
 30
0.0
 11
183.862455448
 21
141.3014139
 31
0.0
  0
LINE
  8
0
  6
CONTINUOUS
 62
     2
 10
183.862455448
 20
141.3014139
 30
0.0
 11
183.879073421
 21
141.20083288
 31
0.0
  0
LINE
  8
0
  6
CONTINUOUS
 62
     2
 10
183.879073421
 20
141.20083288
 30
0.0
 11
183.876750036
 21
141.101103118
 31
0.0
  0
LINE
  8
0
  6
CONTINUOUS
 62
     2
 10
183.876750036
 20
141.101103118
 30
0.0
 11
183.855040457
 21
141.000058258
 31
0.0
  0
LINE
  8
0
  6
CONTINUOUS
 62
     2
 10
183.855040457
 20
141.000058258
 30
0.0
 11
183.81591692
 21
140.907656375
 31
0.0
  0
LINE
  8
0
  6
CONTINUOUS
 62
     2
 10
183.81591692
 20
140.907656375
 30
0.0
 11
183.754206651
 21
140.816645086
 31
0.0
  0
LINE
  8
0
  6
CONTINUOUS
 62
     2
 10
183.754206651
 20
140.816645086
 30
0.0
 11
183.677146309
 21
140.744753861
 31
0.0
  0
LINE
  8
0
  6
CONTINUOUS
 62
     2
 10
183.677146309
 20
140.744753861
 30
0.0
 11
183.598264461
 21
140.706834064
 31
0.0
  0
LINE
  8
0
  6
CONTINUOUS
 62
     2
 10
183.598264461
 20
140.706834064
 30
0.0
 11
183.498158672
 21
140.691498712
 31
0.0
  0
LINE
  8
0
  6
CONTINUOUS
 62
     2
 10
183.498158672
 20
140.691498712
 30
0.0
 11
183.395604062
 21
140.709125561
 31
0.0
  0
LINE
  8
0
  6
CONTINUOUS
 62
     2
 10
183.395604062
 20
140.709125561
 30
0.0
 11
183.298745515
 21
140.762997346
 31
0.0
  0
LINE
  8
0
  6
CONTINUOUS
 62
     2
 10
183.298745515
 20
140.762997346
 30
0.0
 11
183.229273836
 21
140.841464655
 31
0.0
  0
LINE
  8
0
  6
CONTINUOUS
 62
     2
 10
183.229273836
 20
140.841464655
 30
0.0
 11
183.19052742
 21
140.931491098
 31
0.0
  0
LINE
  8
0
  6
CONTINUOUS
 62
     2
 10
92.376149067
 20
107.5
 30
0.0
 11
92.626149067
 21
107.5
 31
0.0
  0
LINE
  8
0
  6
CONTINUOUS
 62
     2
 10
92.626149067
 20
107.5
 30
0.0
 11
92.626149067
 21
112.5
 31
0.0
  0
LINE
  8
0
  6
CONTINUOUS
 62
     2
 10
92.626149067
 20
112.5
 30
0.0
 11
92.376149067
 21
112.5
 31
0.0
  0
LINE
  8
0
  6
CONTINUOUS
 62
     2
 10
100.126149067
 20
111.05
 30
0.0
 11
100.126149067
 21
109.05
 31
0.0
  0
LINE
  8
0
  6
LTYPE2
 62
     2
 10
101.926149067
 20
110.0
 30
0.0
 11
92.526149067
 21
110.0
 31
0.0
  0
LINE
  8
0
  6
CONTINUOUS
 62
     2
 10
95.298402971
 20
111.05
 30
0.0
 11
100.126149067
 21
111.05
 31
0.0
  0
LINE
  8
0
  6
CONTINUOUS
 62
     2
 10
100.126149067
 20
110.825
 30
0.0
 11
95.298402971
 21
110.825
 31
0.0
  0
LINE
  8
0
  6
CONTINUOUS
 62
     2
 10
100.126149067
 20
109.05
 30
0.0
 11
95.298402971
 21
109.05
 31
0.0
  0
LINE
  8
0
  6
CONTINUOUS
 62
     2
 10
95.298402971
 20
109.325
 30
0.0
 11
100.126149067
 21
109.325
 31
0.0
  0
LINE
  8
0
  6
CONTINUOUS
 62
     2
 10
92.376149067
 20
152.5
 30
0.0
 11
92.626149067
 21
152.5
 31
0.0
  0
LINE
  8
0
  6
CONTINUOUS
 62
     2
 10
92.626149067
 20
152.5
 30
0.0
 11
92.626149067
 21
147.5
 31
0.0
  0
LINE
  8
0
  6
CONTINUOUS
 62
     2
 10
92.626149067
 20
147.5
 30
0.0
 11
92.376149067
 21
147.5
 31
0.0
  0
LINE
  8
0
  6
CONTINUOUS
 62
     2
 10
100.126149067
 20
148.95
 30
0.0
 11
100.126149067
 21
150.95
 31
0.0
  0
LINE
  8
0
  6
LTYPE2
 62
     2
 10
101.926149067
 20
150.0
 30
0.0
 11
92.526149067
 21
150.0
 31
0.0
  0
LINE
  8
0
  6
CONTINUOUS
 62
     2
 10
95.298402971
 20
148.95
 30
0.0
 11
100.126149067
 21
148.95
 31
0.0
  0
LINE
  8
0
  6
CONTINUOUS
 62
     2
 10
100.126149067
 20
149.175
 30
0.0
 11
95.298402971
 21
149.175
 31
0.0
  0
LINE
  8
0
  6
CONTINUOUS
 62
     2
 10
100.126149067
 20
150.95
 30
0.0
 11
95.298402971
 21
150.95
 31
0.0
  0
LINE
  8
0
  6
CONTINUOUS
 62
     2
 10
95.298402971
 20
150.675
 30
0.0
 11
100.126149067
 21
150.675
 31
0.0
  0
LINE
  8
0
  6
CONTINUOUS
 62
     2
 10
96.376149067
 20
148.95
 30
0.0
 11
96.376149067
 21
148.893140883
 31
0.0
  0
LINE
  8
0
  6
CONTINUOUS
 62
     2
 10
85.876149067
 20
155.0
 30
0.0
 11
85.726149067
 21
155.0
 31
0.0
  0
LINE
  8
0
  6
CONTINUOUS
 62
     2
 10
85.726149067
 20
155.0
 30
0.0
 11
85.726149067
 21
126.5
 31
0.0
  0
LINE
  8
0
  6
CONTINUOUS
 62
     2
 10
85.726149067
 20
126.5
 30
0.0
 11
85.876149067
 21
126.5
 31
0.0
  0
ARC
  8
0
  6
CONTINUOUS
 62
     2
 10
85.126149067
 20
102.75
 30
0.0
 40
0.25
 50
180.0
 51
270.0
  0
LINE
  8
0
  6
CONTINUOUS
 62
     2
 10
84.876149067
 20
102.75
 30
0.0
 11
84.876149067
 21
108.25
 31
0.0
  0
ARC
  8
0
  6
CONTINUOUS
 62
     2
 10
85.126149067
 20
108.25
 30
0.0
 40
0.25
 50
90.0
 51
180.0
  0
LINE
  8
0
  6
CONTINUOUS
 62
     2
 10
85.126149067
 20
102.5
 30
0.0
 11
87.126149067
 21
102.5
 31
0.0
  0
LINE
  8
0
  6
CONTINUOUS
 62
     2
 10
85.126149067
 20
102.25
 30
0.0
 11
84.976149067
 21
102.25
 31
0.0
  0
LINE
  8
0
  6
CONTINUOUS
 62
     2
 10
84.976149067
 20
102.25
 30
0.0
 11
84.976149067
 21
99.75
 31
0.0
  0
LINE
  8
0
  6
CONTINUOUS
 62
     2
 10
84.976149067
 20
99.75
 30
0.0
 11
85.126149067
 21
99.75
 31
0.0
  0
LINE
  8
0
  6
CONTINUOUS
 62
     2
 10
85.126149067
 20
96.516987298
 30
0.0
 11
90.126149067
 21
96.516987298
 31
0.0
  0
LINE
  8
0
  6
CONTINUOUS
 62
     2
 10
85.126149067
 20
97.383012702
 30
0.0
 11
90.126149067
 21
97.383012702
 31
0.0
  0
LINE
  8
0
  6
CONTINUOUS
 62
     2
 10
90.126149067
 20
98.016987298
 30
0.0
 11
85.126149067
 21
98.016987298
 31
0.0
  0
LINE
  8
0
  6
CONTINUOUS
 62
     2
 10
85.126149067
 20
98.883012702
 30
0.0
 11
90.126149067
 21
98.883012702
 31
0.0
  0
LINE
  8
0
  6
CONTINUOUS
 62
     2
 10
90.126149067
 20
99.516987298
 30
0.0
 11
85.126149067
 21
99.516987298
 31
0.0
  0
LINE
  8
0
  6
CONTINUOUS
 62
     2
 10
85.126149067
 20
100.383012702
 30
0.0
 11
90.126149067
 21
100.383012702
 31
0.0
  0
LINE
  8
0
  6
CONTINUOUS
 62
     2
 10
90.126149067
 20
101.016987298
 30
0.0
 11
85.126149067
 21
101.016987298
 31
0.0
  0
LINE
  8
0
  6
CONTINUOUS
 62
     2
 10
90.126149067
 20
101.883012702
 30
0.0
 11
85.126149067
 21
101.883012702
 31
0.0
  0
LINE
  8
0
  6
CONTINUOUS
 62
     2
 10
85.126149067
 20
108.5
 30
0.0
 11
85.876149067
 21
108.5
 31
0.0
  0
LINE
  8
0
  6
CONTINUOUS
 62
     2
 10
84.876149067
 20
103.066987298
 30
0.0
 11
89.526149067
 21
103.066987298
 31
0.0
  0
LINE
  8
0
  6
CONTINUOUS
 62
     2
 10
84.876149067
 20
103.933012702
 30
0.0
 11
89.526149067
 21
103.933012702
 31
0.0
  0
LINE
  8
0
  6
CONTINUOUS
 62
     2
 10
84.876149067
 20
104.066987298
 30
0.0
 11
89.526149067
 21
104.066987298
 31
0.0
  0
LINE
  8
0
  6
CONTINUOUS
 62
     2
 10
84.876149067
 20
104.933012702
 30
0.0
 11
89.526149067
 21
104.933012702
 31
0.0
  0
LINE
  8
0
  6
CONTINUOUS
 62
     2
 10
84.876149067
 20
105.066987298
 30
0.0
 11
89.526149067
 21
105.066987298
 31
0.0
  0
LINE
  8
0
  6
CONTINUOUS
 62
     2
 10
84.876149067
 20
105.933012702
 30
0.0
 11
89.526149067
 21
105.933012702
 31
0.0
  0
LINE
  8
0
  6
CONTINUOUS
 62
     2
 10
84.876149067
 20
106.066987298
 30
0.0
 11
89.526149067
 21
106.066987298
 31
0.0
  0
LINE
  8
0
  6
CONTINUOUS
 62
     2
 10
84.876149067
 20
107.066987298
 30
0.0
 11
87.100135593
 21
107.066987298
 31
0.0
  0
LINE
  8
0
  6
CONTINUOUS
 62
     2
 10
84.876149067
 20
106.933012702
 30
0.0
 11
88.346815681
 21
106.933012702
 31
0.0
  0
LINE
  8
0
  6
CONTINUOUS
 62
     2
 10
84.876149067
 20
107.933012702
 30
0.0
 11
85.876149067
 21
107.933012702
 31
0.0
  0
LINE
  8
0
  6
CONTINUOUS
 62
     2
 10
85.376149067
 20
96.2
 30
0.0
 11
85.126149067
 21
96.2
 31
0.0
  0
ARC
  8
0
  6
CONTINUOUS
 62
     2
 10
85.626149067
 20
96.2
 30
0.0
 40
0.25
 50
180.0
 51
270.0
  0
LINE
  8
0
  6
CONTINUOUS
 62
     2
 10
85.626149067
 20
95.95
 30
0.0
 11
90.126149067
 21
95.95
 31
0.0
  0
LINE
  8
0
  6
CONTINUOUS
 62
     2
 10
85.126149067
 20
96.2
 30
0.0
 11
85.126149067
 21
102.5
 31
0.0
  0
LINE
  8
0
  6
CONTINUOUS
 62
     2
 10
89.526149067
 20
102.5
 30
0.0
 11
89.526149067
 21
106.806275526
 31
0.0
  0
LINE
  8
0
  6
CONTINUOUS
 62
     2
 10
89.526149067
 20
102.35
 30
0.0
 11
90.126149067
 21
102.35
 31
0.0
  0
LINE
  8
0
  6
CONTINUOUS
 62
     2
 10
89.526149067
 20
102.35
 30
0.0
 11
89.526149067
 21
102.5
 31
0.0
  0
LINE
  8
0
  6
CONTINUOUS
 62
     2
 10
89.526149067
 20
102.5
 30
0.0
 11
85.126149067
 21
102.5
 31
0.0
  0
LINE
  8
0
  6
CONTINUOUS
 62
     2
 10
90.126149067
 20
95.95
 30
0.0
 11
90.126149067
 21
102.35
 31
0.0
  0
LINE
  8
0
  6
CONTINUOUS
 62
     2
 10
92.626149067
 20
153.5
 30
0.0
 11
92.626149067
 21
161.0
 31
0.0
  0
LINE
  8
0
  6
CONTINUOUS
 62
     2
 10
92.626149067
 20
159.0
 30
0.0
 11
95.040963633
 21
158.352952387
 31
0.0
  0
LINE
  8
0
  6
CONTINUOUS
 62
     2
 10
92.626149067
 20
159.0
 30
0.0
 11
95.040963633
 21
159.647047613
 31
0.0
  0
LINE
  8
0
  6
CONTINUOUS
 62
     2
 10
92.626149067
 20
159.0
 30
0.0
 11
100.126149067
 21
159.0
 31
0.0
  0
LINE
  8
0
  6
CONTINUOUS
 62
     2
 10
100.126149067
 20
159.0
 30
0.0
 11
97.711334502
 21
159.647047613
 31
0.0
  0
LINE
  8
0
  6
CONTINUOUS
 62
     2
 10
100.126149067
 20
159.0
 30
0.0
 11
97.711334502
 21
158.352952387
 31
0.0
  0
LINE
  8
0
  6
CONTINUOUS
 62
     2
 10
100.126149067
 20
151.95
 30
0.0
 11
100.126149067
 21
161.0
 31
0.0
  0
TEXT
  8
0
  6
CONTINUOUS
 62
     2
 10
94.426149067
 20
160.0
 30
0.3
 40
3.0
  1
１５
 50
0.0
 41
0.6
 51
0.0
  7
KANJI7
  0
LINE
  8
0
  6
CONTINUOUS
 62
     2
 10
92.626149067
 20
159.0
 30
0.0
 11
95.040963633
 21
158.352952387
 31
0.0
  0
LINE
  8
0
  6
CONTINUOUS
 62
     2
 10
92.626149067
 20
159.0
 30
0.0
 11
95.040963633
 21
159.647047613
 31
0.0
  0
LINE
  8
0
  6
CONTINUOUS
 62
     2
 10
96.376149067
 20
159.0
 30
0.0
 11
92.626149067
 21
159.0
 31
0.0
  0
LINE
  8
0
  6
CONTINUOUS
 62
     2
 10
92.626149067
 20
159.0
 30
0.0
 11
92.376149067
 21
159.0
 31
0.0
  0
LINE
  8
0
  6
CONTINUOUS
 62
     2
 10
92.376149067
 20
159.0
 30
0.0
 11
88.626149067
 21
159.0
 31
0.0
  0
LINE
  8
0
  6
CONTINUOUS
 62
     2
 10
92.376149067
 20
159.0
 30
0.0
 11
89.961334502
 21
159.647047613
 31
0.0
  0
LINE
  8
0
  6
CONTINUOUS
 62
     2
 10
92.376149067
 20
159.0
 30
0.0
 11
89.961334502
 21
158.352952387
 31
0.0
  0
LINE
  8
0
  6
CONTINUOUS
 62
     2
 10
92.376149067
 20
157.5
 30
0.0
 11
92.376149067
 21
161.0
 31
0.0
  0
LINE
  8
0
  6
CONTINUOUS
 62
     2
 10
96.126149067
 20
159.0
 30
0.0
 11
92.376149067
 21
159.0
 31
0.0
  0
LINE
  8
0
  6
CONTINUOUS
 62
     2
 10
92.376149067
 20
159.0
 30
0.0
 11
85.726149067
 21
159.0
 31
0.0
  0
LINE
  8
0
  6
CONTINUOUS
 62
     2
 10
85.726149067
 20
159.0
 30
0.0
 11
81.976149067
 21
159.0
 31
0.0
  0
LINE
  8
0
  6
CONTINUOUS
 62
     2
 10
85.726149067
 20
159.0
 30
0.0
 11
83.311334502
 21
159.647047613
 31
0.0
  0
LINE
  8
0
  6
CONTINUOUS
 62
     2
 10
85.726149067
 20
159.0
 30
0.0
 11
83.311334502
 21
158.352952387
 31
0.0
  0
LINE
  8
0
  6
CONTINUOUS
 62
     2
 10
85.726149067
 20
156.0
 30
0.0
 11
85.726149067
 21
161.0
 31
0.0
  0
TEXT
  8
0
  6
CONTINUOUS
 62
     2
 10
85.501149067
 20
160.0
 30
0.2
 40
3.0
  1
１３．３
 50
0.0
 41
0.5
 51
0.0
  7
KANJI10
  0
LINE
  8
0
  6
CONTINUOUS
 62
     2
 10
84.876149067
 20
109.25
 30
0.0
 11
84.876149067
 21
168.5
 31
0.0
  0
LINE
  8
0
  6
CONTINUOUS
 62
     2
 10
84.876149067
 20
166.5
 30
0.0
 11
82.461334502
 21
167.147047613
 31
0.0
  0
LINE
  8
0
  6
CONTINUOUS
 62
     2
 10
84.876149067
 20
166.5
 30
0.0
 11
82.461334502
 21
165.852952387
 31
0.0
  0
LINE
  8
0
  6
CONTINUOUS
 62
     2
 10
81.126149067
 20
166.5
 30
0.0
 11
84.876149067
 21
166.5
 31
0.0
  0
LINE
  8
0
  6
CONTINUOUS
 62
     2
 10
84.876149067
 20
166.5
 30
0.0
 11
92.626149067
 21
166.5
 31
0.0
  0
LINE
  8
0
  6
CONTINUOUS
 62
     2
 10
92.626149067
 20
166.5
 30
0.0
 11
96.376149067
 21
166.5
 31
0.0
  0
LINE
  8
0
  6
CONTINUOUS
 62
     2
 10
92.626149067
 20
166.5
 30
0.0
 11
95.040963633
 21
165.852952387
 31
0.0
  0
LINE
  8
0
  6
CONTINUOUS
 62
     2
 10
92.626149067
 20
166.5
 30
0.0
 11
95.040963633
 21
167.147047613
 31
0.0
  0
LINE
  8
0
  6
CONTINUOUS
 62
     2
 10
92.626149067
 20
161.0
 30
0.0
 11
92.626149067
 21
168.5
 31
0.0
  0
TEXT
  8
0
  6
CONTINUOUS
 62
     2
 10
88.351149067
 20
163.2
 30
0.2
 40
3.0
  1
０．５
 50
0.0
 41
0.5
 51
0.0
  7
KANJI10
  0
LINE
  8
0
  6
CONTINUOUS
 62
     2
 10
92.526149067
 20
160.95
 30
0.0
 11
90.892815734
 21
163.4
 31
0.0
  0
TEXT
  8
0
  6
CONTINUOUS
 62
     2
 10
84.701149067
 20
167.5
 30
0.3
 40
3.0
  1
１５．５
 50
0.0
 41
0.6
 51
0.0
  7
KANJI7
  0
LINE
  8
0
  6
CONTINUOUS
 62
     2
 10
92.626149067
 20
166.5
 30
0.0
 11
95.040963633
 21
165.852952387
 31
0.0
  0
LINE
  8
0
  6
CONTINUOUS
 62
     2
 10
92.626149067
 20
166.5
 30
0.0
 11
95.040963633
 21
167.147047613
 31
0.0
  0
LINE
  8
0
  6
CONTINUOUS
 62
     2
 10
92.626149067
 20
166.5
 30
0.0
 11
125.376149067
 21
166.5
 31
0.0
  0
LINE
  8
0
  6
CONTINUOUS
 62
     2
 10
125.376149067
 20
166.5
 30
0.0
 11
122.961334502
 21
167.147047613
 31
0.0
  0
LINE
  8
0
  6
CONTINUOUS
 62
     2
 10
125.376149067
 20
166.5
 30
0.0
 11
122.961334502
 21
165.852952387
 31
0.0
  0
LINE
  8
0
  6
CONTINUOUS
 62
     2
 10
125.376149067
 20
150.93848108
 30
0.0
 11
125.376149067
 21
168.5
 31
0.0
  0
TEXT
  8
0
  6
CONTINUOUS
 62
     2
 10
104.951149067
 20
167.5
 30
0.3
 40
3.0
  1
６５．５
 50
0.0
 41
0.6
 51
0.0
  7
KANJI7
  0
LINE
  8
0
  6
CONTINUOUS
 62
     2
 10
125.376149067
 20
166.5
 30
0.0
 11
127.790963633
 21
165.852952387
 31
0.0
  0
LINE
  8
0
  6
CONTINUOUS
 62
     2
 10
125.376149067
 20
166.5
 30
0.0
 11
127.790963633
 21
167.147047613
 31
0.0
  0
LINE
  8
0
  6
CONTINUOUS
 62
     2
 10
125.376149067
 20
166.5
 30
0.0
 11
133.376149067
 21
166.5
 31
0.0
  0
LINE
  8
0
  6
CONTINUOUS
 62
     2
 10
133.376149067
 20
166.5
 30
0.0
 11
130.961334502
 21
167.147047613
 31
0.0
  0
LINE
  8
0
  6
CONTINUOUS
 62
     2
 10
133.376149067
 20
166.5
 30
0.0
 11
130.961334502
 21
165.852952387
 31
0.0
  0
LINE
  8
0
  6
CONTINUOUS
 62
     2
 10
133.376149067
 20
149.3541576
 30
0.0
 11
133.376149067
 21
168.5
 31
0.0
  0
TEXT
  8
0
  6
CONTINUOUS
 62
     2
 10
127.426149067
 20
167.5
 30
0.3
 40
3.0
  1
１６
 50
0.0
 41
0.6
 51
0.0
  7
KANJI7
  0
LINE
  8
0
  6
CONTINUOUS
 62
     2
 10
90.326149067
 20
102.6
 30
0.0
 11
89.526149067
 21
102.6
 31
0.0
  0
LINE
  8
0
  6
CONTINUOUS
 62
     2
 10
90.326149067
 20
102.6
 30
0.0
 11
90.326149067
 21
106.3
 31
0.0
  0
LINE
  8
0
  6
CONTINUOUS
 62
     2
 10
90.326149067
 20
106.3
 30
0.0
 11
89.526149067
 21
106.3
 31
0.0
  0
LINE
  8
0
  6
CONTINUOUS
 62
     2
 10
90.326149067
 20
104.425
 30
0.0
 11
91.226149067
 21
104.425
 31
0.0
  0
LINE
  8
0
  6
CONTINUOUS
 62
     2
 10
91.226149067
 20
104.425
 30
0.0
 11
91.226149067
 21
105.575
 31
0.0
  0
LINE
  8
0
  6
CONTINUOUS
 62
     2
 10
91.226149067
 20
105.575
 30
0.0
 11
90.326149067
 21
105.575
 31
0.0
  0
ARC
  8
0
  6
CONTINUOUS
 62
     1
 10
124.626149067
 20
110.06151892
 30
0.0
 40
0.75
 50
271.005086005
 51
0.0
  0
ARC
  8
0
  6
CONTINUOUS
 62
     1
 10
124.626149067
 20
149.93848108
 30
0.0
 40
0.75
 50
0.0
 51
88.994913995
  0
LINE
  8
0
  6
CONTINUOUS
 62
     1
 10
106.876149067
 20
151.0
 30
0.0
 11
106.876149067
 21
151.15
 31
0.0
  0
LINE
  8
0
  6
CONTINUOUS
 62
     1
 10
92.376149067
 20
151.35
 30
0.0
 11
106.876149067
 21
151.15
 31
0.0
  0
LINE
  8
0
  6
CONTINUOUS
 62
     1
 10
96.376149067
 20
148.893140883
 30
0.0
 11
106.876149067
 21
148.893140883
 31
0.0
  0
LINE
  8
0
  6
CONTINUOUS
 62
     1
 10
106.876149067
 20
149.706614169
 30
0.0
 11
100.126149067
 21
149.706614169
 31
0.0
  0
LINE
  8
0
  6
CONTINUOUS
 62
     1
 10
124.639304938
 20
150.688365686
 30
0.0
 11
106.876149067
 21
151.0
 31
0.0
  0
LINE
  8
0
  6
CONTINUOUS
 62
     1
 10
106.876149067
 20
116.507824736
 30
0.0
 11
106.876149067
 21
151.0
 31
0.0
  0
LINE
  8
0
  6
CONTINUOUS
 62
     1
 10
96.376149067
 20
137.479456494
 30
0.0
 11
96.376149067
 21
135.577343461
 31
0.0
  0
LINE
  8
0
  6
CONTINUOUS
 62
     1
 10
96.376149067
 20
142.642740394
 30
0.0
 11
96.376149067
 21
140.984665249
 31
0.0
  0
LINE
  8
0
  6
CONTINUOUS
 62
     1
 10
96.376149067
 20
146.826507651
 30
0.0
 11
96.376149067
 21
145.540932432
 31
0.0
  0
LINE
  8
0
  6
CONTINUOUS
 62
     1
 10
106.876149067
 20
146.826507651
 30
0.0
 11
96.376149067
 21
146.826507651
 31
0.0
  0
LINE
  8
0
  6
CONTINUOUS
 62
     1
 10
106.876149067
 20
116.507824736
 30
0.0
 11
92.376149067
 21
116.365284451
 31
0.0
  0
LINE
  8
0
  6
CONTINUOUS
 62
     1
 10
92.376149067
 20
106.5
 30
0.0
 11
92.376149067
 21
156.5
 31
0.0
  0
LINE
  8
0
  6
CONTINUOUS
 62
     1
 10
85.876149067
 20
155.30437491
 30
0.0
 11
85.876149067
 21
107.662683264
 31
0.0
  0
LINE
  8
0
  6
CONTINUOUS
 62
     1
 10
92.376149067
 20
106.5
 30
0.0
 11
86.321505807
 21
107.165678119
 31
0.0
  0
ARC
  8
0
  6
CONTINUOUS
 62
     1
 10
86.376149067
 20
107.662683264
 30
0.0
 40
0.5
 50
180.0
 51
263.725811701
  0
ARC
  8
0
  6
CONTINUOUS
 62
     1
 10
86.376149067
 20
155.30437491
 30
0.0
 40
0.5
 50
96.581944655
 51
180.0
  0
LINE
  8
0
  6
CONTINUOUS
 62
     1
 10
92.376149067
 20
156.5
 30
0.0
 11
86.318837013
 21
155.801079378
 31
0.0
  0
LINE
  8
0
  6
CONTINUOUS
 62
     1
 10
129.884039871
 20
146.86560507
 30
0.0
 11
125.376149067
 21
147.007959516
 31
0.0
  0
ARC
  8
0
  6
CONTINUOUS
 62
     1
 10
129.876149067
 20
146.61572963
 30
0.0
 40
0.25
 50
0.0
 51
88.191260678
  0
LINE
  8
0
  6
CONTINUOUS
 62
     1
 10
125.376149067
 20
140.707959516
 30
0.0
 11
129.884039871
 21
140.850313963
 31
0.0
  0
ARC
  8
0
  6
CONTINUOUS
 62
     1
 10
129.876149067
 20
141.100189402
 30
0.0
 40
0.25
 50
271.808739322
 51
0.0
  0
LINE
  8
0
  6
CONTINUOUS
 62
     1
 10
125.376149067
 20
148.3541576
 30
0.0
 11
133.126149067
 21
148.3541576
 31
0.0
  0
ARC
  8
0
  6
CONTINUOUS
 62
     1
 10
133.126149067
 20
148.1041576
 30
0.0
 40
0.25
 50
0.0
 51
90.0
  0
LINE
  8
0
  6
CONTINUOUS
 62
     1
 10
133.376149067
 20
148.1041576
 30
0.0
 11
133.376149067
 21
141.350190707
 31
0.0
  0
ARC
  8
0
  6
CONTINUOUS
 62
     1
 10
133.126149067
 20
141.350190707
 30
0.0
 40
0.25
 50
270.0
 51
0.0
  0
LINE
  8
0
  6
CONTINUOUS
 62
     1
 10
130.126149067
 20
148.3541576
 30
0.0
 11
130.126149067
 21
148.513701869
 31
0.0
  0
LINE
  8
0
  6
CONTINUOUS
 62
     1
 10
129.884076563
 20
148.763576147
 30
0.0
 11
125.376149067
 21
148.906594368
 31
0.0
  0
ARC
  8
0
  6
CONTINUOUS
 62
     1
 10
129.876149067
 20
148.513701869
 30
0.0
 40
0.25
 50
0.0
 51
88.182847254
  0
LINE
  8
0
  6
CONTINUOUS
 62
     1
 10
125.376149067
 20
149.5
 30
0.0
 11
133.126149067
 21
149.5
 31
0.0
  0
LINE
  8
0
  6
CONTINUOUS
 62
     1
 10
133.376149067
 20
149.25
 30
0.0
 11
133.376149067
 21
148.1041576
 31
0.0
  0
ARC
  8
0
  6
CONTINUOUS
 62
     1
 10
133.126149067
 20
149.25
 30
0.0
 40
0.25
 50
0.0
 51
90.0
  0
ARC
  8
0
  6
CONTINUOUS
 62
     2
 10
131.029450419
 20
142.783823882
 30
0.0
 40
0.65
 50
278.533869283
 51
335.453150525
  0
ARC
  8
0
  6
CONTINUOUS
 62
     2
 10
131.029450419
 20
144.93209515
 30
0.0
 40
0.65
 50
24.546849475
 51
81.466130717
  0
ARC
  8
0
  6
CONTINUOUS
 62
     2
 10
127.326149067
 20
143.857959516
 30
0.0
 40
4.5
 50
342.620197172
 51
17.379802828
  0
LINE
  8
0
  6
CONTINUOUS
 62
     2
 10
130.526149067
 20
145.607959516
 30
0.0
 11
131.125906534
 21
145.576527559
 31
0.0
  0
LINE
  8
0
  6
CONTINUOUS
 62
     2
 10
130.526149067
 20
142.107959516
 30
0.0
 11
131.125906534
 21
142.139391473
 31
0.0
  0
LINE
  8
0
  6
CONTINUOUS
 62
     2
 10
131.819199256
 20
144.107959516
 30
0.0
 11
131.126149067
 21
144.107959516
 31
0.0
  0
LINE
  8
0
  6
CONTINUOUS
 62
     2
 10
131.126149067
 20
143.607959516
 30
0.0
 11
131.126149067
 21
144.107959516
 31
0.0
  0
LINE
  8
0
  6
CONTINUOUS
 62
     2
 10
131.126149067
 20
143.607959516
 30
0.0
 11
131.819199256
 21
143.607959516
 31
0.0
  0
LINE
  8
0
  6
CONTINUOUS
 62
     2
 10
130.526149067
 20
145.607959516
 30
0.0
 11
130.526149067
 21
142.107959516
 31
0.0
  0
LINE
  8
0
  6
CONTINUOUS
 62
     2
 10
130.526149067
 20
145.607959516
 30
0.0
 11
130.126149067
 21
145.607959516
 31
0.0
  0
LINE
  8
0
  6
CONTINUOUS
 62
     2
 10
130.126149067
 20
145.607959516
 30
0.0
 11
130.126149067
 21
142.107959516
 31
0.0
  0
LINE
  8
0
  6
CONTINUOUS
 62
     2
 10
130.126149067
 20
142.107959516
 30
0.0
 11
130.526149067
 21
142.107959516
 31
0.0
  0
LINE
  8
0
  6
CONTINUOUS
 62
     1
 10
130.126149067
 20
141.100190707
 30
0.0
 11
130.126149067
 21
146.6041576
 31
0.0
  0
LINE
  8
0
  6
CONTINUOUS
 62
     1
 10
123.626149067
 20
127.149390244
 30
0.0
 11
123.626149067
 21
132.850609756
 31
0.0
  0
ARC
  8
0
  6
CONTINUOUS
 62
     2
 10
124.529450419
 20
128.925864366
 30
0.0
 40
0.65
 50
278.533869283
 51
335.453150525
  0
ARC
  8
0
  6
CONTINUOUS
 62
     2
 10
124.529450419
 20
131.074135634
 30
0.0
 40
0.65
 50
24.546849475
 51
81.466130717
  0
ARC
  8
0
  6
CONTINUOUS
 62
     2
 10
120.826149067
 20
130.0
 30
0.0
 40
4.5
 50
342.620197172
 51
17.379802828
  0
LINE
  8
0
  6
CONTINUOUS
 62
     2
 10
124.026149067
 20
131.75
 30
0.0
 11
124.625906534
 21
131.718568043
 31
0.0
  0
LINE
  8
0
  6
CONTINUOUS
 62
     2
 10
124.026149067
 20
128.25
 30
0.0
 11
124.625906534
 21
128.281431957
 31
0.0
  0
LINE
  8
0
  6
CONTINUOUS
 62
     2
 10
125.319199256
 20
130.25
 30
0.0
 11
124.626149067
 21
130.25
 31
0.0
  0
LINE
  8
0
  6
CONTINUOUS
 62
     2
 10
124.626149067
 20
129.75
 30
0.0
 11
124.626149067
 21
130.25
 31
0.0
  0
LINE
  8
0
  6
CONTINUOUS
 62
     2
 10
124.626149067
 20
129.75
 30
0.0
 11
125.319199256
 21
129.75
 31
0.0
  0
LINE
  8
0
  6
CONTINUOUS
 62
     2
 10
124.026149067
 20
131.75
 30
0.0
 11
124.026149067
 21
128.25
 31
0.0
  0
LINE
  8
0
  6
CONTINUOUS
 62
     2
 10
124.026149067
 20
131.75
 30
0.0
 11
123.626149067
 21
131.75
 31
0.0
  0
LINE
  8
0
  6
CONTINUOUS
 62
     2
 10
123.626149067
 20
128.25
 30
0.0
 11
124.026149067
 21
128.25
 31
0.0
  0
LINE
  8
0
  6
CONTINUOUS
 62
     1
 10
125.126149067
 20
127.149390244
 30
0.0
 11
123.626149067
 21
127.149390244
 31
0.0
  0
LINE
  8
0
  6
CONTINUOUS
 62
     1
 10
125.376149067
 20
110.06151892
 30
0.0
 11
125.376149067
 21
126.899390244
 31
0.0
  0
ARC
  8
0
  6
CONTINUOUS
 62
     1
 10
125.126149067
 20
126.899390244
 30
0.0
 40
0.25
 50
0.0
 51
90.0
  0
LINE
  8
0
  6
CONTINUOUS
 62
     1
 10
123.626149067
 20
132.850609756
 30
0.0
 11
125.126149067
 21
132.850609756
 31
0.0
  0
LINE
  8
0
  6
CONTINUOUS
 62
     1
 10
125.376149067
 20
133.100609756
 30
0.0
 11
125.376149067
 21
149.93848108
 31
0.0
  0
ARC
  8
0
  6
CONTINUOUS
 62
     1
 10
125.126149067
 20
133.100609756
 30
0.0
 40
0.25
 50
270.0
 51
0.0
  0
LINE
  8
0
  6
CONTINUOUS
 62
     1
 10
125.376149067
 20
126.899390244
 30
0.0
 11
125.376149067
 21
133.100609756
 31
0.0
  0
LINE
  8
0
  6
CONTINUOUS
 62
     1
 10
124.639304938
 20
109.311634314
 30
0.0
 11
95.298402971
 21
108.796881647
 31
0.0
  0
LINE
  8
0
  6
CONTINUOUS
 62
     2
 10
96.948402971
 20
109.05
 30
0.0
 11
97.595450583
 21
106.635185434
 31
0.0
  0
LINE
  8
0
  6
CONTINUOUS
 62
     2
 10
96.948402971
 20
109.05
 30
0.0
 11
98.716169923
 21
107.282233047
 31
0.0
  0
LINE
  8
0
  6
CONTINUOUS
 62
     2
 10
96.948402971
 20
109.05
 30
0.0
 11
101.191927449
 21
101.7
 31
0.0
  0
LINE
  8
0
  6
CONTINUOUS
 62
     2
 10
101.191927449
 20
101.7
 30
0.0
 11
123.541927449
 21
101.7
 31
0.0
  0
TEXT
  8
0
  6
CONTINUOUS
 62
     2
 10
101.191927449
 20
102.7
 30
0.3
 40
3.0
  1
Ｍ４取付ボルト
 50
0.0
 41
0.9
 51
0.0
  7
KANJI0
  0
LINE
  8
0
  6
CONTINUOUS
 62
     2
 10
131.49182358
 20
142.326974826
 30
0.0
 11
132.138871193
 21
139.91216026
 31
0.0
  0
LINE
  8
0
  6
CONTINUOUS
 62
     2
 10
131.49182358
 20
142.326974826
 30
0.0
 11
133.259590533
 21
140.559207873
 31
0.0
  0
LINE
  8
0
  6
CONTINUOUS
 62
     2
 10
131.49182358
 20
142.326974826
 30
0.0
 11
134.638382547
 21
136.876974826
 31
0.0
  0
TEXT
  8
0
  6
CONTINUOUS
 62
     2
 10
134.638382547
 20
137.876974826
 30
0.3
 40
3.0
  1
Ｍ４ターミナルネシ゛
 50
0.0
 41
0.9
 51
0.0
  7
KANJI0
  0
LINE
  8
0
  6
CONTINUOUS
 62
     2
 10
134.638382547
 20
136.876974826
 30
0.0
 11
152.988382547
 21
136.876974826
 31
0.0
  0
LINE
  8
0
  6
CONTINUOUS
 62
     2
 10
154.0
 20
155.0
 30
0.0
 11
154.0
 21
168.5
 31
0.0
  0
LINE
  8
0
  6
CONTINUOUS
 62
     2
 10
154.0
 20
166.5
 30
0.0
 11
156.414814566
 21
165.852952387
 31
0.0
  0
LINE
  8
0
  6
CONTINUOUS
 62
     2
 10
154.0
 20
166.5
 30
0.0
 11
156.414814566
 21
167.147047613
 31
0.0
  0
LINE
  8
0
  6
CONTINUOUS
 62
     2
 10
154.0
 20
166.5
 30
0.0
 11
209.0
 21
166.5
 31
0.0
  0
LINE
  8
0
  6
CONTINUOUS
 62
     2
 10
209.0
 20
166.5
 30
0.0
 11
206.585185434
 21
167.147047613
 31
0.0
  0
LINE
  8
0
  6
CONTINUOUS
 62
     2
 10
209.0
 20
166.5
 30
0.0
 11
206.585185434
 21
165.852952387
 31
0.0
  0
LINE
  8
0
  6
CONTINUOUS
 62
     2
 10
209.0
 20
155.0
 30
0.0
 11
209.0
 21
168.5
 31
0.0
  0
TEXT
  8
0
  6
CONTINUOUS
 62
     2
 10
178.5
 20
167.5
 30
0.3
 40
3.0
  1
１１０
 50
0.0
 41
0.6
 51
0.0
  7
KANJI7
  0
LINE
  8
0
  6
CONTINUOUS
 62
     2
 10
207.5
 20
156.5
 30
0.0
 11
222.0
 21
156.5
 31
0.0
  0
LINE
  8
0
  6
CONTINUOUS
 62
     2
 10
220.0
 20
156.5
 30
0.0
 11
219.352952387
 21
154.085185434
 31
0.0
  0
LINE
  8
0
  6
CONTINUOUS
 62
     2
 10
220.0
 20
156.5
 30
0.0
 11
220.647047613
 21
154.085185434
 31
0.0
  0
LINE
  8
0
  6
CONTINUOUS
 62
     2
 10
220.0
 20
156.5
 30
0.0
 11
220.0
 21
106.5
 31
0.0
  0
LINE
  8
0
  6
CONTINUOUS
 62
     2
 10
220.0
 20
106.5
 30
0.0
 11
220.647047613
 21
108.914814566
 31
0.0
  0
LINE
  8
0
  6
CONTINUOUS
 62
     2
 10
220.0
 20
106.5
 30
0.0
 11
219.352952387
 21
108.914814566
 31
0.0
  0
LINE
  8
0
  6
CONTINUOUS
 62
     2
 10
207.5
 20
106.5
 30
0.0
 11
222.0
 21
106.5
 31
0.0
  0
TEXT
  8
0
  6
CONTINUOUS
 62
     2
 10
219.0
 20
128.5
 30
0.3
 40
3.0
  1
１００
 50
90.0
 41
0.6
 51
0.0
  7
KANJI7
  0
LINE
  8
0
  6
CONTINUOUS
 62
     2
 10
220.0
 20
106.5
 30
0.0
 11
220.647047613
 21
108.914814566
 31
0.0
  0
LINE
  8
0
  6
CONTINUOUS
 62
     2
 10
220.0
 20
106.5
 30
0.0
 11
219.352952387
 21
108.914814566
 31
0.0
  0
LINE
  8
0
  6
CONTINUOUS
 62
     2
 10
220.0
 20
110.25
 30
0.0
 11
220.0
 21
106.5
 31
0.0
  0
LINE
  8
0
  6
CONTINUOUS
 62
     2
 10
220.0
 20
106.5
 30
0.0
 11
220.0
 21
102.5
 31
0.0
  0
LINE
  8
0
  6
CONTINUOUS
 62
     2
 10
220.0
 20
102.5
 30
0.0
 11
220.0
 21
98.75
 31
0.0
  0
LINE
  8
0
  6
CONTINUOUS
 62
     2
 10
220.0
 20
102.5
 30
0.0
 11
219.352952387
 21
100.085185434
 31
0.0
  0
LINE
  8
0
  6
CONTINUOUS
 62
     2
 10
220.0
 20
102.5
 30
0.0
 11
220.647047613
 21
100.085185434
 31
0.0
  0
LINE
  8
0
  6
CONTINUOUS
 62
     2
 10
205.5
 20
102.5
 30
0.0
 11
222.0
 21
102.5
 31
0.0
  0
TEXT
  8
0
  6
CONTINUOUS
 62
     2
 10
219.0
 20
103.6
 30
0.3
 40
3.0
  1
８
 50
90.0
 41
0.6
 51
0.0
  7
KANJI7
  0
LINE
  8
0
  6
CONTINUOUS
 62
     2
 10
220.0
 20
102.5
 30
0.0
 11
219.352952387
 21
100.085185434
 31
0.0
  0
LINE
  8
0
  6
CONTINUOUS
 62
     2
 10
220.0
 20
102.5
 30
0.0
 11
220.647047613
 21
100.085185434
 31
0.0
  0
LINE
  8
0
  6
CONTINUOUS
 62
     2
 10
220.0
 20
102.5
 30
0.0
 11
220.0
 21
95.95
 31
0.0
  0
LINE
  8
0
  6
CONTINUOUS
 62
     2
 10
220.0
 20
95.95
 30
0.0
 11
220.647047613
 21
98.364814566
 31
0.0
  0
LINE
  8
0
  6
CONTINUOUS
 62
     2
 10
220.0
 20
95.95
 30
0.0
 11
219.352952387
 21
98.364814566
 31
0.0
  0
TEXT
  8
0
  6
CONTINUOUS
 62
     2
 10
219.0
 20
97.275
 30
0.3
 40
3.0
  1
１３
 50
90.0
 41
0.6
 51
0.0
  7
KANJI7
  0
LINE
  8
0
  6
LTYPE3
 62
     2
 10
130.376149067
 20
131.5
 30
0.0
 11
80.376149067
 21
131.5
 31
0.0
  0
LINE
  8
0
  6
CONTINUOUS
 62
     2
 10
162.75
 20
106.3
 30
0.0
 11
158.75
 21
106.3
 31
0.0
  0
LINE
  8
0
  6
CONTINUOUS
 62
     2
 10
162.75
 20
106.3
 30
0.0
 11
162.75
 21
104.0
 31
0.0
  0
LINE
  8
0
  6
CONTINUOUS
 62
     2
 10
159.0
 20
102.6
 30
0.0
 11
158.75
 21
102.85
 31
0.0
  0
ARC
  8
0
  6
CONTINUOUS
 62
     2
 10
158.0
 20
103.5
 30
0.0
 40
0.5
 50
300.0
 51
60.0
  0
ARC
  8
0
  6
CONTINUOUS
 62
     2
 10
158.0
 20
104.5
 30
0.0
 40
0.5
 50
300.0
 51
60.0
  0
ARC
  8
0
  6
CONTINUOUS
 62
     2
 10
158.0
 20
105.5
 30
0.0
 40
0.5
 50
300.0
 51
60.0
  0
LINE
  8
0
  6
CONTINUOUS
 62
     2
 10
158.75
 20
102.85
 30
0.0
 11
158.75
 21
106.3
 31
0.0
  0
LINE
  8
0
  6
CONTINUOUS
 62
     2
 10
162.75
 20
104.0
 30
0.0
 11
194.021565929
 21
104.0
 31
0.0
  0
LINE
  8
0
  6
CONTINUOUS
 62
     2
 10
191.925
 20
104.0
 30
0.0
 11
191.925
 21
106.25
 31
0.0
  0
LINE
  8
0
  6
CONTINUOUS
 62
     2
 10
200.25
 20
106.3
 30
0.0
 11
200.25
 21
104.0
 31
0.0
  0
LINE
  8
0
  6
CONTINUOUS
 62
     2
 10
199.925
 20
106.25
 30
0.0
 11
199.925
 21
104.0
 31
0.0
  0
LINE
  8
0
  6
CONTINUOUS
 62
     2
 10
199.175
 20
104.0
 30
0.0
 11
199.925
 21
104.0
 31
0.0
  0
LINE
  8
0
  6
CONTINUOUS
 62
     2
 10
197.610534774
 20
104.0
 30
0.0
 11
200.25
 21
104.0
 31
0.0
  0
LINE
  8
0
  6
CONTINUOUS
 62
     2
 10
194.317175976
 20
106.25
 30
0.0
 11
196.10696181
 21
106.25
 31
0.0
  0
LINE
  8
0
  6
CONTINUOUS
 62
     2
 10
197.74070706
 20
106.25
 30
0.0
 11
199.925
 21
106.25
 31
0.0
  0
LINE
  8
0
  6
CONTINUOUS
 62
     2
 10
204.25
 20
102.85
 30
0.0
 11
204.0
 21
102.6
 31
0.0
  0
LINE
  8
0
  6
CONTINUOUS
 62
     2
 10
200.25
 20
106.3
 30
0.0
 11
204.25
 21
106.3
 31
0.0
  0
LINE
  8
0
  6
CONTINUOUS
 62
     2
 10
204.25
 20
106.3
 30
0.0
 11
204.25
 21
102.85
 31
0.0
  0
ARC
  8
0
  6
CONTINUOUS
 62
     2
 10
199.425
 20
96.95
 30
0.0
 40
0.5
 50
120.0
 51
240.0
  0
ARC
  8
0
  6
CONTINUOUS
 62
     2
 10
199.425
 20
98.45
 30
0.0
 40
0.5
 50
120.0
 51
240.0
  0
LINE
  8
0
  6
CONTINUOUS
 62
     2
 10
199.175
 20
97.383012702
 30
0.0
 11
199.175
 21
98.016987298
 31
0.0
  0
ARC
  8
0
  6
CONTINUOUS
 62
     2
 10
199.425
 20
99.95
 30
0.0
 40
0.5
 50
120.0
 51
240.0
  0
LINE
  8
0
  6
CONTINUOUS
 62
     2
 10
199.175
 20
98.883012702
 30
0.0
 11
199.175
 21
99.516987298
 31
0.0
  0
ARC
  8
0
  6
CONTINUOUS
 62
     2
 10
199.425
 20
101.45
 30
0.0
 40
0.5
 50
120.0
 51
240.0
  0
LINE
  8
0
  6
CONTINUOUS
 62
     2
 10
199.175
 20
100.383012702
 30
0.0
 11
199.175
 21
101.016987298
 31
0.0
  0
ARC
  8
0
  6
CONTINUOUS
 62
     2
 10
192.425
 20
96.95
 30
0.0
 40
0.5
 50
300.0
 51
60.0
  0
ARC
  8
0
  6
CONTINUOUS
 62
     2
 10
192.425
 20
98.45
 30
0.0
 40
0.5
 50
300.0
 51
60.0
  0
LINE
  8
0
  6
CONTINUOUS
 62
     2
 10
192.675
 20
97.383012702
 30
0.0
 11
192.675
 21
98.016987298
 31
0.0
  0
ARC
  8
0
  6
CONTINUOUS
 62
     2
 10
192.425
 20
99.95
 30
0.0
 40
0.5
 50
300.0
 51
60.0
  0
LINE
  8
0
  6
CONTINUOUS
 62
     2
 10
192.675
 20
98.883012702
 30
0.0
 11
192.675
 21
99.516987298
 31
0.0
  0
ARC
  8
0
  6
CONTINUOUS
 62
     2
 10
192.425
 20
101.45
 30
0.0
 40
0.5
 50
300.0
 51
60.0
  0
LINE
  8
0
  6
CONTINUOUS
 62
     2
 10
192.675
 20
100.383012702
 30
0.0
 11
192.675
 21
101.016987298
 31
0.0
  0
LINE
  8
0
  6
CONTINUOUS
 62
     2
 10
192.675
 20
96.516987298
 30
0.0
 11
192.675
 21
96.2
 31
0.0
  0
ARC
  8
0
  6
CONTINUOUS
 62
     2
 10
192.925
 20
96.2
 30
0.0
 40
0.25
 50
180.0
 51
270.0
  0
LINE
  8
0
  6
CONTINUOUS
 62
     2
 10
199.175
 20
96.516987298
 30
0.0
 11
199.175
 21
96.2
 31
0.0
  0
LINE
  8
0
  6
CONTINUOUS
 62
     2
 10
192.925
 20
95.95
 30
0.0
 11
198.925
 21
95.95
 31
0.0
  0
ARC
  8
0
  6
CONTINUOUS
 62
     2
 10
198.925
 20
96.2
 30
0.0
 40
0.25
 50
270.0
 51
0.0
  0
LINE
  8
0
  6
CONTINUOUS
 62
     2
 10
197.675
 20
100.95
 30
0.0
 11
194.175
 21
100.95
 31
0.0
  0
LINE
  8
0
  6
CONTINUOUS
 62
     2
 10
194.175
 20
100.95
 30
0.0
 11
194.175
 21
97.95
 31
0.0
  0
ARC
  8
0
  6
CONTINUOUS
 62
     2
 10
194.675
 20
97.95
 30
0.0
 40
0.5
 50
180.0
 51
270.0
  0
LINE
  8
0
  6
CONTINUOUS
 62
     2
 10
197.675
 20
97.95
 30
0.0
 11
197.675
 21
100.95
 31
0.0
  0
LINE
  8
0
  6
CONTINUOUS
 62
     2
 10
194.675
 20
97.45
 30
0.0
 11
197.175
 21
97.45
 31
0.0
  0
ARC
  8
0
  6
CONTINUOUS
 62
     2
 10
197.175
 20
97.95
 30
0.0
 40
0.5
 50
270.0
 51
0.0
  0
LINE
  8
0
  6
CONTINUOUS
 62
     2
 10
192.675
 20
102.35
 30
0.0
 11
194.175
 21
102.35
 31
0.0
  0
LINE
  8
0
  6
CONTINUOUS
 62
     2
 10
197.675
 20
102.35
 30
0.0
 11
199.175
 21
102.35
 31
0.0
  0
LINE
  8
0
  6
CONTINUOUS
 62
     2
 10
192.675
 20
101.883012702
 30
0.0
 11
192.675
 21
102.5
 31
0.0
  0
LINE
  8
0
  6
CONTINUOUS
 62
     2
 10
194.175
 20
100.95
 30
0.0
 11
194.175
 21
102.5
 31
0.0
  0
LINE
  8
0
  6
CONTINUOUS
 62
     2
 10
197.675
 20
102.5
 30
0.0
 11
197.675
 21
100.95
 31
0.0
  0
LINE
  8
0
  6
CONTINUOUS
 62
     2
 10
199.175
 20
101.883012702
 30
0.0
 11
199.175
 21
102.5
 31
0.0
  0
LINE
  8
0
  6
CONTINUOUS
 62
     2
 10
199.925
 20
95.95
 30
0.0
 11
222.0
 21
95.95
 31
0.0
  0
LINE
  8
0
  6
CONTINUOUS
 62
     2
 10
158.5
 20
102.5
 30
0.0
 11
204.5
 21
102.5
 31
0.0
  0
LINE
  8
0
  6
CONTINUOUS
 62
     2
 10
204.0
 20
102.6
 30
0.0
 11
159.0
 21
102.6
 31
0.0
  0
CIRCLE
  8
0
  6
CONTINUOUS
 62
     2
 10
195.925
 20
105.0
 30
0.0
 40
0.75
  0
LINE
  8
0
  6
CONTINUOUS
 62
     2
 10
191.925
 20
106.25
 30
0.0
 11
192.325317547
 21
106.25
 31
0.0
  0
LINE
  8
0
  6
CONTINUOUS
 62
     2
 10
195.733350723
 20
104.0
 30
0.0
 11
196.516649277
 21
104.0
 31
0.0
  0
TEXT
  8
0
  6
CONTINUOUS
 62
     2
 10
169.096480825
 20
123.993525404
 30
0.3
 40
3.0
  1
８５
 50
30.0
 41
0.6
 51
0.0
  7
KANJI7
  0
TEXT
  8
0
  6
CONTINUOUS
 62
     2
 10
172.863691331
 20
126.168525404
 30
0.18
 40
1.8
  1
±１
 50
30.0
 41
0.6
 51
0.0
  7
KANJI8
  0
LINE
  8
0
  6
LTYPE3
 62
     2
 10
181.5
 20
81.0
 30
0.0
 11
181.5
 21
31.0
 31
0.0
  0
LINE
  8
0
  6
LTYPE3
 62
     2
 10
156.5
 20
56.0
 30
0.0
 11
206.5
 21
56.0
 31
0.0
  0
CIRCLE
  8
0
  6
CONTINUOUS
 62
     2
 10
201.5
 20
36.0
 30
0.0
 40
1.125
  0
LINE
  8
0
  6
LTYPE3
 62
     2
 10
203.5
 20
36.0
 30
0.0
 11
199.5
 21
36.0
 31
0.0
  0
LINE
  8
0
  6
LTYPE3
 62
     2
 10
201.5
 20
38.0
 30
0.0
 11
201.5
 21
34.0
 31
0.0
  0
LINE
  8
0
  6
LTYPE3
 62
     2
 10
203.5
 20
76.0
 30
0.0
 11
199.5
 21
76.0
 31
0.0
  0
LINE
  8
0
  6
LTYPE3
 62
     2
 10
201.5
 20
74.0
 30
0.0
 11
201.5
 21
78.0
 31
0.0
  0
CIRCLE
  8
0
  6
CONTINUOUS
 62
     2
 10
161.5
 20
36.0
 30
0.0
 40
1.125
  0
LINE
  8
0
  6
LTYPE3
 62
     2
 10
159.5
 20
36.0
 30
0.0
 11
163.5
 21
36.0
 31
0.0
  0
LINE
  8
0
  6
LTYPE3
 62
     2
 10
161.5
 20
38.0
 30
0.0
 11
161.5
 21
34.0
 31
0.0
  0
CIRCLE
  8
0
  6
CONTINUOUS
 62
     2
 10
161.5
 20
76.0
 30
0.0
 40
1.125
  0
LINE
  8
0
  6
LTYPE3
 62
     2
 10
159.5
 20
76.0
 30
0.0
 11
163.5
 21
76.0
 31
0.0
  0
LINE
  8
0
  6
LTYPE3
 62
     2
 10
161.5
 20
74.0
 30
0.0
 11
161.5
 21
78.0
 31
0.0
  0
LINE
  8
0
  6
CONTINUOUS
 62
     2
 10
161.5
 20
79.0
 30
0.0
 11
161.5
 21
85.0
 31
0.0
  0
LINE
  8
0
  6
CONTINUOUS
 62
     2
 10
161.5
 20
83.0
 30
0.0
 11
163.914814566
 21
82.352952387
 31
0.0
  0
LINE
  8
0
  6
CONTINUOUS
 62
     2
 10
161.5
 20
83.0
 30
0.0
 11
163.914814566
 21
83.647047613
 31
0.0
  0
LINE
  8
0
  6
CONTINUOUS
 62
     2
 10
161.5
 20
83.0
 30
0.0
 11
181.5
 21
83.0
 31
0.0
  0
LINE
  8
0
  6
CONTINUOUS
 62
     2
 10
181.5
 20
83.0
 30
0.0
 11
179.085185434
 21
83.647047613
 31
0.0
  0
LINE
  8
0
  6
CONTINUOUS
 62
     2
 10
181.5
 20
83.0
 30
0.0
 11
179.085185434
 21
82.352952387
 31
0.0
  0
LINE
  8
0
  6
CONTINUOUS
 62
     2
 10
181.5
 20
79.0
 30
0.0
 11
181.5
 21
85.0
 31
0.0
  0
TEXT
  8
0
  6
CONTINUOUS
 62
     2
 10
167.12
 20
84.0
 30
0.3
 40
3.0
  1
４０
 50
0.0
 41
0.6
 51
0.0
  7
KANJI7
  0
TEXT
  8
0
  6
CONTINUOUS
 62
     2
 10
171.47
 20
84.0
 30
0.18
 40
1.8
  1
±０．５
 50
0.0
 41
0.6
 51
0.0
  7
KANJI8
  0
LINE
  8
0
  6
CONTINUOUS
 62
     2
 10
181.5
 20
79.0
 30
0.0
 11
181.5
 21
85.0
 31
0.0
  0
LINE
  8
0
  6
CONTINUOUS
 62
     2
 10
181.5
 20
83.0
 30
0.0
 11
183.914814566
 21
82.352952387
 31
0.0
  0
LINE
  8
0
  6
CONTINUOUS
 62
     2
 10
181.5
 20
83.0
 30
0.0
 11
183.914814566
 21
83.647047613
 31
0.0
  0
LINE
  8
0
  6
CONTINUOUS
 62
     2
 10
181.5
 20
83.0
 30
0.0
 11
201.5
 21
83.0
 31
0.0
  0
LINE
  8
0
  6
CONTINUOUS
 62
     2
 10
201.5
 20
83.0
 30
0.0
 11
199.085185434
 21
83.647047613
 31
0.0
  0
LINE
  8
0
  6
CONTINUOUS
 62
     2
 10
201.5
 20
83.0
 30
0.0
 11
199.085185434
 21
82.352952387
 31
0.0
  0
LINE
  8
0
  6
CONTINUOUS
 62
     2
 10
201.5
 20
79.0
 30
0.0
 11
201.5
 21
85.0
 31
0.0
  0
TEXT
  8
0
  6
CONTINUOUS
 62
     2
 10
187.12
 20
84.0
 30
0.3
 40
3.0
  1
４０
 50
0.0
 41
0.6
 51
0.0
  7
KANJI7
  0
TEXT
  8
0
  6
CONTINUOUS
 62
     2
 10
191.47
 20
84.0
 30
0.18
 40
1.8
  1
±０．５
 50
0.0
 41
0.6
 51
0.0
  7
KANJI8
  0
LINE
  8
0
  6
CONTINUOUS
 62
     2
 10
204.5
 20
76.0
 30
0.0
 11
210.5
 21
76.0
 31
0.0
  0
LINE
  8
0
  6
CONTINUOUS
 62
     2
 10
208.5
 20
76.0
 30
0.0
 11
207.852952387
 21
73.585185434
 31
0.0
  0
LINE
  8
0
  6
CONTINUOUS
 62
     2
 10
208.5
 20
76.0
 30
0.0
 11
209.147047613
 21
73.585185434
 31
0.0
  0
LINE
  8
0
  6
CONTINUOUS
 62
     2
 10
208.5
 20
76.0
 30
0.0
 11
208.5
 21
56.0
 31
0.0
  0
LINE
  8
0
  6
CONTINUOUS
 62
     2
 10
208.5
 20
56.0
 30
0.0
 11
209.147047613
 21
58.414814566
 31
0.0
  0
LINE
  8
0
  6
CONTINUOUS
 62
     2
 10
208.5
 20
56.0
 30
0.0
 11
207.852952387
 21
58.414814566
 31
0.0
  0
LINE
  8
0
  6
CONTINUOUS
 62
     2
 10
204.5
 20
56.0
 30
0.0
 11
210.5
 21
56.0
 31
0.0
  0
TEXT
  8
0
  6
CONTINUOUS
 62
     2
 10
207.5
 20
61.62
 30
0.3
 40
3.0
  1
４０
 50
90.0
 41
0.6
 51
0.0
  7
KANJI7
  0
TEXT
  8
0
  6
CONTINUOUS
 62
     2
 10
207.5
 20
65.97
 30
0.18
 40
1.8
  1
±０．５
 50
90.0
 41
0.6
 51
0.0
  7
KANJI8
  0
LINE
  8
0
  6
CONTINUOUS
 62
     2
 10
204.5
 20
56.0
 30
0.0
 11
210.5
 21
56.0
 31
0.0
  0
LINE
  8
0
  6
CONTINUOUS
 62
     2
 10
208.5
 20
56.0
 30
0.0
 11
207.852952387
 21
53.585185434
 31
0.0
  0
LINE
  8
0
  6
CONTINUOUS
 62
     2
 10
208.5
 20
56.0
 30
0.0
 11
209.147047613
 21
53.585185434
 31
0.0
  0
LINE
  8
0
  6
CONTINUOUS
 62
     2
 10
208.5
 20
56.0
 30
0.0
 11
208.5
 21
36.0
 31
0.0
  0
LINE
  8
0
  6
CONTINUOUS
 62
     2
 10
208.5
 20
36.0
 30
0.0
 11
209.147047613
 21
38.414814566
 31
0.0
  0
LINE
  8
0
  6
CONTINUOUS
 62
     2
 10
208.5
 20
36.0
 30
0.0
 11
207.852952387
 21
38.414814566
 31
0.0
  0
LINE
  8
0
  6
CONTINUOUS
 62
     2
 10
204.5
 20
36.0
 30
0.0
 11
210.5
 21
36.0
 31
0.0
  0
TEXT
  8
0
  6
CONTINUOUS
 62
     2
 10
207.5
 20
41.62
 30
0.3
 40
3.0
  1
４０
 50
90.0
 41
0.6
 51
0.0
  7
KANJI7
  0
TEXT
  8
0
  6
CONTINUOUS
 62
     2
 10
207.5
 20
45.97
 30
0.18
 40
1.8
  1
±０．５
 50
90.0
 41
0.6
 51
0.0
  7
KANJI8
  0
CIRCLE
  8
0
  6
CONTINUOUS
 62
     1
 10
181.5
 20
56.0
 30
0.0
 40
21.5
  0
LINE
  8
0
  6
CONTINUOUS
 62
     2
 10
196.702795796
 20
71.202795796
 30
0.0
 11
194.537732286
 21
69.952795796
 31
0.0
  0
LINE
  8
0
  6
CONTINUOUS
 62
     2
 10
196.702795796
 20
71.202795796
 30
0.0
 11
195.452795796
 21
69.037732286
 31
0.0
  0
LINE
  8
0
  6
CONTINUOUS
 62
     2
 10
196.702795796
 20
71.202795796
 30
0.0
 11
166.297204204
 21
40.797204204
 31
0.0
  0
LINE
  8
0
  6
CONTINUOUS
 62
     2
 10
166.297204204
 20
40.797204204
 30
0.0
 11
168.462267714
 21
42.047204204
 31
0.0
  0
LINE
  8
0
  6
CONTINUOUS
 62
     2
 10
166.297204204
 20
40.797204204
 30
0.0
 11
167.547204204
 21
42.962267714
 31
0.0
  0
TEXT
  8
0
  6
CONTINUOUS
 62
     2
 10
170.985322164
 20
46.899535726
 30
0.3
 40
3.0
  1
８６
 50
45.0
 41
0.6
 51
0.0
  7
KANJI7
  0
TEXT
  8
0
  6
CONTINUOUS
 62
     2
 10
174.061236662
 20
49.975450224
 30
0.18
 40
1.8
  1
－０
 50
45.0
 41
0.6
 51
0.0
  7
KANJI8
  0
TEXT
  8
0
  6
CONTINUOUS
 62
     2
 10
172.788444456
 20
51.24824243
 30
0.18
 40
1.8
  1
＋１
 50
45.0
 41
0.6
 51
0.0
  7
KANJI8
  0
TEXT
  8
0
  6
CONTINUOUS
 62
     1
 10
170.5
 20
26.2
 30
0.4
 40
4.0
  1
パネルカット
 50
0.0
 41
0.9
 51
0.0
  7
KANJI5
  0
LINE
  8
0
  6
CONTINUOUS
 62
     1
 10
169.5
 20
25.2
 30
0.0
 11
194.5
 21
25.2
 31
0.0
  0
CIRCLE
  8
0
  6
CONTINUOUS
 62
     2
 10
201.5
 20
76.0
 30
0.0
 40
1.125
  0
LINE
  8
0
  6
CONTINUOUS
 62
     2
 10
202.0625
 20
76.974278579
 30
0.0
 11
203.830266953
 21
78.742045532
 31
0.0
  0
LINE
  8
0
  6
CONTINUOUS
 62
     2
 10
202.0625
 20
76.974278579
 30
0.0
 11
202.709547613
 21
79.389093145
 31
0.0
  0
LINE
  8
0
  6
CONTINUOUS
 62
     2
 10
205.5625
 20
83.036456406
 30
0.0
 11
198.4375
 21
70.695594402
 31
0.0
  0
LINE
  8
0
  6
CONTINUOUS
 62
     2
 10
200.9375
 20
75.025721421
 30
0.0
 11
199.169733047
 21
73.257954468
 31
0.0
  0
LINE
  8
0
  6
CONTINUOUS
 62
     2
 10
200.9375
 20
75.025721421
 30
0.0
 11
200.290452387
 21
72.610906855
 31
0.0
  0
LINE
  8
0
  6
CONTINUOUS
 62
     2
 10
205.5625
 20
83.036456406
 30
0.0
 11
219.9625
 21
83.036456406
 31
0.0
  0
TEXT
  8
0
  6
CONTINUOUS
 62
     2
 10
205.5625
 20
84.036456406
 30
0.3
 40
3.0
  1
４－φ４．５穴
 50
0.0
 41
0.6
 51
0.0
  7
KANJI7
  0
LINE
  8
0
  6
CONTINUOUS
 62
     2
 10
18.276149067
 20
126.5
 30
0.0
 11
70.276149067
 21
126.5
 31
0.0
  0
LINE
  8
0
  6
CONTINUOUS
 62
     2
 10
70.276149067
 20
126.5
 30
0.0
 11
70.276149067
 21
154.0
 31
0.0
  0
ARC
  8
0
  6
CONTINUOUS
 62
     2
 10
69.276149067
 20
154.0
 30
0.0
 40
1.0
 50
0.0
 51
90.0
  0
LINE
  8
0
  6
CONTINUOUS
 62
     2
 10
18.276149067
 20
154.0
 30
0.0
 11
18.276149067
 21
126.5
 31
0.0
  0
LINE
  8
0
  6
CONTINUOUS
 62
     2
 10
69.276149067
 20
155.0
 30
0.0
 11
19.276149067
 21
155.0
 31
0.0
  0
ARC
  8
0
  6
CONTINUOUS
 62
     2
 10
19.276149067
 20
154.0
 30
0.0
 40
1.0
 50
90.0
 51
180.0
  0
LINE
  8
0
  6
LTYPE3
 62
     2
 10
21.776149067
 20
126.5
 30
0.0
 11
21.776149067
 21
120.5
 31
0.0
  0
LINE
  8
0
  6
LTYPE3
 62
     2
 10
18.776149067
 20
123.5
 30
0.0
 11
24.776149067
 21
123.5
 31
0.0
  0
LINE
  8
0
  6
CONTINUOUS
 62
     2
 10
22.126149067
 20
103.25
 30
0.0
 11
66.426149067
 21
103.25
 31
0.0
  0
LINE
  8
0
  6
CONTINUOUS
 62
     2
 10
66.426149067
 20
107.75
 30
0.0
 11
22.126149067
 21
107.75
 31
0.0
  0
LINE
  8
0
  6
CONTINUOUS
 62
     2
 10
22.126149067
 20
107.75
 30
0.0
 11
22.126149067
 21
107.214642893
 31
0.0
  0
LINE
  8
0
  6
CONTINUOUS
 62
     2
 10
22.126149067
 20
106.5
 30
0.0
 11
22.126149067
 21
103.25
 31
0.0
  0
LINE
  8
0
  6
CONTINUOUS
 62
     2
 10
22.126149067
 20
107.214642893
 30
0.0
 11
22.126149067
 21
106.5
 31
0.0
  0
LINE
  8
0
  6
CONTINUOUS
 62
     2
 10
66.426149067
 20
107.214642893
 30
0.0
 11
66.426149067
 21
107.75
 31
0.0
  0
LINE
  8
0
  6
CONTINUOUS
 62
     2
 10
66.426149067
 20
103.25
 30
0.0
 11
66.426149067
 21
106.5
 31
0.0
  0
LINE
  8
0
  6
CONTINUOUS
 62
     2
 10
66.426149067
 20
106.5
 30
0.0
 11
66.426149067
 21
107.214642893
 31
0.0
  0
LINE
  8
0
  6
CONTINUOUS
 62
     2
 10
24.696362296
 20
138.811086194
 30
0.0
 11
24.961527339
 21
139.076251237
 31
0.0
  0
LINE
  8
0
  6
CONTINUOUS
 62
     2
 10
28.32028455
 20
135.717494027
 30
0.0
 11
28.436957169
 21
135.480613255
 31
0.0
  0
LINE
  8
0
  6
CONTINUOUS
 62
     2
 10
24.961527339
 20
139.076251237
 30
0.0
 11
28.32028455
 21
135.717494027
 31
0.0
  0
LINE
  8
0
  6
CONTINUOUS
 62
     2
 10
28.044720878
 20
135.462727613
 30
0.0
 11
28.295535813
 21
135.339191899
 31
0.0
  0
LINE
  8
0
  6
CONTINUOUS
 62
     2
 10
24.696362296
 20
138.811086194
 30
0.0
 11
28.044720878
 21
135.462727613
 31
0.0
  0
LINE
  8
0
  6
CONTINUOUS
 62
     2
 10
37.134727711
 20
126.5
 30
0.0
 11
28.295535813
 21
135.339191899
 31
0.0
  0
LINE
  8
0
  6
CONTINUOUS
 62
     2
 10
37.417570424
 20
126.5
 30
0.0
 11
28.436957169
 21
135.480613255
 31
0.0
  0
TEXT
  8
0
  6
CONTINUOUS
 62
     2
 10
27.126149067
 20
104.5
 30
0.2
 40
2.0
  1
ＯＦＦ
 50
0.0
 41
0.9
 51
0.0
  7
KANJI6
  0
TEXT
  8
0
  6
CONTINUOUS
 62
     2
 10
38.626149067
 20
104.5
 30
0.2
 40
2.0
  1
Ｒ
 50
0.0
 41
0.9
 51
0.0
  7
KANJI6
  0
TEXT
  8
0
  6
CONTINUOUS
 62
     2
 10
48.126149067
 20
104.5
 30
0.2
 40
2.0
  1
Ｓ
 50
0.0
 41
0.9
 51
0.0
  7
KANJI6
  0
TEXT
  8
0
  6
CONTINUOUS
 62
     2
 10
57.626149067
 20
104.5
 30
0.2
 40
2.0
  1
Ｔ
 50
0.0
 41
0.9
 51
0.0
  7
KANJI6
  0
ARC
  8
0
  6
CONTINUOUS
 62
     2
 10
33.351149067
 20
96.95
 30
0.0
 40
0.5
 50
120.0
 51
240.0
  0
ARC
  8
0
  6
CONTINUOUS
 62
     2
 10
33.351149067
 20
98.45
 30
0.0
 40
0.5
 50
120.0
 51
240.0
  0
LINE
  8
0
  6
CONTINUOUS
 62
     2
 10
33.101149067
 20
97.383012702
 30
0.0
 11
33.101149067
 21
98.016987298
 31
0.0
  0
ARC
  8
0
  6
CONTINUOUS
 62
     2
 10
33.351149067
 20
99.95
 30
0.0
 40
0.5
 50
120.0
 51
240.0
  0
LINE
  8
0
  6
CONTINUOUS
 62
     2
 10
33.101149067
 20
98.883012702
 30
0.0
 11
33.101149067
 21
99.516987298
 31
0.0
  0
ARC
  8
0
  6
CONTINUOUS
 62
     2
 10
33.351149067
 20
101.45
 30
0.0
 40
0.5
 50
120.0
 51
240.0
  0
LINE
  8
0
  6
CONTINUOUS
 62
     2
 10
33.101149067
 20
100.383012702
 30
0.0
 11
33.101149067
 21
101.016987298
 31
0.0
  0
ARC
  8
0
  6
CONTINUOUS
 62
     2
 10
26.351149067
 20
96.95
 30
0.0
 40
0.5
 50
300.0
 51
60.0
  0
ARC
  8
0
  6
CONTINUOUS
 62
     2
 10
26.351149067
 20
98.45
 30
0.0
 40
0.5
 50
300.0
 51
60.0
  0
LINE
  8
0
  6
CONTINUOUS
 62
     2
 10
26.601149067
 20
97.383012702
 30
0.0
 11
26.601149067
 21
98.016987298
 31
0.0
  0
ARC
  8
0
  6
CONTINUOUS
 62
     2
 10
26.351149067
 20
99.95
 30
0.0
 40
0.5
 50
300.0
 51
60.0
  0
LINE
  8
0
  6
CONTINUOUS
 62
     2
 10
26.601149067
 20
98.883012702
 30
0.0
 11
26.601149067
 21
99.516987298
 31
0.0
  0
ARC
  8
0
  6
CONTINUOUS
 62
     2
 10
26.351149067
 20
101.45
 30
0.0
 40
0.5
 50
300.0
 51
60.0
  0
LINE
  8
0
  6
CONTINUOUS
 62
     2
 10
26.601149067
 20
100.383012702
 30
0.0
 11
26.601149067
 21
101.016987298
 31
0.0
  0
LINE
  8
0
  6
CONTINUOUS
 62
     2
 10
29.851149067
 20
102.25
 30
0.0
 11
28.601149067
 21
99.75
 31
0.0
  0
LINE
  8
0
  6
CONTINUOUS
 62
     2
 10
28.601149067
 20
99.75
 30
0.0
 11
31.101149067
 21
99.75
 31
0.0
  0
LINE
  8
0
  6
CONTINUOUS
 62
     2
 10
31.101149067
 20
99.75
 30
0.0
 11
29.851149067
 21
102.25
 31
0.0
  0
LINE
  8
0
  6
CONTINUOUS
 62
     2
 10
29.851149067
 20
101.914589803
 30
0.0
 11
28.843854166
 21
99.9
 31
0.0
  0
LINE
  8
0
  6
CONTINUOUS
 62
     2
 10
28.843854166
 20
99.9
 30
0.0
 11
30.858443969
 21
99.9
 31
0.0
  0
LINE
  8
0
  6
CONTINUOUS
 62
     2
 10
30.858443969
 20
99.9
 30
0.0
 11
29.851149067
 21
101.914589803
 31
0.0
  0
LINE
  8
0
  6
CONTINUOUS
 62
     2
 10
26.851149067
 20
102.5
 30
0.0
 11
26.851149067
 21
96.45
 31
0.0
  0
ARC
  8
0
  6
CONTINUOUS
 62
     2
 10
27.101149067
 20
96.45
 30
0.0
 40
0.25
 50
180.0
 51
270.0
  0
LINE
  8
0
  6
CONTINUOUS
 62
     2
 10
26.601149067
 20
96.516987298
 30
0.0
 11
26.601149067
 21
96.2
 31
0.0
  0
ARC
  8
0
  6
CONTINUOUS
 62
     2
 10
26.851149067
 20
96.2
 30
0.0
 40
0.25
 50
180.0
 51
270.0
  0
LINE
  8
0
  6
CONTINUOUS
 62
     2
 10
33.101149067
 20
96.516987298
 30
0.0
 11
33.101149067
 21
96.2
 31
0.0
  0
LINE
  8
0
  6
CONTINUOUS
 62
     2
 10
26.851149067
 20
95.95
 30
0.0
 11
32.851149067
 21
95.95
 31
0.0
  0
ARC
  8
0
  6
CONTINUOUS
 62
     2
 10
32.851149067
 20
96.2
 30
0.0
 40
0.25
 50
270.0
 51
0.0
  0
LINE
  8
0
  6
CONTINUOUS
 62
     2
 10
32.851149067
 20
96.45
 30
0.0
 11
32.851149067
 21
102.5
 31
0.0
  0
LINE
  8
0
  6
CONTINUOUS
 62
     2
 10
27.101149067
 20
96.2
 30
0.0
 11
32.601149067
 21
96.2
 31
0.0
  0
ARC
  8
0
  6
CONTINUOUS
 62
     2
 10
32.601149067
 20
96.45
 30
0.0
 40
0.25
 50
270.0
 51
0.0
  0
LINE
  8
0
  6
CONTINUOUS
 62
     2
 10
26.601149067
 20
101.883012702
 30
0.0
 11
26.601149067
 21
102.5
 31
0.0
  0
LINE
  8
0
  6
CONTINUOUS
 62
     2
 10
33.101149067
 20
101.883012702
 30
0.0
 11
33.101149067
 21
102.5
 31
0.0
  0
LINE
  8
0
  6
CONTINUOUS
 62
     1
 10
17.526149067
 20
154.035357107
 30
0.0
 11
17.526149067
 21
108.964642893
 31
0.0
  0
LINE
  8
0
  6
CONTINUOUS
 62
     1
 10
16.776149067
 20
154.0
 30
0.0
 11
16.776149067
 21
109.0
 31
0.0
  0
ARC
  8
0
  6
CONTINUOUS
 62
     1
 10
19.276149067
 20
108.964642893
 30
0.0
 40
1.75
 50
180.0
 51
270.0
  0
ARC
  8
0
  6
CONTINUOUS
 62
     1
 10
19.276149067
 20
109.0
 30
0.0
 40
2.5
 50
180.0
 51
270.0
  0
ARC
  8
0
  6
CONTINUOUS
 62
     1
 10
69.276149067
 20
108.964642893
 30
0.0
 40
1.75
 50
270.0
 51
0.0
  0
ARC
  8
0
  6
CONTINUOUS
 62
     1
 10
69.276149067
 20
109.0
 30
0.0
 40
2.5
 50
270.0
 51
0.0
  0
ARC
  8
0
  6
CONTINUOUS
 62
     1
 10
69.276149067
 20
154.035357107
 30
0.0
 40
1.75
 50
0.0
 51
90.0
  0
ARC
  8
0
  6
CONTINUOUS
 62
     1
 10
69.276149067
 20
154.0
 30
0.0
 40
2.5
 50
0.0
 51
90.0
  0
LINE
  8
0
  6
CONTINUOUS
 62
     1
 10
71.026149067
 20
108.964642893
 30
0.0
 11
71.026149067
 21
154.035357107
 31
0.0
  0
LINE
  8
0
  6
CONTINUOUS
 62
     1
 10
71.776149067
 20
109.0
 30
0.0
 11
71.776149067
 21
154.0
 31
0.0
  0
ARC
  8
0
  6
CONTINUOUS
 62
     1
 10
19.276149067
 20
154.035357107
 30
0.0
 40
1.75
 50
90.0
 51
180.0
  0
LINE
  8
0
  6
CONTINUOUS
 62
     1
 10
69.276149067
 20
155.785357107
 30
0.0
 11
19.276149067
 21
155.785357107
 31
0.0
  0
LINE
  8
0
  6
CONTINUOUS
 62
     1
 10
69.276149067
 20
156.5
 30
0.0
 11
19.276149067
 21
156.5
 31
0.0
  0
ARC
  8
0
  6
CONTINUOUS
 62
     1
 10
19.276149067
 20
154.0
 30
0.0
 40
2.5
 50
90.0
 51
180.0
  0
ARC
  8
0
  6
CONTINUOUS
 62
     1
 10
20.776149067
 20
103.5
 30
0.0
 40
0.5
 50
300.0
 51
60.0
  0
LINE
  8
0
  6
CONTINUOUS
 62
     1
 10
21.026149067
 20
103.933012702
 30
0.0
 11
21.026149067
 21
104.066987298
 31
0.0
  0
ARC
  8
0
  6
CONTINUOUS
 62
     1
 10
20.776149067
 20
104.5
 30
0.0
 40
0.5
 50
300.0
 51
60.0
  0
LINE
  8
0
  6
CONTINUOUS
 62
     1
 10
21.026149067
 20
104.933012702
 30
0.0
 11
21.026149067
 21
105.066987298
 31
0.0
  0
ARC
  8
0
  6
CONTINUOUS
 62
     1
 10
20.776149067
 20
105.5
 30
0.0
 40
0.5
 50
300.0
 51
60.0
  0
LINE
  8
0
  6
CONTINUOUS
 62
     1
 10
21.026149067
 20
105.933012702
 30
0.0
 11
21.026149067
 21
106.066987298
 31
0.0
  0
LINE
  8
0
  6
CONTINUOUS
 62
     1
 10
21.026149067
 20
106.933012702
 30
0.0
 11
21.026149067
 21
107.066987298
 31
0.0
  0
LINE
  8
0
  6
CONTINUOUS
 62
     1
 10
21.026149067
 20
107.933012702
 30
0.0
 11
21.026149067
 21
108.25
 31
0.0
  0
ARC
  8
0
  6
CONTINUOUS
 62
     1
 10
21.276149067
 20
108.25
 30
0.0
 40
0.25
 50
90.0
 51
180.0
  0
LINE
  8
0
  6
CONTINUOUS
 62
     1
 10
21.026149067
 20
102.75
 30
0.0
 11
21.026149067
 21
103.066987298
 31
0.0
  0
ARC
  8
0
  6
CONTINUOUS
 62
     1
 10
21.276149067
 20
102.75
 30
0.0
 40
0.25
 50
180.0
 51
270.0
  0
ARC
  8
0
  6
CONTINUOUS
 62
     1
 10
20.776149067
 20
107.5
 30
0.0
 40
0.5
 50
325.199954885
 51
60.0
  0
ARC
  8
0
  6
CONTINUOUS
 62
     1
 10
20.776149067
 20
107.5
 30
0.0
 40
0.5
 50
300.0
 51
325.199954885
  0
ARC
  8
0
  6
CONTINUOUS
 62
     1
 10
20.776149067
 20
106.5
 30
0.0
 40
0.5
 50
0.0
 51
60.0
  0
ARC
  8
0
  6
CONTINUOUS
 62
     1
 10
20.776149067
 20
106.5
 30
0.0
 40
0.5
 50
300.0
 51
0.0
  0
LINE
  8
0
  6
CONTINUOUS
 62
     1
 10
19.276149067
 20
107.214642893
 30
0.0
 11
21.186723447
 21
107.214642893
 31
0.0
  0
LINE
  8
0
  6
CONTINUOUS
 62
     1
 10
19.276149067
 20
106.5
 30
0.0
 11
21.276149067
 21
106.5
 31
0.0
  0
ARC
  8
0
  6
CONTINUOUS
 62
     1
 10
67.776149067
 20
103.5
 30
0.0
 40
0.5
 50
120.0
 51
240.0
  0
LINE
  8
0
  6
CONTINUOUS
 62
     1
 10
67.526149067
 20
103.933012702
 30
0.0
 11
67.526149067
 21
104.066987298
 31
0.0
  0
ARC
  8
0
  6
CONTINUOUS
 62
     1
 10
67.776149067
 20
104.5
 30
0.0
 40
0.5
 50
120.0
 51
240.0
  0
LINE
  8
0
  6
CONTINUOUS
 62
     1
 10
67.526149067
 20
104.933012702
 30
0.0
 11
67.526149067
 21
105.066987298
 31
0.0
  0
ARC
  8
0
  6
CONTINUOUS
 62
     1
 10
67.776149067
 20
105.5
 30
0.0
 40
0.5
 50
120.0
 51
240.0
  0
LINE
  8
0
  6
CONTINUOUS
 62
     1
 10
67.526149067
 20
105.933012702
 30
0.0
 11
67.526149067
 21
106.066987298
 31
0.0
  0
LINE
  8
0
  6
CONTINUOUS
 62
     1
 10
67.526149067
 20
106.933012702
 30
0.0
 11
67.526149067
 21
107.066987298
 31
0.0
  0
LINE
  8
0
  6
CONTINUOUS
 62
     1
 10
67.526149067
 20
107.933012702
 30
0.0
 11
67.526149067
 21
108.25
 31
0.0
  0
ARC
  8
0
  6
CONTINUOUS
 62
     1
 10
67.276149067
 20
108.25
 30
0.0
 40
0.25
 50
0.0
 51
90.0
  0
LINE
  8
0
  6
CONTINUOUS
 62
     1
 10
67.526149067
 20
102.75
 30
0.0
 11
67.526149067
 21
103.066987298
 31
0.0
  0
ARC
  8
0
  6
CONTINUOUS
 62
     1
 10
67.276149067
 20
102.75
 30
0.0
 40
0.25
 50
270.0
 51
0.0
  0
ARC
  8
0
  6
CONTINUOUS
 62
     1
 10
67.776149067
 20
107.5
 30
0.0
 40
0.5
 50
120.0
 51
214.800045116
  0
ARC
  8
0
  6
CONTINUOUS
 62
     1
 10
67.776149067
 20
107.5
 30
0.0
 40
0.5
 50
214.800045116
 51
240.0
  0
ARC
  8
0
  6
CONTINUOUS
 62
     1
 10
67.776149067
 20
106.5
 30
0.0
 40
0.5
 50
120.0
 51
180.0
  0
ARC
  8
0
  6
CONTINUOUS
 62
     1
 10
67.776149067
 20
106.5
 30
0.0
 40
0.5
 50
180.0
 51
240.0
  0
LINE
  8
0
  6
CONTINUOUS
 62
     1
 10
67.276149067
 20
106.5
 30
0.0
 11
69.276149067
 21
106.5
 31
0.0
  0
LINE
  8
0
  6
CONTINUOUS
 62
     1
 10
67.365574688
 20
107.214642893
 30
0.0
 11
69.276149067
 21
107.214642893
 31
0.0
  0
LINE
  8
0
  6
CONTINUOUS
 62
     1
 10
67.276149067
 20
108.5
 30
0.0
 11
21.276149067
 21
108.5
 31
0.0
  0
LINE
  8
0
  6
CONTINUOUS
 62
     1
 10
21.276149067
 20
102.5
 30
0.0
 11
67.276149067
 21
102.5
 31
0.0
  0
LINE
  8
0
  6
LTYPE3
 62
     2
 10
76.776149067
 20
131.5
 30
0.0
 11
11.776149067
 21
131.5
 31
0.0
  0
CIRCLE
  8
0
  6
CONTINUOUS
 62
     2
 10
21.776149067
 20
123.5
 30
0.0
 40
1.575
  0
LINE
  8
0
  6
CONTINUOUS
 62
     2
 10
21.576149067
 20
122.6
 30
0.0
 11
21.976149067
 21
122.6
 31
0.0
  0
LINE
  8
0
  6
CONTINUOUS
 62
     2
 10
21.976149067
 20
124.4
 30
0.0
 11
21.576149067
 21
124.4
 31
0.0
  0
LINE
  8
0
  6
CONTINUOUS
 62
     2
 10
22.676149067
 20
123.3
 30
0.0
 11
22.676149067
 21
123.7
 31
0.0
  0
LINE
  8
0
  6
CONTINUOUS
 62
     2
 10
20.876149067
 20
123.7
 30
0.0
 11
20.876149067
 21
123.3
 31
0.0
  0
CIRCLE
  8
0
  6
CONTINUOUS
 62
     2
 10
21.776149067
 20
123.5
 30
0.0
 40
1.518
  0
LINE
  8
0
  6
CONTINUOUS
 62
     2
 10
21.576149067
 20
124.4
 30
0.0
 11
21.576149067
 21
123.8
 31
0.0
  0
LINE
  8
0
  6
CONTINUOUS
 62
     2
 10
21.476149067
 20
123.7
 30
0.0
 11
20.876149067
 21
123.7
 31
0.0
  0
ARC
  8
0
  6
CONTINUOUS
 62
     2
 10
21.476149067
 20
123.8
 30
0.0
 40
0.1
 50
270.0
 51
0.0
  0
LINE
  8
0
  6
CONTINUOUS
 62
     2
 10
21.576149067
 20
123.2
 30
0.0
 11
21.576149067
 21
122.6
 31
0.0
  0
LINE
  8
0
  6
CONTINUOUS
 62
     2
 10
20.876149067
 20
123.3
 30
0.0
 11
21.476149067
 21
123.3
 31
0.0
  0
ARC
  8
0
  6
CONTINUOUS
 62
     2
 10
21.476149067
 20
123.2
 30
0.0
 40
0.1
 50
0.0
 51
90.0
  0
LINE
  8
0
  6
CONTINUOUS
 62
     2
 10
21.976149067
 20
122.6
 30
0.0
 11
21.976149067
 21
123.2
 31
0.0
  0
LINE
  8
0
  6
CONTINUOUS
 62
     2
 10
22.076149067
 20
123.3
 30
0.0
 11
22.676149067
 21
123.3
 31
0.0
  0
ARC
  8
0
  6
CONTINUOUS
 62
     2
 10
22.076149067
 20
123.2
 30
0.0
 40
0.1
 50
90.0
 51
180.0
  0
LINE
  8
0
  6
CONTINUOUS
 62
     2
 10
21.976149067
 20
123.8
 30
0.0
 11
21.976149067
 21
124.4
 31
0.0
  0
LINE
  8
0
  6
CONTINUOUS
 62
     2
 10
22.676149067
 20
123.7
 30
0.0
 11
22.076149067
 21
123.7
 31
0.0
  0
ARC
  8
0
  6
CONTINUOUS
 62
     2
 10
22.076149067
 20
123.8
 30
0.0
 40
0.1
 50
180.0
 51
270.0
  0
LINE
  8
0
  6
LTYPE3
 62
     2
 10
66.776149067
 20
126.5
 30
0.0
 11
66.776149067
 21
120.5
 31
0.0
  0
LINE
  8
0
  6
LTYPE3
 62
     2
 10
69.776149067
 20
123.5
 30
0.0
 11
63.776149067
 21
123.5
 31
0.0
  0
CIRCLE
  8
0
  6
CONTINUOUS
 62
     2
 10
66.776149067
 20
123.5
 30
0.0
 40
1.575
  0
LINE
  8
0
  6
CONTINUOUS
 62
     2
 10
66.976149067
 20
122.6
 30
0.0
 11
66.576149067
 21
122.6
 31
0.0
  0
LINE
  8
0
  6
CONTINUOUS
 62
     2
 10
66.576149067
 20
124.4
 30
0.0
 11
66.976149067
 21
124.4
 31
0.0
  0
LINE
  8
0
  6
CONTINUOUS
 62
     2
 10
65.876149067
 20
123.3
 30
0.0
 11
65.876149067
 21
123.7
 31
0.0
  0
LINE
  8
0
  6
CONTINUOUS
 62
     2
 10
67.676149067
 20
123.7
 30
0.0
 11
67.676149067
 21
123.3
 31
0.0
  0
CIRCLE
  8
0
  6
CONTINUOUS
 62
     2
 10
66.776149067
 20
123.5
 30
0.0
 40
1.518
  0
LINE
  8
0
  6
CONTINUOUS
 62
     2
 10
66.976149067
 20
124.4
 30
0.0
 11
66.976149067
 21
123.8
 31
0.0
  0
LINE
  8
0
  6
CONTINUOUS
 62
     2
 10
67.076149067
 20
123.7
 30
0.0
 11
67.676149067
 21
123.7
 31
0.0
  0
ARC
  8
0
  6
CONTINUOUS
 62
     2
 10
67.076149067
 20
123.8
 30
0.0
 40
0.1
 50
180.0
 51
270.0
  0
LINE
  8
0
  6
CONTINUOUS
 62
     2
 10
66.976149067
 20
123.2
 30
0.0
 11
66.976149067
 21
122.6
 31
0.0
  0
LINE
  8
0
  6
CONTINUOUS
 62
     2
 10
67.676149067
 20
123.3
 30
0.0
 11
67.076149067
 21
123.3
 31
0.0
  0
ARC
  8
0
  6
CONTINUOUS
 62
     2
 10
67.076149067
 20
123.2
 30
0.0
 40
0.1
 50
90.0
 51
180.0
  0
LINE
  8
0
  6
CONTINUOUS
 62
     2
 10
66.576149067
 20
122.6
 30
0.0
 11
66.576149067
 21
123.2
 31
0.0
  0
LINE
  8
0
  6
CONTINUOUS
 62
     2
 10
66.476149067
 20
123.3
 30
0.0
 11
65.876149067
 21
123.3
 31
0.0
  0
ARC
  8
0
  6
CONTINUOUS
 62
     2
 10
66.476149067
 20
123.2
 30
0.0
 40
0.1
 50
0.0
 51
90.0
  0
LINE
  8
0
  6
CONTINUOUS
 62
     2
 10
66.576149067
 20
123.8
 30
0.0
 11
66.576149067
 21
124.4
 31
0.0
  0
LINE
  8
0
  6
CONTINUOUS
 62
     2
 10
65.876149067
 20
123.7
 30
0.0
 11
66.476149067
 21
123.7
 31
0.0
  0
ARC
  8
0
  6
CONTINUOUS
 62
     2
 10
66.476149067
 20
123.8
 30
0.0
 40
0.1
 50
270.0
 51
0.0
  0
CIRCLE
  8
0
  6
CONTINUOUS
 62
     2
 10
44.276149067
 20
114.75
 30
0.0
 40
1.75
  0
LINE
  8
0
  6
CONTINUOUS
 62
     2
 10
42.54409826
 20
114.5
 30
0.0
 11
46.008199875
 21
114.5
 31
0.0
  0
LINE
  8
0
  6
CONTINUOUS
 62
     2
 10
46.008199875
 20
115.0
 30
0.0
 11
42.54409826
 21
115.0
 31
0.0
  0
LINE
  8
0
  6
LTYPE3
 62
     2
 10
44.276149067
 20
161.5
 30
0.0
 11
44.276149067
 21
97.5
 31
0.0
  0
LINE
  8
0
  6
LTYPE3
 62
     2
 10
47.776149067
 20
114.75
 30
0.0
 11
40.776149067
 21
114.75
 31
0.0
  0
LINE
  8
0
  6
CONTINUOUS
 62
     2
 10
27.219893856
 20
96.2
 30
0.0
 11
25.452126903
 21
94.432233047
 31
0.0
  0
LINE
  8
0
  6
CONTINUOUS
 62
     2
 10
27.219893856
 20
96.2
 30
0.0
 11
26.572846243
 21
93.785185434
 31
0.0
  0
TEXT
  8
0
  6
CONTINUOUS
 62
     2
 10
27.601091702
 20
89.2
 30
0.3
 40
3.0
  1
切換ツマミ
 50
0.0
 41
0.9
 51
0.0
  7
KANJI0
  0
LINE
  8
0
  6
CONTINUOUS
 62
     2
 10
27.219893856
 20
96.2
 30
0.0
 11
22.601091702
 21
88.2
 31
0.0
  0
LINE
  8
0
  6
CONTINUOUS
 62
     2
 10
42.301091702
 20
88.2
 30
0.0
 11
22.601091702
 21
88.2
 31
0.0
  0
TEXT
  8
0
  6
CONTINUOUS
 62
     2
 10
18.0
 20
80.6
 30
0.3
 40
3.0
  1
注１．電圧計の場合の切換表示は，ＯＦＦ，Ｒ－Ｓ，Ｓ－Ｔ，Ｔ－Ｒとする。
 50
0.0
 41
0.9
 51
0.0
  7
KANJI0
  0
LINE
  8
0
  6
CONTINUOUS
 62
     1
 10
133.126149067
 20
141.100190707
 30
0.0
 11
130.126149067
 21
141.100190707
 31
0.0
  0
LINE
  8
0
  6
LTYPE3
 62
     2
 10
130.126149067
 20
143.857959516
 30
0.0
 11
133.126149067
 21
143.857959516
 31
0.0
  0
LINE
  8
0
  6
LTYPE3
 62
     2
 10
123.626149067
 20
130.0
 30
0.0
 11
126.626149067
 21
130.0
 31
0.0
  0
LINE
  8
0
  6
CONTINUOUS
 62
     1
 10
96.376149067
 20
135.577343461
 30
0.0
 11
106.876149067
 21
135.577343461
 31
0.0
  0
LINE
  8
0
  6
CONTINUOUS
 62
     1
 10
106.876149067
 20
137.479456494
 30
0.0
 11
96.376149067
 21
137.479456494
 31
0.0
  0
LINE
  8
0
  6
CONTINUOUS
 62
     1
 10
96.376149067
 20
140.984665249
 30
0.0
 11
106.876149067
 21
140.984665249
 31
0.0
  0
LINE
  8
0
  6
CONTINUOUS
 62
     1
 10
106.876149067
 20
142.642740394
 30
0.0
 11
96.376149067
 21
142.642740394
 31
0.0
  0
LINE
  8
0
  6
CONTINUOUS
 62
     1
 10
96.376149067
 20
145.540932432
 30
0.0
 11
106.876149067
 21
145.540932432
 31
0.0
  0
LINE
  8
0
  6
CONTINUOUS
 62
     1
 10
106.876149067
 20
137.108195896
 30
0.0
 11
96.376149067
 21
137.108195896
 31
0.0
  0
LINE
  8
0
  6
CONTINUOUS
 62
     1
 10
106.876149067
 20
141.970912323
 30
0.0
 11
96.376149067
 21
141.970912323
 31
0.0
  0
LINE
  8
0
  6
CONTINUOUS
 62
     1
 10
106.876149067
 20
145.906163066
 30
0.0
 11
96.376149067
 21
145.906163066
 31
0.0
  0
LINE
  8
0
  6
CONTINUOUS
 62
     1
 10
105.376149067
 20
135.577343461
 30
0.0
 11
105.376149067
 21
137.108195896
 31
0.0
  0
LINE
  8
0
  6
CONTINUOUS
 62
     1
 10
105.376149067
 20
140.984665249
 30
0.0
 11
105.376149067
 21
141.970912323
 31
0.0
  0
LINE
  8
0
  6
CONTINUOUS
 62
     1
 10
105.376149067
 20
145.906163066
 30
0.0
 11
105.376149067
 21
145.540932432
 31
0.0
  0
TEXT
  8
0
  6
CONTINUOUS
 62
     5
 10
122.75
 20
31.6
 30
0.18
 40
1.5
  1
Ｍ
 50
0.0
 41
1.0
 51
0.0
  7
KANJI4
  0
TEXT
  8
0
  6
CONTINUOUS
 62
     5
 10
122.75
 20
28.6
 30
0.18
 40
1.5
  1
Ｍ
 50
0.0
 41
1.0
 51
0.0
  7
KANJI4
  0
TEXT
  8
0
  6
CONTINUOUS
 62
     5
 10
122.75
 20
25.6
 30
0.18
 40
1.5
  1
Ｍ
 50
0.0
 41
1.0
 51
0.0
  7
KANJI4
  0
TEXT
  8
0
  6
CONTINUOUS
 62
     5
 10
123.8
 20
31.7
 30
0.18
 40
1.0
  1
１
 50
0.0
 41
1.5
 51
0.0
  7
KANJI11
  0
TEXT
  8
0
  6
CONTINUOUS
 62
     5
 10
123.8
 20
28.7
 30
0.18
 40
1.0
  1
１
 50
0.0
 41
1.5
 51
0.0
  7
KANJI11
  0
TEXT
  8
0
  6
CONTINUOUS
 62
     5
 10
123.8
 20
25.7
 30
0.18
 40
1.0
  1
１
 50
0.0
 41
1.5
 51
0.0
  7
KANJI11
  0
TEXT
  8
0
  6
CONTINUOUS
 62
     5
 10
104.45
 20
39.0
 30
0.18
 40
1.5
  1
Ｍ
 50
0.0
 41
1.0
 51
0.0
  7
KANJI4
  0
TEXT
  8
0
  6
CONTINUOUS
 62
     5
 10
105.5
 20
39.1
 30
0.18
 40
1.0
  1
１
 50
0.0
 41
1.5
 51
0.0
  7
KANJI11
  0
TEXT
  8
0
  6
CONTINUOUS
 62
     5
 10
91.6
 20
35.3
 30
0.2
 40
2.0
  1
ＶＴ
 50
0.0
 41
0.9
 51
0.0
  7
KANJI6
  0
LINE
  8
0
  6
CONTINUOUS
 62
     2
 10
76.0
 20
56.7
 30
0.0
 11
76.0
 21
20.7
 31
0.0
  0
LINE
  8
0
  6
CONTINUOUS
 62
     5
 10
73.3
 20
33.9
 30
0.0
 11
54.3
 21
33.9
 31
0.0
  0
LINE
  8
0
  6
CONTINUOUS
 62
     5
 10
73.3
 20
30.9
 30
0.0
 11
54.3
 21
30.9
 31
0.0
  0
LINE
  8
0
  6
CONTINUOUS
 62
     5
 10
73.3
 20
27.9
 30
0.0
 11
54.3
 21
27.9
 31
0.0
  0
LINE
  8
0
  6
CONTINUOUS
 62
     5
 10
54.3
 20
36.9
 30
0.0
 11
54.3
 21
24.9
 31
0.0
  0
LINE
  8
0
  6
CONTINUOUS
 62
     5
 10
73.3
 20
24.9
 30
0.0
 11
60.4
 21
24.9
 31
0.0
  0
LINE
  8
0
  6
CONTINUOUS
 62
     5
 10
60.4
 20
24.9
 30
0.0
 11
54.3
 21
24.9
 31
0.0
  0
TEXT
  8
0
  6
CONTINUOUS
 62
     5
 10
54.3
 20
37.9
 30
0.3
 40
3.0
  1
（接触子構成）
 50
0.0
 41
0.9
 51
0.0
  7
KANJI0
  0
TEXT
  8
0
  6
CONTINUOUS
 62
     5
 10
54.5
 20
34.1
 30
0.25
 40
2.5
  1
ＯＦＦ
 50
0.0
 41
0.72
 51
0.0
  7
KANJI1
  0
LINE
  8
0
  6
CONTINUOUS
 62
     5
 10
54.3
 20
36.9
 30
0.0
 11
73.3
 21
36.9
 31
0.0
  0
LINE
  8
0
  6
CONTINUOUS
 62
     5
 10
73.3
 20
36.9
 30
0.0
 11
73.3
 21
24.9
 31
0.0
  0
LINE
  8
0
  6
CONTINUOUS
 62
     5
 10
60.3
 20
24.9
 30
0.0
 11
60.3
 21
36.9
 31
0.0
  0
CIRCLE
  8
0
  6
CONTINUOUS
 62
     5
 10
61.8
 20
26.4
 30
0.0
 40
1.2
  0
LINE
  8
0
  6
CONTINUOUS
 62
     5
 10
63.0
 20
26.4
 30
0.0
 11
64.2
 21
26.4
 31
0.0
  0
CIRCLE
  8
0
  6
CONTINUOUS
 62
     5
 10
65.4
 20
26.4
 30
0.0
 40
1.2
  0
CIRCLE
  8
0
  6
CONTINUOUS
 62
     5
 10
71.8
 20
32.4
 30
0.0
 40
1.2
  0
LINE
  8
0
  6
CONTINUOUS
 62
     5
 10
70.6
 20
32.4
 30
0.0
 11
69.4
 21
32.4
 31
0.0
  0
CIRCLE
  8
0
  6
CONTINUOUS
 62
     5
 10
68.2
 20
32.4
 30
0.0
 40
1.2
  0
LINE
  8
0
  6
CONTINUOUS
 62
     5
 10
70.6
 20
26.4
 30
0.0
 11
69.4
 21
26.4
 31
0.0
  0
CIRCLE
  8
0
  6
CONTINUOUS
 62
     5
 10
68.2
 20
26.4
 30
0.0
 40
1.2
  0
CIRCLE
  8
0
  6
CONTINUOUS
 62
     5
 10
71.8
 20
26.4
 30
0.0
 40
1.2
  0
TEXT
  8
0
  6
CONTINUOUS
 62
     5
 10
67.45
 20
31.5
 30
0.18
 40
1.8
  1
２
 50
0.0
 41
0.833333333
 51
0.0
  7
KANJI2
  0
TEXT
  8
0
  6
CONTINUOUS
 62
     5
 10
67.45
 20
25.5
 30
0.18
 40
1.8
  1
３
 50
0.0
 41
0.833333333
 51
0.0
  7
KANJI2
  0
CIRCLE
  8
0
  6
CONTINUOUS
 62
     5
 10
66.8
 20
31.3
 30
0.0
 40
0.1
  0
CIRCLE
  8
0
  6
CONTINUOUS
 62
     5
 10
66.8
 20
25.3
 30
0.0
 40
0.1
  0
CIRCLE
  8
0
  6
CONTINUOUS
 62
     5
 10
69.0
 20
35.4
 30
0.0
 40
1.2
  0
LINE
  8
0
  6
CONTINUOUS
 62
     5
 10
67.8
 20
35.4
 30
0.0
 11
66.6
 21
35.4
 31
0.0
  0
CIRCLE
  8
0
  6
CONTINUOUS
 62
     5
 10
65.4
 20
35.4
 30
0.0
 40
1.2
  0
CIRCLE
  8
0
  6
CONTINUOUS
 62
     5
 10
61.8
 20
35.4
 30
0.0
 40
1.2
  0
LINE
  8
0
  6
CONTINUOUS
 62
     5
 10
63.0
 20
35.4
 30
0.0
 11
64.2
 21
35.4
 31
0.0
  0
TEXT
  8
0
  6
CONTINUOUS
 62
     5
 10
61.05
 20
34.5
 30
0.18
 40
1.8
  1
１
 50
0.0
 41
0.833333333
 51
0.0
  7
KANJI2
  0
TEXT
  8
0
  6
CONTINUOUS
 62
     5
 10
68.25
 20
34.5
 30
0.18
 40
1.8
  1
２
 50
0.0
 41
0.833333333
 51
0.0
  7
KANJI2
  0
TEXT
  8
0
  6
CONTINUOUS
 62
     5
 10
64.65
 20
34.5
 30
0.18
 40
1.8
  1
３
 50
0.0
 41
0.833333333
 51
0.0
  7
KANJI2
  0
TEXT
  8
0
  6
CONTINUOUS
 62
     2
 10
18.3
 20
50.7
 30
0.4
 40
4.0
  1
電流計結線図
 50
0.0
 41
0.9
 51
0.0
  7
KANJI5
  0
TEXT
  8
0
  6
CONTINUOUS
 62
     5
 10
71.05
 20
25.6
 30
0.18
 40
1.5
  1
Ｍ
 50
0.0
 41
1.0
 51
0.0
  7
KANJI4
  0
CIRCLE
  8
0
  6
CONTINUOUS
 62
     5
 10
65.4
 20
32.4
 30
0.0
 40
1.2
  0
LINE
  8
0
  6
CONTINUOUS
 62
     5
 10
64.2
 20
32.4
 30
0.0
 11
63.0
 21
32.4
 31
0.0
  0
CIRCLE
  8
0
  6
CONTINUOUS
 62
     5
 10
61.8
 20
32.4
 30
0.0
 40
1.2
  0
TEXT
  8
0
  6
CONTINUOUS
 62
     5
 10
61.05
 20
31.5
 30
0.18
 40
1.8
  1
１
 50
0.0
 41
0.833333333
 51
0.0
  7
KANJI2
  0
TEXT
  8
0
  6
CONTINUOUS
 62
     5
 10
64.65
 20
31.6
 30
0.18
 40
1.5
  1
Ｍ
 50
0.0
 41
1.0
 51
0.0
  7
KANJI4
  0
TEXT
  8
0
  6
CONTINUOUS
 62
     5
 10
71.05
 20
31.5
 30
0.18
 40
1.8
  1
３
 50
0.0
 41
0.833333333
 51
0.0
  7
KANJI2
  0
CIRCLE
  8
0
  6
CONTINUOUS
 62
     5
 10
69.0
 20
29.4
 30
0.0
 40
1.2
  0
LINE
  8
0
  6
CONTINUOUS
 62
     5
 10
67.8
 20
29.4
 30
0.0
 11
66.6
 21
29.4
 31
0.0
  0
CIRCLE
  8
0
  6
CONTINUOUS
 62
     5
 10
65.4
 20
29.4
 30
0.0
 40
1.2
  0
CIRCLE
  8
0
  6
CONTINUOUS
 62
     5
 10
61.8
 20
29.4
 30
0.0
 40
1.2
  0
LINE
  8
0
  6
CONTINUOUS
 62
     5
 10
63.0
 20
29.4
 30
0.0
 11
64.2
 21
29.4
 31
0.0
  0
TEXT
  8
0
  6
CONTINUOUS
 62
     5
 10
61.05
 20
28.5
 30
0.18
 40
1.8
  1
１
 50
0.0
 41
0.833333333
 51
0.0
  7
KANJI2
  0
TEXT
  8
0
  6
CONTINUOUS
 62
     5
 10
64.65
 20
28.5
 30
0.18
 40
1.8
  1
３
 50
0.0
 41
0.833333333
 51
0.0
  7
KANJI2
  0
TEXT
  8
0
  6
CONTINUOUS
 62
     5
 10
68.25
 20
28.5
 30
0.18
 40
1.8
  1
Ｍ
 50
0.0
 41
0.833333333
 51
0.0
  7
KANJI2
  0
TEXT
  8
0
  6
CONTINUOUS
 62
     5
 10
61.05
 20
25.5
 30
0.18
 40
1.8
  1
１
 50
0.0
 41
0.833333333
 51
0.0
  7
KANJI2
  0
TEXT
  8
0
  6
CONTINUOUS
 62
     5
 10
64.65
 20
25.5
 30
0.18
 40
1.8
  1
２
 50
0.0
 41
0.833333333
 51
0.0
  7
KANJI2
  0
CIRCLE
  8
0
  6
CONTINUOUS
 62
     5
 10
45.0
 20
34.8
 30
0.0
 40
7.0
  0
CIRCLE
  8
0
  6
CONTINUOUS
 62
     5
 10
40.0
 20
34.8
 30
0.0
 40
1.2
  0
CIRCLE
  8
0
  6
CONTINUOUS
 62
     5
 10
41.0
 20
31.8
 30
0.0
 40
1.2
  0
TEXT
  8
0
  6
CONTINUOUS
 62
     5
 10
40.25
 20
30.9
 30
0.18
 40
1.8
  1
２
 50
0.0
 41
0.833333333
 51
0.0
  7
KANJI2
  0
CIRCLE
  8
0
  6
CONTINUOUS
 62
     5
 10
41.0
 20
37.8
 30
0.0
 40
1.2
  0
TEXT
  8
0
  6
CONTINUOUS
 62
     5
 10
40.25
 20
36.9
 30
0.18
 40
1.8
  1
３
 50
0.0
 41
0.833333333
 51
0.0
  7
KANJI2
  0
CIRCLE
  8
0
  6
CONTINUOUS
 62
     5
 10
43.5
 20
39.8
 30
0.0
 40
1.2
  0
TEXT
  8
0
  6
CONTINUOUS
 62
     5
 10
19.1
 20
43.3
 30
0.2
 40
2.0
  1
Ｒ
 50
0.0
 41
0.9
 51
0.0
  7
KANJI6
  0
TEXT
  8
0
  6
CONTINUOUS
 62
     5
 10
21.6
 20
43.3
 30
0.2
 40
2.0
  1
Ｓ
 50
0.0
 41
0.9
 51
0.0
  7
KANJI6
  0
TEXT
  8
0
  6
CONTINUOUS
 62
     5
 10
24.1
 20
43.3
 30
0.2
 40
2.0
  1
Ｔ
 50
0.0
 41
0.9
 51
0.0
  7
KANJI6
  0
TEXT
  8
0
  6
CONTINUOUS
 62
     5
 10
42.75
 20
39.0
 30
0.18
 40
1.5
  1
Ｍ
 50
0.0
 41
1.0
 51
0.0
  7
KANJI4
  0
LINE
  8
0
  6
CONTINUOUS
 62
     5
 10
20.0
 20
42.8
 30
0.0
 11
20.0
 21
24.8
 31
0.0
  0
LINE
  8
0
  6
CONTINUOUS
 62
     5
 10
22.5
 20
42.8
 30
0.0
 11
22.5
 21
24.8
 31
0.0
  0
LINE
  8
0
  6
CONTINUOUS
 62
     5
 10
25.0
 20
42.8
 30
0.0
 11
25.0
 21
24.8
 31
0.0
  0
LINE
  8
0
  6
CONTINUOUS
 62
     5
 10
20.0
 20
24.8
 30
0.0
 11
20.647047613
 21
27.214814566
 31
0.0
  0
LINE
  8
0
  6
CONTINUOUS
 62
     5
 10
20.0
 20
24.8
 30
0.0
 11
19.352952387
 21
27.214814566
 31
0.0
  0
LINE
  8
0
  6
CONTINUOUS
 62
     5
 10
22.5
 20
24.8
 30
0.0
 11
23.147047613
 21
27.214814566
 31
0.0
  0
LINE
  8
0
  6
CONTINUOUS
 62
     5
 10
22.5
 20
24.8
 30
0.0
 11
21.852952387
 21
27.214814566
 31
0.0
  0
LINE
  8
0
  6
CONTINUOUS
 62
     5
 10
25.0
 20
24.8
 30
0.0
 11
25.647047613
 21
27.214814566
 31
0.0
  0
LINE
  8
0
  6
CONTINUOUS
 62
     5
 10
25.0
 20
24.8
 30
0.0
 11
24.352952387
 21
27.214814566
 31
0.0
  0
TEXT
  8
0
  6
CONTINUOUS
 62
     5
 10
39.25
 20
33.9
 30
0.18
 40
1.8
  1
１
 50
0.0
 41
0.833333333
 51
0.0
  7
KANJI2
  0
ARC
  8
0
  6
CONTINUOUS
 62
     5
 10
20.0
 20
32.3
 30
0.0
 40
0.5
 50
90.0
 51
270.0
  0
ARC
  8
0
  6
CONTINUOUS
 62
     5
 10
20.0
 20
33.3
 30
0.0
 40
0.5
 50
90.0
 51
270.0
  0
LINE
  8
0
  6
CONTINUOUS
 62
     5
 10
39.8
 20
31.8
 30
0.0
 11
20.0
 21
31.8
 31
0.0
  0
CIRCLE
  8
0
  6
CONTINUOUS
 62
     5
 10
20.5
 20
32.3
 30
0.0
 40
0.15
  0
CIRCLE
  8
0
  6
CONTINUOUS
 62
     5
 10
20.0
 20
31.4
 30
0.0
 40
0.15
  0
LINE
  8
0
  6
CONTINUOUS
 62
     5
 10
20.0
 20
33.8
 30
0.0
 11
21.0
 21
33.8
 31
0.0
  0
LINE
  8
0
  6
CONTINUOUS
 62
     5
 10
21.0
 20
33.8
 30
0.0
 11
21.0
 21
34.8
 31
0.0
  0
LINE
  8
0
  6
CONTINUOUS
 62
     5
 10
38.8
 20
34.8
 30
0.0
 11
21.0
 21
34.8
 31
0.0
  0
ARC
  8
0
  6
CONTINUOUS
 62
     5
 10
25.0
 20
32.3
 30
0.0
 40
0.5
 50
90.0
 51
270.0
  0
ARC
  8
0
  6
CONTINUOUS
 62
     5
 10
25.0
 20
33.3
 30
0.0
 40
0.5
 50
90.0
 51
270.0
  0
CIRCLE
  8
0
  6
CONTINUOUS
 62
     5
 10
25.5
 20
32.3
 30
0.0
 40
0.15
  0
CIRCLE
  8
0
  6
CONTINUOUS
 62
     5
 10
25.0
 20
31.4
 30
0.0
 40
0.15
  0
LINE
  8
0
  6
CONTINUOUS
 62
     5
 10
25.0
 20
33.8
 30
0.0
 11
26.0
 21
33.8
 31
0.0
  0
LINE
  8
0
  6
CONTINUOUS
 62
     5
 10
26.0
 20
33.8
 30
0.0
 11
26.0
 21
37.8
 31
0.0
  0
LINE
  8
0
  6
CONTINUOUS
 62
     5
 10
39.8
 20
37.8
 30
0.0
 11
26.0
 21
37.8
 31
0.0
  0
LINE
  8
0
  6
LTYPE1
 62
     5
 10
44.7
 20
39.8
 30
0.0
 11
49.0
 21
39.8
 31
0.0
  0
LINE
  8
0
  6
LTYPE1
 62
     5
 10
42.2
 20
31.8
 30
0.0
 11
49.0
 21
31.8
 31
0.0
  0
CIRCLE
  8
0
  6
CONTINUOUS
 62
     5
 10
49.0
 20
35.8
 30
0.0
 40
2.0
  0
TEXT
  8
0
  6
CONTINUOUS
 62
     5
 10
47.65
 20
34.3
 30
0.3
 40
3.0
  1
Ａ
 50
0.0
 41
0.9
 51
0.0
  7
KANJI0
  0
LINE
  8
0
  6
LTYPE1
 62
     5
 10
49.0
 20
33.8
 30
0.0
 11
49.0
 21
31.8
 31
0.0
  0
LINE
  8
0
  6
LTYPE1
 62
     5
 10
49.0
 20
37.8
 30
0.0
 11
49.0
 21
39.8
 31
0.0
  0
LINE
  8
0
  6
CONTINUOUS
 62
     2
 10
138.0
 20
56.7
 30
0.0
 11
14.0
 21
56.7
 31
0.0
  0
LINE
  8
0
  6
CONTINUOUS
 62
     2
 10
14.0
 20
20.7
 30
0.0
 11
138.0
 21
20.7
 31
0.0
  0
LINE
  8
0
  6
CONTINUOUS
 62
     2
 10
14.0
 20
56.7
 30
0.0
 11
14.0
 21
20.7
 31
0.0
  0
TEXT
  8
0
  6
CONTINUOUS
 62
     5
 10
15.0
 20
31.8
 30
0.2
 40
2.0
  1
ＣＴ
 50
0.0
 41
0.9
 51
0.0
  7
KANJI6
  0
TEXT
  8
0
  6
CONTINUOUS
 62
     5
 10
56.55
 20
31.1
 30
4.1
 40
2.5
  1
Ｒ
 50
0.0
 41
0.72
 51
0.0
  7
KANJI12
  0
TEXT
  8
0
  6
CONTINUOUS
 62
     5
 10
56.55
 20
28.1
 30
4.1
 40
2.5
  1
Ｓ
 50
0.0
 41
0.72
 51
0.0
  7
KANJI12
  0
TEXT
  8
0
  6
CONTINUOUS
 62
     5
 10
56.55
 20
25.1
 30
4.1
 40
2.5
  1
Ｔ
 50
0.0
 41
0.72
 51
0.0
  7
KANJI12
  0
LINE
  8
0
  6
CONTINUOUS
 62
     2
 10
95.048402971
 20
152.1
 30
0.0
 11
93.798402971
 21
152.1
 31
0.0
  0
LINE
  8
0
  6
CONTINUOUS
 62
     2
 10
95.048402971
 20
152.1
 30
0.0
 11
95.298402971
 21
151.85
 31
0.0
  0
LINE
  8
0
  6
CONTINUOUS
 62
     2
 10
95.038402971
 20
151.035
 30
0.0
 11
95.298402971
 21
151.335
 31
0.0
  0
LINE
  8
0
  6
CONTINUOUS
 62
     2
 10
95.298402971
 20
148.75
 30
0.0
 11
94.998402971
 21
149.02
 31
0.0
  0
LINE
  8
0
  6
CONTINUOUS
 62
     2
 10
95.298402971
 20
149.325
 30
0.0
 11
94.998402971
 21
149.055
 31
0.0
  0
LINE
  8
0
  6
CONTINUOUS
 62
     2
 10
94.998402971
 20
148.025
 30
0.0
 11
95.298402971
 21
148.325
 31
0.0
  0
LINE
  8
0
  6
CONTINUOUS
 62
     2
 10
93.798402971
 20
148.05
 30
0.0
 11
95.048402971
 21
148.05
 31
0.0
  0
LINE
  8
0
  6
CONTINUOUS
 62
     2
 10
93.798402971
 20
152.1
 30
0.0
 11
93.798402971
 21
148.05
 31
0.0
  0
LINE
  8
0
  6
CONTINUOUS
 62
     2
 10
95.298402971
 20
148.305
 30
0.0
 11
95.298402971
 21
151.85
 31
0.0
  0
LINE
  8
0
  6
CONTINUOUS
 62
     2
 10
95.051402971
 20
151.05
 30
0.0
 11
95.301402971
 21
150.85
 31
0.0
  0
LINE
  8
0
  6
CONTINUOUS
 62
     2
 10
95.051402971
 20
151.05
 30
0.0
 11
93.798402971
 21
151.05
 31
0.0
  0
LINE
  8
0
  6
CONTINUOUS
 62
     2
 10
93.798402971
 20
149.05
 30
0.0
 11
95.015069637
 21
149.05
 31
0.0
  0
LINE
  8
0
  6
CONTINUOUS
 62
     2
 10
93.798402971
 20
152.1
 30
0.0
 11
93.398402971
 21
152.5
 31
0.0
  0
LINE
  8
0
  6
CONTINUOUS
 62
     2
 10
93.398402971
 20
152.5
 30
0.0
 11
93.398402971
 21
147.65
 31
0.0
  0
LINE
  8
0
  6
CONTINUOUS
 62
     2
 10
93.798402971
 20
148.05
 30
0.0
 11
93.398402971
 21
147.65
 31
0.0
  0
LINE
  8
0
  6
CONTINUOUS
 62
     2
 10
92.626149067
 20
150.95
 30
0.0
 11
93.398402971
 21
150.95
 31
0.0
  0
LINE
  8
0
  6
CONTINUOUS
 62
     2
 10
93.398402971
 20
150.675
 30
0.0
 11
92.626149067
 21
150.675
 31
0.0
  0
LINE
  8
0
  6
CONTINUOUS
 62
     2
 10
93.398402971
 20
148.95
 30
0.0
 11
92.626149067
 21
148.95
 31
0.0
  0
LINE
  8
0
  6
CONTINUOUS
 62
     2
 10
92.626149067
 20
149.175
 30
0.0
 11
93.398402971
 21
149.175
 31
0.0
  0
LINE
  8
0
  6
CONTINUOUS
 62
     2
 10
95.048402971
 20
112.1
 30
0.0
 11
93.798402971
 21
112.1
 31
0.0
  0
LINE
  8
0
  6
CONTINUOUS
 62
     2
 10
95.048402971
 20
112.1
 30
0.0
 11
95.298402971
 21
111.85
 31
0.0
  0
LINE
  8
0
  6
CONTINUOUS
 62
     2
 10
95.038402971
 20
111.035
 30
0.0
 11
95.298402971
 21
111.335
 31
0.0
  0
LINE
  8
0
  6
CONTINUOUS
 62
     2
 10
95.298402971
 20
108.75
 30
0.0
 11
94.998402971
 21
109.02
 31
0.0
  0
LINE
  8
0
  6
CONTINUOUS
 62
     2
 10
95.298402971
 20
109.325
 30
0.0
 11
94.998402971
 21
109.055
 31
0.0
  0
LINE
  8
0
  6
CONTINUOUS
 62
     2
 10
94.998402971
 20
108.025
 30
0.0
 11
95.298402971
 21
108.325
 31
0.0
  0
LINE
  8
0
  6
CONTINUOUS
 62
     2
 10
93.798402971
 20
108.05
 30
0.0
 11
95.048402971
 21
108.05
 31
0.0
  0
LINE
  8
0
  6
CONTINUOUS
 62
     2
 10
93.798402971
 20
112.1
 30
0.0
 11
93.798402971
 21
108.05
 31
0.0
  0
LINE
  8
0
  6
CONTINUOUS
 62
     2
 10
95.298402971
 20
108.305
 30
0.0
 11
95.298402971
 21
111.85
 31
0.0
  0
LINE
  8
0
  6
CONTINUOUS
 62
     2
 10
95.051402971
 20
111.05
 30
0.0
 11
95.301402971
 21
110.85
 31
0.0
  0
LINE
  8
0
  6
CONTINUOUS
 62
     2
 10
95.051402971
 20
111.05
 30
0.0
 11
93.798402971
 21
111.05
 31
0.0
  0
LINE
  8
0
  6
CONTINUOUS
 62
     2
 10
93.798402971
 20
109.05
 30
0.0
 11
95.015069637
 21
109.05
 31
0.0
  0
LINE
  8
0
  6
CONTINUOUS
 62
     2
 10
93.798402971
 20
112.1
 30
0.0
 11
93.398402971
 21
112.5
 31
0.0
  0
LINE
  8
0
  6
CONTINUOUS
 62
     2
 10
93.398402971
 20
112.5
 30
0.0
 11
93.398402971
 21
107.65
 31
0.0
  0
LINE
  8
0
  6
CONTINUOUS
 62
     2
 10
93.798402971
 20
108.05
 30
0.0
 11
93.398402971
 21
107.65
 31
0.0
  0
LINE
  8
0
  6
CONTINUOUS
 62
     2
 10
93.398402971
 20
111.05
 30
0.0
 11
92.626149067
 21
111.05
 31
0.0
  0
LINE
  8
0
  6
CONTINUOUS
 62
     2
 10
92.626149067
 20
110.825
 30
0.0
 11
93.398402971
 21
110.825
 31
0.0
  0
LINE
  8
0
  6
CONTINUOUS
 62
     2
 10
92.626149067
 20
109.05
 30
0.0
 11
93.398402971
 21
109.05
 31
0.0
  0
LINE
  8
0
  6
CONTINUOUS
 62
     2
 10
93.398402971
 20
109.325
 30
0.0
 11
92.626149067
 21
109.325
 31
0.0
  0
LINE
  8
0
  6
CONTINUOUS
 62
     1
 10
193.760239142
 20
107.214642893
 30
0.0
 11
195.550024977
 21
107.214642893
 31
0.0
  0
TEXT
  8
0
  6
CONTINUOUS
 62
     3
 10
112.0
 20
9.0
 30
0.6
 40
6.0
  1
ＭＳ－９６８１Ｂ
 50
0.0
 41
0.9
 51
0.0
  7
KANJI13
  0
TEXT
  8
0
  6
CONTINUOUS
 62
     1
 10
42.0
 20
8.0
 30
0.8
 40
8.0
  1
ＡＣｆ－８５Ｐ
 50
0.0
 41
0.9
 51
0.0
  7
KANJI14
  0
ENDSEC
  0
EOF
